  0
SECTION
  2
HEADER
  9
$ACADVER
  1
AC1009
  9
$INSBASE
 10
0.0
 20
0.0
 30
0.0
  9
$EXTMIN
 10
66.322038020299999
 20
45.058201753999988
 30
0.0
  9
$EXTMAX
 10
157.269868597
 20
123.75461446600001
 30
0.0
  9
$LIMMIN
 10
0.0
 20
0.0
  9
$LIMMAX
 10
12.0
 20
9.0
  9
$ORTHOMODE
 70
     0
  9
$REGENMODE
 70
     1
  9
$FILLMODE
 70
     1
  9
$QTEXTMODE
 70
     0
  9
$MIRRTEXT
 70
     1
  9
$DRAGMODE
 70
     2
  9
$LTSCALE
 40
1.0
  9
$OSMODE
 70
  3071
  9
$ATTMODE
 70
     1
  9
$TEXTSIZE
 40
0.2
  9
$TRACEWID
 40
0.05
  9
$TEXTSTYLE
  7
STANDARD
  9
$CLAYER
  8
0
  9
$CELTYPE
  6
CONTINUOUS
  9
$CECOLOR
 62
   256
  9
$DIMSCALE
 40
1.0
  9
$DIMASZ
 40
0.18
  9
$DIMEXO
 40
0.0625
  9
$DIMDLI
 40
0.38
  9
$DIMRND
 40
0.0
  9
$DIMDLE
 40
0.0
  9
$DIMEXE
 40
0.18
  9
$DIMTP
 40
0.0
  9
$DIMTM
 40
0.0
  9
$DIMTXT
 40
0.18
  9
$DIMCEN
 40
0.09
  9
$DIMTSZ
 40
0.0
  9
$DIMTOL
 70
     0
  9
$DIMLIM
 70
     0
  9
$DIMTIH
 70
     1
  9
$DIMTOH
 70
     1
  9
$DIMSE1
 70
     0
  9
$DIMSE2
 70
     0
  9
$DIMTAD
 70
     0
  9
$DIMZIN
 70
     0
  9
$DIMBLK
  1

  9
$DIMASO
 70
     1
  9
$DIMSHO
 70
     1
  9
$DIMPOST
  1

  9
$DIMAPOST
  1

  9
$DIMALT
 70
     0
  9
$DIMALTD
 70
     2
  9
$DIMALTF
 40
25.399999999999999
  9
$DIMLFAC
 40
1.0
  9
$DIMTOFL
 70
     0
  9
$DIMTVP
 40
0.0
  9
$DIMTIX
 70
     0
  9
$DIMSOXD
 70
     0
  9
$DIMSAH
 70
     0
  9
$DIMBLK1
  1

  9
$DIMBLK2
  1

  9
$DIMSTYLE
  2
STANDARD
  9
$DIMCLRD
 70
     0
  9
$DIMCLRE
 70
     0
  9
$DIMCLRT
 70
     0
  9
$DIMTFAC
 40
1.0
  9
$DIMGAP
 40
0.09
  9
$LUNITS
 70
     2
  9
$LUPREC
 70
     4
  9
$SKETCHINC
 40
0.1
  9
$FILLETRAD
 40
0.0
  9
$AUNITS
 70
     0
  9
$AUPREC
 70
     0
  9
$MENU
  1
.
  9
$ELEVATION
 40
0.0
  9
$PELEVATION
 40
0.0
  9
$THICKNESS
 40
0.0
  9
$LIMCHECK
 70
     0
  9
$BLIPMODE
 70
     0
  9
$CHAMFERA
 40
0.0
  9
$CHAMFERB
 40
0.0
  9
$SKPOLY
 70
     0
  9
$TDCREATE
 40
2453502.5224369909
  9
$TDUPDATE
 40
2454963.7410884611
  9
$TDINDWG
 40
0.0043070949
  9
$TDUSRTIMER
 40
0.0043006481
  9
$USRTIMER
 70
     1
  9
$ANGBASE
 50
0.0
  9
$ANGDIR
 70
     0
  9
$PDMODE
 70
     0
  9
$PDSIZE
 40
0.0
  9
$PLINEWID
 40
0.0
  9
$COORDS
 70
     1
  9
$SPLFRAME
 70
     0
  9
$SPLINETYPE
 70
     6
  9
$SPLINESEGS
 70
     8
  9
$ATTDIA
 70
     0
  9
$ATTREQ
 70
     1
  9
$HANDLING
 70
     1
  9
$HANDSEED
  5
4F0
  9
$SURFTAB1
 70
     6
  9
$SURFTAB2
 70
     6
  9
$SURFTYPE
 70
     6
  9
$SURFU
 70
     6
  9
$SURFV
 70
     6
  9
$UCSNAME
  2

  9
$UCSORG
 10
0.0
 20
0.0
 30
0.0
  9
$UCSXDIR
 10
1.0
 20
0.0
 30
0.0
  9
$UCSYDIR
 10
0.0
 20
1.0
 30
0.0
  9
$PUCSNAME
  2

  9
$PUCSORG
 10
0.0
 20
0.0
 30
0.0
  9
$PUCSXDIR
 10
1.0
 20
0.0
 30
0.0
  9
$PUCSYDIR
 10
0.0
 20
1.0
 30
0.0
  9
$USERI1
 70
     0
  9
$USERI2
 70
     0
  9
$USERI3
 70
     0
  9
$USERI4
 70
     0
  9
$USERI5
 70
     0
  9
$USERR1
 40
0.0
  9
$USERR2
 40
0.0
  9
$USERR3
 40
0.0
  9
$USERR4
 40
0.0
  9
$USERR5
 40
0.0
  9
$WORLDVIEW
 70
     1
  9
$SHADEDGE
 70
     3
  9
$SHADEDIF
 70
    70
  9
$TILEMODE
 70
     1
  9
$MAXACTVP
 70
    64
  9
$PLIMCHECK
 70
     0
  9
$PEXTMIN
 10
1.0000000000000000E+020
 20
1.0000000000000000E+020
 30
1.0000000000000000E+020
  9
$PEXTMAX
 10
-1.0000000000000000E+020
 20
-1.0000000000000000E+020
 30
-1.0000000000000000E+020
  9
$PLIMMIN
 10
0.0
 20
0.0
  9
$PLIMMAX
 10
12.0
 20
9.0
  9
$UNITMODE
 70
     0
  9
$VISRETAIN
 70
     1
  9
$PLINEGEN
 70
     0
  9
$PSLTSCALE
 70
     1
  0
ENDSEC
  0
SECTION
  2
TABLES
  0
TABLE
  2
VPORT
 70
     1
  0
VPORT
  2
*ACTIVE
 70
     0
 10
0.0
 20
0.0
 11
1.0
 21
1.0
 12
118.40732495996529
 22
87.192230913515203
 13
0.0
 23
0.0
 14
1.0
 24
1.0
 15
0.0
 25
0.0
 16
0.0
 26
0.0
 36
1.0
 17
0.0
 27
0.0
 37
0.0
 40
85.292456418323297
 41
1.790606653620352
 42
50.0
 43
0.0
 44
0.0
 50
0.0
 51
0.0
 71
     0
 72
   100
 73
     1
 74
     1
 75
     0
 76
     0
 77
     0
 78
     0
  0
ENDTAB
  0
TABLE
  2
LTYPE
 70
     1
  0
LTYPE
  2
CONTINUOUS
 70
     0
  3
Solid line
 72
    65
 73
     0
 40
0.0
  0
ENDTAB
  0
TABLE
  2
LAYER
 70
     3
  0
LAYER
  2
0
 70
     0
 62
     7
  6
CONTINUOUS
  0
LAYER
  2
INKON
 70
     0
 62
    79
  6
CONTINUOUS
  0
LAYER
  2
HILFE
 70
     0
 62
   250
  6
CONTINUOUS
  0
ENDTAB
  0
TABLE
  2
STYLE
 70
     1
  0
STYLE
  2
STANDARD
 70
     0
 40
0.0
 41
1.0
 50
0.0
 71
     0
 42
0.2
  3
txt
  4

  0
ENDTAB
  0
TABLE
  2
VIEW
 70
     0
  0
ENDTAB
  0
TABLE
  2
UCS
 70
     0
  0
ENDTAB
  0
TABLE
  2
APPID
 70
     1
  0
APPID
  2
ACAD
 70
     0
  0
ENDTAB
  0
TABLE
  2
DIMSTYLE
 70
     1
  0
DIMSTYLE
  2
STANDARD
 70
     0
  3

  4

  5

  6

  7

 40
1.0
 41
0.18
 42
0.0625
 43
0.38
 44
0.18
 45
0.0
 46
0.0
 47
0.0
 48
0.0
140
0.18
141
0.09
142
0.0
143
25.399999999999999
144
1.0
145
0.0
146
1.0
147
0.09
 71
     0
 72
     0
 73
     1
 74
     1
 75
     0
 76
     0
 77
     0
 78
     0
170
     0
171
     2
172
     0
173
     0
174
     0
175
     0
176
     0
177
     0
178
     0
  0
ENDTAB
  0
ENDSEC
  0
SECTION
  2
BLOCKS
  0
BLOCK
  8
0
  2
$MODEL_SPACE
 70
     0
 10
0.0
 20
0.0
 30
0.0
  3
$MODEL_SPACE
  1

  0
ENDBLK
  5
4CE
  8
0
  0
BLOCK
 67
     1
  8
0
  2
$PAPER_SPACE
 70
     0
 10
0.0
 20
0.0
 30
0.0
  3
$PAPER_SPACE
  1

  0
ENDBLK
  5
4CA
 67
     1
  8
0
  0
ENDSEC
  0
SECTION
  2
ENTITIES
  0
POINT
  5
26
  8
HILFE
 62
     7
 10
136.39379280599991
 20
76.969614466199999
 30
0.0
  0
POINT
  5
27
  8
HILFE
 62
     7
 10
128.12031134599991
 20
76.969614466300001
 30
0.0
  0
POINT
  5
28
  8
HILFE
 62
     7
 10
111.569869596
 20
94.698263903799983
 30
0.0
  0
POINT
  5
29
  8
HILFE
 62
     7
 10
111.569869596
 20
94.887288075300006
 30
0.0
  0
POINT
  5
2A
  8
HILFE
 62
     7
 10
146.405062515
 20
49.721550468500013
 30
0.0
  0
POINT
  5
2B
  8
HILFE
 62
     7
 10
124.9664635779999
 20
105.334986704
 30
0.0
  0
POINT
  5
2C
  8
HILFE
 62
     7
 10
67.517885681099997
 20
105.30837447799991
 30
0.0
  0
POINT
  5
2D
  8
HILFE
 62
     7
 10
130.50659923500001
 20
66.269614466000007
 30
0.0
  0
POINT
  5
2E
  8
HILFE
 62
     7
 10
134.01028325699991
 20
66.269614466000007
 30
0.0
  0
POINT
  5
2F
  8
HILFE
 62
     7
 10
150.28445916199999
 20
71.585588549500002
 30
0.0
  0
POINT
  5
30
  8
HILFE
 62
     7
 10
147.87676047699981
 20
84.5256793243
 30
0.0
  0
POINT
  5
31
  8
HILFE
 62
     7
 10
147.31515643700001
 20
83.5256793243
 30
0.0
  0
POINT
  5
32
  8
HILFE
 62
     7
 10
147.17134117200001
 20
48.721550468499998
 30
0.0
  0
POINT
  5
33
  8
HILFE
 62
     7
 10
151.54532244699999
 20
48.721550468499998
 30
0.0
  0
POINT
  5
34
  8
HILFE
 62
     7
 10
151.75451742000001
 20
49.721550468500013
 30
0.0
  0
POINT
  5
35
  8
HILFE
 62
     7
 10
152.2780033249999
 20
53.721550468499998
 30
0.0
  0
POINT
  5
36
  8
HILFE
 62
     7
 10
152.288065601
 20
53.721550468499998
 30
0.0
  0
POINT
  5
37
  8
HILFE
 62
     7
 10
152.14444844999991
 20
52.721550468499998
 30
0.0
  0
POINT
  5
38
  8
HILFE
 62
     7
 10
152.01573299099991
 20
51.721550468500013
 30
0.0
  0
POINT
  5
39
  8
HILFE
 62
     7
 10
151.88504338000001
 20
50.721550468499998
 30
0.0
  0
POINT
  5
3A
  8
HILFE
 62
     7
 10
151.36856274600001
 20
56.721550468500013
 30
0.0
  0
POINT
  5
3B
  8
HILFE
 62
     7
 10
152.50521416899991
 20
55.721550468499998
 30
0.0
  0
POINT
  5
3C
  8
HILFE
 62
     7
 10
152.40889832100001
 20
54.721550468500013
 30
0.0
  0
POINT
  5
3D
  8
HILFE
 62
     7
 10
147.2297407449999
 20
67.721550468499998
 30
0.0
  0
POINT
  5
3E
  8
HILFE
 62
     7
 10
151.52057646200001
 20
67.721550468499998
 30
0.0
  0
POINT
  5
3F
  8
HILFE
 62
     7
 10
151.72871387799981
 20
66.721550468499998
 30
0.0
  0
POINT
  5
40
  8
HILFE
 62
     7
 10
151.39589530099991
 20
59.721550468500013
 30
0.0
  0
POINT
  5
41
  8
HILFE
 62
     7
 10
151.86106787099999
 20
65.72155046849997
 30
0.0
  0
POINT
  5
42
  8
HILFE
 62
     7
 10
151.89305460099999
 20
65.72155046849997
 30
0.0
  0
POINT
  5
43
  8
HILFE
 62
     7
 10
151.875308601
 20
65.72155046849997
 30
0.0
  0
POINT
  5
44
  8
HILFE
 62
     7
 10
151.86106787099999
 20
65.72155046849997
 30
0.0
  0
POINT
  5
45
  8
HILFE
 62
     7
 10
151.86106787099999
 20
65.72155046849997
 30
0.0
  0
POINT
  5
46
  8
HILFE
 62
     7
 10
152.00743053100001
 20
64.721550468499998
 30
0.0
  0
POINT
  5
47
  8
HILFE
 62
     7
 10
149.07806621
 20
66.690236826999993
 30
0.0
  0
POINT
  5
48
  8
HILFE
 62
     7
 10
149.07806621
 20
58.766277938400002
 30
0.0
  0
POINT
  5
49
  8
HILFE
 62
     7
 10
152.495025508
 20
60.721550468499998
 30
0.0
  0
POINT
  5
4A
  8
HILFE
 62
     7
 10
152.40005847899999
 20
61.721550468500013
 30
0.0
  0
LINE
  5
4B
  8
INKON
 62
     7
 10
124.151464152
 20
76.43022175359998
 30
0.0
 11
124.84780515200001
 21
80.369145753799998
 31
0.0
  0
LINE
  5
4C
  8
INKON
 62
     7
 10
124.06442115199999
 20
75.836305753800005
 30
0.0
 11
124.06442115199999
 21
74.166856753600001
 31
0.0
  0
LINE
  5
4D
  8
INKON
 62
     7
 10
124.06442115199999
 20
73.466856753900004
 30
0.0
 11
124.06442115199999
 21
71.797406753999994
 31
0.0
  0
LINE
  5
4E
  8
INKON
 62
     7
 10
127.569869596
 20
83.909614466500017
 30
0.0
 11
127.569869596
 21
76.969614466300001
 31
0.0
  0
LINE
  5
4F
  8
INKON
 62
     7
 10
130.06986959599999
 20
66.269614466000007
 30
0.0
 11
127.569869596
 21
76.969614466300001
 31
0.0
  0
LINE
  5
50
  8
INKON
 62
     7
 10
136.96986959599991
 20
83.909614466500017
 30
0.0
 11
136.96986959599991
 21
76.969614466199999
 31
0.0
  0
LINE
  5
51
  8
INKON
 62
     7
 10
134.469869596
 20
66.269614466000007
 30
0.0
 11
136.96986959599991
 21
76.969614466199999
 31
0.0
  0
LINE
  5
52
  8
INKON
 62
     7
 10
128.12031134599991
 20
76.969614466300001
 30
0.0
 11
136.39379280599991
 21
76.969614466199999
 31
0.0
  0
LINE
  5
53
  8
INKON
 62
     7
 10
123.569869596
 20
94.969614466499991
 30
0.0
 11
123.569869596
 21
92.969614466500005
 31
0.0
  0
LINE
  5
54
  8
INKON
 62
     7
 10
122.569869596
 20
94.969614466499991
 30
0.0
 11
122.569869596
 21
92.969614466500005
 31
0.0
  0
LINE
  5
55
  8
INKON
 62
     7
 10
124.569869596
 20
94.96961446639996
 30
0.0
 11
124.569869596
 21
92.969614466500005
 31
0.0
  0
LINE
  5
56
  8
INKON
 62
     7
 10
127.269869597
 20
94.969614466499991
 30
0.0
 11
127.569869596
 21
94.969614466499991
 31
0.0
  0
LINE
  5
57
  8
INKON
 62
     7
 10
128.969869596
 20
94.96961446639996
 30
0.0
 11
135.56986959599999
 21
94.969614466499991
 31
0.0
  0
LINE
  5
58
  8
INKON
 62
     7
 10
136.96986959599991
 20
94.96961446639996
 30
0.0
 11
137.269869597
 21
94.969614466499991
 31
0.0
  0
LINE
  5
59
  8
INKON
 62
     7
 10
121.569869596
 20
94.96961446639996
 30
0.0
 11
121.569869596
 21
92.969614466500005
 31
0.0
  0
LINE
  5
5A
  8
INKON
 62
     7
 10
111.116437597
 20
94.969614466499991
 30
0.0
 11
127.269869597
 21
94.969614466499991
 31
0.0
  0
LINE
  5
5B
  8
INKON
 62
     7
 10
120.569869596
 20
94.969614466499991
 30
0.0
 11
120.569869596
 21
92.969614466500005
 31
0.0
  0
LINE
  5
5C
  8
INKON
 62
     7
 10
119.569869596
 20
94.969614466499991
 30
0.0
 11
119.569869596
 21
92.969614466399989
 31
0.0
  0
LINE
  5
5D
  8
INKON
 62
     7
 10
118.569869596
 20
94.969614466499991
 30
0.0
 11
118.569869596
 21
92.969614466500005
 31
0.0
  0
LINE
  5
5E
  8
INKON
 62
     7
 10
117.5698695959999
 20
94.969614466499991
 30
0.0
 11
117.5698695959999
 21
92.969614466399989
 31
0.0
  0
LINE
  5
5F
  8
INKON
 62
     7
 10
116.5698695959999
 20
94.969614466499991
 30
0.0
 11
116.5698695959999
 21
92.969614466399989
 31
0.0
  0
LINE
  5
60
  8
INKON
 62
     7
 10
115.5698695959999
 20
94.969614466499991
 30
0.0
 11
115.5698695959999
 21
92.969614466500005
 31
0.0
  0
LINE
  5
61
  8
INKON
 62
     7
 10
114.5698695959999
 20
94.96961446639996
 30
0.0
 11
114.5698695959999
 21
92.969614466399989
 31
0.0
  0
LINE
  5
62
  8
INKON
 62
     7
 10
113.569869596
 20
94.969614466499991
 30
0.0
 11
113.569869596
 21
92.969614466500005
 31
0.0
  0
LINE
  5
63
  8
INKON
 62
     7
 10
112.569869596
 20
94.96961446639996
 30
0.0
 11
112.569869596
 21
92.969614466599992
 31
0.0
  0
LINE
  5
64
  8
INKON
 62
     7
 10
111.569869596
 20
94.698263903799983
 30
0.0
 11
111.569869596
 21
92.969614466500005
 31
0.0
  0
LINE
  5
65
  8
INKON
 62
     7
 10
111.569869596
 20
94.887288075300006
 30
0.0
 11
111.569869596
 21
94.698263903799983
 31
0.0
  0
LINE
  5
66
  8
INKON
 62
     7
 10
111.569869596
 20
92.969614466500005
 30
0.0
 11
124.569869596
 21
92.969614466500005
 31
0.0
  0
LINE
  5
67
  8
INKON
 62
     7
 10
110.362063596
 20
87.351175466499981
 30
0.0
 11
127.569869596
 21
83.909614466500017
 31
0.0
  0
LINE
  5
68
  8
INKON
 62
     7
 10
118.27146415199999
 20
77.469721753599984
 30
0.0
 11
124.151464152
 21
76.43022175359998
 31
0.0
  0
LINE
  5
69
  8
INKON
 62
     7
 10
118.167012152
 20
76.878877753799998
 30
0.0
 11
124.06442115199999
 21
75.836305753800005
 31
0.0
  0
LINE
  5
6A
  8
INKON
 62
     7
 10
118.184421152
 20
74.166856753600001
 30
0.0
 11
124.06442115199999
 21
74.166856753600001
 31
0.0
  0
LINE
  5
6B
  8
INKON
 62
     7
 10
118.184421152
 20
73.466856753900004
 30
0.0
 11
124.06442115199999
 21
73.466856753900004
 31
0.0
  0
LINE
  5
6C
  8
INKON
 62
     7
 10
118.167012152
 20
70.754829753599992
 30
0.0
 11
124.06442115199999
 21
71.797406753999994
 31
0.0
  0
LINE
  5
6D
  8
INKON
 62
     7
 10
118.27146415199999
 20
70.163990753700006
 30
0.0
 11
124.151464152
 21
71.203490753599993
 31
0.0
  0
LINE
  5
6E
  8
INKON
 62
     7
 10
97.064421151600015
 20
73.816856753999986
 30
0.0
 11
117.184421152
 21
73.816856753999986
 31
0.0
  0
LINE
  5
6F
  8
INKON
 62
     7
 10
118.167012152
 20
76.878877753799998
 30
0.0
 11
118.27146415199999
 21
77.469721753599984
 31
0.0
  0
LINE
  5
70
  8
INKON
 62
     7
 10
118.184421152
 20
74.166856753600001
 30
0.0
 11
118.184421152
 21
73.466856753900004
 31
0.0
  0
LINE
  5
71
  8
INKON
 62
     7
 10
118.167012152
 20
70.754829753599992
 30
0.0
 11
118.27146415199999
 21
70.163990753700006
 31
0.0
  0
LINE
  5
72
  8
INKON
 62
     7
 10
97.049151151800004
 20
80.713769753899982
 30
0.0
 11
117.199691152
 21
77.15144275359998
 31
0.0
  0
LINE
  5
73
  8
INKON
 62
     7
 10
97.631195151599997
 20
89.750425753600013
 30
0.0
 11
124.84780515200001
 21
80.369145753799998
 31
0.0
  0
LINE
  5
74
  8
INKON
 62
     7
 10
115.642580001
 20
77.764477892000002
 30
0.0
 11
115.8699442439999
 21
79.026254073600001
 31
0.0
  0
LINE
  5
75
  8
INKON
 62
     7
 10
115.642580001
 20
77.764477892000002
 30
0.0
 11
114.80139588
 21
77.916054054
 31
0.0
  0
LINE
  5
76
  8
INKON
 62
     7
 10
115.691917719
 20
78.406960445099998
 30
0.0
 11
114.915078001
 21
78.546942144699983
 31
0.0
  0
LINE
  5
77
  8
INKON
 62
     7
 10
114.86200153599999
 20
79.207879098700005
 30
0.0
 11
114.238657909
 21
78.066940858699979
 31
0.0
  0
LINE
  5
78
  8
INKON
 62
     7
 10
114.501949118
 20
78.621385407700004
 30
0.0
 11
114.1513452329999
 21
78.684562053500002
 31
0.0
  0
LINE
  5
79
  8
INKON
 62
     7
 10
114.207476877
 20
78.067358564499983
 30
0.0
 11
114.020817415
 21
79.359455260700003
 31
0.0
  0
LINE
  5
7A
  8
INKON
 62
     7
 10
112.995806495
 20
78.241410063800004
 30
0.0
 11
112.785510465
 21
78.279304104299982
 31
0.0
  0
LINE
  5
7B
  8
INKON
 62
     7
 10
113.22317073799989
 20
79.5031862453
 30
0.0
 11
113.01287470699999
 21
79.541080285900009
 31
0.0
  0
LINE
  5
7C
  8
INKON
 62
     7
 10
108.9640356649999
 20
78.967910164499983
 30
0.0
 11
108.7537396339999
 21
79.005804204900002
 31
0.0
  0
LINE
  5
7D
  8
INKON
 62
     7
 10
109.19139990699991
 20
80.229686346000008
 30
0.0
 11
108.981103877
 21
80.267580386600002
 31
0.0
  0
LINE
  5
7E
  8
INKON
 62
     7
 10
105.94020754099979
 20
79.512785239899998
 30
0.0
 11
105.7299115109999
 21
79.550679280300002
 31
0.0
  0
LINE
  5
7F
  8
INKON
 62
     7
 10
106.16757178500001
 20
80.774561421399994
 30
0.0
 11
105.957275755
 21
80.812455461900001
 31
0.0
  0
LINE
  5
80
  8
INKON
 62
     7
 10
112.6187518779999
 20
78.309352967400002
 30
0.0
 11
112.84611612099999
 21
79.571129149100003
 31
0.0
  0
LINE
  5
81
  8
INKON
 62
     7
 10
111.777567757
 20
78.4609291294
 30
0.0
 11
112.004932001
 21
79.722705310999999
 31
0.0
  0
LINE
  5
82
  8
INKON
 62
     7
 10
112.6955365609999
 20
78.9468897478
 30
0.0
 11
111.927998327
 21
79.085195377799991
 31
0.0
  0
LINE
  5
83
  8
INKON
 62
     7
 10
111.6108091699999
 20
78.49097799259998
 30
0.0
 11
111.83817341299989
 21
79.752754174300009
 31
0.0
  0
LINE
  5
84
  8
INKON
 62
     7
 10
110.769625049
 20
78.642554154600006
 30
0.0
 11
110.9969892929999
 21
79.904330336200005
 31
0.0
  0
LINE
  5
85
  8
INKON
 62
     7
 10
111.687593854
 20
79.128514773100008
 30
0.0
 11
110.920055619
 21
79.266820402899981
 31
0.0
  0
LINE
  5
86
  8
INKON
 62
     7
 10
108.5869810479999
 20
79.035853068000009
 30
0.0
 11
108.814345291
 21
80.297629249699995
 31
0.0
  0
LINE
  5
87
  8
INKON
 62
     7
 10
107.7457969269999
 20
79.18742923009998
 30
0.0
 11
107.97316116899989
 21
80.449205411700007
 31
0.0
  0
LINE
  5
88
  8
INKON
 62
     7
 10
108.66376572999999
 20
79.673389848500008
 30
0.0
 11
107.896227497
 21
79.811695478399983
 31
0.0
  0
LINE
  5
89
  8
INKON
 62
     7
 10
105.56315292399999
 20
79.580728143599998
 30
0.0
 11
105.79051716799979
 21
80.842504325100009
 31
0.0
  0
LINE
  5
8A
  8
INKON
 62
     7
 10
104.7219688039999
 20
79.732304305500008
 30
0.0
 11
104.949333047
 21
80.994080487100007
 31
0.0
  0
LINE
  5
8B
  8
INKON
 62
     7
 10
105.6399376079999
 20
80.218264923999982
 30
0.0
 11
104.87239937299989
 21
80.356570553899999
 31
0.0
  0
LINE
  5
8C
  8
INKON
 62
     7
 10
110.68018577399999
 20
79.101692763499983
 30
0.0
 11
110.75597385499999
 21
79.522284823999982
 31
0.0
  0
LINE
  5
8D
  8
INKON
 62
     7
 10
109.9147897339999
 20
79.673860986099982
 30
0.0
 11
109.839001653
 21
79.253268925499981
 31
0.0
  0
LINE
  5
8E
  8
INKON
 62
     7
 10
107.263594294
 20
79.274319153999983
 30
0.0
 11
107.05329826399991
 21
79.312213194500004
 31
0.0
  0
LINE
  5
8F
  8
INKON
 62
     7
 10
107.377276416
 20
79.905207244799982
 30
0.0
 11
107.16698038600001
 21
79.943101285200001
 31
0.0
  0
LINE
  5
90
  8
INKON
 62
     7
 10
107.4909585379999
 20
80.536095335499979
 30
0.0
 11
107.280662507
 21
80.573989376100016
 31
0.0
  0
LINE
  5
91
  8
INKON
 62
     7
 10
104.555210217
 20
79.762353168700002
 30
0.0
 11
104.70678637899989
 21
80.6035372897
 31
0.0
  0
LINE
  5
92
  8
INKON
 62
     7
 10
103.774631752
 20
81.205754375400019
 30
0.0
 11
102.93344763100001
 21
81.357330537500005
 31
0.0
  0
LINE
  5
93
  8
INKON
 62
     7
 10
113.45722699300001
 20
79.857136070400003
 30
0.0
 11
113.47429520599999
 21
81.156806292399992
 31
0.0
  0
LINE
  5
94
  8
INKON
 62
     7
 10
113.47429520599999
 20
81.156806292399992
 30
0.0
 11
113.0366349329999
 21
79.932924151299986
 31
0.0
  0
LINE
  5
95
  8
INKON
 62
     7
 10
113.0366349329999
 20
79.932924151299986
 30
0.0
 11
113.053703145
 21
81.232594373500007
 31
0.0
  0
LINE
  5
96
  8
INKON
 62
     7
 10
113.053703145
 20
81.232594373500007
 30
0.0
 11
112.61604287199999
 21
80.008712232400001
 31
0.0
  0
LINE
  5
97
  8
INKON
 62
     7
 10
112.322702315
 20
80.069218058600015
 30
0.0
 11
112.55006655699999
 21
81.330994240199999
 31
0.0
  0
LINE
  5
98
  8
INKON
 62
     7
 10
112.22552255399999
 20
81.400621531099986
 30
0.0
 11
111.3843384329999
 21
81.5521976932
 31
0.0
  0
LINE
  5
99
  8
INKON
 62
     7
 10
111.9981583109999
 20
80.138845349600004
 30
0.0
 11
112.22552255399999
 21
81.400621531099986
 31
0.0
  0
LINE
  5
9A
  8
INKON
 62
     7
 10
109.20169443100001
 20
81.945496606599988
 30
0.0
 11
108.36051031
 21
82.097072768599986
 31
0.0
  0
LINE
  5
9B
  8
INKON
 62
     7
 10
108.974330189
 20
80.683720425100006
 30
0.0
 11
109.20169443100001
 21
81.945496606599988
 31
0.0
  0
LINE
  5
9C
  8
INKON
 62
     7
 10
110.9902156029999
 20
80.320470374699994
 30
0.0
 11
111.217579847
 21
81.582246556300007
 31
0.0
  0
LINE
  5
9D
  8
INKON
 62
     7
 10
110.1490314829999
 20
80.472046536700006
 30
0.0
 11
110.3763957259999
 21
81.733822718300004
 31
0.0
  0
LINE
  5
9E
  8
INKON
 62
     7
 10
111.067000287
 20
80.958007155100006
 30
0.0
 11
110.299462052
 21
81.096312784999981
 31
0.0
  0
LINE
  5
9F
  8
INKON
 62
     7
 10
105.95050206499999
 20
81.228595500500006
 30
0.0
 11
106.1778663089999
 21
82.490371682100005
 31
0.0
  0
LINE
  5
A0
  8
INKON
 62
     7
 10
105.109317945
 20
81.380171662500004
 30
0.0
 11
105.33668218699999
 21
82.641947844099988
 31
0.0
  0
LINE
  5
A1
  8
INKON
 62
     7
 10
106.0272867489999
 20
81.866132280800002
 30
0.0
 11
105.2597485139999
 21
82.004437910899981
 31
0.0
  0
LINE
  5
A2
  8
INKON
 62
     7
 10
109.9822728959999
 20
80.502095399799998
 30
0.0
 11
110.20963713899999
 21
81.763871581499984
 31
0.0
  0
LINE
  5
A3
  8
INKON
 62
     7
 10
110.02393451
 20
81.145961139400015
 30
0.0
 11
109.254770896
 21
81.284559652700011
 31
0.0
  0
LINE
  5
A4
  8
INKON
 62
     7
 10
109.9822728959999
 20
80.502095399799998
 30
0.0
 11
109.1410887749999
 21
80.653671561899969
 31
0.0
  0
LINE
  5
A5
  8
INKON
 62
     7
 10
110.20963713899999
 20
81.763871581499984
 30
0.0
 11
109.368453018
 21
81.91544774339998
 31
0.0
  0
LINE
  5
A6
  8
INKON
 62
     7
 10
107.966387481
 20
80.865345450100008
 30
0.0
 11
108.19375172299991
 21
82.127121631700007
 31
0.0
  0
LINE
  5
A7
  8
INKON
 62
     7
 10
107.966387481
 20
80.865345450100008
 30
0.0
 11
107.659477542
 21
81.572021621999994
 31
0.0
  0
LINE
  5
A8
  8
INKON
 62
     7
 10
107.659477542
 20
81.572021621999994
 30
0.0
 11
107.1252033589999
 21
81.016921612199994
 31
0.0
  0
LINE
  5
A9
  8
INKON
 62
     7
 10
107.1252033589999
 20
81.016921612199994
 30
0.0
 11
107.352567603
 21
82.278697793800006
 31
0.0
  0
LINE
  5
AA
  8
INKON
 62
     7
 10
106.6430007279999
 20
81.103811536199998
 30
0.0
 11
106.4327046979999
 21
81.141705576600003
 31
0.0
  0
LINE
  5
AB
  8
INKON
 62
     7
 10
106.7566828489999
 20
81.734699626899967
 30
0.0
 11
106.54638681899991
 21
81.772593667300001
 31
0.0
  0
LINE
  5
AC
  8
INKON
 62
     7
 10
106.8703649709999
 20
82.365587717599979
 30
0.0
 11
106.6600689399999
 21
82.403481758200016
 31
0.0
  0
LINE
  5
AD
  8
INKON
 62
     7
 10
105.16992360099999
 20
82.671996707200009
 30
0.0
 11
104.546579974
 21
81.531058467299985
 31
0.0
  0
LINE
  5
AE
  8
INKON
 62
     7
 10
104.80987118199999
 20
82.085503016099992
 30
0.0
 11
104.459267297
 21
82.148679661999992
 31
0.0
  0
LINE
  5
AF
  8
INKON
 62
     7
 10
104.5153989409999
 20
81.531476173100017
 30
0.0
 11
104.3287394799999
 21
82.823572869299994
 31
0.0
  0
LINE
  5
B0
  8
INKON
 62
     7
 10
103.934616651
 20
81.591845550800016
 30
0.0
 11
103.741388832
 21
82.929409813400014
 31
0.0
  0
LINE
  5
B1
  8
INKON
 62
     7
 10
103.741388832
 20
82.929409813400014
 30
0.0
 11
103.093432529
 21
81.743421712800014
 31
0.0
  0
LINE
  5
B2
  8
INKON
 62
     7
 10
103.714026096
 20
79.9139293307
 30
0.0
 11
103.8656022579999
 21
80.7551134518
 31
0.0
  0
LINE
  5
B3
  8
INKON
 62
     7
 10
103.54726751
 20
79.943978193900008
 30
0.0
 11
103.774631752
 21
81.205754375400019
 31
0.0
  0
LINE
  5
B4
  8
INKON
 62
     7
 10
143.28445916199999
 20
75.525679324500004
 30
0.0
 11
146.78445916199999
 21
75.525679324500004
 31
0.0
  0
LINE
  5
B5
  8
INKON
 62
     7
 10
143.28445916199999
 20
76.025679324500004
 30
0.0
 11
146.78445916199999
 21
76.025679324500004
 31
0.0
  0
LINE
  5
B6
  8
INKON
 62
     7
 10
139.96986959599991
 20
94.96961446639996
 30
0.0
 11
139.96986959599991
 21
92.969614466399989
 31
0.0
  0
LINE
  5
B7
  8
INKON
 62
     7
 10
140.96986959599991
 20
94.96961446639996
 30
0.0
 11
140.96986959599991
 21
92.969614466399989
 31
0.0
  0
LINE
  5
B8
  8
INKON
 62
     7
 10
141.969869596
 20
94.96961446639996
 30
0.0
 11
141.969869596
 21
92.969614466399989
 31
0.0
  0
LINE
  5
B9
  8
INKON
 62
     7
 10
142.96986959599991
 20
94.96961446639996
 30
0.0
 11
142.96986959599991
 21
92.969614466500005
 31
0.0
  0
LINE
  5
BA
  8
INKON
 62
     7
 10
147.706317162
 20
84.261019324399982
 30
0.0
 11
143.535879628
 21
76.493928874099993
 31
0.0
  0
LINE
  5
BB
  8
INKON
 62
     7
 10
143.535879628
 20
76.493928874099993
 30
0.0
 11
143.28445916199999
 21
76.025679324500004
 31
0.0
  0
LINE
  5
BC
  8
INKON
 62
     7
 10
122.32203801999989
 20
105.775580049
 30
0.0
 11
122.32203801999989
 21
103.57503004899991
 31
0.0
  0
LINE
  5
BD
  8
INKON
 62
     7
 10
123.32203801999979
 20
105.6089680489999
 30
0.0
 11
123.32203801999979
 21
103.891434049
 31
0.0
  0
LINE
  5
BE
  8
INKON
 62
     7
 10
124.32203801999979
 20
105.442356049
 30
0.0
 11
124.32203801999979
 21
104.474010049
 31
0.0
  0
LINE
  5
BF
  8
INKON
 62
     7
 10
119.32203801999979
 20
106.2754160489999
 30
0.0
 11
119.32203801999979
 21
103.7409540489999
 31
0.0
  0
LINE
  5
C0
  8
INKON
 62
     7
 10
120.32203801999979
 20
106.108804049
 30
0.0
 11
120.32203801999979
 21
103.57434205
 31
0.0
  0
LINE
  5
C1
  8
INKON
 62
     7
 10
121.32203801999989
 20
105.9421920489999
 30
0.0
 11
121.32203801999989
 21
103.474010049
 31
0.0
  0
LINE
  5
C2
  8
INKON
 62
     7
 10
118.32203801999979
 20
106.442028049
 30
0.0
 11
118.32203801999979
 21
103.9075660489999
 31
0.0
  0
LINE
  5
C3
  8
INKON
 62
     7
 10
116.32203801999999
 20
106.775252049
 30
0.0
 11
116.32203801999999
 21
104.2407900489999
 31
0.0
  0
LINE
  5
C4
  8
INKON
 62
     7
 10
117.32203801999979
 20
106.608640049
 30
0.0
 11
117.32203801999979
 21
104.0741780489999
 31
0.0
  0
LINE
  5
C5
  8
INKON
 62
     7
 10
124.9664635779999
 20
105.334986704
 30
0.0
 11
108.32203801999999
 21
108.108147049
 31
0.0
  0
LINE
  5
C6
  8
INKON
 62
     7
 10
115.32203801999999
 20
106.941864049
 30
0.0
 11
115.32203801999999
 21
104.407402049
 31
0.0
  0
LINE
  5
C7
  8
INKON
 62
     7
 10
114.32203801999999
 20
107.108476049
 30
0.0
 11
114.32203801999999
 21
104.5740140489999
 31
0.0
  0
LINE
  5
C8
  8
INKON
 62
     7
 10
111.32203801999999
 20
107.6083110499999
 30
0.0
 11
111.32203801999999
 21
105.073850049
 31
0.0
  0
LINE
  5
C9
  8
INKON
 62
     7
 10
112.32203801999999
 20
107.44170004899991
 30
0.0
 11
112.32203801999999
 21
104.9072380489999
 31
0.0
  0
LINE
  5
CA
  8
INKON
 62
     7
 10
113.32203801999999
 20
107.2750880489999
 30
0.0
 11
113.32203801999999
 21
104.740626049
 31
0.0
  0
LINE
  5
CB
  8
INKON
 62
     7
 10
108.32203801999999
 20
108.108147049
 30
0.0
 11
108.32203801999999
 21
105.57368504899991
 31
0.0
  0
LINE
  5
CC
  8
INKON
 62
     7
 10
109.32203801999999
 20
107.9415350489999
 30
0.0
 11
109.32203801999999
 21
105.407074049
 31
0.0
  0
LINE
  5
CD
  8
INKON
 62
     7
 10
110.32203801999999
 20
107.77492304899999
 30
0.0
 11
110.32203801999999
 21
105.2404620489999
 31
0.0
  0
LINE
  5
CE
  8
INKON
 62
     7
 10
120.34145702000001
 20
103.57110604899989
 30
0.0
 11
96.322038020300013
 21
107.57302905
 31
0.0
  0
LINE
  5
CF
  8
INKON
 62
     7
 10
127.569869596
 20
94.969614466499991
 30
0.0
 11
131.06986959599999
 21
123.75461446600001
 31
0.0
  0
LINE
  5
D0
  8
INKON
 62
     7
 10
136.96986959599991
 20
94.96961446639996
 30
0.0
 11
133.46986959700001
 21
123.75461446600001
 31
0.0
  0
LINE
  5
D1
  8
INKON
 62
     7
 10
142.1716982099999
 20
58.221550468499998
 30
0.0
 11
146.45945721000001
 21
49.557079468599987
 31
0.0
  0
LINE
  5
D2
  8
INKON
 62
     7
 10
123.849363152
 20
79.46514875390001
 30
0.0
 11
71.756382151799997
 21
89.598874753799976
 31
0.0
  0
LINE
  5
D3
  8
INKON
 62
     7
 10
123.927875152
 20
79.886734753799999
 30
0.0
 11
76.7630931514
 21
90.398919753700014
 31
0.0
  0
LINE
  5
D4
  8
INKON
 62
     7
 10
97.631195151599997
 20
89.750425753600013
 30
0.0
 11
97.544152151700004
 21
89.258060753799995
 31
0.0
  0
LINE
  5
D5
  8
INKON
 62
     7
 10
102.58098641699991
 20
80.769468958499985
 30
0.0
 11
101.81182280199999
 21
80.908067471699965
 31
0.0
  0
LINE
  5
D6
  8
INKON
 62
     7
 10
102.76668904500001
 20
81.387379400600025
 30
0.0
 11
101.9255049239999
 21
81.538955562600009
 31
0.0
  0
LINE
  5
D7
  8
INKON
 62
     7
 10
102.9266739429999
 20
81.77347057599998
 30
0.0
 11
103.15403818499991
 21
83.035246757600007
 31
0.0
  0
LINE
  5
D8
  8
INKON
 62
     7
 10
102.96833555800001
 20
82.417336315399979
 30
0.0
 11
102.1991719429999
 21
82.555934828800005
 31
0.0
  0
LINE
  5
D9
  8
INKON
 62
     7
 10
102.9266739429999
 20
81.77347057599998
 30
0.0
 11
102.085489821
 21
81.925046738000006
 31
0.0
  0
LINE
  5
DA
  8
INKON
 62
     7
 10
103.15403818499991
 20
83.035246757600007
 30
0.0
 11
102.3128540649999
 21
83.186822919500003
 31
0.0
  0
LINE
  5
DB
  8
INKON
 62
     7
 10
101.9187312349999
 20
81.955095601199986
 30
0.0
 11
102.14609547799991
 21
83.216871782600009
 31
0.0
  0
LINE
  5
DC
  8
INKON
 62
     7
 10
101.9187312349999
 20
81.955095601199986
 30
0.0
 11
101.30491135699999
 21
83.368447944700009
 31
0.0
  0
LINE
  5
DD
  8
INKON
 62
     7
 10
101.30491135699999
 20
83.368447944700009
 30
0.0
 11
101.077547114
 21
82.106671763100024
 31
0.0
  0
LINE
  5
DE
  8
INKON
 62
     7
 10
102.539324802
 20
80.125603219099986
 30
0.0
 11
102.76668904500001
 21
81.387379400600025
 31
0.0
  0
LINE
  5
DF
  8
INKON
 62
     7
 10
102.539324802
 20
80.125603219099986
 30
0.0
 11
101.698140681
 21
80.277179381000025
 31
0.0
  0
LINE
  5
E0
  8
INKON
 62
     7
 10
99.883792640799996
 20
80.599521306900002
 30
0.0
 11
100.111156884
 21
81.861297488499986
 31
0.0
  0
LINE
  5
E1
  8
INKON
 62
     7
 10
99.530279055499989
 20
80.667814601899963
 30
0.0
 11
99.757643298500014
 21
81.929590783500004
 31
0.0
  0
LINE
  5
E2
  8
INKON
 62
     7
 10
99.530279055499989
 20
80.667814601899963
 30
0.0
 11
98.916459177600004
 21
82.081166945500001
 31
0.0
  0
LINE
  5
E3
  8
INKON
 62
     7
 10
86.712117151699999
 20
91.173007753700006
 30
0.0
 11
97.544152151700004
 21
89.258060753799995
 31
0.0
  0
LINE
  5
E4
  8
INKON
 62
     7
 10
96.238507151500002
 20
81.872586753700006
 30
0.0
 11
97.370066151800003
 21
88.273329753900001
 31
0.0
  0
LINE
  5
E5
  8
INKON
 62
     7
 10
96.064421151600001
 20
80.887856753999998
 30
0.0
 11
96.064421151600001
 21
66.745856754000002
 31
0.0
  0
LINE
  5
E6
  8
INKON
 62
     7
 10
98.916459177600004
 20
82.081166945500001
 30
0.0
 11
98.689094934400003
 21
80.819390763999991
 31
0.0
  0
LINE
  5
E7
  8
INKON
 62
     7
 10
132.51986959699991
 20
123.75461446600001
 30
0.0
 11
132.51986959699991
 21
120.194614466
 31
0.0
  0
LINE
  5
E8
  8
INKON
 62
     7
 10
132.019869597
 20
120.194614466
 30
0.0
 11
132.51986959699991
 21
120.194614466
 31
0.0
  0
LINE
  5
E9
  8
INKON
 62
     7
 10
132.019869597
 20
123.75461446600001
 30
0.0
 11
132.019869597
 21
120.194614466
 31
0.0
  0
LINE
  5
EA
  8
INKON
 62
     7
 10
131.06986959599999
 20
123.75461446600001
 30
0.0
 11
132.019869597
 21
123.75461446600001
 31
0.0
  0
LINE
  5
EB
  8
INKON
 62
     7
 10
101.32203801999979
 20
115.17302904899989
 30
0.0
 11
101.32203801999979
 21
111.97302904999979
 31
0.0
  0
LINE
  5
EC
  8
INKON
 62
     7
 10
101.9220380199999
 20
115.17302904899989
 30
0.0
 11
101.9220380199999
 21
111.97302904999979
 31
0.0
  0
LINE
  5
ED
  8
INKON
 62
     7
 10
101.32203801999979
 20
111.97302904999979
 30
0.0
 11
101.9220380199999
 21
111.97302904999979
 31
0.0
  0
LINE
  5
EE
  8
INKON
 62
     7
 10
122.3026180209999
 20
113.3769130489999
 30
0.0
 11
96.322038020300013
 21
118.57302905
 31
0.0
  0
LINE
  5
EF
  8
INKON
 62
     7
 10
101.32203801999979
 20
115.17302904899989
 30
0.0
 11
101.9220380199999
 21
115.17302904899989
 31
0.0
  0
LINE
  5
F0
  8
INKON
 62
     7
 10
133.46986959700001
 20
123.75461446600001
 30
0.0
 11
132.51986959699991
 21
123.75461446600001
 31
0.0
  0
LINE
  5
F1
  8
INKON
 62
     7
 10
145.6716982099999
 20
58.471550468500013
 30
0.0
 11
145.6716982099999
 21
57.971550468500013
 31
0.0
  0
LINE
  5
F2
  8
INKON
 62
     7
 10
146.40438120999991
 20
66.774726468699996
 30
0.0
 11
142.1716982099999
 21
58.221550468499998
 31
0.0
  0
LINE
  5
F3
  8
INKON
 62
     7
 10
91.322038020300013
 20
115.17302904899989
 30
0.0
 11
91.322038020300013
 21
111.97302904999979
 31
0.0
  0
LINE
  5
F4
  8
INKON
 62
     7
 10
90.722038020200003
 20
115.17302904899989
 30
0.0
 11
90.722038020200003
 21
111.97302904999979
 31
0.0
  0
LINE
  5
F5
  8
INKON
 62
     7
 10
90.722038020200003
 20
111.97302904999979
 30
0.0
 11
91.322038020300013
 21
111.97302904999979
 31
0.0
  0
LINE
  5
F6
  8
INKON
 62
     7
 10
90.722038020200003
 20
115.17302904899989
 30
0.0
 11
91.322038020300013
 21
115.17302904899989
 31
0.0
  0
LINE
  5
F7
  8
INKON
 62
     7
 10
96.322038020300013
 20
118.57302905
 30
0.0
 11
70.341457020299998
 21
113.3769130489999
 31
0.0
  0
LINE
  5
F8
  8
INKON
 62
     7
 10
96.322038020300013
 20
107.57302905
 30
0.0
 11
72.302618020500006
 21
103.57110604899989
 31
0.0
  0
LINE
  5
F9
  8
INKON
 62
     7
 10
84.322038020299999
 20
108.108147049
 30
0.0
 11
84.322038020299999
 21
105.57368504899991
 31
0.0
  0
LINE
  5
FA
  8
INKON
 62
     7
 10
81.322038020299999
 20
107.6083110499999
 30
0.0
 11
81.322038020299999
 21
105.073850049
 31
0.0
  0
LINE
  5
FB
  8
INKON
 62
     7
 10
80.322038020299999
 20
107.4417000499998
 30
0.0
 11
80.322038020299999
 21
104.9072380489999
 31
0.0
  0
LINE
  5
FC
  8
INKON
 62
     7
 10
83.322038020299985
 20
107.9415350499999
 30
0.0
 11
83.322038020299985
 21
105.407074049
 31
0.0
  0
LINE
  5
FD
  8
INKON
 62
     7
 10
82.322038020299985
 20
107.77492304899999
 30
0.0
 11
82.322038020299985
 21
105.2404620489999
 31
0.0
  0
LINE
  5
FE
  8
INKON
 62
     7
 10
79.322038020299999
 20
107.2750880489999
 30
0.0
 11
79.322038020299999
 21
104.740626049
 31
0.0
  0
LINE
  5
FF
  8
INKON
 62
     7
 10
78.322038020299999
 20
107.108476049
 30
0.0
 11
78.322038020299999
 21
104.5740140489999
 31
0.0
  0
LINE
  5
100
  8
INKON
 62
     7
 10
77.322038020299985
 20
106.941864049
 30
0.0
 11
77.322038020299985
 21
104.407402049
 31
0.0
  0
LINE
  5
101
  8
INKON
 62
     7
 10
76.322038020299999
 20
106.775252049
 30
0.0
 11
76.322038020299999
 21
104.2407900489999
 31
0.0
  0
LINE
  5
102
  8
INKON
 62
     7
 10
75.322038020299999
 20
106.60864005000001
 30
0.0
 11
75.322038020299999
 21
104.0741780489999
 31
0.0
  0
LINE
  5
103
  8
INKON
 62
     7
 10
74.322038020299999
 20
106.442028049
 30
0.0
 11
74.322038020299999
 21
103.9075660489999
 31
0.0
  0
LINE
  5
104
  8
INKON
 62
     7
 10
73.322038020299999
 20
106.27541605
 30
0.0
 11
73.322038020299999
 21
103.7409540489999
 31
0.0
  0
LINE
  5
105
  8
INKON
 62
     7
 10
72.322038020299985
 20
106.108804049
 30
0.0
 11
72.322038020200011
 21
103.57434205
 31
0.0
  0
LINE
  5
106
  8
INKON
 62
     7
 10
71.322038020299999
 20
105.9421920489999
 30
0.0
 11
71.322038020299999
 21
103.474010049
 31
0.0
  0
LINE
  5
107
  8
INKON
 62
     7
 10
70.322038020299999
 20
105.775580049
 30
0.0
 11
70.322038020299999
 21
103.57503004899991
 31
0.0
  0
LINE
  5
108
  8
INKON
 62
     7
 10
69.322038020299999
 20
105.6089680489999
 30
0.0
 11
69.322038020299999
 21
103.891434049
 31
0.0
  0
LINE
  5
109
  8
INKON
 62
     7
 10
68.322038020299999
 20
105.442356049
 30
0.0
 11
68.322038020299999
 21
104.474010049
 31
0.0
  0
LINE
  5
10A
  8
INKON
 62
     7
 10
67.517885681099997
 20
105.30837447799991
 30
0.0
 11
84.322038020299999
 21
108.108147049
 31
0.0
  0
LINE
  5
10B
  8
INKON
 62
     7
 10
87.055382151499984
 20
92.631265753899996
 30
0.0
 11
89.840442151600001
 21
91.63547175379999
 31
0.0
  0
LINE
  5
10C
  8
INKON
 62
     7
 10
89.753399151699981
 20
91.143105753700013
 30
0.0
 11
89.840442151600001
 21
91.63547175379999
 31
0.0
  0
LINE
  5
10D
  8
INKON
 62
     7
 10
86.799160151599963
 20
91.665372753999989
 30
0.0
 11
89.753399151699981
 21
91.143105753700013
 31
0.0
  0
LINE
  5
10E
  8
INKON
 62
     7
 10
87.585190436000005
 20
74.499242287200005
 30
0.0
 11
87.697826151599998
 21
73.862111753800022
 31
0.0
  0
LINE
  5
10F
  8
INKON
 62
     7
 10
80.883295151699983
 20
98.411574753899998
 30
0.0
 11
79.906094151800005
 21
92.883966753699994
 31
0.0
  0
LINE
  5
110
  8
INKON
 62
     7
 10
83.47867315149999
 20
98.574033753899997
 30
0.0
 11
85.304862151699979
 21
94.281655753899997
 31
0.0
  0
LINE
  5
111
  8
INKON
 62
     7
 10
82.096144151699988
 20
97.800179753899997
 30
0.0
 11
81.435870151800003
 21
93.710524753599998
 31
0.0
  0
LINE
  5
112
  8
INKON
 62
     7
 10
82.096144151699988
 20
97.800179753899997
 30
0.0
 11
83.952650151499981
 21
93.207668753799993
 31
0.0
  0
LINE
  5
113
  8
INKON
 62
     7
 10
80.496933151799979
 20
92.7795157539
 30
0.0
 11
86.208322151900006
 21
91.769824753999998
 31
0.0
  0
LINE
  5
114
  8
INKON
 62
     7
 10
81.435870151800003
 20
93.710524753599998
 30
0.0
 11
83.952650151499981
 21
93.207668753799993
 31
0.0
  0
LINE
  5
115
  8
INKON
 62
     7
 10
69.3624511517
 20
90.685910753899989
 30
0.0
 11
79.906094151800005
 21
92.883966753699994
 31
0.0
  0
LINE
  5
116
  8
INKON
 62
     7
 10
78.567139151800006
 20
85.310071753800003
 30
0.0
 11
79.732008151499983
 21
91.899236754000015
 31
0.0
  0
LINE
  5
117
  8
INKON
 62
     7
 10
86.712117151699999
 20
91.173007753700006
 30
0.0
 11
86.799160151599963
 21
91.665372753999989
 31
0.0
  0
LINE
  5
118
  8
INKON
 62
     7
 10
75.469806151699984
 20
90.403820753999995
 30
0.0
 11
71.756382151799997
 21
89.598874753799976
 31
0.0
  0
LINE
  5
119
  8
INKON
 62
     7
 10
68.492020151800006
 20
85.762257753900002
 30
0.0
 11
69.3624511517
 21
90.685910753899989
 31
0.0
  0
LINE
  5
11A
  8
INKON
 62
     7
 10
80.537862151699969
 20
72.429685753699985
 30
0.0
 11
80.642313151400003
 21
71.838846753799984
 31
0.0
  0
LINE
  5
11B
  8
INKON
 62
     7
 10
83.688999151600001
 20
72.986761753899984
 30
0.0
 11
83.793451151599996
 21
72.39592275390001
 31
0.0
  0
LINE
  5
11C
  8
INKON
 62
     7
 10
80.642313151400003
 20
71.838846753799984
 30
0.0
 11
83.793451151599996
 21
72.39592275390001
 31
0.0
  0
LINE
  5
11D
  8
INKON
 62
     7
 10
80.537862151699969
 20
72.429685753699985
 30
0.0
 11
83.688999151600001
 21
72.986761753899984
 31
0.0
  0
LINE
  5
11E
  8
INKON
 62
     7
 10
76.598460151599994
 20
73.459616753700004
 30
0.0
 11
87.430447151699994
 21
75.374556753800022
 31
0.0
  0
LINE
  5
11F
  8
INKON
 62
     7
 10
68.492021151599999
 20
85.7622627537
 30
0.0
 11
96.064421151600001
 21
80.887856753999998
 31
0.0
  0
LINE
  5
120
  8
INKON
 62
     7
 10
67.186371151599985
 20
69.256927753799985
 30
0.0
 11
76.598460151599994
 21
73.459616753700004
 31
0.0
  0
LINE
  5
121
  8
INKON
 62
     7
 10
87.585190436000005
 20
74.499242287200005
 30
0.0
 11
87.430447151699994
 21
75.374556753800022
 31
0.0
  0
LINE
  5
122
  8
INKON
 62
     7
 10
81.582378151699999
 20
66.52130275399999
 30
0.0
 11
84.733515151600002
 21
67.078378753699994
 31
0.0
  0
LINE
  5
123
  8
INKON
 62
     7
 10
84.733515151600002
 20
67.078378753699994
 30
0.0
 11
84.837967151599983
 21
66.487540753999994
 31
0.0
  0
LINE
  5
124
  8
INKON
 62
     7
 10
67.186371151599985
 20
69.256927753799985
 30
0.0
 11
68.056802151499994
 21
64.333275753999985
 31
0.0
  0
LINE
  5
125
  8
INKON
 62
     7
 10
81.686830151700008
 20
65.930464753799995
 30
0.0
 11
84.837967151599983
 21
66.487540753999994
 31
0.0
  0
LINE
  5
126
  8
INKON
 62
     7
 10
81.582378151699999
 20
66.52130275399999
 30
0.0
 11
81.686830151700008
 21
65.930464753799995
 31
0.0
  0
LINE
  5
127
  8
INKON
 62
     7
 10
88.903930151699981
 20
67.039698753899998
 30
0.0
 11
89.171308151700018
 21
65.527252753699997
 31
0.0
  0
LINE
  5
128
  8
INKON
 62
     7
 10
68.056802151499994
 20
64.333275753999985
 30
0.0
 11
78.339321151600004
 21
63.612311753900002
 31
0.0
  0
LINE
  5
129
  8
INKON
 62
     7
 10
68.492021151599999
 20
61.87144975359999
 30
0.0
 11
78.339321151600004
 21
63.612311753900002
 31
0.0
  0
LINE
  5
12A
  8
INKON
 62
     7
 10
79.816417151899998
 20
63.873440753599994
 30
0.0
 11
88.18657815159996
 21
65.353166753799997
 31
0.0
  0
LINE
  5
12B
  8
INKON
 62
     7
 10
69.3624511517
 20
56.9478017538
 30
0.0
 11
79.906094151800005
 21
54.749745754000003
 31
0.0
  0
LINE
  5
12C
  8
INKON
 62
     7
 10
75.469806151699984
 20
57.229891753700002
 30
0.0
 11
71.756382151799997
 21
58.034837753900007
 31
0.0
  0
LINE
  5
12D
  8
INKON
 62
     7
 10
83.47867315149999
 20
49.0596787538
 30
0.0
 11
85.304862151699979
 21
53.352056753799999
 31
0.0
  0
LINE
  5
12E
  8
INKON
 62
     7
 10
78.51340715149999
 20
62.627581753699999
 30
0.0
 11
79.732008151499983
 21
55.734475753700004
 31
0.0
  0
LINE
  5
12F
  8
INKON
 62
     7
 10
80.883295151699983
 20
49.222137753799998
 30
0.0
 11
79.906094151800005
 21
54.749745754000003
 31
0.0
  0
LINE
  5
130
  8
INKON
 62
     7
 10
80.496933151799979
 20
54.854197753999998
 30
0.0
 11
86.208322151900006
 21
55.863888753999987
 31
0.0
  0
LINE
  5
131
  8
INKON
 62
     7
 10
82.096144151699988
 20
49.8335327538
 30
0.0
 11
81.435870151800003
 21
53.92318775359999
 31
0.0
  0
LINE
  5
132
  8
INKON
 62
     7
 10
82.096144151699988
 20
49.8335327538
 30
0.0
 11
83.952650151499981
 21
54.426043753900011
 31
0.0
  0
LINE
  5
133
  8
INKON
 62
     7
 10
81.435870151800003
 20
53.92318775359999
 30
0.0
 11
83.952650151499981
 21
54.426043753900011
 31
0.0
  0
LINE
  5
134
  8
INKON
 62
     7
 10
86.712117151699999
 20
56.460704753599998
 30
0.0
 11
86.799160151599963
 21
55.968339753800002
 31
0.0
  0
LINE
  5
135
  8
INKON
 62
     7
 10
68.492020151800006
 20
61.871454753899997
 30
0.0
 11
69.3624511517
 21
56.9478017538
 31
0.0
  0
LINE
  5
136
  8
INKON
 62
     7
 10
86.799160151599963
 20
55.968339753800002
 30
0.0
 11
89.753399151699981
 21
56.490606753599998
 31
0.0
  0
LINE
  5
137
  8
INKON
 62
     7
 10
87.055382151499984
 20
55.002446753900003
 30
0.0
 11
89.840442151600001
 21
55.9982417537
 31
0.0
  0
LINE
  5
138
  8
INKON
 62
     7
 10
89.753399151699981
 20
56.490606753599998
 30
0.0
 11
89.840442151600001
 21
55.9982417537
 31
0.0
  0
LINE
  5
139
  8
INKON
 62
     7
 10
124.151464152
 20
71.203490753599993
 30
0.0
 11
124.84780515200001
 21
67.264566753899999
 31
0.0
  0
LINE
  5
13A
  8
INKON
 62
     7
 10
107.216279516
 20
68.323919273000001
 30
0.0
 11
107.42592870599999
 21
68.365242338000002
 31
0.0
  0
LINE
  5
13B
  8
INKON
 62
     7
 10
97.049151151800004
 20
66.919942753800001
 30
0.0
 11
117.199691152
 21
70.482269753699981
 31
0.0
  0
LINE
  5
13C
  8
INKON
 62
     7
 10
108.59701679
 20
68.596070556100003
 30
0.0
 11
108.7623090499999
 21
67.757473795300001
 31
0.0
  0
LINE
  5
13D
  8
INKON
 62
     7
 10
109.4356135499999
 20
68.761362816200005
 30
0.0
 11
109.6009058099999
 21
67.922766055400004
 31
0.0
  0
LINE
  5
13E
  8
INKON
 62
     7
 10
109.60185921199999
 20
68.794130795200005
 30
0.0
 11
109.849797602
 21
67.536235653999995
 31
0.0
  0
LINE
  5
13F
  8
INKON
 62
     7
 10
110.6067016339999
 20
68.992191034300006
 30
0.0
 11
110.85464002399991
 21
67.734295893100011
 31
0.0
  0
LINE
  5
140
  8
INKON
 62
     7
 10
110.80246981099999
 20
68.377395457399984
 30
0.0
 11
111.5692675899999
 21
68.528535723800005
 31
0.0
  0
LINE
  5
141
  8
INKON
 62
     7
 10
110.6067016339999
 20
68.992191034300006
 30
0.0
 11
111.4452983949999
 21
69.157483294399995
 31
0.0
  0
LINE
  5
142
  8
INKON
 62
     7
 10
112.99510511699999
 20
69.451206996499991
 30
0.0
 11
113.243043507
 21
68.193311855299996
 31
0.0
  0
LINE
  5
143
  8
INKON
 62
     7
 10
113.606491992
 20
69.583467021899992
 30
0.0
 11
113.854430382
 21
68.325571880799998
 31
0.0
  0
LINE
  5
144
  8
INKON
 62
     7
 10
113.606491992
 20
69.583467021899992
 30
0.0
 11
114.69302714299999
 21
68.490864140799999
 31
0.0
  0
LINE
  5
145
  8
INKON
 62
     7
 10
114.69302714299999
 20
68.490864140799999
 30
0.0
 11
114.44508875299989
 21
69.748759281899993
 31
0.0
  0
LINE
  5
146
  8
INKON
 62
     7
 10
105.416243862
 20
67.969121859799998
 30
0.0
 11
105.664182252
 21
66.711226718600003
 31
0.0
  0
LINE
  5
147
  8
INKON
 62
     7
 10
104.2017522489999
 20
67.729738555699996
 30
0.0
 11
104.41140144000001
 21
67.771061620699996
 31
0.0
  0
LINE
  5
148
  8
INKON
 62
     7
 10
107.464217906
 20
67.066024131800006
 30
0.0
 11
107.673867096
 21
67.107347196800006
 31
0.0
  0
LINE
  5
149
  8
INKON
 62
     7
 10
104.577647101
 20
67.803829599700009
 30
0.0
 11
104.825585491
 21
66.545934458600001
 31
0.0
  0
LINE
  5
14A
  8
INKON
 62
     7
 10
104.7384002429999
 20
67.182132357399993
 30
0.0
 11
105.503577642
 21
67.332953237500007
 31
0.0
  0
LINE
  5
14B
  8
INKON
 62
     7
 10
107.592174367
 20
68.398010317000001
 30
0.0
 11
107.840112757
 21
67.140115175800005
 31
0.0
  0
LINE
  5
14C
  8
INKON
 62
     7
 10
108.4307711279999
 20
68.563302577000002
 30
0.0
 11
108.67870951799991
 21
67.305407435900008
 31
0.0
  0
LINE
  5
14D
  8
INKON
 62
     7
 10
107.75292751000001
 20
67.776313074599997
 30
0.0
 11
108.518104908
 21
67.927133954699997
 31
0.0
  0
LINE
  5
14E
  8
INKON
 62
     7
 10
105.896963308
 20
68.063874436299997
 30
0.0
 11
106.10661249899989
 21
68.105197501399999
 31
0.0
  0
LINE
  5
14F
  8
INKON
 62
     7
 10
106.0209325029999
 20
67.434926865799994
 30
0.0
 11
106.23058169399989
 21
67.476249930799995
 31
0.0
  0
LINE
  5
150
  8
INKON
 62
     7
 10
109.849797602
 20
67.536235653999995
 30
0.0
 11
110.6883943629999
 21
67.701527914099998
 31
0.0
  0
LINE
  5
151
  8
INKON
 62
     7
 10
110.85464002399991
 20
67.734295893100011
 30
0.0
 11
111.693236785
 21
67.8995881532
 31
0.0
  0
LINE
  5
152
  8
INKON
 62
     7
 10
110.84630651499999
 20
67.316453679099993
 30
0.0
 11
111.684903276
 21
67.481745939199996
 31
0.0
  0
LINE
  5
153
  8
INKON
 62
     7
 10
146.84855016200001
 20
70.973479324500019
 30
0.0
 11
143.28445916199999
 21
70.400679324500004
 31
0.0
  0
LINE
  5
154
  8
INKON
 62
     7
 10
146.769211162
 20
71.467145324399979
 30
0.0
 11
143.28445916199999
 21
70.90709532439999
 31
0.0
  0
LINE
  5
155
  8
INKON
 62
     7
 10
143.28445916199999
 20
75.525679324500004
 30
0.0
 11
143.28445916199999
 21
70.90709532439999
 31
0.0
  0
LINE
  5
156
  8
INKON
 62
     7
 10
97.543750146200026
 20
66.417407926199999
 30
0.0
 11
97.791688536200013
 21
65.159512785000004
 31
0.0
  0
LINE
  5
157
  8
INKON
 62
     7
 10
97.543750146200026
 20
66.417407926199999
 30
0.0
 11
98.382346907000013
 21
66.5827001862
 31
0.0
  0
LINE
  5
158
  8
INKON
 62
     7
 10
97.731865830300009
 20
65.8011039987
 30
0.0
 11
98.506316102000014
 21
65.953752615599996
 31
0.0
  0
LINE
  5
159
  8
INKON
 62
     7
 10
98.796530958399998
 20
65.357573024200008
 30
0.0
 11
98.961381824599997
 21
66.647193719100002
 31
0.0
  0
LINE
  5
15A
  8
INKON
 62
     7
 10
98.918174261600015
 20
66.034932235200003
 30
0.0
 11
99.267699739799994
 21
66.103825723599996
 31
0.0
  0
LINE
  5
15B
  8
INKON
 62
     7
 10
98.990572200800017
 20
66.658164280199998
 30
0.0
 11
99.635127719099998
 21
65.522865284099993
 31
0.0
  0
LINE
  5
15C
  8
INKON
 62
     7
 10
100.182382561
 20
66.93749759939999
 30
0.0
 11
100.39203175099991
 21
66.97882066439999
 31
0.0
  0
LINE
  5
15D
  8
INKON
 62
     7
 10
100.4303209509999
 20
65.679602458199994
 30
0.0
 11
100.63997014100001
 21
65.720925523199995
 31
0.0
  0
LINE
  5
15E
  8
INKON
 62
     7
 10
100.558277413
 20
67.011588643400003
 30
0.0
 11
100.8062158029999
 21
65.753693502299996
 31
0.0
  0
LINE
  5
15F
  8
INKON
 62
     7
 10
89.171308151700018
 20
65.527252753699997
 30
0.0
 11
96.064421151600001
 21
66.745856754000002
 31
0.0
  0
LINE
  5
160
  8
INKON
 62
     7
 10
96.238507151500002
 20
65.761125753599984
 30
0.0
 11
97.370066151800003
 21
59.360382753800003
 31
0.0
  0
LINE
  5
161
  8
INKON
 62
     7
 10
86.712117151699999
 20
56.460704753599998
 30
0.0
 11
97.544152151700004
 21
58.375651753900001
 31
0.0
  0
LINE
  5
162
  8
INKON
 62
     7
 10
123.849363152
 20
68.168563753800001
 30
0.0
 11
71.756382151799997
 21
58.034837753900007
 31
0.0
  0
LINE
  5
163
  8
INKON
 62
     7
 10
123.927875152
 20
67.746978753700006
 30
0.0
 11
76.7630931514
 21
57.234793753799998
 31
0.0
  0
LINE
  5
164
  8
INKON
 62
     7
 10
97.544152151700004
 20
58.375651753900001
 30
0.0
 11
97.631195151599997
 21
57.88328675359999
 31
0.0
  0
LINE
  5
165
  8
INKON
 62
     7
 10
98.837034064999997
 20
54.404180670099997
 30
0.0
 11
100.2370340649999
 21
54.404180670099997
 31
0.0
  0
LINE
  5
166
  8
INKON
 62
     7
 10
100.2370340649999
 20
54.404180670099997
 30
0.0
 11
100.2370340649999
 21
56.104180670300003
 31
0.0
  0
LINE
  5
167
  8
INKON
 62
     7
 10
99.719877064900004
 20
53.804180670400001
 30
0.0
 11
101.8370340649999
 21
51.6870236703
 31
0.0
  0
LINE
  5
168
  8
INKON
 62
     7
 10
101.8370340649999
 20
51.121337670200013
 30
0.0
 11
99.719877064900004
 21
49.004180670100013
 31
0.0
  0
LINE
  5
169
  8
INKON
 62
     7
 10
100.2370340649999
 20
57.304180670500003
 30
0.0
 11
100.2370340649999
 21
56.104180670300003
 31
0.0
  0
LINE
  5
16A
  8
INKON
 62
     7
 10
99.437034065100008
 20
49.287023670399989
 30
0.0
 11
99.437034065100008
 21
53.521337670199998
 31
0.0
  0
LINE
  5
16B
  8
INKON
 62
     7
 10
101.554191065
 20
51.404180670000002
 30
0.0
 11
99.437034065100008
 21
49.287023670399989
 31
0.0
  0
LINE
  5
16C
  8
INKON
 62
     7
 10
99.437034065100008
 20
53.521337670199998
 30
0.0
 11
101.554191065
 21
51.404180670000002
 31
0.0
  0
LINE
  5
16D
  8
INKON
 62
     7
 10
98.837034064999997
 20
48.404180670099997
 30
0.0
 11
98.837034064999997
 21
54.404180670099997
 31
0.0
  0
LINE
  5
16E
  8
INKON
 62
     7
 10
100.2370340649999
 20
46.404180670099997
 30
0.0
 11
100.2370340649999
 21
48.404180670099997
 31
0.0
  0
LINE
  5
16F
  8
INKON
 62
     7
 10
98.837034064999997
 20
48.404180670099997
 30
0.0
 11
100.2370340649999
 21
48.404180670099997
 31
0.0
  0
LINE
  5
170
  8
INKON
 62
     7
 10
100.216577606
 20
65.187262946299995
 30
0.0
 11
100.674165186
 21
63.9706908701
 31
0.0
  0
LINE
  5
171
  8
INKON
 62
     7
 10
100.674165186
 20
63.9706908701
 30
0.0
 11
100.635875986
 21
65.269909076299996
 31
0.0
  0
LINE
  5
172
  8
INKON
 62
     7
 10
100.635875986
 20
65.269909076299996
 30
0.0
 11
101.0934635669999
 21
64.053337000100001
 31
0.0
  0
LINE
  5
173
  8
INKON
 62
     7
 10
130.50659923500001
 20
66.269614466000007
 30
0.0
 11
134.01028325699991
 21
66.269614466000007
 31
0.0
  0
LINE
  5
174
  8
INKON
 62
     7
 10
104.44969064
 20
66.471843414600002
 30
0.0
 11
104.65933982999979
 21
66.513166479600002
 31
0.0
  0
LINE
  5
175
  8
INKON
 62
     7
 10
101.3968741729999
 20
67.176880903500006
 30
0.0
 11
101.6448125629999
 21
65.918985762299997
 31
0.0
  0
LINE
  5
176
  8
INKON
 62
     7
 10
100.7190305549999
 20
66.389891401100002
 30
0.0
 11
101.4842079529999
 21
66.540712281099999
 31
0.0
  0
LINE
  5
177
  8
INKON
 62
     7
 10
101.5631198349999
 20
67.209648882500005
 30
0.0
 11
101.811058225
 21
65.951753741299996
 31
0.0
  0
LINE
  5
178
  8
INKON
 62
     7
 10
102.4017165949999
 20
67.374941142500006
 30
0.0
 11
102.649654985
 21
66.117046001299997
 31
0.0
  0
LINE
  5
179
  8
INKON
 62
     7
 10
101.723872977
 20
66.587951640100002
 30
0.0
 11
102.48905037500001
 21
66.738772520200001
 31
0.0
  0
LINE
  5
17A
  8
INKON
 62
     7
 10
102.652278178
 20
66.979939193600003
 30
0.0
 11
102.7349243079999
 21
66.560640813199996
 31
0.0
  0
LINE
  5
17B
  8
INKON
 62
     7
 10
103.5735210689999
 20
66.725933073299998
 30
0.0
 11
103.49087493799991
 21
67.145231453699992
 31
0.0
  0
LINE
  5
17C
  8
INKON
 62
     7
 10
106.1449016989999
 20
66.805979295200004
 30
0.0
 11
106.3545508889999
 21
66.847302360200004
 31
0.0
  0
LINE
  5
17D
  8
INKON
 62
     7
 10
104.81725198300001
 20
66.128092244499996
 30
0.0
 11
105.06519037299989
 21
64.870197103400002
 31
0.0
  0
LINE
  5
17E
  8
INKON
 62
     7
 10
107.83177924899999
 20
66.722272961800002
 30
0.0
 11
108.0797176389999
 21
65.464377820600006
 31
0.0
  0
LINE
  5
17F
  8
INKON
 62
     7
 10
108.67037601
 20
66.887565221800003
 30
0.0
 11
108.9183144
 21
65.629670080699995
 31
0.0
  0
LINE
  5
180
  8
INKON
 62
     7
 10
107.9925323909999
 20
66.1005757195
 30
0.0
 11
108.75770979000001
 21
66.2513965996
 31
0.0
  0
LINE
  5
181
  8
INKON
 62
     7
 10
104.0081777379999
 20
65.3152364285
 30
0.0
 11
104.7749755159999
 21
65.466376694899992
 31
0.0
  0
LINE
  5
182
  8
INKON
 62
     7
 10
103.812409561
 20
65.930032005499996
 30
0.0
 11
104.6510063209999
 21
66.095324265499997
 31
0.0
  0
LINE
  5
183
  8
INKON
 62
     7
 10
110.84630651499999
 20
67.316453679099993
 30
0.0
 11
111.0942449059999
 21
66.058558537899998
 31
0.0
  0
LINE
  5
184
  8
INKON
 62
     7
 10
111.0420746929999
 20
66.7016581022
 30
0.0
 11
111.8088724709999
 21
66.852798368500004
 31
0.0
  0
LINE
  5
185
  8
INKON
 62
     7
 10
111.0942449059999
 20
66.058558537899998
 30
0.0
 11
111.9328416659999
 21
66.223850798000001
 31
0.0
  0
LINE
  5
186
  8
INKON
 62
     7
 10
105.822094405
 20
66.3261524837
 30
0.0
 11
106.070032795
 21
65.068257342500004
 31
0.0
  0
LINE
  5
187
  8
INKON
 62
     7
 10
105.822094405
 20
66.3261524837
 30
0.0
 11
106.3653619799999
 21
65.77985104310001
 31
0.0
  0
LINE
  5
188
  8
INKON
 62
     7
 10
106.3653619799999
 20
65.77985104310001
 30
0.0
 11
106.66069116600001
 21
66.491444743700001
 31
0.0
  0
LINE
  5
189
  8
INKON
 62
     7
 10
106.66069116600001
 20
66.491444743700001
 30
0.0
 11
106.90862955599999
 21
65.233549602599993
 31
0.0
  0
LINE
  5
18A
  8
INKON
 62
     7
 10
107.1414106119999
 20
66.5861973202
 30
0.0
 11
107.35105980199999
 21
66.627520385300002
 31
0.0
  0
LINE
  5
18B
  8
INKON
 62
     7
 10
107.2653798069999
 20
65.957249749699997
 30
0.0
 11
107.475028997
 21
65.998572814699997
 31
0.0
  0
LINE
  5
18C
  8
INKON
 62
     7
 10
109.084560061
 20
65.662438059799996
 30
0.0
 11
109.249410928
 21
66.952058754799992
 31
0.0
  0
LINE
  5
18D
  8
INKON
 62
     7
 10
109.20620336499979
 20
66.339797270899993
 30
0.0
 11
109.555728843
 21
66.408690759300001
 31
0.0
  0
LINE
  5
18E
  8
INKON
 62
     7
 10
109.27860130400001
 20
66.9630293158
 30
0.0
 11
109.923156822
 21
65.827730319799997
 31
0.0
  0
LINE
  5
18F
  8
INKON
 62
     7
 10
109.8414640929999
 20
67.118393440000006
 30
0.0
 11
110.50870086399991
 21
65.943144428899998
 31
0.0
  0
LINE
  5
190
  8
INKON
 62
     7
 10
110.50870086399991
 20
65.943144428899998
 30
0.0
 11
110.6800608539999
 21
67.283685700100008
 31
0.0
  0
LINE
  5
191
  8
INKON
 62
     7
 10
111.85114893799989
 20
67.514513918199995
 30
0.0
 11
112.099087328
 21
66.256618777100002
 31
0.0
  0
LINE
  5
192
  8
INKON
 62
     7
 10
111.85114893799989
 20
67.514513918199995
 30
0.0
 11
112.937684088
 21
66.421911037100003
 31
0.0
  0
LINE
  5
193
  8
INKON
 62
     7
 10
112.937684088
 20
66.421911037100003
 30
0.0
 11
112.6897456979999
 21
67.679806178199996
 31
0.0
  0
LINE
  5
194
  8
INKON
 62
     7
 10
97.631195151599997
 20
57.88328675359999
 30
0.0
 11
124.84780515200001
 21
67.264566753899999
 31
0.0
  0
LINE
  5
195
  8
INKON
 62
     7
 10
99.719877064900004
 20
53.804180670400001
 30
0.0
 11
103.954191065
 21
53.804180670400001
 31
0.0
  0
LINE
  5
196
  8
INKON
 62
     7
 10
103.954191065
 20
53.804180670400001
 30
0.0
 11
101.8370340649999
 21
51.6870236703
 31
0.0
  0
LINE
  5
197
  8
INKON
 62
     7
 10
101.8370340649999
 20
51.121337670200013
 30
0.0
 11
103.954191065
 21
49.004180670100013
 31
0.0
  0
LINE
  5
198
  8
INKON
 62
     7
 10
104.237034065
 20
49.287023670399989
 30
0.0
 11
104.237034065
 21
53.521337670199998
 31
0.0
  0
LINE
  5
199
  8
INKON
 62
     7
 10
102.119877065
 20
51.404180670000002
 30
0.0
 11
104.237034065
 21
49.287023670399989
 31
0.0
  0
LINE
  5
19A
  8
INKON
 62
     7
 10
104.237034065
 20
53.521337670199998
 30
0.0
 11
102.119877065
 21
51.404180670000002
 31
0.0
  0
LINE
  5
19B
  8
INKON
 62
     7
 10
100.737034065
 20
55.0041806702
 30
0.0
 11
102.93703406500001
 21
55.0041806702
 31
0.0
  0
LINE
  5
19C
  8
INKON
 62
     7
 10
100.737034065
 20
57.804180670500003
 30
0.0
 11
102.93703406500001
 21
57.804180670500003
 31
0.0
  0
LINE
  5
19D
  8
INKON
 62
     7
 10
103.43703406499991
 20
54.404180670099997
 30
0.0
 11
103.43703406499991
 21
56.104180670300003
 31
0.0
  0
LINE
  5
19E
  8
INKON
 62
     7
 10
104.837034065
 20
48.404180670099997
 30
0.0
 11
104.837034065
 21
54.404180670099997
 31
0.0
  0
LINE
  5
19F
  8
INKON
 62
     7
 10
103.43703406499991
 20
57.304180670500003
 30
0.0
 11
103.43703406499991
 21
56.104180670300003
 31
0.0
  0
LINE
  5
1A0
  8
INKON
 62
     7
 10
100.8370340649999
 20
47.804180670400001
 30
0.0
 11
102.8370340649999
 21
47.804180670400001
 31
0.0
  0
LINE
  5
1A1
  8
INKON
 62
     7
 10
99.719877064900004
 20
49.004180670100013
 30
0.0
 11
103.954191065
 21
49.004180670100013
 31
0.0
  0
LINE
  5
1A2
  8
INKON
 62
     7
 10
100.737034065
 20
45.904180670099997
 30
0.0
 11
102.93703406500001
 21
45.904180670099997
 31
0.0
  0
LINE
  5
1A3
  8
INKON
 62
     7
 10
103.43703406499991
 20
48.404180670099997
 30
0.0
 11
104.837034065
 21
48.404180670099997
 31
0.0
  0
LINE
  5
1A4
  8
INKON
 62
     7
 10
103.43703406499991
 20
46.404180670099997
 30
0.0
 11
103.43703406499991
 21
48.404180670099997
 31
0.0
  0
LINE
  5
1A5
  8
INKON
 62
     7
 10
103.43703406499991
 20
54.404180670099997
 30
0.0
 11
104.837034065
 21
54.404180670099997
 31
0.0
  0
LINE
  5
1A6
  8
INKON
 62
     7
 10
108.49772799500001
 20
53.763936725599997
 30
0.0
 11
112.73204199599979
 21
53.763936725599997
 31
0.0
  0
LINE
  5
1A7
  8
INKON
 62
     7
 10
112.73204199599979
 20
53.763936725599997
 30
0.0
 11
110.614884995
 21
51.646779725400002
 31
0.0
  0
LINE
  5
1A8
  8
INKON
 62
     7
 10
110.614884995
 20
51.081093725400002
 30
0.0
 11
112.73204199599979
 21
48.963936725299988
 31
0.0
  0
LINE
  5
1A9
  8
INKON
 62
     7
 10
113.014884995
 20
49.246779725499998
 30
0.0
 11
113.014884995
 21
53.481093725299999
 31
0.0
  0
LINE
  5
1AA
  8
INKON
 62
     7
 10
110.8977279949999
 20
51.363936725199999
 30
0.0
 11
113.014884995
 21
49.246779725499998
 31
0.0
  0
LINE
  5
1AB
  8
INKON
 62
     7
 10
113.014884995
 20
53.481093725299999
 30
0.0
 11
110.8977279949999
 21
51.363936725199999
 31
0.0
  0
LINE
  5
1AC
  8
INKON
 62
     7
 10
109.5148849949999
 20
45.863936725199999
 30
0.0
 11
111.71488499599999
 21
45.863936725199999
 31
0.0
  0
LINE
  5
1AD
  8
INKON
 62
     7
 10
109.5148849949999
 20
54.963936725299988
 30
0.0
 11
111.71488499599999
 21
54.963936725299988
 31
0.0
  0
LINE
  5
1AE
  8
INKON
 62
     7
 10
109.5148849949999
 20
57.763936725600011
 30
0.0
 11
111.71488499599999
 21
57.763936725600011
 31
0.0
  0
LINE
  5
1AF
  8
INKON
 62
     7
 10
112.21488499599999
 20
54.363936725200013
 30
0.0
 11
112.21488499599999
 21
56.063936725399998
 31
0.0
  0
LINE
  5
1B0
  8
INKON
 62
     7
 10
113.614884995
 20
48.363936725199999
 30
0.0
 11
113.614884995
 21
54.363936725200013
 31
0.0
  0
LINE
  5
1B1
  8
INKON
 62
     7
 10
112.21488499599999
 20
57.263936725599997
 30
0.0
 11
112.21488499599999
 21
56.063936725399998
 31
0.0
  0
LINE
  5
1B2
  8
INKON
 62
     7
 10
107.614884995
 20
54.363936725200013
 30
0.0
 11
109.014884995
 21
54.363936725200013
 31
0.0
  0
LINE
  5
1B3
  8
INKON
 62
     7
 10
109.014884995
 20
54.363936725200013
 30
0.0
 11
109.014884995
 21
56.063936725399998
 31
0.0
  0
LINE
  5
1B4
  8
INKON
 62
     7
 10
108.49772799500001
 20
53.763936725599997
 30
0.0
 11
110.614884995
 21
51.646779725400002
 31
0.0
  0
LINE
  5
1B5
  8
INKON
 62
     7
 10
110.614884995
 20
51.081093725400002
 30
0.0
 11
108.49772799500001
 21
48.963936725299988
 31
0.0
  0
LINE
  5
1B6
  8
INKON
 62
     7
 10
109.014884995
 20
57.263936725599997
 30
0.0
 11
109.014884995
 21
56.063936725399998
 31
0.0
  0
LINE
  5
1B7
  8
INKON
 62
     7
 10
108.21488499599999
 20
49.246779725499998
 30
0.0
 11
108.21488499599999
 21
53.481093725299999
 31
0.0
  0
LINE
  5
1B8
  8
INKON
 62
     7
 10
110.3320419949999
 20
51.363936725199999
 30
0.0
 11
108.21488499599999
 21
49.246779725499998
 31
0.0
  0
LINE
  5
1B9
  8
INKON
 62
     7
 10
108.21488499599999
 20
53.481093725299999
 30
0.0
 11
110.3320419949999
 21
51.363936725199999
 31
0.0
  0
LINE
  5
1BA
  8
INKON
 62
     7
 10
107.614884995
 20
48.363936725199999
 30
0.0
 11
107.614884995
 21
54.363936725200013
 31
0.0
  0
LINE
  5
1BB
  8
INKON
 62
     7
 10
109.014884995
 20
46.363936725199999
 30
0.0
 11
109.014884995
 21
48.363936725199999
 31
0.0
  0
LINE
  5
1BC
  8
INKON
 62
     7
 10
109.614884995
 20
47.763936725599997
 30
0.0
 11
111.614884995
 21
47.763936725599997
 31
0.0
  0
LINE
  5
1BD
  8
INKON
 62
     7
 10
108.49772799500001
 20
48.963936725299988
 30
0.0
 11
112.73204199599979
 21
48.963936725299988
 31
0.0
  0
LINE
  5
1BE
  8
INKON
 62
     7
 10
107.614884995
 20
48.363936725199999
 30
0.0
 11
109.014884995
 21
48.363936725199999
 31
0.0
  0
LINE
  5
1BF
  8
INKON
 62
     7
 10
112.21488499599999
 20
48.363936725199999
 30
0.0
 11
113.614884995
 21
48.363936725199999
 31
0.0
  0
LINE
  5
1C0
  8
INKON
 62
     7
 10
112.21488499599999
 20
46.363936725199999
 30
0.0
 11
112.21488499599999
 21
48.363936725199999
 31
0.0
  0
LINE
  5
1C1
  8
INKON
 62
     7
 10
112.21488499599999
 20
54.363936725200013
 30
0.0
 11
113.614884995
 21
54.363936725200013
 31
0.0
  0
LINE
  5
1C2
  8
INKON
 62
     7
 10
130.06986959599999
 20
62.269614466
 30
0.0
 11
130.06986959599999
 21
66.269614466000007
 31
0.0
  0
LINE
  5
1C3
  8
INKON
 62
     7
 10
134.469869596
 20
62.269614466
 30
0.0
 11
134.469869596
 21
66.269614466000007
 31
0.0
  0
LINE
  5
1C4
  8
INKON
 62
     7
 10
132.76986959600001
 20
61.127774465900004
 30
0.0
 11
132.76986959600001
 21
62.269614466
 31
0.0
  0
LINE
  5
1C5
  8
INKON
 62
     7
 10
131.76986959699991
 20
61.127774465900004
 30
0.0
 11
131.76986959600001
 21
62.269614466
 31
0.0
  0
LINE
  5
1C6
  8
INKON
 62
     7
 10
130.06986959599999
 20
62.269614466
 30
0.0
 11
131.76986959600001
 21
62.269614466
 31
0.0
  0
LINE
  5
1C7
  8
INKON
 62
     7
 10
132.76986959600001
 20
62.269614466
 30
0.0
 11
133.552848283
 21
62.269614466
 31
0.0
  0
LINE
  5
1C8
  8
INKON
 62
     7
 10
123.289249596
 20
60.32777446619999
 30
0.0
 11
123.289249596
 21
61.177774466199992
 31
0.0
  0
LINE
  5
1C9
  8
INKON
 62
     7
 10
130.28924959599991
 20
60.127774465900004
 30
0.0
 11
123.48924959599999
 21
60.127774465800002
 31
0.0
  0
LINE
  5
1CA
  8
INKON
 62
     7
 10
130.28924959599991
 20
61.377774465900004
 30
0.0
 11
123.48924959599999
 21
61.377774465900004
 31
0.0
  0
LINE
  5
1CB
  8
INKON
 62
     7
 10
132.76986959600001
 20
61.127774465900004
 30
0.0
 11
133.25048859599991
 21
61.127774465900004
 31
0.0
  0
LINE
  5
1CC
  8
INKON
 62
     7
 10
133.25048859599991
 20
60.377774465900004
 30
0.0
 11
132.44962159599999
 21
58.736072466300001
 31
0.0
  0
LINE
  5
1CD
  8
INKON
 62
     7
 10
131.28924959599991
 20
60.377774465900004
 30
0.0
 11
132.090117596
 21
58.736072466300001
 31
0.0
  0
LINE
  5
1CE
  8
INKON
 62
     7
 10
130.28924959599991
 20
60.127774465900004
 30
0.0
 11
131.28924959599991
 21
60.377774465900004
 31
0.0
  0
LINE
  5
1CF
  8
INKON
 62
     7
 10
130.28924959599991
 20
61.377774465900004
 30
0.0
 11
131.28924959599991
 21
61.127774465900004
 31
0.0
  0
LINE
  5
1D0
  8
INKON
 62
     7
 10
131.28924959599991
 20
61.127774465900004
 30
0.0
 11
131.76986959699991
 21
61.127774465900004
 31
0.0
  0
LINE
  5
1D1
  8
INKON
 62
     7
 10
133.25048859599991
 20
61.127774465900004
 30
0.0
 11
134.25048859599991
 21
61.377774465900004
 31
0.0
  0
LINE
  5
1D2
  8
INKON
 62
     7
 10
134.25048859599991
 20
61.377774465900004
 30
0.0
 11
141.050488597
 21
61.377774465800002
 31
0.0
  0
LINE
  5
1D3
  8
INKON
 62
     7
 10
134.25048859599991
 20
60.127774465900004
 30
0.0
 11
141.050488597
 21
60.127774465900004
 31
0.0
  0
LINE
  5
1D4
  8
INKON
 62
     7
 10
133.25048859599991
 20
60.377774465900004
 30
0.0
 11
134.25048859599991
 21
60.127774465900004
 31
0.0
  0
LINE
  5
1D5
  8
INKON
 62
     7
 10
134.469869596
 20
62.269614466
 30
0.0
 11
133.552848283
 21
62.269614466
 31
0.0
  0
LINE
  5
1D6
  8
INKON
 62
     7
 10
101.41349815700001
 20
65.433342717599999
 30
0.0
 11
101.66143654699999
 21
64.175447576400003
 31
0.0
  0
LINE
  5
1D7
  8
INKON
 62
     7
 10
101.0934635669999
 20
64.053337000100001
 30
0.0
 11
101.05517436700001
 21
65.352555206299996
 31
0.0
  0
LINE
  5
1D8
  8
INKON
 62
     7
 10
102.0506631059999
 20
64.276016386199998
 30
0.0
 11
102.88925986700001
 21
64.441308646199985
 31
0.0
  0
LINE
  5
1D9
  8
INKON
 62
     7
 10
101.802724716
 20
65.533911527299992
 30
0.0
 11
102.0506631059999
 21
64.276016386199998
 31
0.0
  0
LINE
  5
1DA
  8
INKON
 62
     7
 10
105.06519037299989
 20
64.870197103400002
 30
0.0
 11
105.9037871339999
 21
65.035489363500005
 31
0.0
  0
LINE
  5
1DB
  8
INKON
 62
     7
 10
102.8075671379999
 20
65.731971766399994
 30
0.0
 11
103.055505528
 21
64.4740766253
 31
0.0
  0
LINE
  5
1DC
  8
INKON
 62
     7
 10
103.646163899
 20
65.897264026400009
 30
0.0
 11
103.894102289
 21
64.6393688852
 31
0.0
  0
LINE
  5
1DD
  8
INKON
 62
     7
 10
102.968320281
 20
65.11027452399999
 30
0.0
 11
103.7334976789999
 21
65.261095404100004
 31
0.0
  0
LINE
  5
1DE
  8
INKON
 62
     7
 10
103.812409561
 20
65.930032005499996
 30
0.0
 11
104.060347951
 21
64.672136864300001
 31
0.0
  0
LINE
  5
1DF
  8
INKON
 62
     7
 10
104.060347951
 20
64.672136864300001
 30
0.0
 11
104.898944711
 21
64.837429124399989
 31
0.0
  0
LINE
  5
1E0
  8
INKON
 62
     7
 10
107.389349002
 20
65.328302179199994
 30
0.0
 11
107.598998192
 21
65.369625244199995
 31
0.0
  0
LINE
  5
1E1
  8
INKON
 62
     7
 10
141.25048859599991
 20
60.327774466000001
 30
0.0
 11
141.25048859599991
 21
61.17777446609999
 31
0.0
  0
LINE
  5
1E2
  8
INKON
 62
     7
 10
146.769211162
 20
71.467145324399979
 30
0.0
 11
146.84855016200001
 21
70.973479324500019
 31
0.0
  0
LINE
  5
1E3
  8
INKON
 62
     7
 10
150.28445916199999
 20
71.525679324500004
 30
0.0
 11
151.25082516200001
 21
70.485159324400001
 31
0.0
  0
LINE
  5
1E4
  8
INKON
 62
     7
 10
150.28445916199999
 20
72.525679324500004
 30
0.0
 11
154.48849716199999
 21
72.525679324500004
 31
0.0
  0
LINE
  5
1E5
  8
INKON
 62
     7
 10
153.969681162
 20
72.361332324499998
 30
0.0
 11
150.28445916199999
 21
71.525679324500004
 31
0.0
  0
LINE
  5
1E6
  8
INKON
 62
     7
 10
143.28445916199999
 20
70.400679324500004
 30
0.0
 11
150.98119816199991
 21
69.899133324399997
 31
0.0
  0
LINE
  5
1E7
  8
INKON
 62
     7
 10
136.96986959599991
 20
83.909614466500017
 30
0.0
 11
154.17767459699999
 21
87.351175466200004
 31
0.0
  0
LINE
  5
1E8
  8
INKON
 62
     7
 10
146.78445916199999
 20
76.025679324500004
 30
0.0
 11
146.78445916199999
 21
75.525679324500004
 31
0.0
  0
LINE
  5
1E9
  8
INKON
 62
     7
 10
143.96986959599991
 20
94.96961446639996
 30
0.0
 11
143.96986959599991
 21
92.969614466299987
 31
0.0
  0
LINE
  5
1EA
  8
INKON
 62
     7
 10
144.969869596
 20
94.96961446639996
 30
0.0
 11
144.969869596
 21
92.969614466399989
 31
0.0
  0
LINE
  5
1EB
  8
INKON
 62
     7
 10
153.42330059700001
 20
94.969614466299987
 30
0.0
 11
137.269869597
 21
94.969614466499991
 31
0.0
  0
LINE
  5
1EC
  8
INKON
 62
     7
 10
150.28445916199999
 20
71.585588549500002
 30
0.0
 11
150.28445916199999
 21
83.5256793243
 31
0.0
  0
LINE
  5
1ED
  8
INKON
 62
     7
 10
149.820792162
 20
85.525679324299986
 30
0.0
 11
151.56211016200001
 21
85.525679324299986
 31
0.0
  0
LINE
  5
1EE
  8
INKON
 62
     7
 10
147.87676047699981
 20
84.5256793243
 30
0.0
 11
152.97632416199991
 21
84.5256793243
 31
0.0
  0
LINE
  5
1EF
  8
INKON
 62
     7
 10
147.34169931700001
 20
83.5256793243
 30
0.0
 11
150.28445916199999
 21
83.5256793243
 31
0.0
  0
LINE
  5
1F0
  8
INKON
 62
     7
 10
147.31515643700001
 20
83.5256793243
 30
0.0
 11
153.17872451100001
 21
83.5256793243
 31
0.0
  0
LINE
  5
1F1
  8
INKON
 62
     7
 10
150.28445916199999
 20
79.525679324500004
 30
0.0
 11
154.07983916200001
 21
79.525679324500004
 31
0.0
  0
LINE
  5
1F2
  8
INKON
 62
     7
 10
150.28445916199999
 20
78.525679324500004
 30
0.0
 11
154.29815016200001
 21
78.525679324500004
 31
0.0
  0
LINE
  5
1F3
  8
INKON
 62
     7
 10
150.28445916199999
 20
77.525679324500004
 30
0.0
 11
154.51646116200001
 21
77.525679324500004
 31
0.0
  0
LINE
  5
1F4
  8
INKON
 62
     7
 10
150.28445916199999
 20
76.525679324500004
 30
0.0
 11
154.73477216200001
 21
76.525679324500004
 31
0.0
  0
LINE
  5
1F5
  8
INKON
 62
     7
 10
150.28445916199999
 20
75.525679324500004
 30
0.0
 11
154.95308316200001
 21
75.525679324500004
 31
0.0
  0
LINE
  5
1F6
  8
INKON
 62
     7
 10
150.28445916199999
 20
82.5256793243
 30
0.0
 11
153.42490616200001
 21
82.5256793243
 31
0.0
  0
LINE
  5
1F7
  8
INKON
 62
     7
 10
150.28445916199999
 20
81.525679324500018
 30
0.0
 11
153.64321716200001
 21
81.525679324500018
 31
0.0
  0
LINE
  5
1F8
  8
INKON
 62
     7
 10
150.28445916199999
 20
80.525679324500004
 30
0.0
 11
153.86152816200001
 21
80.525679324500004
 31
0.0
  0
LINE
  5
1F9
  8
INKON
 62
     7
 10
145.969869596
 20
94.969614466499991
 30
0.0
 11
145.969869596
 21
92.969614466500005
 31
0.0
  0
LINE
  5
1FA
  8
INKON
 62
     7
 10
146.96986959700001
 20
94.96961446639996
 30
0.0
 11
146.96986959700001
 21
92.969614466299987
 31
0.0
  0
LINE
  5
1FB
  8
INKON
 62
     7
 10
147.96986959700001
 20
94.969614466299987
 30
0.0
 11
147.96986959700001
 21
92.969614466399989
 31
0.0
  0
LINE
  5
1FC
  8
INKON
 62
     7
 10
148.96986959700001
 20
94.969614466600007
 30
0.0
 11
148.96986959700001
 21
92.969614466299987
 31
0.0
  0
LINE
  5
1FD
  8
INKON
 62
     7
 10
152.96986959700001
 20
92.969614466399989
 30
0.0
 11
139.96986959599991
 21
92.969614466399989
 31
0.0
  0
LINE
  5
1FE
  8
INKON
 62
     7
 10
148.6104812099999
 20
48.221550468499998
 30
0.0
 11
150.69965121000001
 21
48.221550468499998
 31
0.0
  0
LINE
  5
1FF
  8
INKON
 62
     7
 10
146.405062515
 20
49.721550468500013
 30
0.0
 11
151.75451742000001
 21
49.721550468500013
 31
0.0
  0
LINE
  5
200
  8
INKON
 62
     7
 10
147.17134117200001
 20
48.721550468499998
 30
0.0
 11
151.54532244699999
 21
48.721550468499998
 31
0.0
  0
LINE
  5
201
  8
INKON
 62
     7
 10
149.07806621
 20
53.721550468499998
 30
0.0
 11
152.2780033249999
 21
53.721550468499998
 31
0.0
  0
LINE
  5
202
  8
INKON
 62
     7
 10
149.07806621
 20
52.721550468499998
 30
0.0
 11
152.14444844999991
 21
52.721550468499998
 31
0.0
  0
LINE
  5
203
  8
INKON
 62
     7
 10
149.07806621
 20
54.721550468500013
 30
0.0
 11
152.40889832100001
 21
54.721550468500013
 31
0.0
  0
LINE
  5
204
  8
INKON
 62
     7
 10
149.07806621
 20
55.721550468499998
 30
0.0
 11
152.50521416899991
 21
55.721550468499998
 31
0.0
  0
LINE
  5
205
  8
INKON
 62
     7
 10
149.07806621
 20
57.657660834399991
 30
0.0
 11
149.07806621
 21
49.721550468500013
 31
0.0
  0
LINE
  5
206
  8
INKON
 62
     7
 10
149.07806621
 20
50.721550468499998
 30
0.0
 11
151.88504338000001
 21
50.721550468499998
 31
0.0
  0
LINE
  5
207
  8
INKON
 62
     7
 10
149.07806621
 20
51.721550468500013
 30
0.0
 11
152.01573299099991
 21
51.721550468500013
 31
0.0
  0
LINE
  5
208
  8
INKON
 62
     7
 10
152.5201372099998
 20
55.4682544685
 30
0.0
 11
151.69130720999991
 21
49.092634468699991
 31
0.0
  0
LINE
  5
209
  8
INKON
 62
     7
 10
149.07806621
 20
56.721550468500013
 30
0.0
 11
151.36856274600001
 21
56.721550468500013
 31
0.0
  0
LINE
  5
20A
  8
INKON
 62
     7
 10
149.07806621
 20
57.721550468499998
 30
0.0
 11
151.9186312099998
 21
56.517921468600001
 31
0.0
  0
LINE
  5
20B
  8
INKON
 62
     7
 10
150.28445916199999
 20
73.525679324500004
 30
0.0
 11
155.24820316200001
 21
73.525679324500004
 31
0.0
  0
LINE
  5
20C
  8
INKON
 62
     7
 10
153.02759416200001
 20
84.345611324499984
 30
0.0
 11
155.24911316199999
 21
74.169680324300003
 31
0.0
  0
LINE
  5
20D
  8
INKON
 62
     7
 10
150.28445916199999
 20
74.525679324500004
 30
0.0
 11
155.17139416200001
 21
74.525679324500004
 31
0.0
  0
LINE
  5
20E
  8
INKON
 62
     7
 10
149.96986959700001
 20
94.969614466499991
 30
0.0
 11
149.96986959700001
 21
92.969614466299987
 31
0.0
  0
LINE
  5
20F
  8
INKON
 62
     7
 10
150.96986959700001
 20
94.969614466499991
 30
0.0
 11
150.96986959700001
 21
92.969614466399989
 31
0.0
  0
LINE
  5
210
  8
INKON
 62
     7
 10
151.96986959700001
 20
94.969614466499991
 30
0.0
 11
151.96986959700001
 21
92.969614466399989
 31
0.0
  0
LINE
  5
211
  8
INKON
 62
     7
 10
152.96986959700001
 20
94.885185505899983
 30
0.0
 11
152.96986959700001
 21
92.969614466399989
 31
0.0
  0
LINE
  5
212
  8
INKON
 62
     7
 10
145.6716982099999
 20
58.471550468500013
 30
0.0
 11
149.07806621
 21
58.471550468500013
 31
0.0
  0
LINE
  5
213
  8
INKON
 62
     7
 10
145.6716982099999
 20
57.971550468500013
 30
0.0
 11
149.07806621
 21
57.971550468500013
 31
0.0
  0
LINE
  5
214
  8
INKON
 62
     7
 10
147.2297407449999
 20
67.721550468499998
 30
0.0
 11
151.52057646200001
 21
67.721550468499998
 31
0.0
  0
LINE
  5
215
  8
INKON
 62
     7
 10
148.73465720999991
 20
68.22155046849997
 30
0.0
 11
150.69965121000001
 21
68.22155046849997
 31
0.0
  0
LINE
  5
216
  8
INKON
 62
     7
 10
149.07806621
 20
57.971550468500013
 30
0.0
 11
149.07806621
 21
57.721550468499998
 31
0.0
  0
LINE
  5
217
  8
INKON
 62
     7
 10
149.07806621
 20
61.721550468500013
 30
0.0
 11
152.40005847899999
 21
61.721550468500013
 31
0.0
  0
LINE
  5
218
  8
INKON
 62
     7
 10
149.07806621
 20
60.721550468499998
 30
0.0
 11
152.495025508
 21
60.721550468499998
 31
0.0
  0
LINE
  5
219
  8
INKON
 62
     7
 10
149.07806621
 20
59.721550468500013
 30
0.0
 11
151.39589530099991
 21
59.721550468500013
 31
0.0
  0
LINE
  5
21A
  8
INKON
 62
     7
 10
149.07806621
 20
66.690236826999993
 30
0.0
 11
149.07806621
 21
58.766277938400002
 31
0.0
  0
LINE
  5
21B
  8
INKON
 62
     7
 10
149.07806621
 20
65.72155046849997
 30
0.0
 11
151.86106787099999
 21
65.72155046849997
 31
0.0
  0
LINE
  5
21C
  8
INKON
 62
     7
 10
149.07806621
 20
64.721550468499998
 30
0.0
 11
152.00743053100001
 21
64.721550468499998
 31
0.0
  0
LINE
  5
21D
  8
INKON
 62
     7
 10
149.07806621
 20
63.721550468499998
 30
0.0
 11
152.13857907100001
 21
63.721550468499998
 31
0.0
  0
LINE
  5
21E
  8
INKON
 62
     7
 10
149.07806621
 20
62.721550468499998
 30
0.0
 11
152.272683728
 21
62.721550468499998
 31
0.0
  0
LINE
  5
21F
  8
INKON
 62
     7
 10
151.69130720999991
 20
67.350465468699994
 30
0.0
 11
152.5201372099998
 21
60.974846468599992
 31
0.0
  0
LINE
  5
220
  8
INKON
 62
     7
 10
151.86106787099999
 20
65.72155046849997
 30
0.0
 11
151.875308601
 21
65.72155046849997
 31
0.0
  0
LINE
  5
221
  8
INKON
 62
     7
 10
146.3961285529999
 20
66.721550468499998
 30
0.0
 11
151.72871387799981
 21
66.721550468499998
 31
0.0
  0
LINE
  5
222
  8
INKON
 62
     7
 10
149.07806621
 20
58.721550468499998
 30
0.0
 11
149.07806621
 21
58.471550468500013
 31
0.0
  0
LINE
  5
223
  8
INKON
 62
     7
 10
149.07806621
 20
58.721550468499998
 30
0.0
 11
151.9186312099998
 21
59.9251794686
 31
0.0
  0
ARC
  5
224
  8
INKON
 62
     7
 10
111.116437597
 20
91.123045466299985
 30
0.0
 40
3.8465679999999982
 50
90.0
 51
258.69006799999988
  0
ARC
  5
225
  8
INKON
 62
     7
 10
113.109488617
 20
78.872298154500001
 30
0.0
 40
0.64104867823
 50
259.78527127900003
 51
79.785271279499995
  0
ARC
  5
226
  8
INKON
 62
     7
 10
109.07771778599999
 20
79.598798255200009
 30
0.0
 40
0.64104867823
 50
259.78527127900003
 51
79.785271279499995
  0
ARC
  5
227
  8
INKON
 62
     7
 10
106.05388966300001
 20
80.143673330599995
 30
0.0
 40
0.64104867823
 50
259.78527127900003
 51
79.785271279499995
  0
ARC
  5
228
  8
INKON
 62
     7
 10
110.2595937129999
 20
79.177480844599998
 30
0.0
 40
0.427365785488
 50
271.32223031199987
 51
349.78527128000002
  0
ARC
  5
229
  8
INKON
 62
     7
 10
110.2595937129999
 20
79.177480844599998
 30
0.0
 40
0.427365785488
 50
169.785271279
 51
248.248312247
  0
ARC
  5
22A
  8
INKON
 62
     7
 10
110.3353817949999
 20
79.598072904999981
 30
0.0
 40
0.427365785486
 50
91.322230312499997
 51
169.7852712799999
  0
ARC
  5
22B
  8
INKON
 62
     7
 10
110.3353817949999
 20
79.598072904999981
 30
0.0
 40
0.427365785486
 50
349.78527128000002
 51
68.248312246499992
  0
ARC
  5
22C
  8
INKON
 62
     7
 10
107.3204353549999
 20
79.589763199300009
 30
0.0
 40
0.320524339112
 50
259.78527127799998
 51
79.785271279499995
  0
ARC
  5
22D
  8
INKON
 62
     7
 10
107.11013932499991
 20
79.627657239900003
 30
0.0
 40
0.320524339112
 50
169.785271279
 51
259.78527128000002
  0
ARC
  5
22E
  8
INKON
 62
     7
 10
107.434117477
 20
80.22065129009998
 30
0.0
 40
0.320524339122
 50
349.78527128000002
 51
79.785271279499995
  0
ARC
  5
22F
  8
INKON
 62
     7
 10
107.223821446
 20
80.258545330700017
 30
0.0
 40
0.320524339122
 50
79.785271279499995
 51
259.78527128000002
  0
ARC
  5
230
  8
INKON
 62
     7
 10
104.2861943189999
 20
80.679325370800001
 30
0.0
 40
0.427365785486
 50
349.78527128000002
 51
169.7852712799999
  0
ARC
  5
231
  8
INKON
 62
     7
 10
106.6998417879999
 20
81.41925558139998
 30
0.0
 40
0.320524339112
 50
259.78527127799998
 51
79.785271279499995
  0
ARC
  5
232
  8
INKON
 62
     7
 10
106.48954575899999
 20
81.457149621900001
 30
0.0
 40
0.320524339112
 50
169.785271279
 51
259.78527128000002
  0
ARC
  5
233
  8
INKON
 62
     7
 10
106.81352391
 20
82.05014367219998
 30
0.0
 40
0.320524339122
 50
349.78527128000002
 51
79.785271279499995
  0
ARC
  5
234
  8
INKON
 62
     7
 10
106.603227879
 20
82.0880377127
 30
0.0
 40
0.320524339122
 50
79.785271279499995
 51
259.78527128000002
  0
ARC
  5
235
  8
INKON
 62
     7
 10
121.32203801999989
 20
108.474010049
 30
0.0
 40
5.0
 50
258.69006799999988
 51
78.690068000000025
  0
ARC
  5
236
  8
INKON
 62
     7
 10
71.322038020299999
 20
108.474010049
 30
0.0
 40
5.0
 50
101.309932
 51
281.309932
  0
ARC
  5
237
  8
INKON
 62
     7
 10
88.065408151900002
 20
95.456127753899992
 30
0.0
 40
3.0
 50
203.04729099999989
 51
250.325559
  0
ARC
  5
238
  8
INKON
 62
     7
 10
90.270339151699986
 20
70.799076753599991
 30
0.0
 40
4.0
 50
130.02547799999991
 51
250.02547799999999
  0
ARC
  5
239
  8
INKON
 62
     7
 10
82.066266151400015
 20
100.325502754
 30
0.0
 40
2.2500079999999989
 50
308.88315599999999
 51
238.280393
  0
CIRCLE
  5
23A
  8
INKON
 62
     7
 10
82.066266151400015
 20
100.325502754
 30
0.0
 40
1.1999999999999991
  0
ARC
  5
23B
  8
INKON
 62
     7
 10
76.105346151399999
 20
87.471912753700011
 30
0.0
 40
3.0
 50
77.335086000000004
 51
102.23059499999999
  0
ARC
  5
23C
  8
INKON
 62
     7
 10
82.066266151400015
 20
47.308209753999989
 30
0.0
 40
2.2500079999999989
 50
121.719607
 51
51.11684399979999
  0
CIRCLE
  5
23D
  8
INKON
 62
     7
 10
82.066266151400015
 20
47.308209753999989
 30
0.0
 40
1.1999999999999991
  0
ARC
  5
23E
  8
INKON
 62
     7
 10
76.105346151399999
 20
60.1618007537
 30
0.0
 40
3.0
 50
257.76940500000001
 51
282.66491400000001
  0
ARC
  5
23F
  8
INKON
 62
     7
 10
88.065408151900002
 20
52.177584753799998
 30
0.0
 40
3.0
 50
109.6744409999999
 51
156.952709
  0
ARC
  5
240
  8
INKON
 62
     7
 10
104.325721445
 20
67.100790985100005
 30
0.0
 40
0.64104867823
 50
101.15039487999979
 51
281.15039488000002
  0
ARC
  5
241
  8
INKON
 62
     7
 10
107.340248711
 20
67.694971702399997
 30
0.0
 40
0.64104867823
 50
101.15039487999979
 51
281.15039488000002
  0
ARC
  5
242
  8
INKON
 62
     7
 10
105.95894790600001
 20
67.74940065109999
 30
0.0
 40
0.320524339112
 50
101.1503948789999
 51
281.15039488000002
  0
ARC
  5
243
  8
INKON
 62
     7
 10
106.1685970959999
 20
67.790723716099976
 30
0.0
 40
0.320524339112
 50
11.1503948798
 51
101.150394881
  0
ARC
  5
244
  8
INKON
 62
     7
 10
106.08291710100001
 20
67.120453080499999
 30
0.0
 40
0.320524339122
 50
191.15039487999999
 51
281.15039488000002
  0
ARC
  5
245
  8
INKON
 62
     7
 10
106.292566291
 20
67.161776145499999
 30
0.0
 40
0.320524339122
 50
281.15039488000002
 51
101.15039487999979
  0
ARC
  5
246
  8
INKON
 62
     7
 10
109.18160743
 20
67.840119925300002
 30
0.0
 40
0.427365785486
 50
191.15039487999999
 51
11.1503948802
  0
ARC
  5
247
  8
INKON
 62
     7
 10
100.306351756
 20
66.308550028799999
 30
0.0
 40
0.64104867823
 50
101.15039487999979
 51
281.15039488000002
  0
ARC
  5
248
  8
INKON
 62
     7
 10
100.737034065
 20
57.304180670500003
 30
0.0
 40
0.5
 50
90.0
 51
180.0
  0
ARC
  5
249
  8
INKON
 62
     7
 10
100.737034065
 20
46.404180670099997
 30
0.0
 40
0.5
 50
180.0
 51
270.0
  0
ARC
  5
24A
  8
INKON
 62
     7
 10
103.0715765579999
 20
67.06258532359999
 30
0.0
 40
0.427365785488
 50
112.6873539129999
 51
191.15039487999999
  0
ARC
  5
24B
  8
INKON
 62
     7
 10
103.0715765579999
 20
67.06258532359999
 30
0.0
 40
0.427365785488
 50
11.1503948797
 51
89.613435847199995
  0
ARC
  5
24C
  8
INKON
 62
     7
 10
103.1542226879999
 20
66.643286943199996
 30
0.0
 40
0.427365785486
 50
292.68735391299998
 51
11.1503948802
  0
ARC
  5
24D
  8
INKON
 62
     7
 10
103.1542226879999
 20
66.643286943199996
 30
0.0
 40
0.427365785486
 50
191.15039487999999
 51
269.61343584700001
  0
ARC
  5
24E
  8
INKON
 62
     7
 10
107.2033952099999
 20
66.271723535000007
 30
0.0
 40
0.320524339112
 50
101.1503948789999
 51
281.15039488000002
  0
ARC
  5
24F
  8
INKON
 62
     7
 10
107.4130444
 20
66.313046600000007
 30
0.0
 40
0.320524339112
 50
11.1503948798
 51
101.150394881
  0
ARC
  5
250
  8
INKON
 62
     7
 10
107.3273644049999
 20
65.642775964400002
 30
0.0
 40
0.320524339122
 50
191.15039487999999
 51
281.15039488000002
  0
ARC
  5
251
  8
INKON
 62
     7
 10
107.537013595
 20
65.684099029400002
 30
0.0
 40
0.320524339122
 50
281.15039488000002
 51
101.15039487999979
  0
ARC
  5
252
  8
INKON
 62
     7
 10
102.93703406500001
 20
57.304180670500003
 30
0.0
 40
0.5
 50
0.0
 51
90.0
  0
ARC
  5
253
  8
INKON
 62
     7
 10
102.93703406500001
 20
46.404180670099997
 30
0.0
 40
0.5
 50
270.0
 51
0.0000000000002842
  0
ARC
  5
254
  8
INKON
 62
     7
 10
109.5148849949999
 20
46.363936725199999
 30
0.0
 40
0.5
 50
180.0
 51
270.0
  0
ARC
  5
255
  8
INKON
 62
     7
 10
111.71488499599999
 20
46.363936725199999
 30
0.0
 40
0.5
 50
270.0
 51
0.0000000000002842
  0
ARC
  5
256
  8
INKON
 62
     7
 10
111.71488499599999
 20
57.263936725599997
 30
0.0
 40
0.5
 50
0.0
 51
90.0
  0
ARC
  5
257
  8
INKON
 62
     7
 10
109.5148849949999
 20
57.263936725599997
 30
0.0
 40
0.5
 50
90.0
 51
180.0
  0
ARC
  5
258
  8
INKON
 62
     7
 10
123.48924959599999
 20
60.327774466099989
 30
0.0
 40
0.2
 50
180.0
 51
270.0
  0
ARC
  5
259
  8
INKON
 62
     7
 10
123.48924959599999
 20
61.17777446609999
 30
0.0
 40
0.2
 50
90.0
 51
180.0
  0
ARC
  5
25A
  8
INKON
 62
     7
 10
132.26986959600001
 20
58.8237604662
 30
0.0
 40
0.2
 50
206.00440499999999
 51
333.9955950009998
  0
ARC
  5
25B
  8
INKON
 62
     7
 10
141.050488597
 20
61.17777446609999
 30
0.0
 40
0.2
 50
0.0
 51
90.0
  0
ARC
  5
25C
  8
INKON
 62
     7
 10
141.050488597
 20
60.327774466099989
 30
0.0
 40
0.2
 50
270.0
 51
0.0000000000114255
  0
ARC
  5
25D
  8
INKON
 62
     7
 10
151.82658616200001
 20
69.865216324499983
 30
0.0
 40
0.8460679999999999
 50
177.702507
 51
132.88386899999981
  0
ARC
  5
25E
  8
INKON
 62
     7
 10
149.820792162
 20
83.125679324399982
 30
0.0
 40
2.399999999999999
 50
90.0
 51
151.767008
  0
ARC
  5
25F
  8
INKON
 62
     7
 10
151.56211016200001
 20
84.025679324300015
 30
0.0
 40
1.5
 50
12.315086000000001
 51
90.0
  0
ARC
  5
260
  8
INKON
 62
     7
 10
150.69965121000001
 20
49.221550468500013
 30
0.0
 40
1.0
 50
270.0
 51
352.5930879999998
  0
ARC
  5
261
  8
INKON
 62
     7
 10
148.6104812099999
 20
50.621550468700001
 30
0.0
 40
2.399999999999999
 50
206.32928000000001
 51
270.0
  0
ARC
  5
262
  8
INKON
 62
     7
 10
151.52848220999991
 20
55.597169468499999
 30
0.0
 40
1.0
 50
352.5930879999998
 51
67.036226999899995
  0
ARC
  5
263
  8
INKON
 62
     7
 10
153.78362916200001
 20
73.849749324300006
 30
0.0
 40
1.5
 50
277.12501600000002
 51
12.31508600009999
  0
ARC
  5
264
  8
INKON
 62
     7
 10
153.42330059700001
 20
91.12304546610001
 30
0.0
 40
3.8465679999999982
 50
281.309932
 51
90.0
  0
ARC
  5
265
  8
INKON
 62
     7
 10
150.69965121000001
 20
67.221550468499998
 30
0.0
 40
1.0
 50
7.4069119999999993
 51
90.0
  0
ARC
  5
266
  8
INKON
 62
     7
 10
148.73465720999991
 20
65.621550468400002
 30
0.0
 40
2.6000000000000001
 50
90.0
 51
153.6707199999999
  0
ARC
  5
267
  8
INKON
 62
     7
 10
151.52848220999991
 20
60.8459314686
 30
0.0
 40
1.0
 50
292.96377299999989
 51
7.4069119999299984
  0
ENDSEC
  0
EOF

