  0
SECTION
  2
HEADER
  9
$ACADVER
  1
AC1024
  9
$ACADMAINTVER
 70
     6
  9
$DWGCODEPAGE
  3
UNDEFINED
  9
$INSBASE
 10
0.0
 20
0.0
 30
0.0
  9
$EXTMIN
 10
1.000000000000000E+20
 20
1.000000000000000E+20
 30
1.000000000000000E+20
  9
$EXTMAX
 10
-1.000000000000000E+20
 20
-1.000000000000000E+20
 30
-1.000000000000000E+20
  9
$LIMMIN
 10
0.0
 20
0.0
  9
$LIMMAX
 10
12.0
 20
9.0
  9
$ORTHOMODE
 70
     0
  9
$REGENMODE
 70
     1
  9
$FILLMODE
 70
     1
  9
$QTEXTMODE
 70
     0
  9
$MIRRTEXT
 70
     1
  9
$LTSCALE
 40
1.0
  9
$ATTMODE
 70
     1
  9
$TEXTSIZE
 40
0.2
  9
$TRACEWID
 40
0.05
  9
$TEXTSTYLE
  7
Standard
  9
$CLAYER
  8
0
  9
$CELTYPE
  6
ByLayer
  9
$CECOLOR
 62
   256
  9
$CELTSCALE
 40
1.0
  9
$DISPSILH
 70
     0
  9
$DIMSCALE
 40
1.0
  9
$DIMASZ
 40
0.18
  9
$DIMEXO
 40
0.0625
  9
$DIMDLI
 40
0.38
  9
$DIMRND
 40
0.0
  9
$DIMDLE
 40
0.0
  9
$DIMEXE
 40
0.18
  9
$DIMTP
 40
0.0
  9
$DIMTM
 40
0.0
  9
$DIMTXT
 40
0.18
  9
$DIMCEN
 40
0.09
  9
$DIMTSZ
 40
0.0
  9
$DIMTOL
 70
     0
  9
$DIMLIM
 70
     0
  9
$DIMTIH
 70
     1
  9
$DIMTOH
 70
     1
  9
$DIMSE1
 70
     0
  9
$DIMSE2
 70
     0
  9
$DIMTAD
 70
     0
  9
$DIMZIN
 70
     0
  9
$DIMBLK
  1

  9
$DIMASO
 70
     1
  9
$DIMSHO
 70
     1
  9
$DIMPOST
  1

  9
$DIMAPOST
  1

  9
$DIMALT
 70
     0
  9
$DIMALTD
 70
     2
  9
$DIMALTF
 40
25.4
  9
$DIMLFAC
 40
1.0
  9
$DIMTOFL
 70
     0
  9
$DIMTVP
 40
0.0
  9
$DIMTIX
 70
     0
  9
$DIMSOXD
 70
     0
  9
$DIMSAH
 70
     0
  9
$DIMBLK1
  1

  9
$DIMBLK2
  1

  9
$DIMSTYLE
  2
Standard
  9
$DIMCLRD
 70
     0
  9
$DIMCLRE
 70
     0
  9
$DIMCLRT
 70
     0
  9
$DIMTFAC
 40
1.0
  9
$DIMGAP
 40
0.09
  9
$DIMJUST
 70
     0
  9
$DIMSD1
 70
     0
  9
$DIMSD2
 70
     0
  9
$DIMTOLJ
 70
     1
  9
$DIMTZIN
 70
     0
  9
$DIMALTZ
 70
     0
  9
$DIMALTTZ
 70
     0
  9
$DIMUPT
 70
     0
  9
$DIMDEC
 70
     4
  9
$DIMTDEC
 70
     4
  9
$DIMALTU
 70
     2
  9
$DIMALTTD
 70
     2
  9
$DIMTXSTY
  7
Standard
  9
$DIMAUNIT
 70
     0
  9
$DIMADEC
 70
     0
  9
$DIMALTRND
 40
0.0
  9
$DIMAZIN
 70
     0
  9
$DIMDSEP
 70
    46
  9
$DIMATFIT
 70
     3
  9
$DIMFRAC
 70
     0
  9
$DIMLDRBLK
  1

  9
$DIMLUNIT
 70
     2
  9
$DIMLWD
 70
    -2
  9
$DIMLWE
 70
    -2
  9
$DIMTMOVE
 70
     0
  9
$DIMFXL
 40
1.0
  9
$DIMFXLON
 70
     0
  9
$DIMJOGANG
 40
0.7853981633974483
  9
$DIMTFILL
 70
     0
  9
$DIMTFILLCLR
 70
     0
  9
$DIMARCSYM
 70
     0
  9
$DIMLTYPE
  6

  9
$DIMLTEX1
  6

  9
$DIMLTEX2
  6

  9
$DIMTXTDIRECTION
 70
     0
  9
$LUNITS
 70
     2
  9
$LUPREC
 70
     4
  9
$SKETCHINC
 40
0.1
  9
$FILLETRAD
 40
0.5
  9
$AUNITS
 70
     0
  9
$AUPREC
 70
     0
  9
$MENU
  1
.
  9
$ELEVATION
 40
0.0
  9
$PELEVATION
 40
0.0
  9
$THICKNESS
 40
0.0
  9
$LIMCHECK
 70
     0
  9
$CHAMFERA
 40
0.5
  9
$CHAMFERB
 40
0.5
  9
$CHAMFERC
 40
1.0
  9
$CHAMFERD
 40
0.0
  9
$SKPOLY
 70
     0
  9
$TDCREATE
 40
2458943.763680544
  9
$TDUCREATE
 40
2458943.972013889
  9
$TDUPDATE
 40
2458943.763680544
  9
$TDUUPDATE
 40
2458943.972013889
  9
$TDINDWG
 40
0.0000000116
  9
$TDUSRTIMER
 40
0.0000000116
  9
$USRTIMER
 70
     1
  9
$ANGBASE
 50
0.0
  9
$ANGDIR
 70
     0
  9
$PDMODE
 70
     0
  9
$PDSIZE
 40
0.0
  9
$PLINEWID
 40
0.0
  9
$SPLFRAME
 70
     0
  9
$SPLINETYPE
 70
     6
  9
$SPLINESEGS
 70
     8
  9
$HANDSEED
  5
A9
  9
$SURFTAB1
 70
     6
  9
$SURFTAB2
 70
     6
  9
$SURFTYPE
 70
     6
  9
$SURFU
 70
     6
  9
$SURFV
 70
     6
  9
$UCSBASE
  2

  9
$UCSNAME
  2

  9
$UCSORG
 10
0.0
 20
0.0
 30
0.0
  9
$UCSXDIR
 10
1.0
 20
0.0
 30
0.0
  9
$UCSYDIR
 10
0.0
 20
1.0
 30
0.0
  9
$UCSORTHOREF
  2

  9
$UCSORTHOVIEW
 70
     0
  9
$UCSORGTOP
 10
0.0
 20
0.0
 30
0.0
  9
$UCSORGBOTTOM
 10
0.0
 20
0.0
 30
0.0
  9
$UCSORGLEFT
 10
0.0
 20
0.0
 30
0.0
  9
$UCSORGRIGHT
 10
0.0
 20
0.0
 30
0.0
  9
$UCSORGFRONT
 10
0.0
 20
0.0
 30
0.0
  9
$UCSORGBACK
 10
0.0
 20
0.0
 30
0.0
  9
$PUCSBASE
  2

  9
$PUCSNAME
  2

  9
$PUCSORG
 10
0.0
 20
0.0
 30
0.0
  9
$PUCSXDIR
 10
1.0
 20
0.0
 30
0.0
  9
$PUCSYDIR
 10
0.0
 20
1.0
 30
0.0
  9
$PUCSORTHOREF
  2

  9
$PUCSORTHOVIEW
 70
     0
  9
$PUCSORGTOP
 10
0.0
 20
0.0
 30
0.0
  9
$PUCSORGBOTTOM
 10
0.0
 20
0.0
 30
0.0
  9
$PUCSORGLEFT
 10
0.0
 20
0.0
 30
0.0
  9
$PUCSORGRIGHT
 10
0.0
 20
0.0
 30
0.0
  9
$PUCSORGFRONT
 10
0.0
 20
0.0
 30
0.0
  9
$PUCSORGBACK
 10
0.0
 20
0.0
 30
0.0
  9
$USERI1
 70
     0
  9
$USERI2
 70
     0
  9
$USERI3
 70
     0
  9
$USERI4
 70
     0
  9
$USERI5
 70
     0
  9
$USERR1
 40
0.0
  9
$USERR2
 40
0.0
  9
$USERR3
 40
0.0
  9
$USERR4
 40
0.0
  9
$USERR5
 40
0.0
  9
$WORLDVIEW
 70
     1
  9
$SHADEDGE
 70
     3
  9
$SHADEDIF
 70
    70
  9
$TILEMODE
 70
     1
  9
$MAXACTVP
 70
    64
  9
$PINSBASE
 10
0.0
 20
0.0
 30
0.0
  9
$PLIMCHECK
 70
     0
  9
$PEXTMIN
 10
1.000000000000000E+20
 20
1.000000000000000E+20
 30
1.000000000000000E+20
  9
$PEXTMAX
 10
-1.000000000000000E+20
 20
-1.000000000000000E+20
 30
-1.000000000000000E+20
  9
$PLIMMIN
 10
0.0
 20
0.0
  9
$PLIMMAX
 10
12.0
 20
9.0
  9
$UNITMODE
 70
     0
  9
$VISRETAIN
 70
     1
  9
$PLINEGEN
 70
     0
  9
$PSLTSCALE
 70
     1
  9
$TREEDEPTH
 70
  3020
  9
$CMLSTYLE
  2
Standard
  9
$CMLJUST
 70
     0
  9
$CMLSCALE
 40
1.0
  9
$PROXYGRAPHICS
 70
     1
  9
$MEASUREMENT
 70
     0
  9
$CELWEIGHT
370
    -1
  9
$ENDCAPS
280
     0
  9
$JOINSTYLE
280
     0
  9
$LWDISPLAY
290
     1
  9
$INSUNITS
 70
     4
  9
$HYPERLINKBASE
  1

  9
$STYLESHEET
  1

  9
$XEDIT
290
     1
  9
$CEPSNTYPE
380
     0
  9
$PSTYLEMODE
290
     1
  9
$FINGERPRINTGUID
  2
{496D2EB0-8E4F-4DDF-E81E-414703108A49}
  9
$VERSIONGUID
  2
{FAEB1C32-E019-11D5-929B-00C0DF256EC4}
  9
$EXTNAMES
290
     1
  9
$PSVPSCALE
 40
0.0
  9
$OLESTARTUP
290
     0
  9
$SORTENTS
280
   127
  9
$INDEXCTL
280
     0
  9
$HIDETEXT
280
     1
  9
$XCLIPFRAME
280
     2
  9
$HALOGAP
280
     0
  9
$OBSCOLOR
 70
   257
  9
$OBSLTYPE
280
     0
  9
$INTERSECTIONDISPLAY
280
     0
  9
$INTERSECTIONCOLOR
 70
   257
  9
$DIMASSOC
280
     2
  9
$PROJECTNAME
  1

  9
$CAMERADISPLAY
290
     0
  9
$LENSLENGTH
 40
50.0
  9
$CAMERAHEIGHT
 40
0.0
  9
$STEPSPERSEC
 40
2.0
  9
$STEPSIZE
 40
6.0
  9
$3DDWFPREC
 40
2.0
  9
$PSOLWIDTH
 40
0.25
  9
$PSOLHEIGHT
 40
4.0
  9
$LOFTANG1
 40
1.570796326794897
  9
$LOFTANG2
 40
1.570796326794897
  9
$LOFTMAG1
 40
0.0
  9
$LOFTMAG2
 40
0.0
  9
$LOFTPARAM
 70
     7
  9
$LOFTNORMALS
280
     1
  9
$LATITUDE
 40
37.795
  9
$LONGITUDE
 40
-122.394
  9
$NORTHDIRECTION
 40
0.0
  9
$TIMEZONE
 70
 -8000
  9
$LIGHTGLYPHDISPLAY
280
     1
  9
$TILEMODELIGHTSYNCH
280
     1
  9
$CMATERIAL
347
3C
  9
$SOLIDHIST
280
     1
  9
$SHOWHIST
280
     1
  9
$DWFFRAME
280
     2
  9
$DGNFRAME
280
     2
  9
$REALWORLDSCALE
290
     1
  9
$INTERFERECOLOR
 62
   256
  9
$CSHADOW
280
     0
  9
$SHADOWPLANELOCATION
 40
0.0
  0
ENDSEC
  0
SECTION
  2
CLASSES
  0
CLASS
  1
ACDBDICTIONARYWDFLT
  2
AcDbDictionaryWithDefault
  3
ObjectDBX Classes
 90
        0
 91
        4
280
     0
281
     0
  0
CLASS
  1
VISUALSTYLE
  2
AcDbVisualStyle
  3
ObjectDBX Classes
 90
     4095
 91
        4
280
     0
281
     0
  0
CLASS
  1
MATERIAL
  2
AcDbMaterial
  3
ObjectDBX Classes
 90
     1153
 91
        4
280
     0
281
     0
  0
CLASS
  1
SUN
  2
AcDbSun
  3
SCENEOE
 90
     1024
 91
        4
280
     0
281
     0
  0
ENDSEC
  0
SECTION
  2
TABLES
  0
TABLE
  2
VPORT
  5
8
330
0
100
AcDbSymbolTable
 70
     1
  0
VPORT
  5
29
330
8
100
AcDbSymbolTableRecord
100
AcDbViewportTableRecord
  2
*Active
 70
     0
 10
0.0
 20
0.0
 11
1.0
 21
1.0
 12
0.0
 22
0.0
 13
0.0
 23
0.0
 14
0.5
 24
0.5
 15
0.5
 25
0.5
 16
0.0
 26
0.0
 36
1.0
 17
328.9340252969075
 27
-229.6946038145158
 37
0.0
 40
457.5527776633896
 41
1.777178103315343
 42
50.0
 43
0.0
 44
0.0
 50
0.0
 51
0.0
 71
     0
 72
   100
 73
     1
 74
     3
 75
     0
 76
     0
 77
     0
 78
     0
281
     0
 65
     1
110
0.0
120
0.0
130
0.0
111
1.0
121
0.0
131
0.0
112
0.0
122
1.0
132
0.0
 79
     0
146
0.0
 60
     3
 61
     5
292
     1
282
     1
141
0.0
142
0.0
 63
   250
361
3F
  0
ENDTAB
  0
TABLE
  2
LTYPE
  5
5
330
0
100
AcDbSymbolTable
 70
     1
  0
LTYPE
  5
14
330
5
100
AcDbSymbolTableRecord
100
AcDbLinetypeTableRecord
  2
ByBlock
 70
     0
  3

 72
    65
 73
     0
 40
0.0
  0
LTYPE
  5
15
330
5
100
AcDbSymbolTableRecord
100
AcDbLinetypeTableRecord
  2
ByLayer
 70
     0
  3

 72
    65
 73
     0
 40
0.0
  0
LTYPE
  5
16
330
5
100
AcDbSymbolTableRecord
100
AcDbLinetypeTableRecord
  2
Continuous
 70
     0
  3
Solid line
 72
    65
 73
     0
 40
0.0
  0
ENDTAB
  0
TABLE
  2
LAYER
  5
2
330
0
100
AcDbSymbolTable
 70
     2
  0
LAYER
  5
10
330
2
100
AcDbSymbolTableRecord
100
AcDbLayerTableRecord
  2
0
 70
     0
 62
     7
  6
Continuous
370
    -3
390
F
347
3E
  0
LAYER
  5
40
330
2
100
AcDbSymbolTableRecord
100
AcDbLayerTableRecord
  2
Layer 1
 70
     0
 62
     7
  6
Continuous
370
    -3
390
F
347
3E
  0
ENDTAB
  0
TABLE
  2
STYLE
  5
3
330
0
100
AcDbSymbolTable
 70
     1
  0
STYLE
  5
11
330
3
100
AcDbSymbolTableRecord
100
AcDbTextStyleTableRecord
  2
Standard
 70
     0
 40
0.0
 41
1.0
 50
0.0
 71
     0
 42
0.2
  3
txt
  4

  0
ENDTAB
  0
TABLE
  2
VIEW
  5
6
330
0
100
AcDbSymbolTable
 70
     0
  0
ENDTAB
  0
TABLE
  2
UCS
  5
7
330
0
100
AcDbSymbolTable
 70
     0
  0
ENDTAB
  0
TABLE
  2
APPID
  5
9
330
0
100
AcDbSymbolTable
 70
     1
  0
APPID
  5
12
330
9
100
AcDbSymbolTableRecord
100
AcDbRegAppTableRecord
  2
ACAD
 70
     0
  0
ENDTAB
  0
TABLE
  2
DIMSTYLE
  5
A
330
0
100
AcDbSymbolTable
 70
     1
100
AcDbDimStyleTable
  0
DIMSTYLE
105
27
330
A
100
AcDbSymbolTableRecord
100
AcDbDimStyleTableRecord
  2
Standard
 70
     0
178
     0
340
11
  0
ENDTAB
  0
TABLE
  2
BLOCK_RECORD
  5
1
330
0
100
AcDbSymbolTable
 70
    22
  0
BLOCK_RECORD
  5
1F
330
1
100
AcDbSymbolTableRecord
100
AcDbBlockTableRecord
  2
*Model_Space
340
22
 70
     0
280
     1
281
     0
  0
BLOCK_RECORD
  5
1B
330
1
100
AcDbSymbolTableRecord
100
AcDbBlockTableRecord
  2
*Paper_Space
340
1E
 70
     0
280
     1
281
     0
  0
BLOCK_RECORD
  5
23
330
1
100
AcDbSymbolTableRecord
100
AcDbBlockTableRecord
  2
*Paper_Space0
340
26
 70
     0
280
     1
281
     0
  0
BLOCK_RECORD
  5
41
330
1
100
AcDbSymbolTableRecord
100
AcDbBlockTableRecord
  2
block 2
340
0
102
{BLKREFS
331
42
102
}
 70
     0
280
     1
281
     0
  0
BLOCK_RECORD
  5
45
330
1
100
AcDbSymbolTableRecord
100
AcDbBlockTableRecord
  2
block 3
340
0
102
{BLKREFS
331
46
102
}
 70
     0
280
     1
281
     0
  0
BLOCK_RECORD
  5
4A
330
1
100
AcDbSymbolTableRecord
100
AcDbBlockTableRecord
  2
block 4
340
0
102
{BLKREFS
331
4B
102
}
 70
     0
280
     1
281
     0
  0
BLOCK_RECORD
  5
4F
330
1
100
AcDbSymbolTableRecord
100
AcDbBlockTableRecord
  2
block 5
340
0
102
{BLKREFS
331
50
102
}
 70
     0
280
     1
281
     0
  0
BLOCK_RECORD
  5
54
330
1
100
AcDbSymbolTableRecord
100
AcDbBlockTableRecord
  2
block 6
340
0
102
{BLKREFS
331
55
102
}
 70
     0
280
     1
281
     0
  0
BLOCK_RECORD
  5
59
330
1
100
AcDbSymbolTableRecord
100
AcDbBlockTableRecord
  2
block 7
340
0
102
{BLKREFS
331
5A
102
}
 70
     0
280
     1
281
     0
  0
BLOCK_RECORD
  5
5E
330
1
100
AcDbSymbolTableRecord
100
AcDbBlockTableRecord
  2
block 8
340
0
102
{BLKREFS
331
5F
102
}
 70
     0
280
     1
281
     0
  0
BLOCK_RECORD
  5
63
330
1
100
AcDbSymbolTableRecord
100
AcDbBlockTableRecord
  2
block 9
340
0
102
{BLKREFS
331
64
102
}
 70
     0
280
     1
281
     0
  0
BLOCK_RECORD
  5
67
330
1
100
AcDbSymbolTableRecord
100
AcDbBlockTableRecord
  2
block 10
340
0
102
{BLKREFS
331
68
102
}
 70
     0
280
     1
281
     0
  0
BLOCK_RECORD
  5
6C
330
1
100
AcDbSymbolTableRecord
100
AcDbBlockTableRecord
  2
block 11
340
0
102
{BLKREFS
331
6D
102
}
 70
     0
280
     1
281
     0
  0
BLOCK_RECORD
  5
71
330
1
100
AcDbSymbolTableRecord
100
AcDbBlockTableRecord
  2
block 12
340
0
102
{BLKREFS
331
72
102
}
 70
     0
280
     1
281
     0
  0
BLOCK_RECORD
  5
76
330
1
100
AcDbSymbolTableRecord
100
AcDbBlockTableRecord
  2
block 13
340
0
102
{BLKREFS
331
77
102
}
 70
     0
280
     1
281
     0
  0
BLOCK_RECORD
  5
7B
330
1
100
AcDbSymbolTableRecord
100
AcDbBlockTableRecord
  2
block 14
340
0
102
{BLKREFS
331
7C
102
}
 70
     0
280
     1
281
     0
  0
BLOCK_RECORD
  5
80
330
1
100
AcDbSymbolTableRecord
100
AcDbBlockTableRecord
  2
block 15
340
0
102
{BLKREFS
331
81
102
}
 70
     0
280
     1
281
     0
  0
BLOCK_RECORD
  5
85
330
1
100
AcDbSymbolTableRecord
100
AcDbBlockTableRecord
  2
block 16
340
0
102
{BLKREFS
331
86
102
}
 70
     0
280
     1
281
     0
  0
BLOCK_RECORD
  5
89
330
1
100
AcDbSymbolTableRecord
100
AcDbBlockTableRecord
  2
block 17
340
0
102
{BLKREFS
331
8A
102
}
 70
     0
280
     1
281
     0
  0
BLOCK_RECORD
  5
8E
330
1
100
AcDbSymbolTableRecord
100
AcDbBlockTableRecord
  2
block 18
340
0
102
{BLKREFS
331
8F
102
}
 70
     0
280
     1
281
     0
  0
BLOCK_RECORD
  5
93
330
1
100
AcDbSymbolTableRecord
100
AcDbBlockTableRecord
  2
block 19
340
0
102
{BLKREFS
331
94
102
}
 70
     0
280
     1
281
     0
  0
BLOCK_RECORD
  5
98
330
1
100
AcDbSymbolTableRecord
100
AcDbBlockTableRecord
  2
block 20
340
0
102
{BLKREFS
331
99
102
}
 70
     0
280
     1
281
     0
  0
BLOCK_RECORD
  5
9D
330
1
100
AcDbSymbolTableRecord
100
AcDbBlockTableRecord
  2
block 21
340
0
102
{BLKREFS
331
9E
102
}
 70
     0
280
     1
281
     0
  0
BLOCK_RECORD
  5
A2
330
1
100
AcDbSymbolTableRecord
100
AcDbBlockTableRecord
  2
block 22
340
0
102
{BLKREFS
331
A3
102
}
 70
     0
280
     1
281
     0
  0
ENDTAB
  0
ENDSEC
  0
SECTION
  2
BLOCKS
  0
BLOCK
  5
20
330
1F
100
AcDbEntity
  8
0
100
AcDbBlockBegin
  2
*Model_Space
 70
     0
 10
0.0
 20
0.0
 30
0.0
  3
*Model_Space
  1

  0
ENDBLK
  5
21
330
1F
100
AcDbEntity
  8
0
100
AcDbBlockEnd
  0
BLOCK
  5
1C
330
1B
100
AcDbEntity
 67
     1
  8
0
100
AcDbBlockBegin
  2
*Paper_Space
 70
     0
 10
0.0
 20
0.0
 30
0.0
  3
*Paper_Space
  1

  0
ENDBLK
  5
1D
330
1B
100
AcDbEntity
 67
     1
  8
0
100
AcDbBlockEnd
  0
BLOCK
  5
24
330
23
100
AcDbEntity
  8
0
100
AcDbBlockBegin
  2
*Paper_Space0
 70
     0
 10
0.0
 20
0.0
 30
0.0
  3
*Paper_Space0
  1

  0
ENDBLK
  5
25
330
23
100
AcDbEntity
  8
0
100
AcDbBlockEnd
  0
BLOCK
  5
43
330
41
100
AcDbEntity
  8
0
100
AcDbBlockBegin
  2
block 2
 70
     0
 10
0.0
 20
0.0
 30
0.0
  3
block 2
  1

  0
INSERT
  5
46
330
41
100
AcDbEntity
  8
Layer 1
100
AcDbBlockReference
  2
block 3
 10
0.0
 20
0.0
 30
0.0
  0
INSERT
  5
4B
330
41
100
AcDbEntity
  8
Layer 1
100
AcDbBlockReference
  2
block 4
 10
0.0
 20
0.0
 30
0.0
  0
INSERT
  5
50
330
41
100
AcDbEntity
  8
Layer 1
100
AcDbBlockReference
  2
block 5
 10
0.0
 20
0.0
 30
0.0
  0
INSERT
  5
55
330
41
100
AcDbEntity
  8
Layer 1
100
AcDbBlockReference
  2
block 6
 10
0.0
 20
0.0
 30
0.0
  0
INSERT
  5
5A
330
41
100
AcDbEntity
  8
Layer 1
100
AcDbBlockReference
  2
block 7
 10
0.0
 20
0.0
 30
0.0
  0
INSERT
  5
5F
330
41
100
AcDbEntity
  8
Layer 1
100
AcDbBlockReference
  2
block 8
 10
0.0
 20
0.0
 30
0.0
  0
ENDBLK
  5
44
330
41
100
AcDbEntity
  8
0
100
AcDbBlockEnd
  0
BLOCK
  5
47
330
45
100
AcDbEntity
  8
0
100
AcDbBlockBegin
  2
block 3
 70
     0
 10
0.0
 20
0.0
 30
0.0
  3
block 3
  1

  0
SPLINE
  5
49
330
45
100
AcDbEntity
  8
Layer 1
 62
     7
420
 16777215
370
    18
100
AcDbSpline
210
0.0
220
0.0
230
1.0
 70
     8
 71
     3
 72
    20
 73
    16
 74
     0
 42
0.0000000001
 43
0.0000000001
 12
1.0
 22
0.0
 32
0.0
 13
1.0
 23
0.0
 33
0.0
 40
0.0
 40
0.0
 40
0.0
 40
0.0
 40
1.0
 40
1.0
 40
1.0
 40
2.0
 40
2.0
 40
2.0
 40
3.0
 40
3.0
 40
3.0
 40
4.0
 40
4.0
 40
4.0
 40
5.0
 40
5.0
 40
5.0
 40
5.0
 10
-37.08540974197226
 20
-80.88534763607493
 30
0.0
 10
-37.08540974197226
 20
-80.88534763607493
 30
0.0
 10
-47.14999304276277
 20
-80.88534763607493
 30
0.0
 10
-47.14999304276277
 20
-80.88534763607493
 30
0.0
 10
-47.97842016729968
 20
-80.88534763607493
 30
0.0
 10
-48.64999304238518
 20
-81.55692051116364
 30
0.0
 10
-48.64999304238518
 20
-82.3853476357012
 30
0.0
 10
-48.64999304238518
 20
-82.3853476357012
 30
0.0
 10
-48.64999304238518
 20
-97.38534763195099
 30
0.0
 10
-48.64999304238518
 20
-97.38534763195099
 30
0.0
 10
-48.64999304238518
 20
-98.21377475649176
 30
0.0
 10
-47.97842016729968
 20
-98.88534763157726
 30
0.0
 10
-47.14999304276277
 20
-98.88534763157726
 30
0.0
 10
-47.14999304276277
 20
-98.88534763157726
 30
0.0
 10
-37.08540974197226
 20
-98.88534763157726
 30
0.0
 10
-37.08540974197226
 20
-98.88534763157726
 30
0.0
  0
ENDBLK
  5
48
330
45
100
AcDbEntity
  8
0
100
AcDbBlockEnd
  0
BLOCK
  5
4C
330
4A
100
AcDbEntity
  8
0
100
AcDbBlockBegin
  2
block 4
 70
     0
 10
0.0
 20
0.0
 30
0.0
  3
block 4
  1

  0
SPLINE
  5
4E
330
4A
100
AcDbEntity
  8
Layer 1
 62
     7
420
 16777215
370
    18
100
AcDbSpline
210
0.0
220
0.0
230
1.0
 70
     8
 71
     3
 72
    20
 73
    16
 74
     0
 42
0.0000000001
 43
0.0000000001
 12
1.0
 22
0.0
 32
0.0
 13
1.0
 23
0.0
 33
0.0
 40
0.0
 40
0.0
 40
0.0
 40
0.0
 40
1.0
 40
1.0
 40
1.0
 40
2.0
 40
2.0
 40
2.0
 40
3.0
 40
3.0
 40
3.0
 40
4.0
 40
4.0
 40
4.0
 40
5.0
 40
5.0
 40
5.0
 40
5.0
 10
257.7854235776983
 20
-98.88534763157726
 30
0.0
 10
257.7854235776983
 20
-98.88534763157726
 30
0.0
 10
267.8500068784882
 20
-98.88534763157726
 30
0.0
 10
267.8500068784882
 20
-98.88534763157726
 30
0.0
 10
268.678434003027
 20
-98.88534763157726
 30
0.0
 10
269.3500068781131
 20
-98.21377475649176
 30
0.0
 10
269.3500068781131
 20
-97.38534763195099
 30
0.0
 10
269.3500068781131
 20
-97.38534763195099
 30
0.0
 10
269.3500068781131
 20
-82.3853476357012
 30
0.0
 10
269.3500068781131
 20
-82.3853476357012
 30
0.0
 10
269.3500068781131
 20
-81.55692051116364
 30
0.0
 10
268.678434003027
 20
-80.88534763607493
 30
0.0
 10
267.8500068784882
 20
-80.88534763607493
 30
0.0
 10
267.8500068784882
 20
-80.88534763607493
 30
0.0
 10
257.7854235776983
 20
-80.88534763607493
 30
0.0
 10
257.7854235776983
 20
-80.88534763607493
 30
0.0
  0
ENDBLK
  5
4D
330
4A
100
AcDbEntity
  8
0
100
AcDbBlockEnd
  0
BLOCK
  5
51
330
4F
100
AcDbEntity
  8
0
100
AcDbBlockBegin
  2
block 5
 70
     0
 10
0.0
 20
0.0
 30
0.0
  3
block 5
  1

  0
SPLINE
  5
53
330
4F
100
AcDbEntity
  8
Layer 1
 62
     7
420
 16777215
370
    18
100
AcDbSpline
210
0.0
220
0.0
230
1.0
 70
     8
 71
     3
 72
    56
 73
    52
 74
     0
 42
0.0000000001
 43
0.0000000001
 12
1.0
 22
0.0
 32
0.0
 13
1.0
 23
0.0
 33
0.0
 40
0.0
 40
0.0
 40
0.0
 40
0.0
 40
1.0
 40
1.0
 40
1.0
 40
2.0
 40
2.0
 40
2.0
 40
3.0
 40
3.0
 40
3.0
 40
4.0
 40
4.0
 40
4.0
 40
5.0
 40
5.0
 40
5.0
 40
6.0
 40
6.0
 40
6.0
 40
7.0
 40
7.0
 40
7.0
 40
8.0
 40
8.0
 40
8.0
 40
9.0
 40
9.0
 40
9.0
 40
10.0
 40
10.0
 40
10.0
 40
11.0
 40
11.0
 40
11.0
 40
12.0
 40
12.0
 40
12.0
 40
13.0
 40
13.0
 40
13.0
 40
14.0
 40
14.0
 40
14.0
 40
15.0
 40
15.0
 40
15.0
 40
16.0
 40
16.0
 40
16.0
 40
17.0
 40
17.0
 40
17.0
 40
17.0
 10
267.8500068784882
 20
-72.38534763820219
 30
0.0
 10
273.3728543754161
 20
-72.38534763820219
 30
0.0
 10
277.8500068759884
 20
-76.86250013877579
 30
0.0
 10
277.8500068759884
 20
-82.3853476357012
 30
0.0
 10
277.8500068759884
 20
-82.3853476357012
 30
0.0
 10
277.8500068759884
 20
-97.38534763195099
 30
0.0
 10
277.8500068759884
 20
-97.38534763195099
 30
0.0
 10
277.8500068759884
 20
-102.9081951288803
 30
0.0
 10
273.3728543754161
 20
-107.3853476294532
 30
0.0
 10
267.8500068784882
 20
-107.3853476294532
 30
0.0
 10
267.8500068784882
 20
-107.3853476294532
 30
0.0
 10
242.850006884738
 20
-107.3853476294532
 30
0.0
 10
242.850006884738
 20
-107.3853476294532
 30
0.0
 10
229.0428881424204
 20
-107.3853476294532
 30
0.0
 10
217.850006890988
 20
-118.578228880884
 30
0.0
 10
217.850006890988
 20
-132.3853476232023
 30
0.0
 10
217.850006890988
 20
-132.3853476232023
 30
0.0
 10
217.850006890988
 20
-302.3853475807006
 30
0.0
 10
217.850006890988
 20
-302.3853475807006
 30
0.0
 10
217.850006890988
 20
-329.9995850653373
 30
0.0
 10
195.4642443881238
 20
-352.3853475682008
 30
0.0
 10
167.8500069034884
 20
-352.3853475682008
 30
0.0
 10
167.8500069034884
 20
-352.3853475682008
 30
0.0
 10
52.85000693223889
 20
-352.3853475682008
 30
0.0
 10
52.85000693223889
 20
-352.3853475682008
 30
0.0
 10
25.23576944760222
 20
-352.3853475682008
 30
0.0
 10
2.850006944738704
 20
-329.9995850653373
 30
0.0
 10
2.850006944738704
 20
-302.3853475807019
 30
0.0
 10
2.850006944738704
 20
-302.3853475807019
 30
0.0
 10
2.850006944738704
 20
-132.3853476232023
 30
0.0
 10
2.850006944738704
 20
-132.3853476232023
 30
0.0
 10
2.850006944738704
 20
-118.578228880884
 30
0.0
 10
-8.342874306693695
 20
-107.3853476294532
 30
0.0
 10
-22.14999304901139
 20
-107.3853476294532
 30
0.0
 10
-22.14999304901139
 20
-107.3853476294532
 30
0.0
 10
-47.14999304276277
 20
-107.3853476294532
 30
0.0
 10
-47.14999304276277
 20
-107.3853476294532
 30
0.0
 10
-52.67284053968817
 20
-107.3853476294532
 30
0.0
 10
-57.14999304026178
 20
-102.9081951288803
 30
0.0
 10
-57.14999304026178
 20
-97.38534763195099
 30
0.0
 10
-57.14999304026178
 20
-97.38534763195099
 30
0.0
 10
-57.14999304026178
 20
-82.3853476357012
 30
0.0
 10
-57.14999304026178
 20
-82.3853476357012
 30
0.0
 10
-57.14999304026178
 20
-76.86250013877579
 30
0.0
 10
-52.67284053968817
 20
-72.38534763820219
 30
0.0
 10
-47.14999304276277
 20
-72.38534763820219
 30
0.0
 10
-47.14999304276277
 20
-72.38534763820219
 30
0.0
 10
227.8500068884883
 20
-72.38534763820219
 30
0.0
 10
227.8500068884883
 20
-72.38534763820219
 30
0.0
 10
227.8500068884883
 20
-72.38534763820219
 30
0.0
 10
227.8500068884883
 20
-71.73534763836435
 30
0.0
 10
227.8500068884883
 20
-71.73534763836435
 30
0.0
  0
ENDBLK
  5
52
330
4F
100
AcDbEntity
  8
0
100
AcDbBlockEnd
  0
BLOCK
  5
56
330
54
100
AcDbEntity
  8
0
100
AcDbBlockBegin
  2
block 6
 70
     0
 10
0.0
 20
0.0
 30
0.0
  3
block 6
  1

  0
SPLINE
  5
58
330
54
100
AcDbEntity
  8
Layer 1
 62
     7
420
 16777215
370
    18
100
AcDbSpline
210
0.0
220
0.0
230
1.0
 70
     8
 71
     3
 72
    20
 73
    16
 74
     0
 42
0.0000000001
 43
0.0000000001
 12
1.0
 22
0.0
 32
0.0
 13
1.0
 23
0.0
 33
0.0
 40
0.0
 40
0.0
 40
0.0
 40
0.0
 40
1.0
 40
1.0
 40
1.0
 40
2.0
 40
2.0
 40
2.0
 40
3.0
 40
3.0
 40
3.0
 40
4.0
 40
4.0
 40
4.0
 40
5.0
 40
5.0
 40
5.0
 40
5.0
 10
257.7854235776983
 20
-60.88534764107755
 30
0.0
 10
257.7854235776983
 20
-60.88534764107755
 30
0.0
 10
267.8500068784882
 20
-60.88534764107755
 30
0.0
 10
267.8500068784882
 20
-60.88534764107755
 30
0.0
 10
268.678434003027
 20
-60.88534764107755
 30
0.0
 10
269.3500068781131
 20
-60.21377476598885
 30
0.0
 10
269.3500068781131
 20
-59.38534764145129
 30
0.0
 10
269.3500068781131
 20
-59.38534764145129
 30
0.0
 10
269.3500068781125
 20
-44.38534764520149
 30
0.0
 10
269.3500068781125
 20
-44.38534764520149
 30
0.0
 10
269.3500068781125
 20
-43.55692052066393
 30
0.0
 10
268.678434003027
 20
-42.88534764557523
 30
0.0
 10
267.8500068784875
 20
-42.88534764557523
 30
0.0
 10
267.8500068784875
 20
-42.88534764557523
 30
0.0
 10
257.7854235776983
 20
-42.88534764557523
 30
0.0
 10
257.7854235776983
 20
-42.88534764557523
 30
0.0
  0
ENDBLK
  5
57
330
54
100
AcDbEntity
  8
0
100
AcDbBlockEnd
  0
BLOCK
  5
5B
330
59
100
AcDbEntity
  8
0
100
AcDbBlockBegin
  2
block 7
 70
     0
 10
0.0
 20
0.0
 30
0.0
  3
block 7
  1

  0
SPLINE
  5
5D
330
59
100
AcDbEntity
  8
Layer 1
 62
     7
420
 16777215
370
    18
100
AcDbSpline
210
0.0
220
0.0
230
1.0
 70
     8
 71
     3
 72
    20
 73
    16
 74
     0
 42
0.0000000001
 43
0.0000000001
 12
1.0
 22
0.0
 32
0.0
 13
1.0
 23
0.0
 33
0.0
 40
0.0
 40
0.0
 40
0.0
 40
0.0
 40
1.0
 40
1.0
 40
1.0
 40
2.0
 40
2.0
 40
2.0
 40
3.0
 40
3.0
 40
3.0
 40
4.0
 40
4.0
 40
4.0
 40
5.0
 40
5.0
 40
5.0
 40
5.0
 10
42.91459023802881
 20
-42.88534764557523
 30
0.0
 10
42.91459023802881
 20
-42.88534764557523
 30
0.0
 10
32.85000693723894
 20
-42.88534764557523
 30
0.0
 10
32.85000693723894
 20
-42.88534764557523
 30
0.0
 10
32.02157981269946
 20
-42.88534764557523
 30
0.0
 10
31.35000693761268
 20
-43.55692052066393
 30
0.0
 10
31.35000693761268
 20
-44.38534764520149
 30
0.0
 10
31.35000693761268
 20
-44.38534764520149
 30
0.0
 10
31.35000693761268
 20
-59.38534764145129
 30
0.0
 10
31.35000693761268
 20
-59.38534764145129
 30
0.0
 10
31.35000693761268
 20
-60.21377476598885
 30
0.0
 10
32.02157981269946
 20
-60.88534764107755
 30
0.0
 10
32.85000693723894
 20
-60.88534764107755
 30
0.0
 10
32.85000693723894
 20
-60.88534764107755
 30
0.0
 10
42.91459023802881
 20
-60.88534764107755
 30
0.0
 10
42.91459023802881
 20
-60.88534764107755
 30
0.0
  0
ENDBLK
  5
5C
330
59
100
AcDbEntity
  8
0
100
AcDbBlockEnd
  0
BLOCK
  5
60
330
5E
100
AcDbEntity
  8
0
100
AcDbBlockBegin
  2
block 8
 70
     0
 10
0.0
 20
0.0
 30
0.0
  3
block 8
  1

  0
SPLINE
  5
62
330
5E
100
AcDbEntity
  8
Layer 1
 62
     7
420
 16777215
370
    18
100
AcDbSpline
210
0.0
220
0.0
230
1.0
 70
     8
 71
     3
 72
    35
 73
    31
 74
     0
 42
0.0000000001
 43
0.0000000001
 12
1.0
 22
0.0
 32
0.0
 13
1.0
 23
0.0
 33
0.0
 40
0.0
 40
0.0
 40
0.0
 40
0.0
 40
1.0
 40
1.0
 40
1.0
 40
2.0
 40
2.0
 40
2.0
 40
3.0
 40
3.0
 40
3.0
 40
4.0
 40
4.0
 40
4.0
 40
5.0
 40
5.0
 40
5.0
 40
6.0
 40
6.0
 40
6.0
 40
7.0
 40
7.0
 40
7.0
 40
8.0
 40
8.0
 40
8.0
 40
9.0
 40
9.0
 40
9.0
 40
10.0
 40
10.0
 40
10.0
 40
10.0
 10
227.8500068884883
 20
-71.73534763836435
 30
0.0
 10
227.8500068884883
 20
-71.73534763836435
 30
0.0
 10
227.8500068884883
 20
-69.3853476389503
 30
0.0
 10
227.8500068884883
 20
-69.3853476389503
 30
0.0
 10
227.8500068884883
 20
-69.3853476389503
 30
0.0
 10
32.85000693723894
 20
-69.3853476389503
 30
0.0
 10
32.85000693723894
 20
-69.3853476389503
 30
0.0
 10
27.32715944031097
 20
-69.3853476389503
 30
0.0
 10
22.85000693973865
 20
-64.90819513838055
 30
0.0
 10
22.85000693973865
 20
-59.38534764145129
 30
0.0
 10
22.85000693973865
 20
-59.38534764145129
 30
0.0
 10
22.85000693973865
 20
-44.38534764520149
 30
0.0
 10
22.85000693973865
 20
-44.38534764520149
 30
0.0
 10
22.85000693973865
 20
-38.86250014827223
 30
0.0
 10
27.32715944031097
 20
-34.38534764770248
 30
0.0
 10
32.85000693723894
 20
-34.38534764770248
 30
0.0
 10
32.85000693723894
 20
-34.38534764770248
 30
0.0
 10
267.8500068784875
 20
-34.38534764770248
 30
0.0
 10
267.8500068784875
 20
-34.38534764770248
 30
0.0
 10
273.3728543754161
 20
-34.38534764770248
 30
0.0
 10
277.8500068759884
 20
-38.86250014827223
 30
0.0
 10
277.8500068759884
 20
-44.38534764520149
 30
0.0
 10
277.8500068759884
 20
-44.38534764520149
 30
0.0
 10
277.8500068759884
 20
-59.38534764145129
 30
0.0
 10
277.8500068759884
 20
-59.38534764145129
 30
0.0
 10
277.8500068759884
 20
-64.90819513838055
 30
0.0
 10
273.3728543754161
 20
-69.3853476389503
 30
0.0
 10
267.8500068784882
 20
-69.3853476389503
 30
0.0
 10
267.8500068784882
 20
-69.3853476389503
 30
0.0
 10
267.8500068784882
 20
-72.38534763820219
 30
0.0
 10
267.8500068784882
 20
-72.38534763820219
 30
0.0
  0
ENDBLK
  5
61
330
5E
100
AcDbEntity
  8
0
100
AcDbBlockEnd
  0
BLOCK
  5
65
330
63
100
AcDbEntity
  8
0
100
AcDbBlockBegin
  2
block 9
 70
     0
 10
0.0
 20
0.0
 30
0.0
  3
block 9
  1

  0
INSERT
  5
68
330
63
100
AcDbEntity
  8
Layer 1
100
AcDbBlockReference
  2
block 10
 10
0.0
 20
0.0
 30
0.0
  0
INSERT
  5
6D
330
63
100
AcDbEntity
  8
Layer 1
100
AcDbBlockReference
  2
block 11
 10
0.0
 20
0.0
 30
0.0
  0
INSERT
  5
72
330
63
100
AcDbEntity
  8
Layer 1
100
AcDbBlockReference
  2
block 12
 10
0.0
 20
0.0
 30
0.0
  0
INSERT
  5
77
330
63
100
AcDbEntity
  8
Layer 1
100
AcDbBlockReference
  2
block 13
 10
0.0
 20
0.0
 30
0.0
  0
INSERT
  5
7C
330
63
100
AcDbEntity
  8
Layer 1
100
AcDbBlockReference
  2
block 14
 10
0.0
 20
0.0
 30
0.0
  0
INSERT
  5
81
330
63
100
AcDbEntity
  8
Layer 1
100
AcDbBlockReference
  2
block 15
 10
0.0
 20
0.0
 30
0.0
  0
ENDBLK
  5
66
330
63
100
AcDbEntity
  8
0
100
AcDbBlockEnd
  0
BLOCK
  5
69
330
67
100
AcDbEntity
  8
0
100
AcDbBlockBegin
  2
block 10
 70
     0
 10
0.0
 20
0.0
 30
0.0
  3
block 10
  1

  0
SPLINE
  5
6B
330
67
100
AcDbEntity
  8
Layer 1
 62
     7
420
 16777215
370
    18
100
AcDbSpline
210
0.0
220
0.0
230
1.0
 70
     8
 71
     3
 72
    20
 73
    16
 74
     0
 42
0.0000000001
 43
0.0000000001
 12
1.0
 22
0.0
 32
0.0
 13
1.0
 23
0.0
 33
0.0
 40
0.0
 40
0.0
 40
0.0
 40
0.0
 40
1.0
 40
1.0
 40
1.0
 40
2.0
 40
2.0
 40
2.0
 40
3.0
 40
3.0
 40
3.0
 40
4.0
 40
4.0
 40
4.0
 40
5.0
 40
5.0
 40
5.0
 40
5.0
 10
476.9888037050304
 20
-382.0944188985096
 30
0.0
 10
476.9888037050304
 20
-382.0944188985096
 30
0.0
 10
487.0533870058209
 20
-382.0944188985096
 30
0.0
 10
487.0533870058209
 20
-382.0944188985096
 30
0.0
 10
487.8818141303578
 20
-382.0944188985096
 30
0.0
 10
488.5533870054433
 20
-381.4228460234209
 30
0.0
 10
488.5533870054433
 20
-380.5944188988834
 30
0.0
 10
488.5533870054433
 20
-380.5944188988834
 30
0.0
 10
488.5533870054433
 20
-365.5944189026335
 30
0.0
 10
488.5533870054433
 20
-365.5944189026335
 30
0.0
 10
488.5533870054433
 20
-364.7659917780928
 30
0.0
 10
487.8818141303578
 20
-364.0944189030073
 30
0.0
 10
487.0533870058209
 20
-364.0944189030073
 30
0.0
 10
487.0533870058209
 20
-364.0944189030073
 30
0.0
 10
476.9888037050304
 20
-364.0944189030073
 30
0.0
 10
476.9888037050304
 20
-364.0944189030073
 30
0.0
  0
ENDBLK
  5
6A
330
67
100
AcDbEntity
  8
0
100
AcDbBlockEnd
  0
BLOCK
  5
6E
330
6C
100
AcDbEntity
  8
0
100
AcDbBlockBegin
  2
block 11
 70
     0
 10
0.0
 20
0.0
 30
0.0
  3
block 11
  1

  0
SPLINE
  5
70
330
6C
100
AcDbEntity
  8
Layer 1
 62
     7
420
 16777215
370
    18
100
AcDbSpline
210
0.0
220
0.0
230
1.0
 70
     8
 71
     3
 72
    20
 73
    16
 74
     0
 42
0.0000000001
 43
0.0000000001
 12
1.0
 22
0.0
 32
0.0
 13
1.0
 23
0.0
 33
0.0
 40
0.0
 40
0.0
 40
0.0
 40
0.0
 40
1.0
 40
1.0
 40
1.0
 40
2.0
 40
2.0
 40
2.0
 40
3.0
 40
3.0
 40
3.0
 40
4.0
 40
4.0
 40
4.0
 40
5.0
 40
5.0
 40
5.0
 40
5.0
 10
182.1179703853599
 20
-364.0944189030073
 30
0.0
 10
182.1179703853599
 20
-364.0944189030073
 30
0.0
 10
172.05338708457
 20
-364.0944189030073
 30
0.0
 10
172.05338708457
 20
-364.0944189030073
 30
0.0
 10
171.2249599600312
 20
-364.0944189030073
 30
0.0
 10
170.553387084945
 20
-364.7659917780928
 30
0.0
 10
170.553387084945
 20
-365.5944189026335
 30
0.0
 10
170.553387084945
 20
-365.5944189026335
 30
0.0
 10
170.553387084945
 20
-380.5944188988834
 30
0.0
 10
170.553387084945
 20
-380.5944188988834
 30
0.0
 10
170.553387084945
 20
-381.4228460234209
 30
0.0
 10
171.2249599600312
 20
-382.0944188985096
 30
0.0
 10
172.05338708457
 20
-382.0944188985096
 30
0.0
 10
172.05338708457
 20
-382.0944188985096
 30
0.0
 10
182.1179703853599
 20
-382.0944188985096
 30
0.0
 10
182.1179703853599
 20
-382.0944188985096
 30
0.0
  0
ENDBLK
  5
6F
330
6C
100
AcDbEntity
  8
0
100
AcDbBlockEnd
  0
BLOCK
  5
73
330
71
100
AcDbEntity
  8
0
100
AcDbBlockBegin
  2
block 12
 70
     0
 10
0.0
 20
0.0
 30
0.0
  3
block 12
  1

  0
SPLINE
  5
75
330
71
100
AcDbEntity
  8
Layer 1
 62
     7
420
 16777215
370
    18
100
AcDbSpline
210
0.0
220
0.0
230
1.0
 70
     8
 71
     3
 72
    56
 73
    52
 74
     0
 42
0.0000000001
 43
0.0000000001
 12
1.0
 22
0.0
 32
0.0
 13
1.0
 23
0.0
 33
0.0
 40
0.0
 40
0.0
 40
0.0
 40
0.0
 40
1.0
 40
1.0
 40
1.0
 40
2.0
 40
2.0
 40
2.0
 40
3.0
 40
3.0
 40
3.0
 40
4.0
 40
4.0
 40
4.0
 40
5.0
 40
5.0
 40
5.0
 40
6.0
 40
6.0
 40
6.0
 40
7.0
 40
7.0
 40
7.0
 40
8.0
 40
8.0
 40
8.0
 40
9.0
 40
9.0
 40
9.0
 40
10.0
 40
10.0
 40
10.0
 40
11.0
 40
11.0
 40
11.0
 40
12.0
 40
12.0
 40
12.0
 40
13.0
 40
13.0
 40
13.0
 40
14.0
 40
14.0
 40
14.0
 40
15.0
 40
15.0
 40
15.0
 40
16.0
 40
16.0
 40
16.0
 40
17.0
 40
17.0
 40
17.0
 40
17.0
 10
172.05338708457
 20
-390.5944188963824
 30
0.0
 10
166.530539587642
 20
-390.5944188963824
 30
0.0
 10
162.0533870870697
 20
-386.1172663958088
 30
0.0
 10
162.0533870870697
 20
-380.5944188988834
 30
0.0
 10
162.0533870870697
 20
-380.5944188988834
 30
0.0
 10
162.0533870870697
 20
-365.5944189026335
 30
0.0
 10
162.0533870870697
 20
-365.5944189026335
 30
0.0
 10
162.0533870870697
 20
-360.0715714057043
 30
0.0
 10
166.530539587642
 20
-355.5944189051313
 30
0.0
 10
172.05338708457
 20
-355.5944189051313
 30
0.0
 10
172.05338708457
 20
-355.5944189051313
 30
0.0
 10
197.0533870783201
 20
-355.5944189051313
 30
0.0
 10
197.0533870783201
 20
-355.5944189051313
 30
0.0
 10
210.8605058206378
 20
-355.5944189051313
 30
0.0
 10
222.0533870720702
 20
-344.4015376537002
 30
0.0
 10
222.0533870720702
 20
-330.5944189113819
 30
0.0
 10
222.0533870720702
 20
-330.5944189113819
 30
0.0
 10
222.0533870720702
 20
-160.5944189538846
 30
0.0
 10
222.0533870720702
 20
-160.5944189538846
 30
0.0
 10
222.0533870720702
 20
-132.9801814692476
 30
0.0
 10
244.4391495749343
 20
-110.5944189663841
 30
0.0
 10
272.0533870595697
 20
-110.5944189663838
 30
0.0
 10
272.0533870595697
 20
-110.5944189663838
 30
0.0
 10
387.0533870308192
 20
-110.5944189663838
 30
0.0
 10
387.0533870308192
 20
-110.5944189663838
 30
0.0
 10
414.6676245154559
 20
-110.5944189663838
 30
0.0
 10
437.0533870183194
 20
-132.9801814692473
 30
0.0
 10
437.0533870183194
 20
-160.5944189538827
 30
0.0
 10
437.0533870183194
 20
-160.5944189538827
 30
0.0
 10
437.0533870183194
 20
-330.5944189113819
 30
0.0
 10
437.0533870183194
 20
-330.5944189113819
 30
0.0
 10
437.0533870183194
 20
-344.4015376537002
 30
0.0
 10
448.2462682697519
 20
-355.5944189051313
 30
0.0
 10
462.0533870120695
 20
-355.5944189051313
 30
0.0
 10
462.0533870120695
 20
-355.5944189051313
 30
0.0
 10
487.0533870058209
 20
-355.5944189051313
 30
0.0
 10
487.0533870058209
 20
-355.5944189051313
 30
0.0
 10
492.5762345027463
 20
-355.5944189051313
 30
0.0
 10
497.0533870033199
 20
-360.0715714057043
 30
0.0
 10
497.0533870033199
 20
-365.5944189026335
 30
0.0
 10
497.0533870033199
 20
-365.5944189026335
 30
0.0
 10
497.0533870033199
 20
-380.5944188988834
 30
0.0
 10
497.0533870033199
 20
-380.5944188988834
 30
0.0
 10
497.0533870033199
 20
-386.1172663958088
 30
0.0
 10
492.5762345027463
 20
-390.5944188963824
 30
0.0
 10
487.0533870058209
 20
-390.5944188963824
 30
0.0
 10
487.0533870058209
 20
-390.5944188963824
 30
0.0
 10
212.0533870745699
 20
-390.5944188963824
 30
0.0
 10
212.0533870745699
 20
-390.5944188963824
 30
0.0
 10
212.0533870745699
 20
-390.5944188963824
 30
0.0
 10
212.0533870745699
 20
-391.2444188962202
 30
0.0
 10
212.0533870745699
 20
-391.2444188962202
 30
0.0
  0
ENDBLK
  5
74
330
71
100
AcDbEntity
  8
0
100
AcDbBlockEnd
  0
BLOCK
  5
78
330
76
100
AcDbEntity
  8
0
100
AcDbBlockBegin
  2
block 13
 70
     0
 10
0.0
 20
0.0
 30
0.0
  3
block 13
  1

  0
SPLINE
  5
7A
330
76
100
AcDbEntity
  8
Layer 1
 62
     7
420
 16777215
370
    18
100
AcDbSpline
210
0.0
220
0.0
230
1.0
 70
     8
 71
     3
 72
    20
 73
    16
 74
     0
 42
0.0000000001
 43
0.0000000001
 12
1.0
 22
0.0
 32
0.0
 13
1.0
 23
0.0
 33
0.0
 40
0.0
 40
0.0
 40
0.0
 40
0.0
 40
1.0
 40
1.0
 40
1.0
 40
2.0
 40
2.0
 40
2.0
 40
3.0
 40
3.0
 40
3.0
 40
4.0
 40
4.0
 40
4.0
 40
5.0
 40
5.0
 40
5.0
 40
5.0
 10
182.1179703853599
 20
-402.094418893507
 30
0.0
 10
182.1179703853599
 20
-402.094418893507
 30
0.0
 10
172.05338708457
 20
-402.094418893507
 30
0.0
 10
172.05338708457
 20
-402.094418893507
 30
0.0
 10
171.2249599600312
 20
-402.094418893507
 30
0.0
 10
170.553387084945
 20
-402.7659917685957
 30
0.0
 10
170.553387084945
 20
-403.5944188931333
 30
0.0
 10
170.553387084945
 20
-403.5944188931333
 30
0.0
 10
170.5533870849457
 20
-418.5944188893831
 30
0.0
 10
170.5533870849457
 20
-418.5944188893831
 30
0.0
 10
170.5533870849457
 20
-419.4228460139206
 30
0.0
 10
171.2249599600312
 20
-420.0944188890093
 30
0.0
 10
172.0533870845706
 20
-420.0944188890093
 30
0.0
 10
172.0533870845706
 20
-420.0944188890093
 30
0.0
 10
182.1179703853599
 20
-420.0944188890093
 30
0.0
 10
182.1179703853599
 20
-420.0944188890093
 30
0.0
  0
ENDBLK
  5
79
330
76
100
AcDbEntity
  8
0
100
AcDbBlockEnd
  0
BLOCK
  5
7D
330
7B
100
AcDbEntity
  8
0
100
AcDbBlockBegin
  2
block 14
 70
     0
 10
0.0
 20
0.0
 30
0.0
  3
block 14
  1

  0
SPLINE
  5
7F
330
7B
100
AcDbEntity
  8
Layer 1
 62
     7
420
 16777215
370
    18
100
AcDbSpline
210
0.0
220
0.0
230
1.0
 70
     8
 71
     3
 72
    20
 73
    16
 74
     0
 42
0.0000000001
 43
0.0000000001
 12
1.0
 22
0.0
 32
0.0
 13
1.0
 23
0.0
 33
0.0
 40
0.0
 40
0.0
 40
0.0
 40
0.0
 40
1.0
 40
1.0
 40
1.0
 40
2.0
 40
2.0
 40
2.0
 40
3.0
 40
3.0
 40
3.0
 40
4.0
 40
4.0
 40
4.0
 40
5.0
 40
5.0
 40
5.0
 40
5.0
 10
396.9888037250294
 20
-420.0944188890093
 30
0.0
 10
396.9888037250294
 20
-420.0944188890093
 30
0.0
 10
407.0533870258192
 20
-420.0944188890093
 30
0.0
 10
407.0533870258192
 20
-420.0944188890093
 30
0.0
 10
407.8818141503587
 20
-420.0944188890093
 30
0.0
 10
408.5533870254455
 20
-419.4228460139206
 30
0.0
 10
408.5533870254455
 20
-418.5944188893831
 30
0.0
 10
408.5533870254455
 20
-418.5944188893831
 30
0.0
 10
408.5533870254455
 20
-403.5944188931333
 30
0.0
 10
408.5533870254455
 20
-403.5944188931333
 30
0.0
 10
408.5533870254455
 20
-402.7659917685957
 30
0.0
 10
407.8818141503587
 20
-402.094418893507
 30
0.0
 10
407.0533870258192
 20
-402.094418893507
 30
0.0
 10
407.0533870258192
 20
-402.094418893507
 30
0.0
 10
396.9888037250294
 20
-402.094418893507
 30
0.0
 10
396.9888037250294
 20
-402.094418893507
 30
0.0
  0
ENDBLK
  5
7E
330
7B
100
AcDbEntity
  8
0
100
AcDbBlockEnd
  0
BLOCK
  5
82
330
80
100
AcDbEntity
  8
0
100
AcDbBlockBegin
  2
block 15
 70
     0
 10
0.0
 20
0.0
 30
0.0
  3
block 15
  1

  0
SPLINE
  5
84
330
80
100
AcDbEntity
  8
Layer 1
 62
     7
420
 16777215
370
    18
100
AcDbSpline
210
0.0
220
0.0
230
1.0
 70
     8
 71
     3
 72
    35
 73
    31
 74
     0
 42
0.0000000001
 43
0.0000000001
 12
1.0
 22
0.0
 32
0.0
 13
1.0
 23
0.0
 33
0.0
 40
0.0
 40
0.0
 40
0.0
 40
0.0
 40
1.0
 40
1.0
 40
1.0
 40
2.0
 40
2.0
 40
2.0
 40
3.0
 40
3.0
 40
3.0
 40
4.0
 40
4.0
 40
4.0
 40
5.0
 40
5.0
 40
5.0
 40
6.0
 40
6.0
 40
6.0
 40
7.0
 40
7.0
 40
7.0
 40
8.0
 40
8.0
 40
8.0
 40
9.0
 40
9.0
 40
9.0
 40
10.0
 40
10.0
 40
10.0
 40
10.0
 10
212.0533870745699
 20
-391.2444188962202
 30
0.0
 10
212.0533870745699
 20
-391.2444188962202
 30
0.0
 10
212.0533870745699
 20
-393.5944188956342
 30
0.0
 10
212.0533870745699
 20
-393.5944188956342
 30
0.0
 10
212.0533870745699
 20
-393.5944188956342
 30
0.0
 10
407.0533870258192
 20
-393.5944188956342
 30
0.0
 10
407.0533870258192
 20
-393.5944188956342
 30
0.0
 10
412.5762345227472
 20
-393.5944188956342
 30
0.0
 10
417.0533870233195
 20
-398.071571396204
 30
0.0
 10
417.0533870233195
 20
-403.5944188931333
 30
0.0
 10
417.0533870233195
 20
-403.5944188931333
 30
0.0
 10
417.0533870233195
 20
-418.5944188893831
 30
0.0
 10
417.0533870233195
 20
-418.5944188893831
 30
0.0
 10
417.0533870233195
 20
-424.1172663863123
 30
0.0
 10
412.5762345227472
 20
-428.5944188868821
 30
0.0
 10
407.0533870258192
 20
-428.5944188868821
 30
0.0
 10
407.0533870258192
 20
-428.5944188868821
 30
0.0
 10
172.0533870845706
 20
-428.5944188868821
 30
0.0
 10
172.0533870845706
 20
-428.5944188868821
 30
0.0
 10
166.530539587642
 20
-428.5944188868821
 30
0.0
 10
162.0533870870697
 20
-424.1172663863123
 30
0.0
 10
162.0533870870697
 20
-418.5944188893831
 30
0.0
 10
162.0533870870697
 20
-418.5944188893831
 30
0.0
 10
162.0533870870697
 20
-403.5944188931333
 30
0.0
 10
162.0533870870697
 20
-403.5944188931333
 30
0.0
 10
162.0533870870697
 20
-398.071571396204
 30
0.0
 10
166.530539587642
 20
-393.5944188956342
 30
0.0
 10
172.05338708457
 20
-393.5944188956342
 30
0.0
 10
172.05338708457
 20
-393.5944188956342
 30
0.0
 10
172.05338708457
 20
-390.5944188963824
 30
0.0
 10
172.05338708457
 20
-390.5944188963824
 30
0.0
  0
ENDBLK
  5
83
330
80
100
AcDbEntity
  8
0
100
AcDbBlockEnd
  0
BLOCK
  5
87
330
85
100
AcDbEntity
  8
0
100
AcDbBlockBegin
  2
block 16
 70
     0
 10
0.0
 20
0.0
 30
0.0
  3
block 16
  1

  0
INSERT
  5
8A
330
85
100
AcDbEntity
  8
Layer 1
100
AcDbBlockReference
  2
block 17
 10
0.0
 20
0.0
 30
0.0
  0
INSERT
  5
8F
330
85
100
AcDbEntity
  8
Layer 1
100
AcDbBlockReference
  2
block 18
 10
0.0
 20
0.0
 30
0.0
  0
INSERT
  5
94
330
85
100
AcDbEntity
  8
Layer 1
100
AcDbBlockReference
  2
block 19
 10
0.0
 20
0.0
 30
0.0
  0
INSERT
  5
99
330
85
100
AcDbEntity
  8
Layer 1
100
AcDbBlockReference
  2
block 20
 10
0.0
 20
0.0
 30
0.0
  0
INSERT
  5
9E
330
85
100
AcDbEntity
  8
Layer 1
100
AcDbBlockReference
  2
block 21
 10
0.0
 20
0.0
 30
0.0
  0
INSERT
  5
A3
330
85
100
AcDbEntity
  8
Layer 1
100
AcDbBlockReference
  2
block 22
 10
0.0
 20
0.0
 30
0.0
  0
ENDBLK
  5
88
330
85
100
AcDbEntity
  8
0
100
AcDbBlockEnd
  0
BLOCK
  5
8B
330
89
100
AcDbEntity
  8
0
100
AcDbBlockBegin
  2
block 17
 70
     0
 10
0.0
 20
0.0
 30
0.0
  3
block 17
  1

  0
SPLINE
  5
8D
330
89
100
AcDbEntity
  8
Layer 1
 62
     7
420
 16777215
370
    18
100
AcDbSpline
210
0.0
220
0.0
230
1.0
 70
     8
 71
     3
 72
    20
 73
    16
 74
     0
 42
0.0000000001
 43
0.0000000001
 12
1.0
 22
0.0
 32
0.0
 13
1.0
 23
0.0
 33
0.0
 40
0.0
 40
0.0
 40
0.0
 40
0.0
 40
1.0
 40
1.0
 40
1.0
 40
2.0
 40
2.0
 40
2.0
 40
3.0
 40
3.0
 40
3.0
 40
4.0
 40
4.0
 40
4.0
 40
5.0
 40
5.0
 40
5.0
 40
5.0
 10
400.7881825714947
 20
-80.88534763607493
 30
0.0
 10
400.7881825714947
 20
-80.88534763607493
 30
0.0
 10
390.7235992707042
 20
-80.88534763607493
 30
0.0
 10
390.7235992707042
 20
-80.88534763607493
 30
0.0
 10
389.8951721461673
 20
-80.88534763607493
 30
0.0
 10
389.2235992710818
 20
-81.55692051116364
 30
0.0
 10
389.2235992710818
 20
-82.3853476357012
 30
0.0
 10
389.2235992710818
 20
-82.3853476357012
 30
0.0
 10
389.2235992710818
 20
-97.38534763195099
 30
0.0
 10
389.2235992710818
 20
-97.38534763195099
 30
0.0
 10
389.2235992710818
 20
-98.21377475649176
 30
0.0
 10
389.8951721461673
 20
-98.88534763157726
 30
0.0
 10
390.7235992707042
 20
-98.88534763157726
 30
0.0
 10
390.7235992707042
 20
-98.88534763157726
 30
0.0
 10
400.7881825714947
 20
-98.88534763157726
 30
0.0
 10
400.7881825714947
 20
-98.88534763157726
 30
0.0
  0
ENDBLK
  5
8C
330
89
100
AcDbEntity
  8
0
100
AcDbBlockEnd
  0
BLOCK
  5
90
330
8E
100
AcDbEntity
  8
0
100
AcDbBlockBegin
  2
block 18
 70
     0
 10
0.0
 20
0.0
 30
0.0
  3
block 18
  1

  0
SPLINE
  5
92
330
8E
100
AcDbEntity
  8
Layer 1
 62
     7
420
 16777215
370
    18
100
AcDbSpline
210
0.0
220
0.0
230
1.0
 70
     8
 71
     3
 72
    20
 73
    16
 74
     0
 42
0.0000000001
 43
0.0000000001
 12
1.0
 22
0.0
 32
0.0
 13
1.0
 23
0.0
 33
0.0
 40
0.0
 40
0.0
 40
0.0
 40
0.0
 40
1.0
 40
1.0
 40
1.0
 40
2.0
 40
2.0
 40
2.0
 40
3.0
 40
3.0
 40
3.0
 40
4.0
 40
4.0
 40
4.0
 40
5.0
 40
5.0
 40
5.0
 40
5.0
 10
695.6590158911653
 20
-98.88534763157726
 30
0.0
 10
695.6590158911653
 20
-98.88534763157726
 30
0.0
 10
705.7235991919551
 20
-98.88534763157726
 30
0.0
 10
705.7235991919551
 20
-98.88534763157726
 30
0.0
 10
706.552026316494
 20
-98.88534763157726
 30
0.0
 10
707.2235991915801
 20
-98.21377475649176
 30
0.0
 10
707.2235991915801
 20
-97.38534763195099
 30
0.0
 10
707.2235991915801
 20
-97.38534763195099
 30
0.0
 10
707.2235991915801
 20
-82.3853476357012
 30
0.0
 10
707.2235991915801
 20
-82.3853476357012
 30
0.0
 10
707.2235991915801
 20
-81.55692051116364
 30
0.0
 10
706.552026316494
 20
-80.88534763607493
 30
0.0
 10
705.7235991919551
 20
-80.88534763607493
 30
0.0
 10
705.7235991919551
 20
-80.88534763607493
 30
0.0
 10
695.6590158911653
 20
-80.88534763607493
 30
0.0
 10
695.6590158911653
 20
-80.88534763607493
 30
0.0
  0
ENDBLK
  5
91
330
8E
100
AcDbEntity
  8
0
100
AcDbBlockEnd
  0
BLOCK
  5
95
330
93
100
AcDbEntity
  8
0
100
AcDbBlockBegin
  2
block 19
 70
     0
 10
0.0
 20
0.0
 30
0.0
  3
block 19
  1

  0
SPLINE
  5
97
330
93
100
AcDbEntity
  8
Layer 1
 62
     7
420
 16777215
370
    18
100
AcDbSpline
210
0.0
220
0.0
230
1.0
 70
     8
 71
     3
 72
    56
 73
    52
 74
     0
 42
0.0000000001
 43
0.0000000001
 12
1.0
 22
0.0
 32
0.0
 13
1.0
 23
0.0
 33
0.0
 40
0.0
 40
0.0
 40
0.0
 40
0.0
 40
1.0
 40
1.0
 40
1.0
 40
2.0
 40
2.0
 40
2.0
 40
3.0
 40
3.0
 40
3.0
 40
4.0
 40
4.0
 40
4.0
 40
5.0
 40
5.0
 40
5.0
 40
6.0
 40
6.0
 40
6.0
 40
7.0
 40
7.0
 40
7.0
 40
8.0
 40
8.0
 40
8.0
 40
9.0
 40
9.0
 40
9.0
 40
10.0
 40
10.0
 40
10.0
 40
11.0
 40
11.0
 40
11.0
 40
12.0
 40
12.0
 40
12.0
 40
13.0
 40
13.0
 40
13.0
 40
14.0
 40
14.0
 40
14.0
 40
15.0
 40
15.0
 40
15.0
 40
16.0
 40
16.0
 40
16.0
 40
17.0
 40
17.0
 40
17.0
 40
17.0
 10
705.7235991919551
 20
-72.38534763820219
 30
0.0
 10
711.2464466888831
 20
-72.38534763820219
 30
0.0
 10
715.7235991894554
 20
-76.86250013877579
 30
0.0
 10
715.7235991894554
 20
-82.3853476357012
 30
0.0
 10
715.7235991894554
 20
-82.3853476357012
 30
0.0
 10
715.7235991894554
 20
-97.38534763195099
 30
0.0
 10
715.7235991894554
 20
-97.38534763195099
 30
0.0
 10
715.7235991894554
 20
-102.9081951288803
 30
0.0
 10
711.2464466888831
 20
-107.3853476294532
 30
0.0
 10
705.7235991919551
 20
-107.3853476294532
 30
0.0
 10
705.7235991919551
 20
-107.3853476294532
 30
0.0
 10
680.723599198205
 20
-107.3853476294532
 30
0.0
 10
680.723599198205
 20
-107.3853476294532
 30
0.0
 10
666.9164804558874
 20
-107.3853476294532
 30
0.0
 10
655.7235992044549
 20
-118.5782288808843
 30
0.0
 10
655.7235992044549
 20
-132.3853476232026
 30
0.0
 10
655.7235992044549
 20
-132.3853476232026
 30
0.0
 10
655.7235992044549
 20
-302.3853475807006
 30
0.0
 10
655.7235992044549
 20
-302.3853475807006
 30
0.0
 10
655.7235992044549
 20
-329.9995850653373
 30
0.0
 10
633.3378367015907
 20
-352.3853475682008
 30
0.0
 10
605.7235992169553
 20
-352.3853475682008
 30
0.0
 10
605.7235992169553
 20
-352.3853475682008
 30
0.0
 10
490.7235992457059
 20
-352.3853475682008
 30
0.0
 10
490.7235992457059
 20
-352.3853475682008
 30
0.0
 10
463.1093617610692
 20
-352.3853475682008
 30
0.0
 10
440.7235992582057
 20
-329.9995850653373
 30
0.0
 10
440.7235992582057
 20
-302.3853475807019
 30
0.0
 10
440.7235992582057
 20
-302.3853475807019
 30
0.0
 10
440.7235992582057
 20
-132.3853476232026
 30
0.0
 10
440.7235992582057
 20
-132.3853476232026
 30
0.0
 10
440.7235992582057
 20
-118.5782288808843
 30
0.0
 10
429.5307180067733
 20
-107.3853476294532
 30
0.0
 10
415.7235992644556
 20
-107.3853476294532
 30
0.0
 10
415.7235992644556
 20
-107.3853476294532
 30
0.0
 10
390.7235992707042
 20
-107.3853476294532
 30
0.0
 10
390.7235992707042
 20
-107.3853476294532
 30
0.0
 10
385.2007517737788
 20
-107.3853476294532
 30
0.0
 10
380.7235992732052
 20
-102.9081951288803
 30
0.0
 10
380.7235992732052
 20
-97.38534763195099
 30
0.0
 10
380.7235992732052
 20
-97.38534763195099
 30
0.0
 10
380.7235992732052
 20
-82.3853476357012
 30
0.0
 10
380.7235992732052
 20
-82.3853476357012
 30
0.0
 10
380.7235992732052
 20
-76.86250013877579
 30
0.0
 10
385.2007517737788
 20
-72.38534763820219
 30
0.0
 10
390.7235992707042
 20
-72.38534763820219
 30
0.0
 10
390.7235992707042
 20
-72.38534763820219
 30
0.0
 10
665.7235992019553
 20
-72.38534763820219
 30
0.0
 10
665.7235992019553
 20
-72.38534763820219
 30
0.0
 10
665.7235992019553
 20
-72.38534763820219
 30
0.0
 10
665.7235992019553
 20
-71.73534763836435
 30
0.0
 10
665.7235992019553
 20
-71.73534763836435
 30
0.0
  0
ENDBLK
  5
96
330
93
100
AcDbEntity
  8
0
100
AcDbBlockEnd
  0
BLOCK
  5
9A
330
98
100
AcDbEntity
  8
0
100
AcDbBlockBegin
  2
block 20
 70
     0
 10
0.0
 20
0.0
 30
0.0
  3
block 20
  1

  0
SPLINE
  5
9C
330
98
100
AcDbEntity
  8
Layer 1
 62
     7
420
 16777215
370
    18
100
AcDbSpline
210
0.0
220
0.0
230
1.0
 70
     8
 71
     3
 72
    20
 73
    16
 74
     0
 42
0.0000000001
 43
0.0000000001
 12
1.0
 22
0.0
 32
0.0
 13
1.0
 23
0.0
 33
0.0
 40
0.0
 40
0.0
 40
0.0
 40
0.0
 40
1.0
 40
1.0
 40
1.0
 40
2.0
 40
2.0
 40
2.0
 40
3.0
 40
3.0
 40
3.0
 40
4.0
 40
4.0
 40
4.0
 40
5.0
 40
5.0
 40
5.0
 40
5.0
 10
695.6590158911653
 20
-60.88534764107755
 30
0.0
 10
695.6590158911653
 20
-60.88534764107755
 30
0.0
 10
705.7235991919551
 20
-60.88534764107755
 30
0.0
 10
705.7235991919551
 20
-60.88534764107755
 30
0.0
 10
706.552026316494
 20
-60.88534764107755
 30
0.0
 10
707.2235991915801
 20
-60.21377476598885
 30
0.0
 10
707.2235991915801
 20
-59.38534764145129
 30
0.0
 10
707.2235991915801
 20
-59.38534764145129
 30
0.0
 10
707.2235991915794
 20
-44.38534764520149
 30
0.0
 10
707.2235991915794
 20
-44.38534764520149
 30
0.0
 10
707.2235991915794
 20
-43.55692052066393
 30
0.0
 10
706.552026316494
 20
-42.88534764557523
 30
0.0
 10
705.7235991919545
 20
-42.88534764557523
 30
0.0
 10
705.7235991919545
 20
-42.88534764557523
 30
0.0
 10
695.6590158911653
 20
-42.88534764557523
 30
0.0
 10
695.6590158911653
 20
-42.88534764557523
 30
0.0
  0
ENDBLK
  5
9B
330
98
100
AcDbEntity
  8
0
100
AcDbBlockEnd
  0
BLOCK
  5
9F
330
9D
100
AcDbEntity
  8
0
100
AcDbBlockBegin
  2
block 21
 70
     0
 10
0.0
 20
0.0
 30
0.0
  3
block 21
  1

  0
SPLINE
  5
A1
330
9D
100
AcDbEntity
  8
Layer 1
 62
     7
420
 16777215
370
    18
100
AcDbSpline
210
0.0
220
0.0
230
1.0
 70
     8
 71
     3
 72
    20
 73
    16
 74
     0
 42
0.0000000001
 43
0.0000000001
 12
1.0
 22
0.0
 32
0.0
 13
1.0
 23
0.0
 33
0.0
 40
0.0
 40
0.0
 40
0.0
 40
0.0
 40
1.0
 40
1.0
 40
1.0
 40
2.0
 40
2.0
 40
2.0
 40
3.0
 40
3.0
 40
3.0
 40
4.0
 40
4.0
 40
4.0
 40
5.0
 40
5.0
 40
5.0
 40
5.0
 10
480.7881825514958
 20
-42.88534764557523
 30
0.0
 10
480.7881825514958
 20
-42.88534764557523
 30
0.0
 10
470.7235992507059
 20
-42.88534764557523
 30
0.0
 10
470.7235992507059
 20
-42.88534764557523
 30
0.0
 10
469.8951721261664
 20
-42.88534764557523
 30
0.0
 10
469.2235992510796
 20
-43.55692052066393
 30
0.0
 10
469.2235992510796
 20
-44.38534764520149
 30
0.0
 10
469.2235992510796
 20
-44.38534764520149
 30
0.0
 10
469.2235992510796
 20
-59.38534764145129
 30
0.0
 10
469.2235992510796
 20
-59.38534764145129
 30
0.0
 10
469.2235992510796
 20
-60.21377476598885
 30
0.0
 10
469.8951721261664
 20
-60.88534764107755
 30
0.0
 10
470.7235992507059
 20
-60.88534764107755
 30
0.0
 10
470.7235992507059
 20
-60.88534764107755
 30
0.0
 10
480.7881825514958
 20
-60.88534764107755
 30
0.0
 10
480.7881825514958
 20
-60.88534764107755
 30
0.0
  0
ENDBLK
  5
A0
330
9D
100
AcDbEntity
  8
0
100
AcDbBlockEnd
  0
BLOCK
  5
A4
330
A2
100
AcDbEntity
  8
0
100
AcDbBlockBegin
  2
block 22
 70
     0
 10
0.0
 20
0.0
 30
0.0
  3
block 22
  1

  0
SPLINE
  5
A6
330
A2
100
AcDbEntity
  8
Layer 1
 62
     7
420
 16777215
370
    18
100
AcDbSpline
210
0.0
220
0.0
230
1.0
 70
     8
 71
     3
 72
    35
 73
    31
 74
     0
 42
0.0000000001
 43
0.0000000001
 12
1.0
 22
0.0
 32
0.0
 13
1.0
 23
0.0
 33
0.0
 40
0.0
 40
0.0
 40
0.0
 40
0.0
 40
1.0
 40
1.0
 40
1.0
 40
2.0
 40
2.0
 40
2.0
 40
3.0
 40
3.0
 40
3.0
 40
4.0
 40
4.0
 40
4.0
 40
5.0
 40
5.0
 40
5.0
 40
6.0
 40
6.0
 40
6.0
 40
7.0
 40
7.0
 40
7.0
 40
8.0
 40
8.0
 40
8.0
 40
9.0
 40
9.0
 40
9.0
 40
10.0
 40
10.0
 40
10.0
 40
10.0
 10
665.7235992019553
 20
-71.73534763836435
 30
0.0
 10
665.7235992019553
 20
-71.73534763836435
 30
0.0
 10
665.7235992019553
 20
-69.3853476389503
 30
0.0
 10
665.7235992019553
 20
-69.3853476389503
 30
0.0
 10
665.7235992019553
 20
-69.3853476389503
 30
0.0
 10
470.7235992507059
 20
-69.3853476389503
 30
0.0
 10
470.7235992507059
 20
-69.3853476389503
 30
0.0
 10
465.2007517537779
 20
-69.3853476389503
 30
0.0
 10
460.7235992532056
 20
-64.90819513838055
 30
0.0
 10
460.7235992532056
 20
-59.38534764145129
 30
0.0
 10
460.7235992532056
 20
-59.38534764145129
 30
0.0
 10
460.7235992532056
 20
-44.38534764520149
 30
0.0
 10
460.7235992532056
 20
-44.38534764520149
 30
0.0
 10
460.7235992532056
 20
-38.86250014827223
 30
0.0
 10
465.2007517537779
 20
-34.38534764770248
 30
0.0
 10
470.7235992507059
 20
-34.38534764770248
 30
0.0
 10
470.7235992507059
 20
-34.38534764770248
 30
0.0
 10
705.7235991919545
 20
-34.38534764770248
 30
0.0
 10
705.7235991919545
 20
-34.38534764770248
 30
0.0
 10
711.2464466888831
 20
-34.38534764770248
 30
0.0
 10
715.7235991894554
 20
-38.86250014827223
 30
0.0
 10
715.7235991894554
 20
-44.38534764520149
 30
0.0
 10
715.7235991894554
 20
-44.38534764520149
 30
0.0
 10
715.7235991894554
 20
-59.38534764145129
 30
0.0
 10
715.7235991894554
 20
-59.38534764145129
 30
0.0
 10
715.7235991894554
 20
-64.90819513838055
 30
0.0
 10
711.2464466888831
 20
-69.3853476389503
 30
0.0
 10
705.7235991919551
 20
-69.3853476389503
 30
0.0
 10
705.7235991919551
 20
-69.3853476389503
 30
0.0
 10
705.7235991919551
 20
-72.38534763820219
 30
0.0
 10
705.7235991919551
 20
-72.38534763820219
 30
0.0
  0
ENDBLK
  5
A5
330
A2
100
AcDbEntity
  8
0
100
AcDbBlockEnd
  0
ENDSEC
  0
SECTION
  2
ENTITIES
  0
INSERT
  5
42
330
1F
100
AcDbEntity
  8
Layer 1
100
AcDbBlockReference
  2
block 2
 10
0.0
 20
0.0
 30
0.0
  0
INSERT
  5
64
330
1F
100
AcDbEntity
  8
Layer 1
100
AcDbBlockReference
  2
block 9
 10
0.0
 20
0.0
 30
0.0
  0
INSERT
  5
86
330
1F
100
AcDbEntity
  8
Layer 1
100
AcDbBlockReference
  2
block 16
 10
0.0
 20
0.0
 30
0.0
  0
ENDSEC
  0
SECTION
  2
OBJECTS
  0
DICTIONARY
  5
C
330
0
100
AcDbDictionary
281
     1
  3
ACAD_GROUP
350
D
  3
ACAD_LAYOUT
350
1A
  3
ACAD_MATERIAL
350
3B
  3
ACAD_MLEADERSTYLE
350
A8
  3
ACAD_MLINESTYLE
350
17
  3
ACAD_PLOTSETTINGS
350
19
  3
ACAD_PLOTSTYLENAME
350
E
  3
ACAD_TABLESTYLE
350
A7
  3
ACAD_VISUALSTYLE
350
2A
  0
SUN
  5
3F
330
29
100
AcDbSun
 90
        1
290
     0
 63
     7
421
 16777215
 40
1.0
291
     1
 91
  2455826
 92
 54000000
292
     0
 70
     2
 71
   256
280
     1
  0
DICTIONARY
  5
D
102
{ACAD_REACTORS
330
C
102
}
330
C
100
AcDbDictionary
281
     1
  0
DICTIONARY
  5
1A
102
{ACAD_REACTORS
330
C
102
}
330
C
100
AcDbDictionary
281
     1
  3
Layout1
350
1E
  3
Layout2
350
26
  3
Model
350
22
  0
DICTIONARY
  5
3B
102
{ACAD_REACTORS
330
C
102
}
330
C
100
AcDbDictionary
281
     1
  3
ByBlock
350
3D
  3
ByLayer
350
3C
  3
Global
350
3E
  0
DICTIONARY
  5
A8
102
{ACAD_REACTORS
330
C
102
}
330
C
100
AcDbDictionary
281
     1
  0
DICTIONARY
  5
17
102
{ACAD_REACTORS
330
C
102
}
330
C
100
AcDbDictionary
281
     1
  3
Standard
350
18
  0
DICTIONARY
  5
19
102
{ACAD_REACTORS
330
C
102
}
330
C
100
AcDbDictionary
281
     1
  0
ACDBDICTIONARYWDFLT
  5
E
102
{ACAD_REACTORS
330
C
102
}
330
C
100
AcDbDictionary
281
     1
  3
Normal
350
F
100
AcDbDictionaryWithDefault
340
F
  0
DICTIONARY
  5
A7
102
{ACAD_REACTORS
330
C
102
}
330
C
100
AcDbDictionary
281
     1
  0
DICTIONARY
  5
2A
102
{ACAD_REACTORS
330
C
102
}
330
C
100
AcDbDictionary
281
     1
  3
2dWireframe
350
2F
  3
3D Hidden
350
31
  3
3dWireframe
350
30
  3
Basic
350
32
  3
Brighten
350
36
  3
ColorChange
350
3A
  3
Conceptual
350
34
  3
Dim
350
35
  3
Facepattern
350
39
  3
Flat
350
2B
  3
FlatWithEdges
350
2C
  3
Gouraud
350
2D
  3
GouraudWithEdges
350
2E
  3
Linepattern
350
38
  3
Realistic
350
33
  3
Thicken
350
37
  0
LAYOUT
  5
1E
102
{ACAD_REACTORS
330
1A
102
}
330
1A
100
AcDbPlotSettings
  1

  2
none_device
  4

  6

 40
0.0
 41
0.0
 42
0.0
 43
0.0
 44
0.0
 45
0.0
 46
0.0
 47
0.0
 48
0.0
 49
0.0
140
0.0
141
0.0
142
1.0
143
1.0
 70
   688
 72
     0
 73
     0
 74
     5
  7

 75
    16
 76
     0
 77
     2
 78
   300
147
1.0
148
0.0
149
0.0
100
AcDbLayout
  1
Layout1
 70
     1
 71
     1
 10
0.0
 20
0.0
 11
12.0
 21
9.0
 12
0.0
 22
0.0
 32
0.0
 14
1.000000000000000E+20
 24
1.000000000000000E+20
 34
1.000000000000000E+20
 15
-1.000000000000000E+20
 25
-1.000000000000000E+20
 35
-1.000000000000000E+20
146
0.0
 13
0.0
 23
0.0
 33
0.0
 16
1.0
 26
0.0
 36
0.0
 17
0.0
 27
1.0
 37
0.0
 76
     0
330
1B
  0
LAYOUT
  5
26
102
{ACAD_REACTORS
330
1A
102
}
330
1A
100
AcDbPlotSettings
  1

  2
none_device
  4

  6

 40
0.0
 41
0.0
 42
0.0
 43
0.0
 44
0.0
 45
0.0
 46
0.0
 47
0.0
 48
0.0
 49
0.0
140
0.0
141
0.0
142
1.0
143
1.0
 70
   688
 72
     0
 73
     0
 74
     5
  7

 75
    16
 76
     0
 77
     2
 78
   300
147
1.0
148
0.0
149
0.0
100
AcDbLayout
  1
Layout2
 70
     1
 71
     2
 10
0.0
 20
0.0
 11
0.0
 21
0.0
 12
0.0
 22
0.0
 32
0.0
 14
0.0
 24
0.0
 34
0.0
 15
0.0
 25
0.0
 35
0.0
146
0.0
 13
0.0
 23
0.0
 33
0.0
 16
1.0
 26
0.0
 36
0.0
 17
0.0
 27
1.0
 37
0.0
 76
     0
330
23
  0
LAYOUT
  5
22
102
{ACAD_REACTORS
330
1A
102
}
330
1A
100
AcDbPlotSettings
  1

  2
none_device
  4

  6

 40
0.0
 41
0.0
 42
0.0
 43
0.0
 44
0.0
 45
0.0
 46
0.0
 47
0.0
 48
0.0
 49
0.0
140
0.0
141
0.0
142
1.0
143
1.0
 70
  1712
 72
     0
 73
     0
 74
     0
  7

 75
     0
 76
     0
 77
     2
 78
   300
147
1.0
148
0.0
149
0.0
100
AcDbLayout
  1
Model
 70
     1
 71
     0
 10
0.0
 20
0.0
 11
12.0
 21
9.0
 12
0.0
 22
0.0
 32
0.0
 14
1.000000000000000E+20
 24
1.000000000000000E+20
 34
1.000000000000000E+20
 15
-1.000000000000000E+20
 25
-1.000000000000000E+20
 35
-1.000000000000000E+20
146
0.0
 13
0.0
 23
0.0
 33
0.0
 16
1.0
 26
0.0
 36
0.0
 17
0.0
 27
1.0
 37
0.0
 76
     0
330
1F
331
29
  0
MATERIAL
  5
3D
102
{ACAD_REACTORS
330
3B
102
}
330
3B
100
AcDbMaterial
  1
ByBlock
 72
     1
 94
      127
  0
MATERIAL
  5
3C
102
{ACAD_REACTORS
330
3B
102
}
330
3B
100
AcDbMaterial
  1
ByLayer
 72
     1
 94
      127
  0
MATERIAL
  5
3E
102
{ACAD_REACTORS
330
3B
102
}
330
3B
100
AcDbMaterial
  1
Global
 72
     1
 94
      127
  0
MLINESTYLE
  5
18
102
{ACAD_REACTORS
330
17
102
}
330
17
100
AcDbMlineStyle
  2
Standard
 70
     0
  3

 62
   256
 51
90.0
 52
90.0
 71
     2
 49
0.5
 62
   256
  6
BYLAYER
 49
-0.5
 62
   256
  6
BYLAYER
  0
ACDBPLACEHOLDER
  5
F
102
{ACAD_REACTORS
330
E
102
}
330
E
  0
VISUALSTYLE
  5
2F
102
{ACAD_REACTORS
330
2A
102
}
330
2A
100
AcDbVisualStyle
  2
2dWireframe
 70
     4
177
     2
291
     0
 71
     0
176
     1
 72
     2
176
     1
 73
     0
176
     1
 90
        0
176
     1
 40
-0.6
176
     1
 41
-30.0
176
     1
 62
     5
 63
     7
421
 16777215
176
     1
 74
     1
176
     1
 91
        4
176
     1
 64
     7
176
     1
 65
   257
176
     1
 75
     1
176
     1
175
     1
176
     1
 42
1.0
176
     1
 92
        0
176
     1
 66
   257
176
     1
 43
1.0
176
     1
 76
     1
176
     1
 77
     6
176
     1
 78
     2
176
     1
 67
     7
176
     1
 79
     5
176
     1
170
     0
176
     1
171
     0
176
     1
290
     0
176
     1
 93
        1
176
     1
 44
0.0
176
     1
173
     0
176
     1
  0
VISUALSTYLE
  5
31
102
{ACAD_REACTORS
330
2A
102
}
330
2A
100
AcDbVisualStyle
  2
3D Hidden
 70
     6
177
     2
291
     0
 71
     1
176
     1
 72
     2
176
     1
 73
     2
176
     1
 90
        0
176
     1
 40
-0.6
176
     1
 41
-30.0
176
     1
 62
     5
 63
     7
421
 16777215
176
     1
 74
     2
176
     1
 91
        2
176
     1
 64
     7
176
     1
 65
   257
176
     1
 75
     2
176
     1
175
     1
176
     1
 42
40.0
176
     1
 92
        0
176
     1
 66
   257
176
     1
 43
1.0
176
     1
 76
     1
176
     1
 77
     6
176
     1
 78
     2
176
     1
 67
     7
176
     1
 79
     3
176
     1
170
     0
176
     1
171
     0
176
     1
290
     0
176
     1
 93
        1
176
     1
 44
0.0
176
     1
173
     0
176
     1
  0
VISUALSTYLE
  5
30
102
{ACAD_REACTORS
330
2A
102
}
330
2A
100
AcDbVisualStyle
  2
3dWireframe
 70
     5
177
     2
291
     0
 71
     0
176
     1
 72
     2
176
     1
 73
     0
176
     1
 90
        0
176
     1
 40
-0.6
176
     1
 41
-30.0
176
     1
 62
     5
 63
     7
421
 16777215
176
     1
 74
     1
176
     1
 91
        4
176
     1
 64
     7
176
     1
 65
   257
176
     1
 75
     1
176
     1
175
     1
176
     1
 42
1.0
176
     1
 92
        0
176
     1
 66
   257
176
     1
 43
1.0
176
     1
 76
     1
176
     1
 77
     6
176
     1
 78
     2
176
     1
 67
     7
176
     1
 79
     5
176
     1
170
     0
176
     1
171
     0
176
     1
290
     0
176
     1
 93
        1
176
     1
 44
0.0
176
     1
173
     0
176
     1
  0
VISUALSTYLE
  5
32
102
{ACAD_REACTORS
330
2A
102
}
330
2A
100
AcDbVisualStyle
  2
Basic
 70
     7
177
     2
291
     1
 71
     1
176
     1
 72
     0
176
     1
 73
     1
176
     1
 90
        0
176
     1
 40
-0.6
176
     1
 41
-30.0
176
     1
 62
     5
 63
     7
421
 16777215
176
     1
 74
     0
176
     1
 91
        4
176
     1
 64
     7
176
     1
 65
   257
176
     1
 75
     1
176
     1
175
     1
176
     1
 42
1.0
176
     1
 92
        8
176
     1
 66
     7
176
     1
 43
1.0
176
     1
 76
     1
176
     1
 77
     6
176
     1
 78
     2
176
     1
 67
     7
176
     1
 79
     5
176
     1
170
     0
176
     1
171
     0
176
     1
290
     0
176
     1
 93
        1
176
     1
 44
0.0
176
     1
173
     0
176
     1
  0
VISUALSTYLE
  5
36
102
{ACAD_REACTORS
330
2A
102
}
330
2A
100
AcDbVisualStyle
  2
Brighten
 70
    12
177
     2
291
     1
 71
     2
176
     1
 72
     2
176
     1
 73
     0
176
     1
 90
        0
176
     1
 40
-0.6
176
     1
 41
-30.0
176
     1
 62
     5
 63
     7
421
 16777215
176
     1
 74
     1
176
     1
 91
        4
176
     1
 64
     7
176
     1
 65
   257
176
     1
 75
     1
176
     1
175
     1
176
     1
 42
1.0
176
     1
 92
        8
176
     1
 66
     7
176
     1
 43
1.0
176
     1
 76
     1
176
     1
 77
     6
176
     1
 78
     2
176
     1
 67
     7
176
     1
 79
     5
176
     1
170
     0
176
     1
171
     0
176
     1
290
     0
176
     1
 93
        1
176
     1
 44
50.0
176
     1
173
     0
176
     1
  0
VISUALSTYLE
  5
3A
102
{ACAD_REACTORS
330
2A
102
}
330
2A
100
AcDbVisualStyle
  2
ColorChange
 70
    16
177
     2
291
     1
 71
     2
176
     1
 72
     2
176
     1
 73
     3
176
     1
 90
        0
176
     1
 40
-0.6
176
     1
 41
-30.0
176
     1
 62
     5
 63
     8
421
  8421504
176
     1
 74
     1
176
     1
 91
        4
176
     1
 64
     7
176
     1
 65
   257
176
     1
 75
     1
176
     1
175
     1
176
     1
 42
1.0
176
     1
 92
        8
176
     1
 66
     8
424
  8421504
176
     1
 43
1.0
176
     1
 76
     1
176
     1
 77
     6
176
     1
 78
     2
176
     1
 67
     7
176
     1
 79
     5
176
     1
170
     0
176
     1
171
     0
176
     1
290
     0
176
     1
 93
        1
176
     1
 44
0.0
176
     1
173
     0
176
     1
  0
VISUALSTYLE
  5
34
102
{ACAD_REACTORS
330
2A
102
}
330
2A
100
AcDbVisualStyle
  2
Conceptual
 70
     9
177
     2
291
     0
 71
     3
176
     1
 72
     2
176
     1
 73
     0
176
     1
 90
        0
176
     1
 40
-0.6
176
     1
 41
-30.0
176
     1
 62
     5
 63
     7
421
 16777215
176
     1
 74
     2
176
     1
 91
        2
176
     1
 64
     7
176
     1
 65
   257
176
     1
 75
     1
176
     1
175
     1
176
     1
 42
40.0
176
     1
 92
        8
176
     1
 66
     7
176
     1
 43
1.0
176
     1
 76
     1
176
     1
 77
     6
176
     1
 78
     2
176
     1
 67
     7
176
     1
 79
     3
176
     1
170
     0
176
     1
171
     0
176
     1
290
     0
176
     1
 93
        1
176
     1
 44
0.0
176
     1
173
     0
176
     1
  0
VISUALSTYLE
  5
35
102
{ACAD_REACTORS
330
2A
102
}
330
2A
100
AcDbVisualStyle
  2
Dim
 70
    11
177
     2
291
     1
 71
     2
176
     1
 72
     2
176
     1
 73
     0
176
     1
 90
        0
176
     1
 40
-0.6
176
     1
 41
-30.0
176
     1
 62
     5
 63
     7
421
 16777215
176
     1
 74
     1
176
     1
 91
        4
176
     1
 64
     7
176
     1
 65
   257
176
     1
 75
     1
176
     1
175
     1
176
     1
 42
1.0
176
     1
 92
        8
176
     1
 66
     7
176
     1
 43
1.0
176
     1
 76
     1
176
     1
 77
     6
176
     1
 78
     2
176
     1
 67
     7
176
     1
 79
     5
176
     1
170
     0
176
     1
171
     0
176
     1
290
     0
176
     1
 93
        1
176
     1
 44
-50.0
176
     1
173
     0
176
     1
  0
VISUALSTYLE
  5
39
102
{ACAD_REACTORS
330
2A
102
}
330
2A
100
AcDbVisualStyle
  2
Facepattern
 70
    15
177
     2
291
     1
 71
     2
176
     1
 72
     2
176
     1
 73
     0
176
     1
 90
        0
176
     1
 40
-0.6
176
     1
 41
-30.0
176
     1
 62
     5
 63
     7
421
 16777215
176
     1
 74
     1
176
     1
 91
        4
176
     1
 64
     7
176
     1
 65
   257
176
     1
 75
     1
176
     1
175
     1
176
     1
 42
1.0
176
     1
 92
        8
176
     1
 66
     7
176
     1
 43
1.0
176
     1
 76
     1
176
     1
 77
     6
176
     1
 78
     2
176
     1
 67
     7
176
     1
 79
     5
176
     1
170
     0
176
     1
171
     0
176
     1
290
     0
176
     1
 93
        1
176
     1
 44
0.0
176
     1
173
     0
176
     1
  0
VISUALSTYLE
  5
2B
102
{ACAD_REACTORS
330
2A
102
}
330
2A
100
AcDbVisualStyle
  2
Flat
 70
     0
177
     2
291
     1
 71
     2
176
     1
 72
     1
176
     1
 73
     1
176
     1
 90
        2
176
     1
 40
-0.6
176
     1
 41
30.0
176
     1
 62
     5
 63
     7
421
 16777215
176
     1
 74
     0
176
     1
 91
        4
176
     1
 64
     7
176
     1
 65
   257
176
     1
 75
     1
176
     1
175
     1
176
     1
 42
1.0
176
     1
 92
        8
176
     1
 66
     7
176
     1
 43
1.0
176
     1
 76
     1
176
     1
 77
     6
176
     1
 78
     2
176
     1
 67
     7
176
     1
 79
     5
176
     1
170
     0
176
     1
171
     0
176
     1
290
     0
176
     1
 93
       13
176
     1
 44
0.0
176
     1
173
     0
176
     1
  0
VISUALSTYLE
  5
2C
102
{ACAD_REACTORS
330
2A
102
}
330
2A
100
AcDbVisualStyle
  2
FlatWithEdges
 70
     1
177
     2
291
     1
 71
     2
176
     1
 72
     1
176
     1
 73
     1
176
     1
 90
        2
176
     1
 40
-0.6
176
     1
 41
30.0
176
     1
 62
     5
 63
     7
421
 16777215
176
     1
 74
     1
176
     1
 91
        4
176
     1
 64
     7
176
     1
 65
   257
176
     1
 75
     1
176
     1
175
     1
176
     1
 42
1.0
176
     1
 92
        0
176
     1
 66
   257
176
     1
 43
1.0
176
     1
 76
     1
176
     1
 77
     6
176
     1
 78
     2
176
     1
 67
     7
176
     1
 79
     5
176
     1
170
     0
176
     1
171
     0
176
     1
290
     0
176
     1
 93
       13
176
     1
 44
0.0
176
     1
173
     0
176
     1
  0
VISUALSTYLE
  5
2D
102
{ACAD_REACTORS
330
2A
102
}
330
2A
100
AcDbVisualStyle
  2
Gouraud
 70
     2
177
     2
291
     1
 71
     2
176
     1
 72
     2
176
     1
 73
     1
176
     1
 90
        2
176
     1
 40
-0.6
176
     1
 41
30.0
176
     1
 62
     5
 63
     7
421
 16777215
176
     1
 74
     0
176
     1
 91
        4
176
     1
 64
     7
176
     1
 65
   257
176
     1
 75
     1
176
     1
175
     1
176
     1
 42
1.0
176
     1
 92
        0
176
     1
 66
     7
176
     1
 43
1.0
176
     1
 76
     1
176
     1
 77
     6
176
     1
 78
     2
176
     1
 67
     7
176
     1
 79
     5
176
     1
170
     0
176
     1
171
     0
176
     1
290
     0
176
     1
 93
       13
176
     1
 44
0.0
176
     1
173
     0
176
     1
  0
VISUALSTYLE
  5
2E
102
{ACAD_REACTORS
330
2A
102
}
330
2A
100
AcDbVisualStyle
  2
GouraudWithEdges
 70
     3
177
     2
291
     1
 71
     2
176
     1
 72
     2
176
     1
 73
     1
176
     1
 90
        2
176
     1
 40
-0.6
176
     1
 41
30.0
176
     1
 62
     5
 63
     7
421
 16777215
176
     1
 74
     1
176
     1
 91
        4
176
     1
 64
     7
176
     1
 65
   257
176
     1
 75
     1
176
     1
175
     1
176
     1
 42
1.0
176
     1
 92
        0
176
     1
 66
   257
176
     1
 43
1.0
176
     1
 76
     1
176
     1
 77
     6
176
     1
 78
     2
176
     1
 67
     7
176
     1
 79
     5
176
     1
170
     0
176
     1
171
     0
176
     1
290
     0
176
     1
 93
       13
176
     1
 44
0.0
176
     1
173
     0
176
     1
  0
VISUALSTYLE
  5
38
102
{ACAD_REACTORS
330
2A
102
}
330
2A
100
AcDbVisualStyle
  2
Linepattern
 70
    14
177
     2
291
     1
 71
     2
176
     1
 72
     2
176
     1
 73
     0
176
     1
 90
        0
176
     1
 40
-0.6
176
     1
 41
-30.0
176
     1
 62
     5
 63
     7
421
 16777215
176
     1
 74
     1
176
     1
 91
        4
176
     1
 64
     7
176
     1
 65
   257
176
     1
 75
     7
176
     1
175
     7
176
     1
 42
1.0
176
     1
 92
        8
176
     1
 66
     7
176
     1
 43
1.0
176
     1
 76
     1
176
     1
 77
     6
176
     1
 78
     2
176
     1
 67
     7
176
     1
 79
     5
176
     1
170
     0
176
     1
171
     0
176
     1
290
     0
176
     1
 93
        1
176
     1
 44
0.0
176
     1
173
     0
176
     1
  0
VISUALSTYLE
  5
33
102
{ACAD_REACTORS
330
2A
102
}
330
2A
100
AcDbVisualStyle
  2
Realistic
 70
     8
177
     2
291
     0
 71
     2
176
     1
 72
     2
176
     1
 73
     0
176
     1
 90
        0
176
     1
 40
-0.6
176
     1
 41
-30.0
176
     1
 62
     5
 63
     7
421
 16777215
176
     1
 74
     1
176
     1
 91
        0
176
     1
 64
     7
176
     1
 65
   257
176
     1
 75
     1
176
     1
175
     1
176
     1
 42
1.0
176
     1
 92
        8
176
     1
 66
     8
424
  7895160
176
     1
 43
1.0
176
     1
 76
     1
176
     1
 77
     6
176
     1
 78
     2
176
     1
 67
     7
176
     1
 79
     5
176
     1
170
     0
176
     1
171
     0
176
     1
290
     0
176
     1
 93
       13
176
     1
 44
0.0
176
     1
173
     0
176
     1
  0
VISUALSTYLE
  5
37
102
{ACAD_REACTORS
330
2A
102
}
330
2A
100
AcDbVisualStyle
  2
Thicken
 70
    13
177
     2
291
     1
 71
     2
176
     1
 72
     2
176
     1
 73
     0
176
     1
 90
        0
176
     1
 40
-0.6
176
     1
 41
-30.0
176
     1
 62
     5
 63
     7
421
 16777215
176
     1
 74
     1
176
     1
 91
        4
176
     1
 64
     7
176
     1
 65
   257
176
     1
 75
     1
176
     1
175
     1
176
     1
 42
1.0
176
     1
 92
       12
176
     1
 66
     7
176
     1
 43
1.0
176
     1
 76
     1
176
     1
 77
     6
176
     1
 78
     2
176
     1
 67
     7
176
     1
 79
     5
176
     1
170
     0
176
     1
171
     0
176
     1
290
     0
176
     1
 93
        1
176
     1
 44
0.0
176
     1
173
     0
176
     1
  0
ENDSEC
  0
EOF
