  0
SECTION
  2
HEADER
  9
$ACADVER
  1
AC1009
  9
$EXTMIN
 10
5.80397223
 20
1.90496755
 30
0.0
  9
$EXTMAX
 10
395.28612813
 20
743.62483295
 30
0.0
  0
ENDSEC
  0
SECTION
  2
TABLES
  0
TABLE
  2
LAYER
 70
1
 0
LAYER
 2
По_умолчанию
 70
0
 62
18
 6
CONTINUOUS
 0
ENDTAB
 0
ENDSEC
  0
SECTION
  2
ENTITIES
  0
POLYLINE
  8
По_умолчанию
 62
256
 66
   1
 39
0.000000
 70
    0
  0
VERTEX
  8
0
 10
107.88798027
 20
639.98338504
  0
VERTEX
  8
0
 10
138.90741909
 20
607.38285720
  0
VERTEX
  8
0
 10
134.31806167
 20
603.01607846
  0
VERTEX
  8
0
 10
133.69238115
 20
603.17814934
  0
VERTEX
  8
0
 10
133.05912868
 20
603.29929254
  0
VERTEX
  8
0
 10
132.42044323
 20
603.37945396
  0
VERTEX
  8
0
 10
131.77846377
 20
603.41857952
  0
VERTEX
  8
0
 10
131.13532928
 20
603.41661512
  0
VERTEX
  8
0
 10
130.49317872
 20
603.37350668
  0
VERTEX
  8
0
 10
129.85415106
 20
603.28920010
  0
VERTEX
  8
0
 10
129.22038527
 20
603.16364130
  0
VERTEX
  8
0
 10
128.59402033
 20
602.99677618
  0
VERTEX
  8
0
 10
127.97719520
 20
602.78855065
  0
VERTEX
  8
0
 10
127.37204885
 20
602.53891063
  0
VERTEX
  8
0
 10
126.78072027
 20
602.24780202
  0
VERTEX
  8
0
 10
126.20534840
 20
601.91517073
  0
VERTEX
  8
0
 10
125.64807223
 20
601.54096267
  0
VERTEX
  8
0
 10
125.11103073
 20
601.12512375
  0
VERTEX
  8
0
 10
124.59636287
 20
600.66759989
  0
VERTEX
  8
0
 10
124.23253120
 20
600.30345249
  0
VERTEX
  8
0
 10
123.89124340
 20
599.92541151
  0
VERTEX
  8
0
 10
123.57252155
 20
599.53436529
  0
VERTEX
  8
0
 10
123.27638771
 20
599.13120216
  0
VERTEX
  8
0
 10
123.00286397
 20
598.71681047
  0
VERTEX
  8
0
 10
122.75197241
 20
598.29207856
  0
VERTEX
  8
0
 10
122.52373510
 20
597.85789476
  0
VERTEX
  8
0
 10
122.31817412
 20
597.41514741
  0
VERTEX
  8
0
 10
122.13531155
 20
596.96472485
  0
VERTEX
  8
0
 10
121.97516946
 20
596.50751543
  0
VERTEX
  8
0
 10
121.83776993
 20
596.04440748
  0
VERTEX
  8
0
 10
121.72313503
 20
595.57628935
  0
VERTEX
  8
0
 10
121.63128685
 20
595.10404936
  0
VERTEX
  8
0
 10
121.56224747
 20
594.62857586
  0
VERTEX
  8
0
 10
121.51603895
 20
594.15075719
  0
VERTEX
  8
0
 10
121.49268338
 20
593.67148169
  0
VERTEX
  8
0
 10
121.49220283
 20
593.19163770
  0
VERTEX
  8
0
 10
121.51461938
 20
592.71211355
  0
VERTEX
  8
0
 10
121.55995510
 20
592.23379759
  0
VERTEX
  8
0
 10
121.62823208
 20
591.75757816
  0
VERTEX
  8
0
 10
121.71947240
 20
591.28434360
  0
VERTEX
  8
0
 10
121.83369812
 20
590.81498223
  0
VERTEX
  8
0
 10
121.97093133
 20
590.35038241
  0
VERTEX
  8
0
 10
122.13119409
 20
589.89143248
  0
VERTEX
  8
0
 10
122.31450850
 20
589.43902077
  0
VERTEX
  8
0
 10
122.52089663
 20
588.99403562
  0
VERTEX
  8
0
 10
122.75038055
 20
588.55736537
  0
VERTEX
  8
0
 10
123.00298234
 20
588.12989836
  0
VERTEX
  8
0
 10
123.27872408
 20
587.71252293
  0
VERTEX
  8
0
 10
123.57762784
 20
587.30612742
  0
VERTEX
  8
0
 10
123.89971570
 20
586.91160017
  0
VERTEX
  8
0
 10
124.24500975
 20
586.52982952
  0
VERTEX
  8
0
 10
124.60915715
 20
586.16599785
  0
VERTEX
  8
0
 10
124.98719813
 20
585.82471005
  0
VERTEX
  8
0
 10
125.37824435
 20
585.50598820
  0
VERTEX
  8
0
 10
125.78140747
 20
585.20985436
  0
VERTEX
  8
0
 10
126.19579917
 20
584.93633063
  0
VERTEX
  8
0
 10
126.62053108
 20
584.68543907
  0
VERTEX
  8
0
 10
127.05471488
 20
584.45720176
  0
VERTEX
  8
0
 10
127.49746223
 20
584.25164078
  0
VERTEX
  8
0
 10
127.94788478
 20
584.06877820
  0
VERTEX
  8
0
 10
128.40509420
 20
583.90863611
  0
VERTEX
  8
0
 10
128.86820215
 20
583.77123658
  0
VERTEX
  8
0
 10
129.33632029
 20
583.65660169
  0
VERTEX
  8
0
 10
129.80856028
 20
583.56475351
  0
VERTEX
  8
0
 10
130.28403378
 20
583.49571412
  0
VERTEX
  8
0
 10
130.76185245
 20
583.44950560
  0
VERTEX
  8
0
 10
131.24112795
 20
583.42615003
  0
VERTEX
  8
0
 10
131.72097194
 20
583.42566948
  0
VERTEX
  8
0
 10
132.20049608
 20
583.44808603
  0
VERTEX
  8
0
 10
132.67881204
 20
583.49342176
  0
VERTEX
  8
0
 10
133.15503147
 20
583.56169874
  0
VERTEX
  8
0
 10
133.62826604
 20
583.65293905
  0
VERTEX
  8
0
 10
134.09762740
 20
583.76716477
  0
VERTEX
  8
0
 10
134.56222722
 20
583.90439798
  0
VERTEX
  8
0
 10
135.02117716
 20
584.06466075
  0
VERTEX
  8
0
 10
135.47358887
 20
584.24797516
  0
VERTEX
  8
0
 10
135.91857402
 20
584.45436328
  0
VERTEX
  8
0
 10
136.35524427
 20
584.68384720
  0
VERTEX
  8
0
 10
136.78271128
 20
584.93644899
  0
VERTEX
  8
0
 10
137.20008671
 20
585.21219073
  0
VERTEX
  8
0
 10
137.60648222
 20
585.51109449
  0
VERTEX
  8
0
 10
138.00100947
 20
585.83318236
  0
VERTEX
  8
0
 10
138.38278012
 20
586.17847640
  0
VERTEX
  8
0
 10
138.86530453
 20
586.66978211
  0
VERTEX
  8
0
 10
139.30730682
 20
587.18550446
  0
VERTEX
  8
0
 10
139.70873478
 20
587.72350446
  0
VERTEX
  8
0
 10
140.06953617
 20
588.28164307
  0
VERTEX
  8
0
 10
140.38965877
 20
588.85778129
  0
VERTEX
  8
0
 10
140.66905035
 20
589.44978009
  0
VERTEX
  8
0
 10
140.90765869
 20
590.05550046
  0
VERTEX
  8
0
 10
141.10543155
 20
590.67280339
  0
VERTEX
  8
0
 10
141.26231672
 20
591.29954986
  0
VERTEX
  8
0
 10
141.37826196
 20
591.93360084
  0
VERTEX
  8
0
 10
141.45321505
 20
592.57281733
  0
VERTEX
  8
0
 10
141.48712376
 20
593.21506030
  0
VERTEX
  8
0
 10
141.47993587
 20
593.85819074
  0
VERTEX
  8
0
 10
141.43159914
 20
594.50006964
  0
VERTEX
  8
0
 10
141.34206136
 20
595.13855797
  0
VERTEX
  8
0
 10
141.21127029
 20
595.77151672
  0
VERTEX
  8
0
 10
145.80062771
 20
600.13829545
  0
VERTEX
  8
0
 10
176.82006653
 20
567.53776761
  0
VERTEX
  8
0
 10
144.21953869
 20
536.51832880
  0
VERTEX
  8
0
 10
148.58631742
 20
531.92897138
  0
VERTEX
  8
0
 10
149.21927617
 20
532.05976244
  0
VERTEX
  8
0
 10
149.85776450
 20
532.14930023
  0
VERTEX
  8
0
 10
150.49964340
 20
532.19763695
  0
VERTEX
  8
0
 10
151.14277384
 20
532.20482484
  0
VERTEX
  8
0
 10
151.78501682
 20
532.17091613
  0
VERTEX
  8
0
 10
152.42423330
 20
532.09596304
  0
VERTEX
  8
0
 10
153.05828429
 20
531.98001780
  0
VERTEX
  8
0
 10
153.68503075
 20
531.82313264
  0
VERTEX
  8
0
 10
154.30233368
 20
531.62535977
  0
VERTEX
  8
0
 10
154.90805405
 20
531.38675144
  0
VERTEX
  8
0
 10
155.50005286
 20
531.10735986
  0
VERTEX
  8
0
 10
156.07619107
 20
530.78723726
  0
VERTEX
  8
0
 10
156.63432969
 20
530.42643587
  0
VERTEX
  8
0
 10
157.17232968
 20
530.02500791
  0
VERTEX
  8
0
 10
157.68805204
 20
529.58300561
  0
VERTEX
  8
0
 10
158.17935774
 20
529.10048120
  0
VERTEX
  8
0
 10
158.52465178
 20
528.71871055
  0
VERTEX
  8
0
 10
158.84673965
 20
528.32418330
  0
VERTEX
  8
0
 10
159.14564341
 20
527.91778779
  0
VERTEX
  8
0
 10
159.42138515
 20
527.50041236
  0
VERTEX
  8
0
 10
159.67398694
 20
527.07294535
  0
VERTEX
  8
0
 10
159.90347086
 20
526.63627510
  0
VERTEX
  8
0
 10
160.10985899
 20
526.19128995
  0
VERTEX
  8
0
 10
160.29317339
 20
525.73887824
  0
VERTEX
  8
0
 10
160.45343616
 20
525.27992831
  0
VERTEX
  8
0
 10
160.59066937
 20
524.81532849
  0
VERTEX
  8
0
 10
160.70489509
 20
524.34596713
  0
VERTEX
  8
0
 10
160.79613540
 20
523.87273256
  0
VERTEX
  8
0
 10
160.86441239
 20
523.39651313
  0
VERTEX
  8
0
 10
160.90974811
 20
522.91819717
  0
VERTEX
  8
0
 10
160.93216466
 20
522.43867302
  0
VERTEX
  8
0
 10
160.93168411
 20
521.95882903
  0
VERTEX
  8
0
 10
160.90832854
 20
521.47955353
  0
VERTEX
  8
0
 10
160.86212002
 20
521.00173486
  0
VERTEX
  8
0
 10
160.79308064
 20
520.52626136
  0
VERTEX
  8
0
 10
160.70123246
 20
520.05402138
  0
VERTEX
  8
0
 10
160.58659756
 20
519.58590324
  0
VERTEX
  8
0
 10
160.44919803
 20
519.12279529
  0
VERTEX
  8
0
 10
160.28905594
 20
518.66558587
  0
VERTEX
  8
0
 10
160.10619337
 20
518.21516331
  0
VERTEX
  8
0
 10
159.90063239
 20
517.77241597
  0
VERTEX
  8
0
 10
159.67239508
 20
517.33823216
  0
VERTEX
  8
0
 10
159.42150351
 20
516.91350025
  0
VERTEX
  8
0
 10
159.14797978
 20
516.49910856
  0
VERTEX
  8
0
 10
158.85184594
 20
516.09594543
  0
VERTEX
  8
0
 10
158.53312409
 20
515.70489921
  0
VERTEX
  8
0
 10
158.19183629
 20
515.32685823
  0
VERTEX
  8
0
 10
157.82800462
 20
514.96271083
  0
VERTEX
  8
0
 10
157.44623397
 20
514.61741679
  0
VERTEX
  8
0
 10
157.05170672
 20
514.29532892
  0
VERTEX
  8
0
 10
156.64531121
 20
513.99642516
  0
VERTEX
  8
0
 10
156.22793578
 20
513.72068342
  0
VERTEX
  8
0
 10
155.80046878
 20
513.46808163
  0
VERTEX
  8
0
 10
155.36379853
 20
513.23859771
  0
VERTEX
  8
0
 10
154.91881338
 20
513.03220959
  0
VERTEX
  8
0
 10
154.46640166
 20
512.84889518
  0
VERTEX
  8
0
 10
154.00745173
 20
512.68863241
  0
VERTEX
  8
0
 10
153.54285191
 20
512.55139920
  0
VERTEX
  8
0
 10
153.07349055
 20
512.43717348
  0
VERTEX
  8
0
 10
152.60025598
 20
512.34593317
  0
VERTEX
  8
0
 10
152.12403655
 20
512.27765619
  0
VERTEX
  8
0
 10
151.64572059
 20
512.23232046
  0
VERTEX
  8
0
 10
151.16619644
 20
512.20990391
  0
VERTEX
  8
0
 10
150.68635245
 20
512.21038446
  0
VERTEX
  8
0
 10
150.20707695
 20
512.23374003
  0
VERTEX
  8
0
 10
149.72925828
 20
512.27994855
  0
VERTEX
  8
0
 10
149.25378479
 20
512.34898794
  0
VERTEX
  8
0
 10
148.78154480
 20
512.44083612
  0
VERTEX
  8
0
 10
148.31342666
 20
512.55547101
  0
VERTEX
  8
0
 10
147.85031871
 20
512.69287054
  0
VERTEX
  8
0
 10
147.39310929
 20
512.85301263
  0
VERTEX
  8
0
 10
146.94268673
 20
513.03587521
  0
VERTEX
  8
0
 10
146.49993939
 20
513.24143619
  0
VERTEX
  8
0
 10
146.06575559
 20
513.46967350
  0
VERTEX
  8
0
 10
145.64102367
 20
513.72056506
  0
VERTEX
  8
0
 10
145.22663198
 20
513.99408879
  0
VERTEX
  8
0
 10
144.82346885
 20
514.29022263
  0
VERTEX
  8
0
 10
144.43242263
 20
514.60894448
  0
VERTEX
  8
0
 10
144.05438165
 20
514.95023228
  0
VERTEX
  8
0
 10
143.69023425
 20
515.31406395
  0
VERTEX
  8
0
 10
143.23271039
 20
515.82873181
  0
VERTEX
  8
0
 10
142.81687147
 20
516.36577332
  0
VERTEX
  8
0
 10
142.44266341
 20
516.92304949
  0
VERTEX
  8
0
 10
142.11003213
 20
517.49842135
  0
VERTEX
  8
0
 10
141.81892351
 20
518.08974994
  0
VERTEX
  8
0
 10
141.56928349
 20
518.69489628
  0
VERTEX
  8
0
 10
141.36105796
 20
519.31172141
  0
VERTEX
  8
0
 10
141.19419284
 20
519.93808635
  0
VERTEX
  8
0
 10
141.06863404
 20
520.57185214
  0
VERTEX
  8
0
 10
140.98432746
 20
521.21087980
  0
VERTEX
  8
0
 10
140.94121902
 20
521.85303036
  0
VERTEX
  8
0
 10
140.93925462
 20
522.49616486
  0
VERTEX
  8
0
 10
140.97838018
 20
523.13814431
  0
VERTEX
  8
0
 10
141.05854160
 20
523.77682976
  0
VERTEX
  8
0
 10
141.17968480
 20
524.41008223
  0
VERTEX
  8
0
 10
141.34175568
 20
525.03576275
  0
VERTEX
  8
0
 10
136.97497695
 20
529.62512017
  0
VERTEX
  8
0
 10
104.37444911
 20
498.60568135
  0
SEQEND
  0
POLYLINE
  8
По_умолчанию
 62
256
 66
   1
 39
0.000000
 70
    0
  0
VERTEX
  8
0
 10
245.75215279
 20
495.09215019
  0
VERTEX
  8
0
 10
214.73271397
 20
527.69267803
  0
VERTEX
  8
0
 10
219.32207139
 20
532.05945676
  0
VERTEX
  8
0
 10
219.94775191
 20
531.89738588
  0
VERTEX
  8
0
 10
220.58100438
 20
531.77624269
  0
VERTEX
  8
0
 10
221.21968983
 20
531.69608126
  0
VERTEX
  8
0
 10
221.86166929
 20
531.65695571
  0
VERTEX
  8
0
 10
222.50480378
 20
531.65892010
  0
VERTEX
  8
0
 10
223.14695434
 20
531.70202854
  0
VERTEX
  8
0
 10
223.78598200
 20
531.78633512
  0
VERTEX
  8
0
 10
224.41974779
 20
531.91189393
  0
VERTEX
  8
0
 10
225.04611273
 20
532.07875905
  0
VERTEX
  8
0
 10
225.66293786
 20
532.28698457
  0
VERTEX
  8
0
 10
226.26808420
 20
532.53662460
  0
VERTEX
  8
0
 10
226.85941279
 20
532.82773321
  0
VERTEX
  8
0
 10
227.43478466
 20
533.16036450
  0
VERTEX
  8
0
 10
227.99206083
 20
533.53457256
  0
VERTEX
  8
0
 10
228.52910233
 20
533.95041147
  0
VERTEX
  8
0
 10
229.04377019
 20
534.40793534
  0
VERTEX
  8
0
 10
229.40760186
 20
534.77208274
  0
VERTEX
  8
0
 10
229.74888966
 20
535.15012372
  0
VERTEX
  8
0
 10
230.06761151
 20
535.54116994
  0
VERTEX
  8
0
 10
230.36374535
 20
535.94433306
  0
VERTEX
  8
0
 10
230.63726908
 20
536.35872475
  0
VERTEX
  8
0
 10
230.88816065
 20
536.78345667
  0
VERTEX
  8
0
 10
231.11639796
 20
537.21764047
  0
VERTEX
  8
0
 10
231.32195894
 20
537.66038782
  0
VERTEX
  8
0
 10
231.50482151
 20
538.11081037
  0
VERTEX
  8
0
 10
231.66496360
 20
538.56801979
  0
VERTEX
  8
0
 10
231.80236313
 20
539.03112774
  0
VERTEX
  8
0
 10
231.91699803
 20
539.49924588
  0
VERTEX
  8
0
 10
232.00884621
 20
539.97148587
  0
VERTEX
  8
0
 10
232.07788559
 20
540.44695937
  0
VERTEX
  8
0
 10
232.12409411
 20
540.92477804
  0
VERTEX
  8
0
 10
232.14744968
 20
541.40405354
  0
VERTEX
  8
0
 10
232.14793023
 20
541.88389753
  0
VERTEX
  8
0
 10
232.12551368
 20
542.36342167
  0
VERTEX
  8
0
 10
232.08017796
 20
542.84173763
  0
VERTEX
  8
0
 10
232.01190097
 20
543.31795706
  0
VERTEX
  8
0
 10
231.92066066
 20
543.79119163
  0
VERTEX
  8
0
 10
231.80643494
 20
544.26055299
  0
VERTEX
  8
0
 10
231.66920173
 20
544.72515281
  0
VERTEX
  8
0
 10
231.50893896
 20
545.18410275
  0
VERTEX
  8
0
 10
231.32562456
 20
545.63651446
  0
VERTEX
  8
0
 10
231.11923643
 20
546.08149961
  0
VERTEX
  8
0
 10
230.88975251
 20
546.51816986
  0
VERTEX
  8
0
 10
230.63715072
 20
546.94563687
  0
VERTEX
  8
0
 10
230.36140898
 20
547.36301230
  0
VERTEX
  8
0
 10
230.06250522
 20
547.76940780
  0
VERTEX
  8
0
 10
229.74041735
 20
548.16393505
  0
VERTEX
  8
0
 10
229.39512331
 20
548.54570571
  0
VERTEX
  8
0
 10
229.03097591
 20
548.90953737
  0
VERTEX
  8
0
 10
228.65293493
 20
549.25082517
  0
VERTEX
  8
0
 10
228.26188871
 20
549.56954703
  0
VERTEX
  8
0
 10
227.85872558
 20
549.86568086
  0
VERTEX
  8
0
 10
227.44433389
 20
550.13920460
  0
VERTEX
  8
0
 10
227.01960198
 20
550.39009616
  0
VERTEX
  8
0
 10
226.58541818
 20
550.61833347
  0
VERTEX
  8
0
 10
226.14267083
 20
550.82389445
  0
VERTEX
  8
0
 10
225.69224828
 20
551.00675703
  0
VERTEX
  8
0
 10
225.23503886
 20
551.16689912
  0
VERTEX
  8
0
 10
224.77193091
 20
551.30429865
  0
VERTEX
  8
0
 10
224.30381277
 20
551.41893354
  0
VERTEX
  8
0
 10
223.83157278
 20
551.51078172
  0
VERTEX
  8
0
 10
223.35609928
 20
551.57982111
  0
VERTEX
  8
0
 10
222.87828061
 20
551.62602962
  0
VERTEX
  8
0
 10
222.39900511
 20
551.64938520
  0
VERTEX
  8
0
 10
221.91916112
 20
551.64986575
  0
VERTEX
  8
0
 10
221.43963698
 20
551.62744920
  0
VERTEX
  8
0
 10
220.96132102
 20
551.58211347
  0
VERTEX
  8
0
 10
220.48510158
 20
551.51383649
  0
VERTEX
  8
0
 10
220.01186702
 20
551.42259617
  0
VERTEX
  8
0
 10
219.54250565
 20
551.30837045
  0
VERTEX
  8
0
 10
219.07790584
 20
551.17113725
  0
VERTEX
  8
0
 10
218.61895590
 20
551.01087448
  0
VERTEX
  8
0
 10
218.16654419
 20
550.82756007
  0
VERTEX
  8
0
 10
217.72155904
 20
550.62117194
  0
VERTEX
  8
0
 10
217.28488879
 20
550.39168802
  0
VERTEX
  8
0
 10
216.85742178
 20
550.13908623
  0
VERTEX
  8
0
 10
216.44004635
 20
549.86334450
  0
VERTEX
  8
0
 10
216.03365084
 20
549.56444073
  0
VERTEX
  8
0
 10
215.63912359
 20
549.24235287
  0
VERTEX
  8
0
 10
215.25735294
 20
548.89705882
  0
VERTEX
  8
0
 10
214.77482853
 20
548.40575312
  0
VERTEX
  8
0
 10
214.33282623
 20
547.89003076
  0
VERTEX
  8
0
 10
213.93139828
 20
547.35203077
  0
VERTEX
  8
0
 10
213.57059689
 20
546.79389216
  0
VERTEX
  8
0
 10
213.25047429
 20
546.21775394
  0
VERTEX
  8
0
 10
212.97108270
 20
545.62575514
  0
VERTEX
  8
0
 10
212.73247437
 20
545.02003476
  0
VERTEX
  8
0
 10
212.53470151
 20
544.40273183
  0
VERTEX
  8
0
 10
212.37781634
 20
543.77598537
  0
VERTEX
  8
0
 10
212.26187110
 20
543.14193439
  0
VERTEX
  8
0
 10
212.18691801
 20
542.50271790
  0
VERTEX
  8
0
 10
212.15300930
 20
541.86047493
  0
VERTEX
  8
0
 10
212.16019719
 20
541.21734448
  0
VERTEX
  8
0
 10
212.20853392
 20
540.57546559
  0
VERTEX
  8
0
 10
212.29807170
 20
539.93697726
  0
VERTEX
  8
0
 10
212.42886276
 20
539.30401850
  0
VERTEX
  8
0
 10
207.83950535
 20
534.93723977
  0
VERTEX
  8
0
 10
176.82006653
 20
567.53776761
  0
VERTEX
  8
0
 10
209.42059437
 20
598.55720643
  0
VERTEX
  8
0
 10
205.05381564
 20
603.14656385
  0
VERTEX
  8
0
 10
204.42085689
 20
603.01577278
  0
VERTEX
  8
0
 10
203.78236855
 20
602.92623500
  0
VERTEX
  8
0
 10
203.14048966
 20
602.87789828
  0
VERTEX
  8
0
 10
202.49735922
 20
602.87071038
  0
VERTEX
  8
0
 10
201.85511624
 20
602.90461909
  0
VERTEX
  8
0
 10
201.21589976
 20
602.97957218
  0
VERTEX
  8
0
 10
200.58184877
 20
603.09551742
  0
VERTEX
  8
0
 10
199.95510231
 20
603.25240259
  0
VERTEX
  8
0
 10
199.33779938
 20
603.45017545
  0
VERTEX
  8
0
 10
198.73207901
 20
603.68878379
  0
VERTEX
  8
0
 10
198.14008020
 20
603.96817537
  0
VERTEX
  8
0
 10
197.56394199
 20
604.28829797
  0
VERTEX
  8
0
 10
197.00580337
 20
604.64909936
  0
VERTEX
  8
0
 10
196.46780338
 20
605.05052732
  0
VERTEX
  8
0
 10
195.95208102
 20
605.49252962
  0
VERTEX
  8
0
 10
195.46077532
 20
605.97505403
  0
VERTEX
  8
0
 10
195.11548127
 20
606.35682468
  0
VERTEX
  8
0
 10
194.79339341
 20
606.75135193
  0
VERTEX
  8
0
 10
194.49448965
 20
607.15774744
  0
VERTEX
  8
0
 10
194.21874791
 20
607.57512286
  0
VERTEX
  8
0
 10
193.96614612
 20
608.00258987
  0
VERTEX
  8
0
 10
193.73666220
 20
608.43926012
  0
VERTEX
  8
0
 10
193.53027407
 20
608.88424527
  0
VERTEX
  8
0
 10
193.34695966
 20
609.33665699
  0
VERTEX
  8
0
 10
193.18669690
 20
609.79560692
  0
VERTEX
  8
0
 10
193.04946369
 20
610.26020674
  0
VERTEX
  8
0
 10
192.93523797
 20
610.72956810
  0
VERTEX
  8
0
 10
192.84399765
 20
611.20280267
  0
VERTEX
  8
0
 10
192.77572067
 20
611.67902210
  0
VERTEX
  8
0
 10
192.73038495
 20
612.15733806
  0
VERTEX
  8
0
 10
192.70796840
 20
612.63686220
  0
VERTEX
  8
0
 10
192.70844894
 20
613.11670620
  0
VERTEX
  8
0
 10
192.73180452
 20
613.59598170
  0
VERTEX
  8
0
 10
192.77801304
 20
614.07380037
  0
VERTEX
  8
0
 10
192.84705242
 20
614.54927386
  0
VERTEX
  8
0
 10
192.93890060
 20
615.02151385
  0
VERTEX
  8
0
 10
193.05353550
 20
615.48963199
  0
VERTEX
  8
0
 10
193.19093503
 20
615.95273994
  0
VERTEX
  8
0
 10
193.35107712
 20
616.40994936
  0
VERTEX
  8
0
 10
193.53393969
 20
616.86037191
  0
VERTEX
  8
0
 10
193.73950067
 20
617.30311926
  0
VERTEX
  8
0
 10
193.96773798
 20
617.73730306
  0
VERTEX
  8
0
 10
194.21862954
 20
618.16203498
  0
VERTEX
  8
0
 10
194.49215328
 20
618.57642667
  0
VERTEX
  8
0
 10
194.78828712
 20
618.97958979
  0
VERTEX
  8
0
 10
195.10700897
 20
619.37063602
  0
VERTEX
  8
0
 10
195.44829677
 20
619.74867700
  0
VERTEX
  8
0
 10
195.81212844
 20
620.11282439
  0
VERTEX
  8
0
 10
196.19389909
 20
620.45811844
  0
VERTEX
  8
0
 10
196.58842634
 20
620.78020630
  0
VERTEX
  8
0
 10
196.99482185
 20
621.07911007
  0
VERTEX
  8
0
 10
197.41219727
 20
621.35485180
  0
VERTEX
  8
0
 10
197.83966428
 20
621.60745359
  0
VERTEX
  8
0
 10
198.27633453
 20
621.83693751
  0
VERTEX
  8
0
 10
198.72131968
 20
622.04332564
  0
VERTEX
  8
0
 10
199.17373140
 20
622.22664005
  0
VERTEX
  8
0
 10
199.63268133
 20
622.38690282
  0
VERTEX
  8
0
 10
200.09728115
 20
622.52413602
  0
VERTEX
  8
0
 10
200.56664251
 20
622.63836174
  0
VERTEX
  8
0
 10
201.03987708
 20
622.72960206
  0
VERTEX
  8
0
 10
201.51609651
 20
622.79787904
  0
VERTEX
  8
0
 10
201.99441247
 20
622.84321477
  0
VERTEX
  8
0
 10
202.47393661
 20
622.86563132
  0
VERTEX
  8
0
 10
202.95378061
 20
622.86515077
  0
VERTEX
  8
0
 10
203.43305611
 20
622.84179519
  0
VERTEX
  8
0
 10
203.91087478
 20
622.79558668
  0
VERTEX
  8
0
 10
204.38634827
 20
622.72654729
  0
VERTEX
  8
0
 10
204.85858826
 20
622.63469911
  0
VERTEX
  8
0
 10
205.32670640
 20
622.52006422
  0
VERTEX
  8
0
 10
205.78981435
 20
622.38266469
  0
VERTEX
  8
0
 10
206.24702377
 20
622.22252260
  0
VERTEX
  8
0
 10
206.69744632
 20
622.03966002
  0
VERTEX
  8
0
 10
207.14019367
 20
621.83409904
  0
VERTEX
  8
0
 10
207.57437747
 20
621.60586173
  0
VERTEX
  8
0
 10
207.99910939
 20
621.35497017
  0
VERTEX
  8
0
 10
208.41350108
 20
621.08144643
  0
VERTEX
  8
0
 10
208.81666420
 20
620.78531260
  0
VERTEX
  8
0
 10
209.20771043
 20
620.46659074
  0
VERTEX
  8
0
 10
209.58575141
 20
620.12530294
  0
VERTEX
  8
0
 10
209.94989880
 20
619.76147128
  0
VERTEX
  8
0
 10
210.40742267
 20
619.24680341
  0
VERTEX
  8
0
 10
210.82326159
 20
618.70976191
  0
VERTEX
  8
0
 10
211.19746964
 20
618.15248574
  0
VERTEX
  8
0
 10
211.53010093
 20
617.57711388
  0
VERTEX
  8
0
 10
211.82120954
 20
616.98578529
  0
VERTEX
  8
0
 10
212.07084957
 20
616.38063894
  0
VERTEX
  8
0
 10
212.27907510
 20
615.76381382
  0
VERTEX
  8
0
 10
212.44594022
 20
615.13744887
  0
VERTEX
  8
0
 10
212.57149902
 20
614.50368309
  0
VERTEX
  8
0
 10
212.65580560
 20
613.86465543
  0
VERTEX
  8
0
 10
212.69891404
 20
613.22250486
  0
VERTEX
  8
0
 10
212.70087844
 20
612.57937037
  0
VERTEX
  8
0
 10
212.66175288
 20
611.93739091
  0
VERTEX
  8
0
 10
212.58159146
 20
611.29870546
  0
VERTEX
  8
0
 10
212.46044826
 20
610.66545299
  0
VERTEX
  8
0
 10
212.29837738
 20
610.03977247
  0
VERTEX
  8
0
 10
216.66515611
 20
605.45041506
  0
VERTEX
  8
0
 10
249.26568395
 20
636.46985387
  0
SEQEND
  0
POLYLINE
  8
По_умолчанию
 62
256
 66
   1
 39
0.000000
 70
    1
  0
VERTEX
  8
0
 10
118.51221947
 20
498.25432824
  0
VERTEX
  8
0
 10
133.45985127
 20
512.47701666
  0
VERTEX
  8
0
 10
133.77225655
 20
511.93625923
  0
VERTEX
  8
0
 10
134.10223653
 20
511.40425749
  0
VERTEX
  8
0
 10
134.44969276
 20
510.88145321
  0
VERTEX
  8
0
 10
134.81452681
 20
510.36828815
  0
VERTEX
  8
0
 10
135.19664025
 20
509.86520407
  0
VERTEX
  8
0
 10
135.59593463
 20
509.37264273
  0
VERTEX
  8
0
 10
136.01231153
 20
508.89104589
  0
VERTEX
  8
0
 10
136.44567251
 20
508.42085532
  0
VERTEX
  8
0
 10
137.17377395
 20
507.69340879
  0
VERTEX
  8
0
 10
137.92970066
 20
507.01103536
  0
VERTEX
  8
0
 10
138.71167340
 20
506.37377926
  0
VERTEX
  8
0
 10
139.51791292
 20
505.78168471
  0
VERTEX
  8
0
 10
140.34663998
 20
505.23479592
  0
VERTEX
  8
0
 10
141.19607534
 20
504.73315711
  0
VERTEX
  8
0
 10
142.06443976
 20
504.27681250
  0
VERTEX
  8
0
 10
142.94995400
 20
503.86580630
  0
VERTEX
  8
0
 10
143.85083882
 20
503.50018274
  0
VERTEX
  8
0
 10
144.76531497
 20
503.17998604
  0
VERTEX
  8
0
 10
145.69160321
 20
502.90526040
  0
VERTEX
  8
0
 10
146.62792431
 20
502.67605005
  0
VERTEX
  8
0
 10
147.57249902
 20
502.49239921
  0
VERTEX
  8
0
 10
148.52354809
 20
502.35435209
  0
VERTEX
  8
0
 10
149.47929230
 20
502.26195291
  0
VERTEX
  8
0
 10
150.43795239
 20
502.21524589
  0
VERTEX
  8
0
 10
151.39774912
 20
502.21427525
  0
VERTEX
  8
0
 10
152.35690326
 20
502.25908521
  0
VERTEX
  8
0
 10
153.31363556
 20
502.34971997
  0
VERTEX
  8
0
 10
154.26616678
 20
502.48622377
  0
VERTEX
  8
0
 10
155.21271767
 20
502.66864082
  0
VERTEX
  8
0
 10
156.15150901
 20
502.89701534
  0
VERTEX
  8
0
 10
157.08076154
 20
503.17139154
  0
VERTEX
  8
0
 10
157.99869602
 20
503.49181364
  0
VERTEX
  8
0
 10
158.90353322
 20
503.85832586
  0
VERTEX
  8
0
 10
159.79349388
 20
504.27097242
  0
VERTEX
  8
0
 10
160.66679878
 20
504.72979754
  0
VERTEX
  8
0
 10
161.52166866
 20
505.23484543
  0
VERTEX
  8
0
 10
162.35632429
 20
505.78616031
  0
VERTEX
  8
0
 10
163.16898643
 20
506.38378640
  0
VERTEX
  8
0
 10
163.95787583
 20
507.02776792
  0
VERTEX
  8
0
 10
164.72121325
 20
507.71814909
  0
VERTEX
  8
0
 10
165.44865978
 20
508.44625053
  0
VERTEX
  8
0
 10
166.13103321
 20
509.20217724
  0
VERTEX
  8
0
 10
166.76828931
 20
509.98414998
  0
VERTEX
  8
0
 10
167.36038386
 20
510.79038949
  0
VERTEX
  8
0
 10
167.90727265
 20
511.61911655
  0
VERTEX
  8
0
 10
168.40891146
 20
512.46855192
  0
VERTEX
  8
0
 10
168.86525608
 20
513.33691634
  0
VERTEX
  8
0
 10
169.27626227
 20
514.22243058
  0
VERTEX
  8
0
 10
169.64188583
 20
515.12331539
  0
VERTEX
  8
0
 10
169.96208254
 20
516.03779155
  0
VERTEX
  8
0
 10
170.23680817
 20
516.96407979
  0
VERTEX
  8
0
 10
170.46601852
 20
517.90040089
  0
VERTEX
  8
0
 10
170.64966937
 20
518.84497559
  0
VERTEX
  8
0
 10
170.78771649
 20
519.79602467
  0
VERTEX
  8
0
 10
170.88011566
 20
520.75176887
  0
VERTEX
  8
0
 10
170.92682268
 20
521.71042896
  0
VERTEX
  8
0
 10
170.92779332
 20
522.67022570
  0
VERTEX
  8
0
 10
170.88298337
 20
523.62937984
  0
VERTEX
  8
0
 10
170.79234860
 20
524.58611213
  0
VERTEX
  8
0
 10
170.65584480
 20
525.53864335
  0
VERTEX
  8
0
 10
170.47342775
 20
526.48519425
  0
VERTEX
  8
0
 10
170.24505324
 20
527.42398558
  0
VERTEX
  8
0
 10
169.97067704
 20
528.35323811
  0
VERTEX
  8
0
 10
169.65025493
 20
529.27117260
  0
VERTEX
  8
0
 10
169.28374271
 20
530.17600979
  0
VERTEX
  8
0
 10
168.87109615
 20
531.06597046
  0
VERTEX
  8
0
 10
168.41227103
 20
531.93927536
  0
VERTEX
  8
0
 10
167.90722314
 20
532.79414524
  0
VERTEX
  8
0
 10
167.35590826
 20
533.62880087
  0
VERTEX
  8
0
 10
166.75828217
 20
534.44146301
  0
VERTEX
  8
0
 10
166.11430065
 20
535.23035241
  0
VERTEX
  8
0
 10
165.42391948
 20
535.99368983
  0
VERTEX
  8
0
 10
164.97583591
 20
536.44987184
  0
VERTEX
  8
0
 10
164.51551650
 20
536.88965732
  0
VERTEX
  8
0
 10
164.04339757
 20
537.31292603
  0
VERTEX
  8
0
 10
163.55991545
 20
537.71955770
  0
VERTEX
  8
0
 10
163.06550647
 20
538.10943207
  0
VERTEX
  8
0
 10
162.56060695
 20
538.48242888
  0
VERTEX
  8
0
 10
162.04565323
 20
538.83842789
  0
VERTEX
  8
0
 10
161.52108162
 20
539.17730882
  0
VERTEX
  8
0
 10
176.46871341
 20
553.39999724
  0
VERTEX
  8
0
 10
231.61438242
 20
495.44350331
  0
VERTEX
  8
0
 10
173.67078380
 20
440.31010421
  0
VERTEX
  8
0
 10
173.64561857
 20
440.31072962
  0
VERTEX
  8
0
 10
118.51221947
 20
498.25432824
  0
SEQEND
  0
POLYLINE
  8
По_умолчанию
 62
256
 66
   1
 39
0.000000
 70
    1
  0
VERTEX
  8
0
 10
107.88798027
 20
639.98338504
  0
VERTEX
  8
0
 10
173.08903595
 20
702.02226267
  0
VERTEX
  8
0
 10
173.46940413
 20
702.36613333
  0
VERTEX
  8
0
 10
173.86279569
 20
702.68688527
  0
VERTEX
  8
0
 10
174.26830464
 20
702.98454099
  0
VERTEX
  8
0
 10
174.68502503
 20
703.25912301
  0
VERTEX
  8
0
 10
175.11205088
 20
703.51065384
  0
VERTEX
  8
0
 10
175.54847623
 20
703.73915601
  0
VERTEX
  8
0
 10
175.99339511
 20
703.94465202
  0
VERTEX
  8
0
 10
176.44590155
 20
704.12716440
  0
VERTEX
  8
0
 10
176.90508959
 20
704.28671565
  0
VERTEX
  8
0
 10
177.37005324
 20
704.42332830
  0
VERTEX
  8
0
 10
177.83988655
 20
704.53702485
  0
VERTEX
  8
0
 10
178.31368355
 20
704.62782783
  0
VERTEX
  8
0
 10
178.79053826
 20
704.69575974
  0
VERTEX
  8
0
 10
179.26954473
 20
704.74084311
  0
VERTEX
  8
0
 10
179.74979697
 20
704.76310045
  0
VERTEX
  8
0
 10
180.23038903
 20
704.76255427
  0
VERTEX
  8
0
 10
180.71041494
 20
704.73922709
  0
VERTEX
  8
0
 10
181.18896872
 20
704.69314142
  0
VERTEX
  8
0
 10
181.66514441
 20
704.62431978
  0
VERTEX
  8
0
 10
182.13803603
 20
704.53278468
  0
VERTEX
  8
0
 10
182.60673763
 20
704.41855865
  0
VERTEX
  8
0
 10
183.07034323
 20
704.28166419
  0
VERTEX
  8
0
 10
183.52794687
 20
704.12212382
  0
VERTEX
  8
0
 10
183.97864257
 20
703.93996006
  0
VERTEX
  8
0
 10
184.42152436
 20
703.73519541
  0
VERTEX
  8
0
 10
184.85568629
 20
703.50785240
  0
VERTEX
  8
0
 10
185.28022238
 20
703.25795355
  0
VERTEX
  8
0
 10
185.69422665
 20
702.98552136
  0
VERTEX
  8
0
 10
186.09679316
 20
702.69057834
  0
VERTEX
  8
0
 10
186.48701591
 20
702.37314703
  0
VERTEX
  8
0
 10
186.86398896
 20
702.03324993
  0
VERTEX
  8
0
 10
187.22680632
 20
701.67090955
  0
VERTEX
  8
0
 10
249.26568395
 20
636.46985387
  0
VERTEX
  8
0
 10
311.30456159
 20
571.26879819
  0
VERTEX
  8
0
 10
311.64843225
 20
570.88843001
  0
VERTEX
  8
0
 10
311.96918418
 20
570.49503846
  0
VERTEX
  8
0
 10
312.26683990
 20
570.08952950
  0
VERTEX
  8
0
 10
312.54142192
 20
569.67280911
  0
VERTEX
  8
0
 10
312.79295276
 20
569.24578326
  0
VERTEX
  8
0
 10
313.02145493
 20
568.80935791
  0
VERTEX
  8
0
 10
313.22695094
 20
568.36443903
  0
VERTEX
  8
0
 10
313.40946332
 20
567.91193259
  0
VERTEX
  8
0
 10
313.56901457
 20
567.45274456
  0
VERTEX
  8
0
 10
313.70562722
 20
566.98778090
  0
VERTEX
  8
0
 10
313.81932377
 20
566.51794759
  0
VERTEX
  8
0
 10
313.91012675
 20
566.04415059
  0
VERTEX
  8
0
 10
313.97805866
 20
565.56729588
  0
VERTEX
  8
0
 10
314.02314203
 20
565.08828941
  0
VERTEX
  8
0
 10
314.04539936
 20
564.60803717
  0
VERTEX
  8
0
 10
314.04485318
 20
564.12744511
  0
VERTEX
  8
0
 10
314.02152600
 20
563.64741920
  0
VERTEX
  8
0
 10
313.97544033
 20
563.16886542
  0
VERTEX
  8
0
 10
313.90661870
 20
562.69268974
  0
VERTEX
  8
0
 10
313.81508360
 20
562.21979811
  0
VERTEX
  8
0
 10
313.70085757
 20
561.75109651
  0
VERTEX
  8
0
 10
313.56396311
 20
561.28749091
  0
VERTEX
  8
0
 10
313.40442274
 20
560.82988728
  0
VERTEX
  8
0
 10
313.22225897
 20
560.37919158
  0
VERTEX
  8
0
 10
313.01749433
 20
559.93630978
  0
VERTEX
  8
0
 10
312.79015132
 20
559.50214785
  0
VERTEX
  8
0
 10
312.54025246
 20
559.07761177
  0
VERTEX
  8
0
 10
312.26782027
 20
558.66360749
  0
VERTEX
  8
0
 10
311.97287726
 20
558.26104099
  0
VERTEX
  8
0
 10
311.65544595
 20
557.87081823
  0
VERTEX
  8
0
 10
311.31554885
 20
557.49384518
  0
VERTEX
  8
0
 10
310.95320847
 20
557.13102782
  0
VERTEX
  8
0
 10
245.75215279
 20
495.09215019
  0
VERTEX
  8
0
 10
180.55109711
 20
433.05327256
  0
VERTEX
  8
0
 10
180.17072893
 20
432.70940189
  0
VERTEX
  8
0
 10
179.77733737
 20
432.38864996
  0
VERTEX
  8
0
 10
179.37182842
 20
432.09099424
  0
VERTEX
  8
0
 10
178.95510803
 20
431.81641222
  0
VERTEX
  8
0
 10
178.52808218
 20
431.56488138
  0
VERTEX
  8
0
 10
178.09165683
 20
431.33637922
  0
VERTEX
  8
0
 10
177.64673795
 20
431.13088320
  0
VERTEX
  8
0
 10
177.19423151
 20
430.94837083
  0
VERTEX
  8
0
 10
176.73504347
 20
430.78881957
  0
VERTEX
  8
0
 10
176.27007982
 20
430.65220693
  0
VERTEX
  8
0
 10
175.80024651
 20
430.53851037
  0
VERTEX
  8
0
 10
175.32644951
 20
430.44770740
  0
VERTEX
  8
0
 10
174.84959480
 20
430.37977548
  0
VERTEX
  8
0
 10
174.37058833
 20
430.33469211
  0
VERTEX
  8
0
 10
173.89033608
 20
430.31243478
  0
VERTEX
  8
0
 10
173.40974402
 20
430.31298096
  0
VERTEX
  8
0
 10
172.92971812
 20
430.33630814
  0
VERTEX
  8
0
 10
172.45116434
 20
430.38239381
  0
VERTEX
  8
0
 10
171.97498865
 20
430.45121545
  0
VERTEX
  8
0
 10
171.50209703
 20
430.54275054
  0
VERTEX
  8
0
 10
171.03339543
 20
430.65697658
  0
VERTEX
  8
0
 10
170.56978983
 20
430.79387104
  0
VERTEX
  8
0
 10
170.11218619
 20
430.95341141
  0
VERTEX
  8
0
 10
169.66149049
 20
431.13557517
  0
VERTEX
  8
0
 10
169.21860870
 20
431.34033981
  0
VERTEX
  8
0
 10
168.78444677
 20
431.56768282
  0
VERTEX
  8
0
 10
168.35991068
 20
431.81758168
  0
VERTEX
  8
0
 10
167.94590640
 20
432.09001387
  0
VERTEX
  8
0
 10
167.54333990
 20
432.38495688
  0
VERTEX
  8
0
 10
167.15311715
 20
432.70238820
  0
VERTEX
  8
0
 10
166.77614410
 20
433.04228530
  0
VERTEX
  8
0
 10
166.41332674
 20
433.40462567
  0
VERTEX
  8
0
 10
104.37444911
 20
498.60568135
  0
VERTEX
  8
0
 10
42.33557147
 20
563.80673704
  0
VERTEX
  8
0
 10
41.99170081
 20
564.18710522
  0
VERTEX
  8
0
 10
41.67094888
 20
564.58049677
  0
VERTEX
  8
0
 10
41.37329316
 20
564.98600572
  0
VERTEX
  8
0
 10
41.09871114
 20
565.40272611
  0
VERTEX
  8
0
 10
40.84718030
 20
565.82975197
  0
VERTEX
  8
0
 10
40.61867813
 20
566.26617732
  0
VERTEX
  8
0
 10
40.41318212
 20
566.71109620
  0
VERTEX
  8
0
 10
40.23066974
 20
567.16360264
  0
VERTEX
  8
0
 10
40.07111849
 20
567.62279067
  0
VERTEX
  8
0
 10
39.93450584
 20
568.08775432
  0
VERTEX
  8
0
 10
39.82080929
 20
568.55758763
  0
VERTEX
  8
0
 10
39.73000631
 20
569.03138463
  0
VERTEX
  8
0
 10
39.66207440
 20
569.50823935
  0
VERTEX
  8
0
 10
39.61699103
 20
569.98724581
  0
VERTEX
  8
0
 10
39.59473369
 20
570.46749806
  0
VERTEX
  8
0
 10
39.59527988
 20
570.94809012
  0
VERTEX
  8
0
 10
39.61860706
 20
571.42811602
  0
VERTEX
  8
0
 10
39.66469272
 20
571.90666980
  0
VERTEX
  8
0
 10
39.73351436
 20
572.38284549
  0
VERTEX
  8
0
 10
39.82504946
 20
572.85573712
  0
VERTEX
  8
0
 10
39.93927549
 20
573.32443871
  0
VERTEX
  8
0
 10
40.07616995
 20
573.78804431
  0
VERTEX
  8
0
 10
40.23571032
 20
574.24564795
  0
VERTEX
  8
0
 10
40.41787409
 20
574.69634365
  0
VERTEX
  8
0
 10
40.62263873
 20
575.13922545
  0
VERTEX
  8
0
 10
40.84998174
 20
575.57338737
  0
VERTEX
  8
0
 10
41.09988060
 20
575.99792346
  0
VERTEX
  8
0
 10
41.37231279
 20
576.41192774
  0
VERTEX
  8
0
 10
41.66725580
 20
576.81449424
  0
VERTEX
  8
0
 10
41.98468711
 20
577.20471700
  0
VERTEX
  8
0
 10
42.32458421
 20
577.58169004
  0
VERTEX
  8
0
 10
42.68692459
 20
577.94450740
  0
VERTEX
  8
0
 10
107.88798027
 20
639.98338504
  0
SEQEND
  0
POLYLINE
  8
По_умолчанию
 62
256
 66
   1
 39
0.000000
 70
    1
  0
VERTEX
  8
0
 10
107.53662715
 20
625.84561467
  0
VERTEX
  8
0
 10
121.75931558
 20
610.89798287
  0
VERTEX
  8
0
 10
121.21855815
 20
610.58557759
  0
VERTEX
  8
0
 10
120.68655641
 20
610.25559762
  0
VERTEX
  8
0
 10
120.16375213
 20
609.90814139
  0
VERTEX
  8
0
 10
119.65058707
 20
609.54330733
  0
VERTEX
  8
0
 10
119.14750299
 20
609.16119390
  0
VERTEX
  8
0
 10
118.65494165
 20
608.76189951
  0
VERTEX
  8
0
 10
118.17334481
 20
608.34552261
  0
VERTEX
  8
0
 10
117.70315424
 20
607.91216163
  0
VERTEX
  8
0
 10
116.97570770
 20
607.18406019
  0
VERTEX
  8
0
 10
116.29333428
 20
606.42813348
  0
VERTEX
  8
0
 10
115.65607818
 20
605.64616075
  0
VERTEX
  8
0
 10
115.06398362
 20
604.83992123
  0
VERTEX
  8
0
 10
114.51709483
 20
604.01119417
  0
VERTEX
  8
0
 10
114.01545602
 20
603.16175880
  0
VERTEX
  8
0
 10
113.55911141
 20
602.29339438
  0
VERTEX
  8
0
 10
113.14810522
 20
601.40788014
  0
VERTEX
  8
0
 10
112.78248166
 20
600.50699533
  0
VERTEX
  8
0
 10
112.46228495
 20
599.59251917
  0
VERTEX
  8
0
 10
112.18755931
 20
598.66623093
  0
VERTEX
  8
0
 10
111.95834897
 20
597.72990983
  0
VERTEX
  8
0
 10
111.77469812
 20
596.78533513
  0
VERTEX
  8
0
 10
111.63665100
 20
595.83428605
  0
VERTEX
  8
0
 10
111.54425183
 20
594.87854185
  0
VERTEX
  8
0
 10
111.49754481
 20
593.91988176
  0
VERTEX
  8
0
 10
111.49657417
 20
592.96008502
  0
VERTEX
  8
0
 10
111.54138412
 20
592.00093088
  0
VERTEX
  8
0
 10
111.63201889
 20
591.04419859
  0
VERTEX
  8
0
 10
111.76852269
 20
590.09166737
  0
VERTEX
  8
0
 10
111.95093974
 20
589.14511647
  0
VERTEX
  8
0
 10
112.17931425
 20
588.20632514
  0
VERTEX
  8
0
 10
112.45369045
 20
587.27707261
  0
VERTEX
  8
0
 10
112.77411255
 20
586.35913812
  0
VERTEX
  8
0
 10
113.14062478
 20
585.45430093
  0
VERTEX
  8
0
 10
113.55327134
 20
584.56434026
  0
VERTEX
  8
0
 10
114.01209645
 20
583.69103536
  0
VERTEX
  8
0
 10
114.51714435
 20
582.83616548
  0
VERTEX
  8
0
 10
115.06845923
 20
582.00150985
  0
VERTEX
  8
0
 10
115.66608532
 20
581.18884771
  0
VERTEX
  8
0
 10
116.31006684
 20
580.39995831
  0
VERTEX
  8
0
 10
117.00044801
 20
579.63662089
  0
VERTEX
  8
0
 10
117.72854945
 20
578.90917436
  0
VERTEX
  8
0
 10
118.48447616
 20
578.22680093
  0
VERTEX
  8
0
 10
119.26644889
 20
577.58954483
  0
VERTEX
  8
0
 10
120.07268841
 20
576.99745028
  0
VERTEX
  8
0
 10
120.90141547
 20
576.45056149
  0
VERTEX
  8
0
 10
121.75085083
 20
575.94892268
  0
VERTEX
  8
0
 10
122.61921525
 20
575.49257807
  0
VERTEX
  8
0
 10
123.50472949
 20
575.08157187
  0
VERTEX
  8
0
 10
124.40561431
 20
574.71594831
  0
VERTEX
  8
0
 10
125.32009046
 20
574.39575161
  0
VERTEX
  8
0
 10
126.24637871
 20
574.12102597
  0
VERTEX
  8
0
 10
127.18269980
 20
573.89181562
  0
VERTEX
  8
0
 10
128.12727451
 20
573.70816478
  0
VERTEX
  8
0
 10
129.07832359
 20
573.57011766
  0
VERTEX
  8
0
 10
130.03406779
 20
573.47771848
  0
VERTEX
  8
0
 10
130.99272788
 20
573.43101146
  0
VERTEX
  8
0
 10
131.95252461
 20
573.43004082
  0
VERTEX
  8
0
 10
132.91167875
 20
573.47485078
  0
VERTEX
  8
0
 10
133.86841105
 20
573.56548554
  0
VERTEX
  8
0
 10
134.82094227
 20
573.70198934
  0
VERTEX
  8
0
 10
135.76749317
 20
573.88440639
  0
VERTEX
  8
0
 10
136.70628450
 20
574.11278091
  0
VERTEX
  8
0
 10
137.63553703
 20
574.38715711
  0
VERTEX
  8
0
 10
138.55347151
 20
574.70757921
  0
VERTEX
  8
0
 10
139.45830871
 20
575.07409143
  0
VERTEX
  8
0
 10
140.34826938
 20
575.48673799
  0
VERTEX
  8
0
 10
141.22157427
 20
575.94556311
  0
VERTEX
  8
0
 10
142.07644416
 20
576.45061100
  0
VERTEX
  8
0
 10
142.91109979
 20
577.00192588
  0
VERTEX
  8
0
 10
143.72376192
 20
577.59955197
  0
VERTEX
  8
0
 10
144.51265132
 20
578.24353349
  0
VERTEX
  8
0
 10
145.27598874
 20
578.93391466
  0
VERTEX
  8
0
 10
145.73217075
 20
579.38199823
  0
VERTEX
  8
0
 10
146.17195624
 20
579.84231764
  0
VERTEX
  8
0
 10
146.59522495
 20
580.31443657
  0
VERTEX
  8
0
 10
147.00185661
 20
580.79791869
  0
VERTEX
  8
0
 10
147.39173098
 20
581.29232767
  0
VERTEX
  8
0
 10
147.76472780
 20
581.79722719
  0
VERTEX
  8
0
 10
148.12072680
 20
582.31218092
  0
VERTEX
  8
0
 10
148.45960774
 20
582.83675253
  0
VERTEX
  8
0
 10
162.68229616
 20
567.88912073
  0
VERTEX
  8
0
 10
104.72580222
 20
512.74345172
  0
VERTEX
  8
0
 10
49.59240313
 20
570.68705034
  0
VERTEX
  8
0
 10
49.59302853
 20
570.71221557
  0
VERTEX
  8
0
 10
107.53662715
 20
625.84561467
  0
SEQEND
  0
POLYLINE
  8
По_умолчанию
 62
256
 66
   1
 39
0.000000
 70
    1
  0
VERTEX
  8
0
 10
235.12791358
 20
636.82120699
  0
VERTEX
  8
0
 10
220.18028179
 20
622.59851856
  0
VERTEX
  8
0
 10
219.86787651
 20
623.13927600
  0
VERTEX
  8
0
 10
219.53789653
 20
623.67127773
  0
VERTEX
  8
0
 10
219.19044030
 20
624.19408201
  0
VERTEX
  8
0
 10
218.82560625
 20
624.70724708
  0
VERTEX
  8
0
 10
218.44349281
 20
625.21033116
  0
VERTEX
  8
0
 10
218.04419843
 20
625.70289250
  0
VERTEX
  8
0
 10
217.62782153
 20
626.18448933
  0
VERTEX
  8
0
 10
217.19446055
 20
626.65467990
  0
VERTEX
  8
0
 10
216.46635910
 20
627.38212644
  0
VERTEX
  8
0
 10
215.71043240
 20
628.06449986
  0
VERTEX
  8
0
 10
214.92845966
 20
628.70175596
  0
VERTEX
  8
0
 10
214.12222014
 20
629.29385052
  0
VERTEX
  8
0
 10
213.29349308
 20
629.84073931
  0
VERTEX
  8
0
 10
212.44405772
 20
630.34237812
  0
VERTEX
  8
0
 10
211.57569330
 20
630.79872273
  0
VERTEX
  8
0
 10
210.69017906
 20
631.20972892
  0
VERTEX
  8
0
 10
209.78929424
 20
631.57535248
  0
VERTEX
  8
0
 10
208.87481809
 20
631.89554919
  0
VERTEX
  8
0
 10
207.94852985
 20
632.17027483
  0
VERTEX
  8
0
 10
207.01220875
 20
632.39948518
  0
VERTEX
  8
0
 10
206.06763404
 20
632.58313602
  0
VERTEX
  8
0
 10
205.11658497
 20
632.72118314
  0
VERTEX
  8
0
 10
204.16084076
 20
632.81358232
  0
VERTEX
  8
0
 10
203.20218067
 20
632.86028933
  0
VERTEX
  8
0
 10
202.24238394
 20
632.86125997
  0
VERTEX
  8
0
 10
201.28322980
 20
632.81645002
  0
VERTEX
  8
0
 10
200.32649750
 20
632.72581525
  0
VERTEX
  8
0
 10
199.37396628
 20
632.58931145
  0
VERTEX
  8
0
 10
198.42741539
 20
632.40689440
  0
VERTEX
  8
0
 10
197.48862405
 20
632.17851989
  0
VERTEX
  8
0
 10
196.55937152
 20
631.90414369
  0
VERTEX
  8
0
 10
195.64143704
 20
631.58372159
  0
VERTEX
  8
0
 10
194.73659984
 20
631.21720937
  0
VERTEX
  8
0
 10
193.84663918
 20
630.80456280
  0
VERTEX
  8
0
 10
192.97333428
 20
630.34573769
  0
VERTEX
  8
0
 10
192.11846440
 20
629.84068980
  0
VERTEX
  8
0
 10
191.28380876
 20
629.28937491
  0
VERTEX
  8
0
 10
190.47114663
 20
628.69174882
  0
VERTEX
  8
0
 10
189.68225723
 20
628.04776730
  0
VERTEX
  8
0
 10
188.91891981
 20
627.35738614
  0
VERTEX
  8
0
 10
188.19147327
 20
626.62928469
  0
VERTEX
  8
0
 10
187.50909985
 20
625.87335799
  0
VERTEX
  8
0
 10
186.87184375
 20
625.09138525
  0
VERTEX
  8
0
 10
186.27974919
 20
624.28514573
  0
VERTEX
  8
0
 10
185.73286040
 20
623.45641867
  0
VERTEX
  8
0
 10
185.23122159
 20
622.60698331
  0
VERTEX
  8
0
 10
184.77487698
 20
621.73861889
  0
VERTEX
  8
0
 10
184.36387079
 20
620.85310465
  0
VERTEX
  8
0
 10
183.99824723
 20
619.95221983
  0
VERTEX
  8
0
 10
183.67805052
 20
619.03774368
  0
VERTEX
  8
0
 10
183.40332488
 20
618.11145544
  0
VERTEX
  8
0
 10
183.17411454
 20
617.17513434
  0
VERTEX
  8
0
 10
182.99046369
 20
616.23055963
  0
VERTEX
  8
0
 10
182.85241657
 20
615.27951056
  0
VERTEX
  8
0
 10
182.76001740
 20
614.32376635
  0
VERTEX
  8
0
 10
182.71331038
 20
613.36510626
  0
VERTEX
  8
0
 10
182.71233974
 20
612.40530953
  0
VERTEX
  8
0
 10
182.75714969
 20
611.44615539
  0
VERTEX
  8
0
 10
182.84778446
 20
610.48942309
  0
VERTEX
  8
0
 10
182.98428826
 20
609.53689187
  0
VERTEX
  8
0
 10
183.16670531
 20
608.59034098
  0
VERTEX
  8
0
 10
183.39507982
 20
607.65154964
  0
VERTEX
  8
0
 10
183.66945602
 20
606.72229711
  0
VERTEX
  8
0
 10
183.98987812
 20
605.80436263
  0
VERTEX
  8
0
 10
184.35639035
 20
604.89952543
  0
VERTEX
  8
0
 10
184.76903691
 20
604.00956477
  0
VERTEX
  8
0
 10
185.22786202
 20
603.13625987
  0
VERTEX
  8
0
 10
185.73290992
 20
602.28138998
  0
VERTEX
  8
0
 10
186.28422480
 20
601.44673435
  0
VERTEX
  8
0
 10
186.88185089
 20
600.63407222
  0
VERTEX
  8
0
 10
187.52583241
 20
599.84518282
  0
VERTEX
  8
0
 10
188.21621358
 20
599.08184540
  0
VERTEX
  8
0
 10
188.66429715
 20
598.62566339
  0
VERTEX
  8
0
 10
189.12461656
 20
598.18587790
  0
VERTEX
  8
0
 10
189.59673549
 20
597.76260920
  0
VERTEX
  8
0
 10
190.08021761
 20
597.35597753
  0
VERTEX
  8
0
 10
190.57462659
 20
596.96610316
  0
VERTEX
  8
0
 10
191.07952611
 20
596.59310634
  0
VERTEX
  8
0
 10
191.59447983
 20
596.23710734
  0
VERTEX
  8
0
 10
192.11905144
 20
595.89822641
  0
VERTEX
  8
0
 10
177.17141965
 20
581.67553798
  0
VERTEX
  8
0
 10
122.02575064
 20
639.63203192
  0
VERTEX
  8
0
 10
179.96934926
 20
694.76543102
  0
VERTEX
  8
0
 10
179.99451449
 20
694.76480561
  0
VERTEX
  8
0
 10
235.12791358
 20
636.82120699
  0
SEQEND
  0
POLYLINE
  8
По_умолчанию
 62
256
 66
   1
 39
0.000000
 70
    1
  0
VERTEX
  8
0
 10
246.10350590
 20
509.22992056
  0
VERTEX
  8
0
 10
231.88081748
 20
524.17755235
  0
VERTEX
  8
0
 10
232.42157491
 20
524.48995764
  0
VERTEX
  8
0
 10
232.95357665
 20
524.81993761
  0
VERTEX
  8
0
 10
233.47638093
 20
525.16739384
  0
VERTEX
  8
0
 10
233.98954599
 20
525.53222789
  0
VERTEX
  8
0
 10
234.49263007
 20
525.91434133
  0
VERTEX
  8
0
 10
234.98519141
 20
526.31363572
  0
VERTEX
  8
0
 10
235.46678825
 20
526.73001262
  0
VERTEX
  8
0
 10
235.93697882
 20
527.16337360
  0
VERTEX
  8
0
 10
236.66442535
 20
527.89147504
  0
VERTEX
  8
0
 10
237.34679878
 20
528.64740175
  0
VERTEX
  8
0
 10
237.98405488
 20
529.42937448
  0
VERTEX
  8
0
 10
238.57614943
 20
530.23561400
  0
VERTEX
  8
0
 10
239.12303822
 20
531.06434106
  0
VERTEX
  8
0
 10
239.62467703
 20
531.91377642
  0
VERTEX
  8
0
 10
240.08102165
 20
532.78214084
  0
VERTEX
  8
0
 10
240.49202784
 20
533.66765508
  0
VERTEX
  8
0
 10
240.85765140
 20
534.56853990
  0
VERTEX
  8
0
 10
241.17784811
 20
535.48301605
  0
VERTEX
  8
0
 10
241.45257374
 20
536.40930430
  0
VERTEX
  8
0
 10
241.68178409
 20
537.34562539
  0
VERTEX
  8
0
 10
241.86543494
 20
538.29020010
  0
VERTEX
  8
0
 10
242.00348206
 20
539.24124918
  0
VERTEX
  8
0
 10
242.09588123
 20
540.19699338
  0
VERTEX
  8
0
 10
242.14258825
 20
541.15565347
  0
VERTEX
  8
0
 10
242.14355889
 20
542.11545020
  0
VERTEX
  8
0
 10
242.09874894
 20
543.07460434
  0
VERTEX
  8
0
 10
242.00811417
 20
544.03133664
  0
VERTEX
  8
0
 10
241.87161037
 20
544.98386786
  0
VERTEX
  8
0
 10
241.68919332
 20
545.93041876
  0
VERTEX
  8
0
 10
241.46081881
 20
546.86921009
  0
VERTEX
  8
0
 10
241.18644261
 20
547.79846262
  0
VERTEX
  8
0
 10
240.86602050
 20
548.71639710
  0
VERTEX
  8
0
 10
240.49950828
 20
549.62123430
  0
VERTEX
  8
0
 10
240.08686172
 20
550.51119497
  0
VERTEX
  8
0
 10
239.62803660
 20
551.38449986
  0
VERTEX
  8
0
 10
239.12298871
 20
552.23936975
  0
VERTEX
  8
0
 10
238.57167383
 20
553.07402538
  0
VERTEX
  8
0
 10
237.97404774
 20
553.88668751
  0
VERTEX
  8
0
 10
237.33006622
 20
554.67557691
  0
VERTEX
  8
0
 10
236.63968505
 20
555.43891433
  0
VERTEX
  8
0
 10
235.91158361
 20
556.16636087
  0
VERTEX
  8
0
 10
235.15565690
 20
556.84873430
  0
VERTEX
  8
0
 10
234.37368417
 20
557.48599039
  0
VERTEX
  8
0
 10
233.56744465
 20
558.07808495
  0
VERTEX
  8
0
 10
232.73871759
 20
558.62497374
  0
VERTEX
  8
0
 10
231.88928223
 20
559.12661255
  0
VERTEX
  8
0
 10
231.02091780
 20
559.58295716
  0
VERTEX
  8
0
 10
230.13540356
 20
559.99396335
  0
VERTEX
  8
0
 10
229.23451875
 20
560.35958691
  0
VERTEX
  8
0
 10
228.32004260
 20
560.67978362
  0
VERTEX
  8
0
 10
227.39375435
 20
560.95450926
  0
VERTEX
  8
0
 10
226.45743326
 20
561.18371961
  0
VERTEX
  8
0
 10
225.51285855
 20
561.36737045
  0
VERTEX
  8
0
 10
224.56180947
 20
561.50541757
  0
VERTEX
  8
0
 10
223.60606527
 20
561.59781675
  0
VERTEX
  8
0
 10
222.64740518
 20
561.64452376
  0
VERTEX
  8
0
 10
221.68760844
 20
561.64549441
  0
VERTEX
  8
0
 10
220.72845431
 20
561.60068445
  0
VERTEX
  8
0
 10
219.77172201
 20
561.51004968
  0
VERTEX
  8
0
 10
218.81919079
 20
561.37354588
  0
VERTEX
  8
0
 10
217.87263989
 20
561.19112883
  0
VERTEX
  8
0
 10
216.93384856
 20
560.96275432
  0
VERTEX
  8
0
 10
216.00459603
 20
560.68837812
  0
VERTEX
  8
0
 10
215.08666154
 20
560.36795602
  0
VERTEX
  8
0
 10
214.18182435
 20
560.00144380
  0
VERTEX
  8
0
 10
213.29186368
 20
559.58879723
  0
VERTEX
  8
0
 10
212.41855879
 20
559.12997212
  0
VERTEX
  8
0
 10
211.56368890
 20
558.62492423
  0
VERTEX
  8
0
 10
210.72903327
 20
558.07360934
  0
VERTEX
  8
0
 10
209.91637113
 20
557.47598325
  0
VERTEX
  8
0
 10
209.12748174
 20
556.83200173
  0
VERTEX
  8
0
 10
208.36414432
 20
556.14162057
  0
VERTEX
  8
0
 10
207.90796231
 20
555.69353700
  0
VERTEX
  8
0
 10
207.46817682
 20
555.23321758
  0
VERTEX
  8
0
 10
207.04490811
 20
554.76109865
  0
VERTEX
  8
0
 10
206.63827645
 20
554.27761654
  0
VERTEX
  8
0
 10
206.24840208
 20
553.78320755
  0
VERTEX
  8
0
 10
205.87540526
 20
553.27830804
  0
VERTEX
  8
0
 10
205.51940626
 20
552.76335431
  0
VERTEX
  8
0
 10
205.18052532
 20
552.23878270
  0
VERTEX
  8
0
 10
190.95783690
 20
567.18641450
  0
VERTEX
  8
0
 10
248.91433084
 20
622.33208350
  0
VERTEX
  8
0
 10
304.04772993
 20
564.38848488
  0
VERTEX
  8
0
 10
304.04710452
 20
564.36331965
  0
VERTEX
  8
0
 10
246.10350590
 20
509.22992056
  0
SEQEND
  0
POLYLINE
  8
По_умолчанию
 62
256
 66
   1
 39
0.000000
 70
    1
  0
VERTEX
  8
0
 10
261.10319714
 20
400.30168121
  0
VERTEX
  8
0
 10
258.46403918
 20
399.76043948
  0
VERTEX
  8
0
 10
255.80164595
 20
399.27545821
  0
VERTEX
  8
0
 10
253.11678198
 20
398.84658553
  0
VERTEX
  8
0
 10
250.41021175
 20
398.47366959
  0
VERTEX
  8
0
 10
247.68269979
 20
398.15655852
  0
VERTEX
  8
0
 10
244.93501061
 20
397.89510048
  0
VERTEX
  8
0
 10
242.16790870
 20
397.68914359
  0
VERTEX
  8
0
 10
239.38215857
 20
397.53853600
  0
VERTEX
  8
0
 10
236.57852475
 20
397.44312586
  0
VERTEX
  8
0
 10
233.75777172
 20
397.40276129
  0
VERTEX
  8
0
 10
230.92066402
 20
397.41729045
  0
VERTEX
  8
0
 10
228.06796613
 20
397.48656146
  0
VERTEX
  8
0
 10
225.20044257
 20
397.61042249
  0
VERTEX
  8
0
 10
222.31885785
 20
397.78872165
  0
VERTEX
  8
0
 10
219.42397647
 20
398.02130710
  0
VERTEX
  8
0
 10
216.51656295
 20
398.30802697
  0
VERTEX
  8
0
 10
213.59738179
 20
398.64872941
  0
VERTEX
  8
0
 10
210.66719750
 20
399.04326256
  0
VERTEX
  8
0
 10
207.72677459
 20
399.49147455
  0
VERTEX
  8
0
 10
204.77687757
 20
399.99321353
  0
VERTEX
  8
0
 10
201.81827094
 20
400.54832764
  0
VERTEX
  8
0
 10
198.85171922
 20
401.15666502
  0
VERTEX
  8
0
 10
195.87798691
 20
401.81807380
  0
VERTEX
  8
0
 10
192.89783852
 20
402.53240214
  0
VERTEX
  8
0
 10
189.91203856
 20
403.29949817
  0
VERTEX
  8
0
 10
186.92135154
 20
404.11921003
  0
VERTEX
  8
0
 10
183.92654197
 20
404.99138586
  0
VERTEX
  8
0
 10
180.92837434
 20
405.91587380
  0
VERTEX
  8
0
 10
177.92761318
 20
406.89252200
  0
VERTEX
  8
0
 10
174.92502300
 20
407.92117859
  0
VERTEX
  8
0
 10
171.92136829
 20
409.00169172
  0
VERTEX
  8
0
 10
168.91741356
 20
410.13390952
  0
VERTEX
  8
0
 10
165.91392334
 20
411.31768014
  0
VERTEX
  8
0
 10
162.91166211
 20
412.55285171
  0
VERTEX
  8
0
 10
159.91139440
 20
413.83927238
  0
VERTEX
  8
0
 10
156.91388472
 20
415.17679029
  0
VERTEX
  8
0
 10
153.91989756
 20
416.56525358
  0
VERTEX
  8
0
 10
150.93019743
 20
418.00451039
  0
VERTEX
  8
0
 10
147.94554886
 20
419.49440886
  0
VERTEX
  8
0
 10
144.96671633
 20
421.03479712
  0
VERTEX
  8
0
 10
141.99446437
 20
422.62552333
  0
VERTEX
  8
0
 10
139.02955748
 20
424.26643562
  0
VERTEX
  8
0
 10
136.07276017
 20
425.95738214
  0
VERTEX
  8
0
 10
133.12483695
 20
427.69821102
  0
VERTEX
  8
0
 10
130.18655232
 20
429.48877040
  0
VERTEX
  8
0
 10
127.25867079
 20
431.32890842
  0
VERTEX
  8
0
 10
124.34195688
 20
433.21847323
  0
VERTEX
  8
0
 10
121.43717509
 20
435.15731297
  0
VERTEX
  8
0
 10
118.54508993
 20
437.14527577
  0
VERTEX
  8
0
 10
115.66646591
 20
439.18220978
  0
VERTEX
  8
0
 10
112.80206753
 20
441.26796314
  0
VERTEX
  8
0
 10
109.95265930
 20
443.40238399
  0
VERTEX
  8
0
 10
107.11900574
 20
445.58532047
  0
VERTEX
  8
0
 10
104.30187135
 20
447.81662071
  0
VERTEX
  8
0
 10
101.50202063
 20
450.09613287
  0
VERTEX
  8
0
 10
98.72021811
 20
452.42370508
  0
VERTEX
  8
0
 10
95.95722828
 20
454.79918547
  0
VERTEX
  8
0
 10
93.21381565
 20
457.22242221
  0
VERTEX
  8
0
 10
90.49074474
 20
459.69326341
  0
VERTEX
  8
0
 10
87.78878004
 20
462.21155723
  0
VERTEX
  8
0
 10
85.10868608
 20
464.77715180
  0
VERTEX
  8
0
 10
82.45122735
 20
467.38989527
  0
VERTEX
  8
0
 10
79.81716837
 20
470.04963577
  0
VERTEX
  8
0
 10
77.20727364
 20
472.75622145
  0
VERTEX
  8
0
 10
75.48359540
 20
474.59293500
  0
VERTEX
  8
0
 10
73.79225657
 20
476.44560696
  0
VERTEX
  8
0
 10
72.13302789
 20
478.31386394
  0
VERTEX
  8
0
 10
70.50568009
 20
480.19733258
  0
VERTEX
  8
0
 10
68.90998392
 20
482.09563952
  0
VERTEX
  8
0
 10
67.34571010
 20
484.00841139
  0
VERTEX
  8
0
 10
65.81262937
 20
485.93527480
  0
VERTEX
  8
0
 10
64.31051247
 20
487.87585641
  0
VERTEX
  8
0
 10
62.83913013
 20
489.82978283
  0
VERTEX
  8
0
 10
61.39825310
 20
491.79668071
  0
VERTEX
  8
0
 10
59.98765210
 20
493.77617666
  0
VERTEX
  8
0
 10
58.60709787
 20
495.76789733
  0
VERTEX
  8
0
 10
57.25636114
 20
497.77146934
  0
VERTEX
  8
0
 10
55.93521267
 20
499.78651932
  0
VERTEX
  8
0
 10
54.64342317
 20
501.81267391
  0
VERTEX
  8
0
 10
53.38076338
 20
503.84955974
  0
VERTEX
  8
0
 10
52.14700405
 20
505.89680343
  0
VERTEX
  8
0
 10
50.94191591
 20
507.95403163
  0
VERTEX
  8
0
 10
49.76526968
 20
510.02087095
  0
VERTEX
  8
0
 10
48.61683612
 20
512.09694804
  0
VERTEX
  8
0
 10
47.49638595
 20
514.18188952
  0
VERTEX
  8
0
 10
46.40368992
 20
516.27532203
  0
VERTEX
  8
0
 10
45.33851875
 20
518.37687219
  0
VERTEX
  8
0
 10
44.30064318
 20
520.48616663
  0
VERTEX
  8
0
 10
43.28983395
 20
522.60283200
  0
VERTEX
  8
0
 10
42.30586180
 20
524.72649492
  0
VERTEX
  8
0
 10
41.34849745
 20
526.85678201
  0
VERTEX
  8
0
 10
40.41751166
 20
528.99331992
  0
VERTEX
  8
0
 10
39.51267514
 20
531.13573527
  0
VERTEX
  8
0
 10
38.63375865
 20
533.28365470
  0
VERTEX
  8
0
 10
37.78053291
 20
535.43670483
  0
VERTEX
  8
0
 10
36.95276865
 20
537.59451229
  0
VERTEX
  8
0
 10
36.15023663
 20
539.75670373
  0
VERTEX
  8
0
 10
35.37270757
 20
541.92290577
  0
VERTEX
  8
0
 10
34.61995220
 20
544.09274503
  0
VERTEX
  8
0
 10
33.89174127
 20
546.26584816
  0
VERTEX
  8
0
 10
33.18784551
 20
548.44184178
  0
VERTEX
  8
0
 10
32.50803566
 20
550.62035253
  0
VERTEX
  8
0
 10
31.85208245
 20
552.80100703
  0
VERTEX
  8
0
 10
31.21975661
 20
554.98343191
  0
VERTEX
  8
0
 10
30.61082889
 20
557.16725382
  0
VERTEX
  8
0
 10
30.02507002
 20
559.35209938
  0
VERTEX
  8
0
 10
29.46225074
 20
561.53759521
  0
VERTEX
  8
0
 10
28.92214177
 20
563.72336796
  0
VERTEX
  8
0
 10
28.40451386
 20
565.90904425
  0
VERTEX
  8
0
 10
27.90913775
 20
568.09425071
  0
VERTEX
  8
0
 10
27.43578417
 20
570.27861398
  0
VERTEX
  8
0
 10
26.98422385
 20
572.46176069
  0
VERTEX
  8
0
 10
26.55422753
 20
574.64331746
  0
VERTEX
  8
0
 10
26.14556595
 20
576.82291094
  0
VERTEX
  8
0
 10
25.75800985
 20
579.00016774
  0
VERTEX
  8
0
 10
25.39132995
 20
581.17471451
  0
VERTEX
  8
0
 10
25.04529700
 20
583.34617787
  0
VERTEX
  8
0
 10
24.71968173
 20
585.51418445
  0
VERTEX
  8
0
 10
24.41425487
 20
587.67836089
  0
VERTEX
  8
0
 10
24.12878717
 20
589.83833382
  0
VERTEX
  8
0
 10
23.86304936
 20
591.99372986
  0
VERTEX
  8
0
 10
23.61681217
 20
594.14417565
  0
VERTEX
  8
0
 10
23.38984634
 20
596.28929783
  0
VERTEX
  8
0
 10
23.18192261
 20
598.42872301
  0
VERTEX
  8
0
 10
22.99281171
 20
600.56207784
  0
VERTEX
  8
0
 10
22.82228438
 20
602.68898894
  0
VERTEX
  8
0
 10
22.67011135
 20
604.80908295
  0
VERTEX
  8
0
 10
22.53606337
 20
606.92198649
  0
VERTEX
  8
0
 10
22.41991116
 20
609.02732620
  0
VERTEX
  8
0
 10
22.32142546
 20
611.12472872
  0
VERTEX
  8
0
 10
22.24037701
 20
613.21382066
  0
VERTEX
  8
0
 10
22.17653655
 20
615.29422866
  0
VERTEX
  8
0
 10
22.12967480
 20
617.36557936
  0
VERTEX
  8
0
 10
22.09956251
 20
619.42749938
  0
VERTEX
  8
0
 10
22.08597042
 20
621.47961535
  0
VERTEX
  8
0
 10
22.08866925
 20
623.52155391
  0
VERTEX
  8
0
 10
22.10742974
 20
625.55294169
  0
VERTEX
  8
0
 10
22.14202264
 20
627.57340532
  0
VERTEX
  8
0
 10
22.19221867
 20
629.58257143
  0
VERTEX
  8
0
 10
22.25778857
 20
631.58006665
  0
VERTEX
  8
0
 10
22.33850308
 20
633.56551761
  0
VERTEX
  8
0
 10
22.43413293
 20
635.53855095
  0
VERTEX
  8
0
 10
22.54444886
 20
637.49879329
  0
VERTEX
  8
0
 10
22.66922161
 20
639.44587127
  0
VERTEX
  8
0
 10
22.80822191
 20
641.37941152
  0
VERTEX
  8
0
 10
22.96122049
 20
643.29904066
  0
VERTEX
  8
0
 10
23.30829547
 20
647.09507218
  0
VERTEX
  8
0
 10
23.70861242
 20
650.83097886
  0
VERTEX
  8
0
 10
24.16033725
 20
654.50377377
  0
VERTEX
  8
0
 10
24.66163582
 20
658.11046994
  0
VERTEX
  8
0
 10
25.21067405
 20
661.64808044
  0
VERTEX
  8
0
 10
25.80561780
 20
665.11361831
  0
VERTEX
  8
0
 10
26.44463296
 20
668.50409659
  0
VERTEX
  8
0
 10
27.12588544
 20
671.81652835
  0
VERTEX
  8
0
 10
27.84754110
 20
675.04792663
  0
VERTEX
  8
0
 10
28.60776585
 20
678.19530448
  0
VERTEX
  8
0
 10
29.40472556
 20
681.25567495
  0
VERTEX
  8
0
 10
30.23658613
 20
684.22605109
  0
VERTEX
  8
0
 10
31.10151344
 20
687.10344595
  0
VERTEX
  8
0
 10
31.99767338
 20
689.88487258
  0
VERTEX
  8
0
 10
32.92323184
 20
692.56734403
  0
VERTEX
  8
0
 10
33.39646235
 20
693.87053814
  0
VERTEX
  8
0
 10
33.87635470
 20
695.14787335
  0
VERTEX
  8
0
 10
34.36267962
 20
696.39897629
  0
VERTEX
  8
0
 10
34.85520786
 20
697.62347359
  0
VERTEX
  8
0
 10
35.35371013
 20
698.82099188
  0
VERTEX
  8
0
 10
35.85795719
 20
699.99115780
  0
VERTEX
  8
0
 10
36.36771977
 20
701.13359797
  0
VERTEX
  8
0
 10
36.88276859
 20
702.24793903
  0
VERTEX
  8
0
 10
37.40287441
 20
703.33380760
  0
VERTEX
  8
0
 10
37.92780795
 20
704.39083033
  0
VERTEX
  8
0
 10
38.45733995
 20
705.41863383
  0
VERTEX
  8
0
 10
38.99124115
 20
706.41684475
  0
VERTEX
  8
0
 10
39.52928228
 20
707.38508971
  0
VERTEX
  8
0
 10
40.07123408
 20
708.32299534
  0
VERTEX
  8
0
 10
40.61686728
 20
709.23018827
  0
VERTEX
  8
0
 10
41.16595263
 20
710.10629515
  0
VERTEX
  8
0
 10
42.21901588
 20
711.70443222
  0
VERTEX
  8
0
 10
43.30536125
 20
713.26098555
  0
VERTEX
  8
0
 10
44.42446044
 20
714.77609750
  0
VERTEX
  8
0
 10
45.57578517
 20
716.24991045
  0
VERTEX
  8
0
 10
46.75880713
 20
717.68256676
  0
VERTEX
  8
0
 10
47.97299805
 20
719.07420880
  0
VERTEX
  8
0
 10
49.21782963
 20
720.42497893
  0
VERTEX
  8
0
 10
50.49277358
 20
721.73501953
  0
VERTEX
  8
0
 10
51.79730161
 20
723.00447296
  0
VERTEX
  8
0
 10
53.13088542
 20
724.23348159
  0
VERTEX
  8
0
 10
54.49299674
 20
725.42218779
  0
VERTEX
  8
0
 10
55.88310725
 20
726.57073392
  0
VERTEX
  8
0
 10
57.30068869
 20
727.67926236
  0
VERTEX
  8
0
 10
58.74521275
 20
728.74791547
  0
VERTEX
  8
0
 10
60.21615114
 20
729.77683562
  0
VERTEX
  8
0
 10
61.71297558
 20
730.76616517
  0
VERTEX
  8
0
 10
98.43890518
 20
697.13926855
  0
VERTEX
  8
0
 10
73.24684023
 20
736.78725997
  0
VERTEX
  8
0
 10
74.51850260
 20
737.30259992
  0
VERTEX
  8
0
 10
75.80296892
 20
737.79731749
  0
VERTEX
  8
0
 10
77.10005271
 20
738.27149231
  0
VERTEX
  8
0
 10
78.40956750
 20
738.72520403
  0
VERTEX
  8
0
 10
79.73132682
 20
739.15853228
  0
VERTEX
  8
0
 10
81.06514420
 20
739.57155671
  0
VERTEX
  8
0
 10
82.41083316
 20
739.96435695
  0
VERTEX
  8
0
 10
83.76820723
 20
740.33701266
  0
VERTEX
  8
0
 10
85.13707993
 20
740.68960346
  0
VERTEX
  8
0
 10
86.51726480
 20
741.02220899
  0
VERTEX
  8
0
 10
87.90857535
 20
741.33490891
  0
VERTEX
  8
0
 10
89.31082513
 20
741.62778285
  0
VERTEX
  8
0
 10
90.72382765
 20
741.90091045
  0
VERTEX
  8
0
 10
92.14739644
 20
742.15437135
  0
VERTEX
  8
0
 10
93.58134503
 20
742.38824520
  0
VERTEX
  8
0
 10
95.02548694
 20
742.60261163
  0
VERTEX
  8
0
 10
96.47963571
 20
742.79755028
  0
VERTEX
  8
0
 10
97.94360486
 20
742.97314080
  0
VERTEX
  8
0
 10
99.41720792
 20
743.12946282
  0
VERTEX
  8
0
 10
100.90025840
 20
743.26659599
  0
VERTEX
  8
0
 10
102.39256985
 20
743.38461995
  0
VERTEX
  8
0
 10
103.89395579
 20
743.48361433
  0
VERTEX
  8
0
 10
105.40422975
 20
743.56365879
  0
VERTEX
  8
0
 10
106.92320524
 20
743.62483295
  0
VERTEX
  8
0
 10
108.45069581
 20
743.66721647
  0
VERTEX
  8
0
 10
109.98651497
 20
743.69088897
  0
VERTEX
  8
0
 10
111.53047626
 20
743.69593011
  0
VERTEX
  8
0
 10
113.08239319
 20
743.68241952
  0
VERTEX
  8
0
 10
114.64207931
 20
743.65043684
  0
VERTEX
  8
0
 10
116.20934813
 20
743.60006172
  0
VERTEX
  8
0
 10
117.78401318
 20
743.53137380
  0
VERTEX
  8
0
 10
119.36588799
 20
743.44445271
  0
VERTEX
  8
0
 10
120.95478608
 20
743.33937809
  0
VERTEX
  8
0
 10
122.55052099
 20
743.21622960
  0
VERTEX
  8
0
 10
124.15290624
 20
743.07508686
  0
VERTEX
  8
0
 10
125.76175536
 20
742.91602952
  0
VERTEX
  8
0
 10
127.37688187
 20
742.73913722
  0
VERTEX
  8
0
 10
128.99809930
 20
742.54448960
  0
VERTEX
  8
0
 10
130.62522118
 20
742.33216630
  0
VERTEX
  8
0
 10
132.25806104
 20
742.10224697
  0
VERTEX
  8
0
 10
133.89643240
 20
741.85481123
  0
VERTEX
  8
0
 10
135.54014879
 20
741.58993875
  0
VERTEX
  8
0
 10
137.18902373
 20
741.30770914
  0
VERTEX
  8
0
 10
138.84287076
 20
741.00820206
  0
VERTEX
  8
0
 10
140.50150340
 20
740.69149715
  0
VERTEX
  8
0
 10
142.16473518
 20
740.35767404
  0
VERTEX
  8
0
 10
143.83237962
 20
740.00681238
  0
VERTEX
  8
0
 10
145.50425026
 20
739.63899181
  0
VERTEX
  8
0
 10
147.18016061
 20
739.25429197
  0
VERTEX
  8
0
 10
148.85992422
 20
738.85279249
  0
VERTEX
  8
0
 10
150.54335459
 20
738.43457303
  0
VERTEX
  8
0
 10
152.23026526
 20
737.99971322
  0
VERTEX
  8
0
 10
153.92046977
 20
737.54829270
  0
VERTEX
  8
0
 10
155.61378162
 20
737.08039112
  0
VERTEX
  8
0
 10
159.00898151
 20
736.09546330
  0
VERTEX
  8
0
 10
162.41437314
 20
735.04556692
  0
VERTEX
  8
0
 10
165.82846473
 20
733.93133907
  0
VERTEX
  8
0
 10
169.24976450
 20
732.75341690
  0
VERTEX
  8
0
 10
172.67678066
 20
731.51243753
  0
VERTEX
  8
0
 10
176.10802143
 20
730.20903809
  0
VERTEX
  8
0
 10
179.54199503
 20
728.84385569
  0
VERTEX
  8
0
 10
182.97720966
 20
727.41752748
  0
VERTEX
  8
0
 10
186.41217356
 20
725.93069056
  0
VERTEX
  8
0
 10
189.84539494
 20
724.38398208
  0
VERTEX
  8
0
 10
193.27538201
 20
722.77803916
  0
VERTEX
  8
0
 10
196.70064298
 20
721.11349891
  0
VERTEX
  8
0
 10
200.11968609
 20
719.39099848
  0
VERTEX
  8
0
 10
203.53101953
 20
717.61117498
  0
VERTEX
  8
0
 10
206.93315154
 20
715.77466554
  0
VERTEX
  8
0
 10
210.32459032
 20
713.88210729
  0
VERTEX
  8
0
 10
213.70384410
 20
711.93413735
  0
VERTEX
  8
0
 10
217.06942108
 20
709.93139285
  0
VERTEX
  8
0
 10
220.41982949
 20
707.87451091
  0
VERTEX
  8
0
 10
223.75357754
 20
705.76412867
  0
VERTEX
  8
0
 10
227.06917345
 20
703.60088325
  0
VERTEX
  8
0
 10
230.36512543
 20
701.38541177
  0
VERTEX
  8
0
 10
233.63994171
 20
699.11835136
  0
VERTEX
  8
0
 10
236.89213050
 20
696.80033915
  0
VERTEX
  8
0
 10
240.12020001
 20
694.43201226
  0
VERTEX
  8
0
 10
243.32265846
 20
692.01400781
  0
VERTEX
  8
0
 10
246.49801407
 20
689.54696295
  0
VERTEX
  8
0
 10
249.64477506
 20
687.03151478
  0
VERTEX
  8
0
 10
252.76144964
 20
684.46830044
  0
VERTEX
  8
0
 10
255.84654602
 20
681.85795706
  0
VERTEX
  8
0
 10
258.89857243
 20
679.20112175
  0
VERTEX
  8
0
 10
261.91603709
 20
676.49843166
  0
VERTEX
  8
0
 10
264.89744820
 20
673.75052389
  0
VERTEX
  8
0
 10
267.84131398
 20
670.95803558
  0
VERTEX
  8
0
 10
270.74614266
 20
668.12160386
  0
VERTEX
  8
0
 10
273.61044245
 20
665.24186584
  0
VERTEX
  8
0
 10
275.02692782
 20
663.78595608
  0
VERTEX
  8
0
 10
276.43272156
 20
662.31945867
  0
VERTEX
  8
0
 10
277.95037103
 20
660.71189805
  0
VERTEX
  8
0
 10
279.45147675
 20
659.09670220
  0
VERTEX
  8
0
 10
280.93601570
 20
657.47402746
  0
VERTEX
  8
0
 10
282.40396483
 20
655.84403018
  0
VERTEX
  8
0
 10
283.85530113
 20
654.20686671
  0
VERTEX
  8
0
 10
285.29000157
 20
652.56269339
  0
VERTEX
  8
0
 10
286.70804311
 20
650.91166659
  0
VERTEX
  8
0
 10
288.10940273
 20
649.25394263
  0
VERTEX
  8
0
 10
289.49405739
 20
647.58967788
  0
VERTEX
  8
0
 10
290.86198408
 20
645.91902869
  0
VERTEX
  8
0
 10
292.21315975
 20
644.24215139
  0
VERTEX
  8
0
 10
293.54756138
 20
642.55920235
  0
VERTEX
  8
0
 10
294.86516594
 20
640.87033790
  0
VERTEX
  8
0
 10
296.16595041
 20
639.17571440
  0
VERTEX
  8
0
 10
297.44989175
 20
637.47548820
  0
VERTEX
  8
0
 10
298.71696693
 20
635.76981565
  0
VERTEX
  8
0
 10
299.96715292
 20
634.05885308
  0
VERTEX
  8
0
 10
301.20042670
 20
632.34275686
  0
VERTEX
  8
0
 10
302.41676524
 20
630.62168333
  0
VERTEX
  8
0
 10
303.61614551
 20
628.89578885
  0
VERTEX
  8
0
 10
304.79854447
 20
627.16522975
  0
VERTEX
  8
0
 10
305.96393910
 20
625.43016238
  0
VERTEX
  8
0
 10
307.11230637
 20
623.69074311
  0
VERTEX
  8
0
 10
308.24362326
 20
621.94712827
  0
VERTEX
  8
0
 10
309.35786672
 20
620.19947421
  0
VERTEX
  8
0
 10
310.45501374
 20
618.44793729
  0
VERTEX
  8
0
 10
311.53504128
 20
616.69267385
  0
VERTEX
  8
0
 10
312.59792632
 20
614.93384024
  0
VERTEX
  8
0
 10
313.64364582
 20
613.17159281
  0
VERTEX
  8
0
 10
314.67217676
 20
611.40608790
  0
VERTEX
  8
0
 10
315.68349610
 20
609.63748187
  0
VERTEX
  8
0
 10
316.67758083
 20
607.86593107
  0
VERTEX
  8
0
 10
317.65440790
 20
606.09159184
  0
VERTEX
  8
0
 10
318.61395430
 20
604.31462054
  0
VERTEX
  8
0
 10
319.55619698
 20
602.53517350
  0
VERTEX
  8
0
 10
320.48111293
 20
600.75340709
  0
VERTEX
  8
0
 10
321.38867911
 20
598.96947765
  0
VERTEX
  8
0
 10
322.27887249
 20
597.18354152
  0
VERTEX
  8
0
 10
323.15167005
 20
595.39575506
  0
VERTEX
  8
0
 10
324.00704875
 20
593.60627462
  0
VERTEX
  8
0
 10
324.84498557
 20
591.81525654
  0
VERTEX
  8
0
 10
325.66545748
 20
590.02285717
  0
VERTEX
  8
0
 10
326.46844145
 20
588.22923287
  0
VERTEX
  8
0
 10
327.25391444
 20
586.43453998
  0
VERTEX
  8
0
 10
328.02185344
 20
584.63893484
  0
VERTEX
  8
0
 10
328.77223540
 20
582.84257382
  0
VERTEX
  8
0
 10
329.50503731
 20
581.04561325
  0
VERTEX
  8
0
 10
330.22023613
 20
579.24820948
  0
VERTEX
  8
0
 10
330.91780884
 20
577.45051887
  0
VERTEX
  8
0
 10
331.59773240
 20
575.65269777
  0
VERTEX
  8
0
 10
332.25998379
 20
573.85490251
  0
VERTEX
  8
0
 10
332.90453997
 20
572.05728946
  0
VERTEX
  8
0
 10
333.53137792
 20
570.26001495
  0
VERTEX
  8
0
 10
334.14047461
 20
568.46323535
  0
VERTEX
  8
0
 10
334.73180701
 20
566.66710699
  0
VERTEX
  8
0
 10
335.30535209
 20
564.87178622
  0
VERTEX
  8
0
 10
335.86108682
 20
563.07742940
  0
VERTEX
  8
0
 10
336.39898817
 20
561.28419288
  0
VERTEX
  8
0
 10
336.91903311
 20
559.49223300
  0
VERTEX
  8
0
 10
337.42119862
 20
557.70170610
  0
VERTEX
  8
0
 10
337.90546167
 20
555.91276855
  0
VERTEX
  8
0
 10
338.37179922
 20
554.12557668
  0
VERTEX
  8
0
 10
338.82018824
 20
552.34028686
  0
VERTEX
  8
0
 10
339.25060572
 20
550.55705541
  0
VERTEX
  8
0
 10
339.66302861
 20
548.77603871
  0
VERTEX
  8
0
 10
340.05743389
 20
546.99739308
  0
VERTEX
  8
0
 10
340.43379853
 20
545.22127489
  0
VERTEX
  8
0
 10
340.79209951
 20
543.44784048
  0
VERTEX
  8
0
 10
341.13231378
 20
541.67724620
  0
VERTEX
  8
0
 10
341.45441833
 20
539.90964839
  0
VERTEX
  8
0
 10
341.75839013
 20
538.14520342
  0
VERTEX
  8
0
 10
342.04420613
 20
536.38406762
  0
VERTEX
  8
0
 10
342.31184333
 20
534.62639734
  0
VERTEX
  8
0
 10
342.56127868
 20
532.87234894
  0
VERTEX
  8
0
 10
342.79248916
 20
531.12207876
  0
VERTEX
  8
0
 10
343.00545173
 20
529.37574315
  0
VERTEX
  8
0
 10
343.20014338
 20
527.63349847
  0
VERTEX
  8
0
 10
343.37654107
 20
525.89550105
  0
VERTEX
  8
0
 10
343.53462177
 20
524.16190724
  0
VERTEX
  8
0
 10
343.67436245
 20
522.43287341
  0
VERTEX
  8
0
 10
343.79574008
 20
520.70855588
  0
VERTEX
  8
0
 10
343.89873164
 20
518.98911103
  0
VERTEX
  8
0
 10
343.98331409
 20
517.27469518
  0
VERTEX
  8
0
 10
344.04946441
 20
515.56546470
  0
VERTEX
  8
0
 10
344.09715957
 20
513.86157592
  0
VERTEX
  8
0
 10
344.12637653
 20
512.16318520
  0
VERTEX
  8
0
 10
344.13709228
 20
510.47044890
  0
VERTEX
  8
0
 10
344.12928377
 20
508.78352334
  0
VERTEX
  8
0
 10
344.10292798
 20
507.10256489
  0
VERTEX
  8
0
 10
344.05800188
 20
505.42772990
  0
VERTEX
  8
0
 10
343.99448245
 20
503.75917471
  0
VERTEX
  8
0
 10
343.91234665
 20
502.09705567
  0
VERTEX
  8
0
 10
343.81157146
 20
500.44152913
  0
VERTEX
  8
0
 10
343.69213383
 20
498.79275144
  0
VERTEX
  8
0
 10
343.55401076
 20
497.15087894
  0
VERTEX
  8
0
 10
343.39717920
 20
495.51606800
  0
VERTEX
  8
0
 10
343.22161613
 20
493.88847494
  0
VERTEX
  8
0
 10
343.02729852
 20
492.26825613
  0
VERTEX
  8
0
 10
342.81420334
 20
490.65556792
  0
VERTEX
  8
0
 10
342.58230756
 20
489.05056664
  0
VERTEX
  8
0
 10
342.33158815
 20
487.45340866
  0
VERTEX
  8
0
 10
342.06202208
 20
485.86425031
  0
VERTEX
  8
0
 10
341.77358633
 20
484.28324795
  0
VERTEX
  8
0
 10
341.46625786
 20
482.71055793
  0
VERTEX
  8
0
 10
341.14001365
 20
481.14633660
  0
VERTEX
  8
0
 10
340.79483066
 20
479.59074029
  0
VERTEX
  8
0
 10
340.43068587
 20
478.04392537
  0
VERTEX
  8
0
 10
340.04755624
 20
476.50604818
  0
VERTEX
  8
0
 10
339.64541876
 20
474.97726508
  0
VERTEX
  8
0
 10
339.22425039
 20
473.45773240
  0
VERTEX
  8
0
 10
338.78402809
 20
471.94760650
  0
VERTEX
  8
0
 10
338.32472885
 20
470.44704372
  0
VERTEX
  8
0
 10
337.84632963
 20
468.95620042
  0
VERTEX
  8
0
 10
337.34880741
 20
467.47523294
  0
VERTEX
  8
0
 10
336.83213914
 20
466.00429764
  0
VERTEX
  8
0
 10
336.29630182
 20
464.54355086
  0
VERTEX
  8
0
 10
335.74127240
 20
463.09314895
  0
VERTEX
  8
0
 10
335.16702785
 20
461.65324826
  0
VERTEX
  8
0
 10
334.57354516
 20
460.22400513
  0
VERTEX
  8
0
 10
333.96080128
 20
458.80557593
  0
VERTEX
  8
0
 10
333.32877320
 20
457.39811698
  0
VERTEX
  8
0
 10
332.67743787
 20
456.00178466
  0
VERTEX
  8
0
 10
332.00677228
 20
454.61673529
  0
VERTEX
  8
0
 10
331.31675339
 20
453.24312524
  0
VERTEX
  8
0
 10
330.60735817
 20
451.88111085
  0
VERTEX
  8
0
 10
329.87856360
 20
450.53084846
  0
VERTEX
  8
0
 10
329.13034664
 20
449.19249444
  0
VERTEX
  8
0
 10
328.36268427
 20
447.86620512
  0
VERTEX
  8
0
 10
328.59733297
 20
447.28142565
  0
VERTEX
  8
0
 10
328.85639144
 20
446.70529166
  0
VERTEX
  8
0
 10
329.13932098
 20
446.13762951
  0
VERTEX
  8
0
 10
329.44558291
 20
445.57826558
  0
VERTEX
  8
0
 10
329.77463851
 20
445.02702624
  0
VERTEX
  8
0
 10
330.12594911
 20
444.48373787
  0
VERTEX
  8
0
 10
330.49897601
 20
443.94822682
  0
VERTEX
  8
0
 10
330.89318052
 20
443.42031949
  0
VERTEX
  8
0
 10
331.30802395
 20
442.89984224
  0
VERTEX
  8
0
 10
331.74296759
 20
442.38662143
  0
VERTEX
  8
0
 10
332.19747277
 20
441.88048345
  0
VERTEX
  8
0
 10
332.67100078
 20
441.38125467
  0
VERTEX
  8
0
 10
333.16301294
 20
440.88876145
  0
VERTEX
  8
0
 10
333.67297055
 20
440.40283017
  0
VERTEX
  8
0
 10
334.20033492
 20
439.92328721
  0
VERTEX
  8
0
 10
334.74456736
 20
439.44995892
  0
VERTEX
  8
0
 10
335.88148166
 20
438.52125190
  0
VERTEX
  8
0
 10
337.07940391
 20
437.61532008
  0
VERTEX
  8
0
 10
338.33402458
 20
436.73077443
  0
VERTEX
  8
0
 10
339.64103411
 20
435.86622594
  0
VERTEX
  8
0
 10
340.99612297
 20
435.02028558
  0
VERTEX
  8
0
 10
342.39498162
 20
434.19156433
  0
VERTEX
  8
0
 10
343.83330052
 20
433.37867316
  0
VERTEX
  8
0
 10
345.30677011
 20
432.58022306
  0
VERTEX
  8
0
 10
346.81108087
 20
431.79482499
  0
VERTEX
  8
0
 10
348.34192325
 20
431.02108994
  0
VERTEX
  8
0
 10
349.89498770
 20
430.25762889
  0
VERTEX
  8
0
 10
351.46596469
 20
429.50305280
  0
VERTEX
  8
0
 10
354.64441812
 20
428.01499944
  0
VERTEX
  8
0
 10
357.84280719
 20
426.54581769
  0
VERTEX
  8
0
 10
361.02665557
 20
425.08439535
  0
VERTEX
  8
0
 10
364.16148694
 20
423.61962024
  0
VERTEX
  8
0
 10
365.69974738
 20
422.88250284
  0
VERTEX
  8
0
 10
367.21282494
 20
422.14038018
  0
VERTEX
  8
0
 10
368.69641008
 20
421.39186324
  0
VERTEX
  8
0
 10
370.14619326
 20
420.63556298
  0
VERTEX
  8
0
 10
370.63920564
 20
420.38630650
  0
VERTEX
  8
0
 10
371.22830822
 20
420.10960911
  0
VERTEX
  8
0
 10
372.66379360
 20
419.47938157
  0
VERTEX
  8
0
 10
374.39066875
 20
418.75586035
  0
VERTEX
  8
0
 10
376.34695299
 20
417.95002540
  0
VERTEX
  8
0
 10
378.47066566
 20
417.07285670
  0
VERTEX
  8
0
 10
380.69982608
 20
416.13533423
  0
VERTEX
  8
0
 10
382.97245360
 20
415.14843795
  0
VERTEX
  8
0
 10
385.22656754
 20
414.12314784
  0
VERTEX
  8
0
 10
386.32731295
 20
413.59953634
  0
VERTEX
  8
0
 10
387.40018723
 20
413.07044387
  0
VERTEX
  8
0
 10
388.43744277
 20
412.53724292
  0
VERTEX
  8
0
 10
389.43133201
 20
412.00130600
  0
VERTEX
  8
0
 10
390.37410735
 20
411.46400560
  0
VERTEX
  8
0
 10
391.25802121
 20
410.92671421
  0
VERTEX
  8
0
 10
392.07532600
 20
410.39080434
  0
VERTEX
  8
0
 10
392.81827416
 20
409.85764847
  0
VERTEX
  8
0
 10
393.47911808
 20
409.32861912
  0
VERTEX
  8
0
 10
394.05011019
 20
408.80508876
  0
VERTEX
  8
0
 10
394.29949070
 20
408.54581461
  0
VERTEX
  8
0
 10
394.52350290
 20
408.28842990
  0
VERTEX
  8
0
 10
394.72117837
 20
408.03310619
  0
VERTEX
  8
0
 10
394.89154864
 20
407.78001504
  0
VERTEX
  8
0
 10
395.03364527
 20
407.52932801
  0
VERTEX
  8
0
 10
395.14649981
 20
407.28121667
  0
VERTEX
  8
0
 10
395.22914382
 20
407.03585257
  0
VERTEX
  8
0
 10
395.28060884
 20
406.79340728
  0
VERTEX
  8
0
 10
395.29992642
 20
406.55405237
  0
VERTEX
  8
0
 10
395.28612813
 20
406.31795938
  0
VERTEX
  8
0
 10
395.23824551
 20
406.08529989
  0
VERTEX
  8
0
 10
395.15531011
 20
405.85624546
  0
VERTEX
  8
0
 10
395.04299706
 20
405.63972622
  0
VERTEX
  8
0
 10
394.89680315
 20
405.41879646
  0
VERTEX
  8
0
 10
394.71775208
 20
405.19372156
  0
VERTEX
  8
0
 10
394.50686751
 20
404.96476691
  0
VERTEX
  8
0
 10
394.26517314
 20
404.73219791
  0
VERTEX
  8
0
 10
393.99369263
 20
404.49627995
  0
VERTEX
  8
0
 10
393.36546795
 20
404.01545871
  0
VERTEX
  8
0
 10
392.63038291
 20
403.52442633
  0
VERTEX
  8
0
 10
391.79662695
 20
403.02530594
  0
VERTEX
  8
0
 10
390.87238950
 20
402.52022067
  0
VERTEX
  8
0
 10
389.86586002
 20
402.01129367
  0
VERTEX
  8
0
 10
388.78522793
 20
401.50064806
  0
VERTEX
  8
0
 10
387.63868268
 20
400.99040698
  0
VERTEX
  8
0
 10
386.43441371
 20
400.48269356
  0
VERTEX
  8
0
 10
385.18061046
 20
399.97963094
  0
VERTEX
  8
0
 10
383.88546236
 20
399.48334225
  0
VERTEX
  8
0
 10
382.55715886
 20
398.99595063
  0
VERTEX
  8
0
 10
381.20388940
 20
398.51957922
  0
VERTEX
  8
0
 10
379.83384342
 20
398.05635113
  0
VERTEX
  8
0
 10
378.45521035
 20
397.60838952
  0
VERTEX
  8
0
 10
377.07617965
 20
397.17781751
  0
VERTEX
  8
0
 10
375.70494074
 20
396.76675825
  0
VERTEX
  8
0
 10
374.34968306
 20
396.37733485
  0
VERTEX
  8
0
 10
373.01859606
 20
396.01167047
  0
VERTEX
  8
0
 10
371.71986918
 20
395.67188822
  0
VERTEX
  8
0
 10
370.46169185
 20
395.36011125
  0
VERTEX
  8
0
 10
369.25225353
 20
395.07846270
  0
VERTEX
  8
0
 10
368.09974363
 20
394.82906569
  0
VERTEX
  8
0
 10
367.01235161
 20
394.61404336
  0
VERTEX
  8
0
 10
365.99826691
 20
394.43551884
  0
VERTEX
  8
0
 10
365.06567897
 20
394.29561528
  0
VERTEX
  8
0
 10
364.22277721
 20
394.19645579
  0
VERTEX
  8
0
 10
363.47775110
 20
394.14016353
  0
VERTEX
  8
0
 10
362.83879006
 20
394.12886162
  0
VERTEX
  8
0
 10
362.31408353
 20
394.16467319
  0
VERTEX
  8
0
 10
361.70579985
 20
394.25971167
  0
VERTEX
  8
0
 10
361.09593962
 20
394.38694345
  0
VERTEX
  8
0
 10
360.48465816
 20
394.54505676
  0
VERTEX
  8
0
 10
359.87211081
 20
394.73273979
  0
VERTEX
  8
0
 10
359.25845293
 20
394.94868077
  0
VERTEX
  8
0
 10
358.64383983
 20
395.19156790
  0
VERTEX
  8
0
 10
358.02842688
 20
395.46008940
  0
VERTEX
  8
0
 10
357.41236940
 20
395.75293346
  0
VERTEX
  8
0
 10
356.79582273
 20
396.06878831
  0
VERTEX
  8
0
 10
356.17894222
 20
396.40634215
  0
VERTEX
  8
0
 10
355.56188320
 20
396.76428320
  0
VERTEX
  8
0
 10
354.94480101
 20
397.14129966
  0
VERTEX
  8
0
 10
353.71118849
 20
397.94731167
  0
VERTEX
  8
0
 10
352.47934739
 20
398.81388387
  0
VERTEX
  8
0
 10
351.25052040
 20
399.73052193
  0
VERTEX
  8
0
 10
350.02595025
 20
400.68673154
  0
VERTEX
  8
0
 10
348.80687966
 20
401.67201839
  0
VERTEX
  8
0
 10
347.59455135
 20
402.67588816
  0
VERTEX
  8
0
 10
345.19509239
 20
404.69739918
  0
VERTEX
  8
0
 10
342.83751513
 20
406.66731008
  0
VERTEX
  8
0
 10
341.67753891
 20
407.60667970
  0
VERTEX
  8
0
 10
340.53176127
 20
408.50166633
  0
VERTEX
  8
0
 10
339.40142492
 20
409.34177567
  0
VERTEX
  8
0
 10
338.28777257
 20
410.11651339
  0
VERTEX
  8
0
 10
337.19204694
 20
410.81538519
  0
VERTEX
  8
0
 10
336.65129499
 20
411.13309189
  0
VERTEX
  8
0
 10
336.11549074
 20
411.42789674
  0
VERTEX
  8
0
 10
335.58478953
 20
411.69848795
  0
VERTEX
  8
0
 10
335.05934670
 20
411.94355373
  0
VERTEX
  8
0
 10
334.53931758
 20
412.16178229
  0
VERTEX
  8
0
 10
334.02485752
 20
412.35186184
  0
VERTEX
  8
0
 10
333.51612186
 20
412.51248059
  0
VERTEX
  8
0
 10
333.01326593
 20
412.64232676
  0
VERTEX
  8
0
 10
332.51644508
 20
412.74008854
  0
VERTEX
  8
0
 10
332.02581464
 20
412.80445416
  0
VERTEX
  8
0
 10
331.54152996
 20
412.83411182
  0
VERTEX
  8
0
 10
331.06374637
 20
412.82774974
  0
VERTEX
  8
0
 10
330.59261922
 20
412.78405612
  0
VERTEX
  8
0
 10
330.12830384
 20
412.70171917
  0
VERTEX
  8
0
 10
329.67095557
 20
412.57942711
  0
VERTEX
  8
0
 10
329.22072975
 20
412.41586815
  0
VERTEX
  8
0
 10
328.77778172
 20
412.20973049
  0
VERTEX
  8
0
 10
328.34226683
 20
411.95970234
  0
VERTEX
  8
0
 10
327.91434040
 20
411.66447192
  0
VERTEX
  8
0
 10
327.49415779
 20
411.32272745
  0
VERTEX
  8
0
 10
327.08187433
 20
410.93315711
  0
VERTEX
  8
0
 10
326.67764535
 20
410.49444914
  0
VERTEX
  8
0
 10
326.24493504
 20
409.95637116
  0
VERTEX
  8
0
 10
325.87419502
 20
409.41813422
  0
VERTEX
  8
0
 10
325.56368653
 20
408.87965742
  0
VERTEX
  8
0
 10
325.31167079
 20
408.34085984
  0
VERTEX
  8
0
 10
325.11640905
 20
407.80166055
  0
VERTEX
  8
0
 10
324.97616252
 20
407.26197865
  0
VERTEX
  8
0
 10
324.88919245
 20
406.72173321
  0
VERTEX
  8
0
 10
324.85376007
 20
406.18084332
  0
VERTEX
  8
0
 10
324.86812659
 20
405.63922807
  0
VERTEX
  8
0
 10
324.93055327
 20
405.09680653
  0
VERTEX
  8
0
 10
325.03930133
 20
404.55349780
  0
VERTEX
  8
0
 10
325.19263199
 20
404.00922095
  0
VERTEX
  8
0
 10
325.38880650
 20
403.46389507
  0
VERTEX
  8
0
 10
325.62608607
 20
402.91743923
  0
VERTEX
  8
0
 10
325.90273196
 20
402.36977254
  0
VERTEX
  8
0
 10
326.21700538
 20
401.82081406
  0
VERTEX
  8
0
 10
326.56716756
 20
401.27048288
  0
VERTEX
  8
0
 10
326.95147975
 20
400.71869809
  0
VERTEX
  8
0
 10
327.36820316
 20
400.16537877
  0
VERTEX
  8
0
 10
327.81559904
 20
399.61044400
  0
VERTEX
  8
0
 10
328.29192861
 20
399.05381286
  0
VERTEX
  8
0
 10
328.79545310
 20
398.49540445
  0
VERTEX
  8
0
 10
329.32443375
 20
397.93513784
  0
VERTEX
  8
0
 10
329.87713179
 20
397.37293211
  0
VERTEX
  8
0
 10
331.04672496
 20
396.24237966
  0
VERTEX
  8
0
 10
332.29032245
 20
395.10309975
  0
VERTEX
  8
0
 10
333.59401412
 20
393.95444506
  0
VERTEX
  8
0
 10
334.94388982
 20
392.79576826
  0
VERTEX
  8
0
 10
337.72655272
 20
390.44575898
  0
VERTEX
  8
0
 10
339.13151963
 20
389.25313184
  0
VERTEX
  8
0
 10
340.52702997
 20
388.04789326
  0
VERTEX
  8
0
 10
341.89917360
 20
386.82939591
  0
VERTEX
  8
0
 10
343.23404037
 20
385.59699245
  0
VERTEX
  8
0
 10
344.51772014
 20
384.35003556
  0
VERTEX
  8
0
 10
345.13601797
 20
383.72089728
  0
VERTEX
  8
0
 10
345.73630274
 20
383.08787790
  0
VERTEX
  8
0
 10
346.31683569
 20
382.45089649
  0
VERTEX
  8
0
 10
346.87587805
 20
381.80987214
  0
VERTEX
  8
0
 10
347.41169104
 20
381.16472393
  0
VERTEX
  8
0
 10
347.92253590
 20
380.51537094
  0
VERTEX
  8
0
 10
348.40667386
 20
379.86173227
  0
VERTEX
  8
0
 10
348.86236615
 20
379.20372699
  0
VERTEX
  8
0
 10
349.28787401
 20
378.54127418
  0
VERTEX
  8
0
 10
349.68145865
 20
377.87429294
  0
VERTEX
  8
0
 10
350.04138133
 20
377.20270233
  0
VERTEX
  8
0
 10
350.36590326
 20
376.52642146
  0
VERTEX
  8
0
 10
350.65328568
 20
375.84536939
  0
VERTEX
  8
0
 10
350.90178982
 20
375.15946522
  0
VERTEX
  8
0
 10
351.10967691
 20
374.46862803
  0
VERTEX
  8
0
 10
351.27520818
 20
373.77277690
  0
VERTEX
  8
0
 10
351.39664487
 20
373.07183091
  0
VERTEX
  8
0
 10
351.47224821
 20
372.36570915
  0
VERTEX
  8
0
 10
351.54482705
 20
371.64077602
  0
VERTEX
  8
0
 10
351.64851583
 20
370.87053220
  0
VERTEX
  8
0
 10
351.88092382
 20
369.24306716
  0
VERTEX
  8
0
 10
351.97549337
 20
368.41032328
  0
VERTEX
  8
0
 10
352.03287352
 20
367.58122338
  0
VERTEX
  8
0
 10
352.04228169
 20
367.17186450
  0
VERTEX
  8
0
 10
352.03598945
 20
366.76800612
  0
VERTEX
  8
0
 10
352.01186244
 20
366.37117806
  0
VERTEX
  8
0
 10
351.96776630
 20
365.98291016
  0
VERTEX
  8
0
 10
351.90156670
 20
365.60473226
  0
VERTEX
  8
0
 10
351.81112927
 20
365.23817418
  0
VERTEX
  8
0
 10
351.69431965
 20
364.88476577
  0
VERTEX
  8
0
 10
351.54900350
 20
364.54603684
  0
VERTEX
  8
0
 10
351.37304646
 20
364.22351725
  0
VERTEX
  8
0
 10
351.16431418
 20
363.91873681
  0
VERTEX
  8
0
 10
350.92067230
 20
363.63322536
  0
VERTEX
  8
0
 10
350.63998647
 20
363.36851274
  0
VERTEX
  8
0
 10
350.32012233
 20
363.12612878
  0
VERTEX
  8
0
 10
349.95894554
 20
362.90760331
  0
VERTEX
  8
0
 10
349.55432173
 20
362.71446617
  0
VERTEX
  8
0
 10
349.10411655
 20
362.54824719
  0
VERTEX
  8
0
 10
348.60619566
 20
362.41047620
  0
VERTEX
  8
0
 10
348.05842469
 20
362.30268303
  0
VERTEX
  8
0
 10
347.45866929
 20
362.22639752
  0
VERTEX
  8
0
 10
346.80479511
 20
362.18314950
  0
VERTEX
  8
0
 10
346.46230626
 20
362.17763809
  0
VERTEX
  8
0
 10
346.12506291
 20
362.18721706
  0
VERTEX
  8
0
 10
345.46519934
 20
362.24898693
  0
VERTEX
  8
0
 10
344.82297771
 20
362.36314069
  0
VERTEX
  8
0
 10
344.19617133
 20
362.52435990
  0
VERTEX
  8
0
 10
343.58255353
 20
362.72732612
  0
VERTEX
  8
0
 10
342.97989761
 20
362.96672091
  0
VERTEX
  8
0
 10
342.38597688
 20
363.23722583
  0
VERTEX
  8
0
 10
341.79856467
 20
363.53352246
  0
VERTEX
  8
0
 10
341.21543429
 20
363.85029234
  0
VERTEX
  8
0
 10
340.63435905
 20
364.18221704
  0
VERTEX
  8
0
 10
339.46946724
 20
364.87025716
  0
VERTEX
  8
0
 10
338.28607577
 20
365.55509531
  0
VERTEX
  8
0
 10
337.68187595
 20
365.88301755
  0
VERTEX
  8
0
 10
337.06637115
 20
366.19418399
  0
VERTEX
  8
0
 10
334.77543309
 20
367.31904401
  0
VERTEX
  8
0
 10
332.56694270
 20
368.43540908
  0
VERTEX
  8
0
 10
330.41750709
 20
369.55376261
  0
VERTEX
  8
0
 10
328.30373341
 20
370.68458801
  0
VERTEX
  8
0
 10
326.20222879
 20
371.83836870
  0
VERTEX
  8
0
 10
324.08960036
 20
373.02558810
  0
VERTEX
  8
0
 10
321.94245526
 20
374.25672960
  0
VERTEX
  8
0
 10
319.73740063
 20
375.54227663
  0
VERTEX
  8
0
 10
319.20558303
 20
375.86764194
  0
VERTEX
  8
0
 10
318.66798976
 20
376.22061784
  0
VERTEX
  8
0
 10
318.12514546
 20
376.59787637
  0
VERTEX
  8
0
 10
317.57757479
 20
376.99608958
  0
VERTEX
  8
0
 10
316.47035295
 20
377.84206821
  0
VERTEX
  8
0
 10
315.35052147
 20
378.73193009
  0
VERTEX
  8
0
 10
314.22227756
 20
379.63905159
  0
VERTEX
  8
0
 10
313.08981844
 20
380.53680908
  0
VERTEX
  8
0
 10
311.95734135
 20
381.39857893
  0
VERTEX
  8
0
 10
311.39240769
 20
381.80764861
  0
VERTEX
  8
0
 10
310.82904349
 20
382.19773751
  0
VERTEX
  8
0
 10
310.26777342
 20
382.56551768
  0
VERTEX
  8
0
 10
309.70912211
 20
382.90766117
  0
VERTEX
  8
0
 10
309.15361422
 20
383.22084002
  0
VERTEX
  8
0
 10
308.60177441
 20
383.50172629
  0
VERTEX
  8
0
 10
308.05412732
 20
383.74699201
  0
VERTEX
  8
0
 10
307.51119762
 20
383.95330923
  0
VERTEX
  8
0
 10
306.97350995
 20
384.11735000
  0
VERTEX
  8
0
 10
306.44158896
 20
384.23578636
  0
VERTEX
  8
0
 10
305.91595932
 20
384.30529036
  0
VERTEX
  8
0
 10
305.39714567
 20
384.32253405
  0
VERTEX
  8
0
 10
304.88567266
 20
384.28418946
  0
VERTEX
  8
0
 10
304.63285285
 20
384.24313159
  0
VERTEX
  8
0
 10
304.38206494
 20
384.18692866
  0
VERTEX
  8
0
 10
304.13337453
 20
384.11516469
  0
VERTEX
  8
0
 10
303.88684718
 20
384.02742368
  0
VERTEX
  8
0
 10
303.64254849
 20
383.92328963
  0
VERTEX
  8
0
 10
303.40054403
 20
383.80234656
  0
VERTEX
  8
0
 10
303.16089938
 20
383.66417847
  0
VERTEX
  8
0
 10
302.92368012
 20
383.50836936
  0
VERTEX
  8
0
 10
302.68895185
 20
383.33450324
  0
VERTEX
  8
0
 10
302.45678013
 20
383.14216412
  0
VERTEX
  8
0
 10
302.22156190
 20
382.92499834
  0
VERTEX
  8
0
 10
302.00503738
 20
382.70124468
  0
VERTEX
  8
0
 10
301.80672161
 20
382.47105971
  0
VERTEX
  8
0
 10
301.62612963
 20
382.23460001
  0
VERTEX
  8
0
 10
301.46277648
 20
381.99202214
  0
VERTEX
  8
0
 10
301.31617720
 20
381.74348267
  0
VERTEX
  8
0
 10
301.18584683
 20
381.48913818
  0
VERTEX
  8
0
 10
301.07130042
 20
381.22914523
  0
VERTEX
  8
0
 10
300.97205299
 20
380.96366040
  0
VERTEX
  8
0
 10
300.88761960
 20
380.69284025
  0
VERTEX
  8
0
 10
300.76125508
 20
380.13582030
  0
VERTEX
  8
0
 10
300.68832717
 20
379.55933795
  0
VERTEX
  8
0
 10
300.66495621
 20
378.96464576
  0
VERTEX
  8
0
 10
300.68726250
 20
378.35299630
  0
VERTEX
  8
0
 10
300.75136638
 20
377.72564213
  0
VERTEX
  8
0
 10
300.85338817
 20
377.08383581
  0
VERTEX
  8
0
 10
300.98944819
 20
376.42882992
  0
VERTEX
  8
0
 10
301.15566677
 20
375.76187702
  0
VERTEX
  8
0
 10
301.34816423
 20
375.08422967
  0
VERTEX
  8
0
 10
301.56306089
 20
374.39714044
  0
VERTEX
  8
0
 10
301.79647707
 20
373.70186190
  0
VERTEX
  8
0
 10
302.30334931
 20
372.29174714
  0
VERTEX
  8
0
 10
302.83774354
 20
370.86390590
  0
VERTEX
  8
0
 10
303.36862233
 20
369.42835872
  0
VERTEX
  8
0
 10
303.86494828
 20
367.99512612
  0
VERTEX
  8
0
 10
304.09045475
 20
367.28250920
  0
VERTEX
  8
0
 10
304.29568398
 20
366.57422862
  0
VERTEX
  8
0
 10
304.47675629
 20
365.87153695
  0
VERTEX
  8
0
 10
304.62979201
 20
365.17568676
  0
VERTEX
  8
0
 10
304.75091145
 20
364.48793060
  0
VERTEX
  8
0
 10
304.83623495
 20
363.80952104
  0
VERTEX
  8
0
 10
304.88188282
 20
363.14171065
  0
VERTEX
  8
0
 10
304.88397540
 20
362.48575200
  0
VERTEX
  8
0
 10
304.85258150
 20
361.99642596
  0
VERTEX
  8
0
 10
304.78748745
 20
361.41499811
  0
VERTEX
  8
0
 10
304.68952215
 20
360.74586791
  0
VERTEX
  8
0
 10
304.55951452
 20
359.99343480
  0
VERTEX
  8
0
 10
304.20668794
 20
358.25625769
  0
VERTEX
  8
0
 10
303.73563902
 20
356.23866239
  0
VERTEX
  8
0
 10
303.15299908
 20
353.97584452
  0
VERTEX
  8
0
 10
302.46539943
 20
351.50299968
  0
VERTEX
  8
0
 10
301.67947138
 20
348.85532350
  0
VERTEX
  8
0
 10
300.80184626
 20
346.06801158
  0
VERTEX
  8
0
 10
299.83915538
 20
343.17625954
  0
VERTEX
  8
0
 10
298.79803006
 20
340.21526300
  0
VERTEX
  8
0
 10
297.68510160
 20
337.22021756
  0
VERTEX
  8
0
 10
297.10378348
 20
335.72092513
  0
VERTEX
  8
0
 10
296.50700133
 20
334.22631884
  0
VERTEX
  8
0
 10
295.89558405
 20
332.74079813
  0
VERTEX
  8
0
 10
295.27036056
 20
331.26876245
  0
VERTEX
  8
0
 10
294.63215977
 20
329.81461127
  0
VERTEX
  8
0
 10
293.98181061
 20
328.38274402
  0
VERTEX
  8
0
 10
293.32014197
 20
326.97756016
  0
VERTEX
  8
0
 10
292.64798279
 20
325.60345914
  0
VERTEX
  8
0
 10
291.96616196
 20
324.26484041
  0
VERTEX
  8
0
 10
291.27550842
 20
322.96610343
  0
VERTEX
  8
0
 10
290.57685106
 20
321.71164765
  0
VERTEX
  8
0
 10
289.87101881
 20
320.50587252
  0
VERTEX
  8
0
 10
289.15884058
 20
319.35317748
  0
VERTEX
  8
0
 10
288.44114528
 20
318.25796200
  0
VERTEX
  8
0
 10
287.71876184
 20
317.22462552
  0
VERTEX
  8
0
 10
286.99251915
 20
316.25756750
  0
VERTEX
  8
0
 10
286.26324615
 20
315.36118738
  0
VERTEX
  8
0
 10
285.53177173
 20
314.53988462
  0
VERTEX
  8
0
 10
284.79892483
 20
313.79805868
  0
VERTEX
  8
0
 10
284.43224573
 20
313.45832434
  0
VERTEX
  8
0
 10
284.06553434
 20
313.14010899
  0
VERTEX
  8
0
 10
283.69889429
 20
312.84396258
  0
VERTEX
  8
0
 10
283.33242919
 20
312.57043502
  0
VERTEX
  8
0
 10
282.96624265
 20
312.32007626
  0
VERTEX
  8
0
 10
282.60043829
 20
312.09343621
  0
VERTEX
  8
0
 10
282.23511972
 20
311.89106483
  0
VERTEX
  8
0
 10
281.87039056
 20
311.71351202
  0
VERTEX
  8
0
 10
281.50635441
 20
311.56132774
  0
VERTEX
  8
0
 10
281.14311490
 20
311.43506190
  0
VERTEX
  8
0
 10
280.78077564
 20
311.33526445
  0
VERTEX
  8
0
 10
280.41944024
 20
311.26248530
  0
VERTEX
  8
0
 10
280.05921232
 20
311.21727440
  0
VERTEX
  8
0
 10
279.70019548
 20
311.20018168
  0
VERTEX
  8
0
 10
279.34249336
 20
311.21175706
  0
VERTEX
  8
0
 10
278.98620955
 20
311.25255047
  0
VERTEX
  8
0
 10
278.63144768
 20
311.32311186
  0
VERTEX
  8
0
 10
278.27831136
 20
311.42399115
  0
VERTEX
  8
0
 10
277.92690419
 20
311.55573826
  0
VERTEX
  8
0
 10
277.57732981
 20
311.71890314
  0
VERTEX
  8
0
 10
277.22969182
 20
311.91403572
  0
VERTEX
  8
0
 10
276.88409383
 20
312.14168592
  0
VERTEX
  8
0
 10
276.54063947
 20
312.40240368
  0
VERTEX
  8
0
 10
276.19943234
 20
312.69673893
  0
VERTEX
  8
0
 10
275.86057605
 20
313.02524160
  0
VERTEX
  8
0
 10
275.52417423
 20
313.38846162
  0
VERTEX
  8
0
 10
275.19033049
 20
313.78694893
  0
VERTEX
  8
0
 10
274.85914844
 20
314.22125345
  0
VERTEX
  8
0
 10
274.53073169
 20
314.69192511
  0
VERTEX
  8
0
 10
274.20518387
 20
315.19951386
  0
VERTEX
  8
0
 10
273.88260858
 20
315.74456961
  0
VERTEX
  8
0
 10
273.56310943
 20
316.32764230
  0
VERTEX
  8
0
 10
273.24679006
 20
316.94928187
  0
VERTEX
  8
0
 10
272.93375405
 20
317.61003824
  0
VERTEX
  8
0
 10
272.62410505
 20
318.31046135
  0
VERTEX
  8
0
 10
272.31794664
 20
319.05110112
  0
VERTEX
  8
0
 10
272.01538246
 20
319.83250749
  0
VERTEX
  8
0
 10
271.71651611
 20
320.65523039
  0
VERTEX
  8
0
 10
271.42145121
 20
321.51981975
  0
VERTEX
  8
0
 10
271.13029137
 20
322.42682550
  0
VERTEX
  8
0
 10
270.84314022
 20
323.37679758
  0
VERTEX
  8
0
 10
270.56010135
 20
324.37028591
  0
VERTEX
  8
0
 10
270.28127839
 20
325.40784043
  0
VERTEX
  8
0
 10
270.00677495
 20
326.49001107
  0
VERTEX
  8
0
 10
269.47114109
 20
328.79040043
  0
VERTEX
  8
0
 10
269.25197091
 20
329.82715508
  0
VERTEX
  8
0
 10
269.04689177
 20
330.87972925
  0
VERTEX
  8
0
 10
268.85535767
 20
331.94748128
  0
VERTEX
  8
0
 10
268.67682261
 20
333.02976955
  0
VERTEX
  8
0
 10
268.35656560
 20
335.23538824
  0
VERTEX
  8
0
 10
268.08175273
 20
337.49145222
  0
VERTEX
  8
0
 10
267.84801599
 20
339.79282841
  0
VERTEX
  8
0
 10
267.65098737
 20
342.13438371
  0
VERTEX
  8
0
 10
267.48629887
 20
344.51098503
  0
VERTEX
  8
0
 10
267.34958247
 20
346.91749928
  0
VERTEX
  8
0
 10
267.23647016
 20
349.34879337
  0
VERTEX
  8
0
 10
267.14259394
 20
351.79973420
  0
VERTEX
  8
0
 10
266.99507772
 20
356.74002373
  0
VERTEX
  8
0
 10
266.87208975
 20
361.69730314
  0
VERTEX
  8
0
 10
266.73868595
 20
366.63050770
  0
VERTEX
  8
0
 10
266.65715808
 20
369.07524917
  0
VERTEX
  8
0
 10
266.55992224
 20
371.49857266
  0
VERTEX
  8
0
 10
266.44261040
 20
373.89534507
  0
VERTEX
  8
0
 10
266.30085456
 20
376.26043330
  0
VERTEX
  8
0
 10
266.13028671
 20
378.58870427
  0
VERTEX
  8
0
 10
265.92653884
 20
380.87502488
  0
VERTEX
  8
0
 10
265.68524294
 20
383.11426205
  0
VERTEX
  8
0
 10
265.40203101
 20
385.30128267
  0
VERTEX
  8
0
 10
265.07253503
 20
387.43095366
  0
VERTEX
  8
0
 10
264.88906552
 20
388.47267896
  0
VERTEX
  8
0
 10
264.69238699
 20
389.49814193
  0
VERTEX
  8
0
 10
264.48195345
 20
390.50670095
  0
VERTEX
  8
0
 10
264.25721889
 20
391.49771439
  0
VERTEX
  8
0
 10
264.01763732
 20
392.47054059
  0
VERTEX
  8
0
 10
263.76266272
 20
393.42453793
  0
VERTEX
  8
0
 10
263.49174911
 20
394.35906477
  0
VERTEX
  8
0
 10
263.20435047
 20
395.27347948
  0
VERTEX
  8
0
 10
262.89992081
 20
396.16714041
  0
VERTEX
  8
0
 10
262.57791413
 20
397.03940594
  0
VERTEX
  8
0
 10
262.23778442
 20
397.88963442
  0
VERTEX
  8
0
 10
261.87898569
 20
398.71718421
  0
VERTEX
  8
0
 10
261.50097193
 20
399.52141369
  0
VERTEX
  8
0
 10
261.10319714
 20
400.30168121
  0
SEQEND
  0
POLYLINE
  8
По_умолчанию
 62
256
 66
   1
 39
0.000000
 70
    1
  0
VERTEX
  8
0
 10
40.17830419
 20
650.58515774
  0
VERTEX
  8
0
 10
39.94421890
 20
650.35086954
  0
VERTEX
  8
0
 10
39.72463810
 20
650.10764278
  0
VERTEX
  8
0
 10
39.51957599
 20
649.85604900
  0
VERTEX
  8
0
 10
39.32904677
 20
649.59665970
  0
VERTEX
  8
0
 10
39.15306465
 20
649.33004641
  0
VERTEX
  8
0
 10
38.99164383
 20
649.05678066
  0
VERTEX
  8
0
 10
38.84479851
 20
648.77743395
  0
VERTEX
  8
0
 10
38.71254290
 20
648.49257780
  0
VERTEX
  8
0
 10
38.59489120
 20
648.20278374
  0
VERTEX
  8
0
 10
38.49185762
 20
647.90862329
  0
VERTEX
  8
0
 10
38.40345635
 20
647.61066796
  0
VERTEX
  8
0
 10
38.32970160
 20
647.30948927
  0
VERTEX
  8
0
 10
38.22618849
 20
646.69974790
  0
VERTEX
  8
0
 10
38.18143190
 20
646.08397133
  0
VERTEX
  8
0
 10
38.19554546
 20
645.46673171
  0
VERTEX
  8
0
 10
38.26864280
 20
644.85260120
  0
VERTEX
  8
0
 10
38.32734590
 20
644.54813066
  0
VERTEX
  8
0
 10
38.40083756
 20
644.24615195
  0
VERTEX
  8
0
 10
38.48913197
 20
643.94723660
  0
VERTEX
  8
0
 10
38.59224334
 20
643.65195612
  0
VERTEX
  8
0
 10
38.71018588
 20
643.36088203
  0
VERTEX
  8
0
 10
38.84297379
 20
643.07458585
  0
VERTEX
  8
0
 10
38.99062128
 20
642.79363909
  0
VERTEX
  8
0
 10
39.15314253
 20
642.51861329
  0
VERTEX
  8
0
 10
39.33055177
 20
642.25007996
  0
VERTEX
  8
0
 10
39.52286319
 20
641.98861061
  0
VERTEX
  8
0
 10
39.73009100
 20
641.73477677
  0
VERTEX
  8
0
 10
39.95224940
 20
641.48914995
  0
VERTEX
  8
0
 10
40.18653761
 20
641.25506467
  0
VERTEX
  8
0
 10
40.42976436
 20
641.03548387
  0
VERTEX
  8
0
 10
40.68135815
 20
640.83042175
  0
VERTEX
  8
0
 10
40.94074744
 20
640.63989254
  0
VERTEX
  8
0
 10
41.20736073
 20
640.46391041
  0
VERTEX
  8
0
 10
41.48062649
 20
640.30248959
  0
VERTEX
  8
0
 10
41.75997320
 20
640.15564428
  0
VERTEX
  8
0
 10
42.04482934
 20
640.02338867
  0
VERTEX
  8
0
 10
42.33462340
 20
639.90573697
  0
VERTEX
  8
0
 10
42.62878386
 20
639.80270338
  0
VERTEX
  8
0
 10
42.92673919
 20
639.71430212
  0
VERTEX
  8
0
 10
43.22791787
 20
639.64054737
  0
VERTEX
  8
0
 10
43.83765924
 20
639.53703426
  0
VERTEX
  8
0
 10
44.45343581
 20
639.49227767
  0
VERTEX
  8
0
 10
45.07067543
 20
639.50639123
  0
VERTEX
  8
0
 10
45.68480594
 20
639.57948857
  0
VERTEX
  8
0
 10
45.98927648
 20
639.63819167
  0
VERTEX
  8
0
 10
46.29125519
 20
639.71168332
  0
VERTEX
  8
0
 10
46.59017054
 20
639.79997774
  0
VERTEX
  8
0
 10
46.88545103
 20
639.90308911
  0
VERTEX
  8
0
 10
47.17652512
 20
640.02103165
  0
VERTEX
  8
0
 10
47.46282130
 20
640.15381956
  0
VERTEX
  8
0
 10
47.74376805
 20
640.30146704
  0
VERTEX
  8
0
 10
48.01879385
 20
640.46398830
  0
VERTEX
  8
0
 10
48.28732718
 20
640.64139754
  0
VERTEX
  8
0
 10
48.54879653
 20
640.83370896
  0
VERTEX
  8
0
 10
48.80263037
 20
641.04093677
  0
VERTEX
  8
0
 10
49.04825719
 20
641.26309517
  0
VERTEX
  8
0
 10
49.28234248
 20
641.49738337
  0
VERTEX
  8
0
 10
49.50192328
 20
641.74061013
  0
VERTEX
  8
0
 10
49.70698539
 20
641.99220391
  0
VERTEX
  8
0
 10
49.89751461
 20
642.25159321
  0
VERTEX
  8
0
 10
50.07349673
 20
642.51820650
  0
VERTEX
  8
0
 10
50.23491755
 20
642.79147225
  0
VERTEX
  8
0
 10
50.38176287
 20
643.07081897
  0
VERTEX
  8
0
 10
50.51401848
 20
643.35567511
  0
VERTEX
  8
0
 10
50.63167017
 20
643.64546917
  0
VERTEX
  8
0
 10
50.73470376
 20
643.93962962
  0
VERTEX
  8
0
 10
50.82310503
 20
644.23758495
  0
VERTEX
  8
0
 10
50.89685977
 20
644.53876364
  0
VERTEX
  8
0
 10
51.00037289
 20
645.14850501
  0
VERTEX
  8
0
 10
51.04512948
 20
645.76428158
  0
VERTEX
  8
0
 10
51.03101591
 20
646.38152120
  0
VERTEX
  8
0
 10
50.95791857
 20
646.99565171
  0
VERTEX
  8
0
 10
50.89921547
 20
647.30012225
  0
VERTEX
  8
0
 10
50.82572382
 20
647.60210096
  0
VERTEX
  8
0
 10
50.73742941
 20
647.90101631
  0
VERTEX
  8
0
 10
50.63431803
 20
648.19629679
  0
VERTEX
  8
0
 10
50.51637549
 20
648.48737088
  0
VERTEX
  8
0
 10
50.38358758
 20
648.77366707
  0
VERTEX
  8
0
 10
50.23594010
 20
649.05461382
  0
VERTEX
  8
0
 10
50.07341884
 20
649.32963962
  0
VERTEX
  8
0
 10
49.89600960
 20
649.59817295
  0
VERTEX
  8
0
 10
49.70369818
 20
649.85964230
  0
VERTEX
  8
0
 10
49.49647037
 20
650.11347614
  0
VERTEX
  8
0
 10
49.27431198
 20
650.35910296
  0
VERTEX
  8
0
 10
49.04002377
 20
650.59318824
  0
VERTEX
  8
0
 10
48.79679701
 20
650.81276905
  0
VERTEX
  8
0
 10
48.54520323
 20
651.01783116
  0
VERTEX
  8
0
 10
48.28581393
 20
651.20836037
  0
VERTEX
  8
0
 10
48.01920065
 20
651.38434250
  0
VERTEX
  8
0
 10
47.74593489
 20
651.54576332
  0
VERTEX
  8
0
 10
47.46658818
 20
651.69260863
  0
VERTEX
  8
0
 10
47.18173203
 20
651.82486424
  0
VERTEX
  8
0
 10
46.89193797
 20
651.94251594
  0
VERTEX
  8
0
 10
46.59777752
 20
652.04554953
  0
VERTEX
  8
0
 10
46.29982219
 20
652.13395079
  0
VERTEX
  8
0
 10
45.99864350
 20
652.20770554
  0
VERTEX
  8
0
 10
45.38890213
 20
652.31121866
  0
VERTEX
  8
0
 10
44.77312556
 20
652.35597525
  0
VERTEX
  8
0
 10
44.15588595
 20
652.34186168
  0
VERTEX
  8
0
 10
43.54175544
 20
652.26876434
  0
VERTEX
  8
0
 10
43.23728489
 20
652.21006124
  0
VERTEX
  8
0
 10
42.93530619
 20
652.13656959
  0
VERTEX
  8
0
 10
42.63639083
 20
652.04827517
  0
VERTEX
  8
0
 10
42.34111035
 20
651.94516380
  0
VERTEX
  8
0
 10
42.05003626
 20
651.82722126
  0
VERTEX
  8
0
 10
41.76374008
 20
651.69443335
  0
VERTEX
  8
0
 10
41.48279333
 20
651.54678587
  0
VERTEX
  8
0
 10
41.20776753
 20
651.38426461
  0
VERTEX
  8
0
 10
40.93923419
 20
651.20685537
  0
VERTEX
  8
0
 10
40.67776484
 20
651.01454395
  0
VERTEX
  8
0
 10
40.42393100
 20
650.80731614
  0
VERTEX
  8
0
 10
40.17830419
 20
650.58515774
  0
SEQEND
  0
POLYLINE
  8
По_умолчанию
 62
256
 66
   1
 39
0.000000
 70
    1
  0
VERTEX
  8
0
 10
153.90924813
 20
427.68690659
  0
VERTEX
  8
0
 10
46.53298995
 20
540.53623037
 42
0.00518476
  0
VERTEX
  8
0
 10
48.08037652
 20
536.59918665
 42
0.02310079
  0
VERTEX
  8
0
 10
55.46801230
 20
520.51797214
 42
0.02633466
  0
VERTEX
  8
0
 10
65.11604339
 20
504.01665081
 42
0.04386288
  0
VERTEX
  8
0
 10
84.03893060
 20
480.08489433
 42
0.02531028
  0
VERTEX
  8
0
 10
103.58866333
 20
461.41878865
 42
0.02050976
  0
VERTEX
  8
0
 10
120.05958047
 20
448.34674948
 42
0.01944409
  0
VERTEX
  8
0
 10
135.87096235
 20
437.73213963
 42
0.01883647
  0
VERTEX
  8
0
 10
151.08190764
 20
429.12437591
 42
0.00363525
  0
VERTEX
  8
0
 10
153.90924813
 20
427.68690659
  0
SEQEND
  0
POLYLINE
  8
По_умолчанию
 62
256
 66
   1
 39
0.000000
 70
    1
  0
VERTEX
  8
0
 10
34.45659217
 20
588.05783160
 42
-0.00218953
  0
VERTEX
  8
0
 10
34.18315241
 20
590.06671272
 42
-0.02759618
  0
VERTEX
  8
0
 10
32.13847886
 20
616.99583774
 42
-0.01968505
  0
VERTEX
  8
0
 10
32.49206295
 20
636.30535113
  0
VERTEX
  8
0
 10
32.93257033
 20
635.77289832
  0
VERTEX
  8
0
 10
33.40181444
 20
635.25640374
  0
VERTEX
  8
0
 10
33.94405868
 20
634.71462913
  0
VERTEX
  8
0
 10
34.50699060
 20
634.20642418
  0
VERTEX
  8
0
 10
35.08928744
 20
633.73182176
  0
VERTEX
  8
0
 10
35.68962646
 20
633.29085474
  0
VERTEX
  8
0
 10
36.30668493
 20
632.88355600
  0
VERTEX
  8
0
 10
36.93914009
 20
632.50995840
  0
VERTEX
  8
0
 10
37.58566920
 20
632.17009482
  0
VERTEX
  8
0
 10
38.24494953
 20
631.86399814
  0
VERTEX
  8
0
 10
38.91565832
 20
631.59170122
  0
VERTEX
  8
0
 10
39.59647285
 20
631.35323694
  0
VERTEX
  8
0
 10
40.28607036
 20
631.14863817
  0
VERTEX
  8
0
 10
40.98312811
 20
630.97793778
  0
VERTEX
  8
0
 10
41.68632336
 20
630.84116866
  0
VERTEX
  8
0
 10
42.39433337
 20
630.73836366
  0
VERTEX
  8
0
 10
43.10583540
 20
630.66955567
  0
VERTEX
  8
0
 10
43.81950670
 20
630.63477756
  0
VERTEX
  8
0
 10
44.53402453
 20
630.63406219
  0
VERTEX
  8
0
 10
45.24806614
 20
630.66744244
  0
VERTEX
  8
0
 10
45.96030881
 20
630.73495120
  0
VERTEX
  8
0
 10
46.66942977
 20
630.83662131
  0
VERTEX
  8
0
 10
47.37410630
 20
630.97248567
  0
VERTEX
  8
0
 10
48.07301564
 20
631.14257715
  0
VERTEX
  8
0
 10
48.76483506
 20
631.34692861
  0
VERTEX
  8
0
 10
49.44824182
 20
631.58557293
  0
VERTEX
  8
0
 10
50.12191316
 20
631.85854298
  0
VERTEX
  8
0
 10
50.78452635
 20
632.16587164
  0
VERTEX
  8
0
 10
51.43475865
 20
632.50759177
  0
VERTEX
  8
0
 10
52.07128732
 20
632.88373626
  0
VERTEX
  8
0
 10
52.69278960
 20
633.29433797
  0
VERTEX
  8
0
 10
53.29794276
 20
633.73942978
  0
VERTEX
  8
0
 10
53.88542406
 20
634.21904456
  0
VERTEX
  8
0
 10
54.45391075
 20
634.73321518
  0
VERTEX
  8
0
 10
54.99568536
 20
635.27545943
  0
VERTEX
  8
0
 10
55.50389031
 20
635.83839135
  0
VERTEX
  8
0
 10
55.97849273
 20
636.42068819
  0
VERTEX
  8
0
 10
56.41945975
 20
637.02102721
  0
VERTEX
  8
0
 10
56.82675850
 20
637.63808567
  0
VERTEX
  8
0
 10
57.20035609
 20
638.27054083
  0
VERTEX
  8
0
 10
57.54021967
 20
638.91706995
  0
VERTEX
  8
0
 10
57.84631636
 20
639.57635027
  0
VERTEX
  8
0
 10
58.11861328
 20
640.24705907
  0
VERTEX
  8
0
 10
58.35707756
 20
640.92787360
  0
VERTEX
  8
0
 10
58.56167632
 20
641.61747111
  0
VERTEX
  8
0
 10
58.73237671
 20
642.31452886
  0
VERTEX
  8
0
 10
58.86914583
 20
643.01772411
  0
VERTEX
  8
0
 10
58.97195083
 20
643.72573412
  0
VERTEX
  8
0
 10
59.04075882
 20
644.43723615
  0
VERTEX
  8
0
 10
59.07553694
 20
645.15090744
  0
VERTEX
  8
0
 10
59.07625230
 20
645.86542527
  0
VERTEX
  8
0
 10
59.04287205
 20
646.57946689
  0
VERTEX
  8
0
 10
58.97536330
 20
647.29170955
  0
VERTEX
  8
0
 10
58.87369318
 20
648.00083052
  0
VERTEX
  8
0
 10
58.73782882
 20
648.70550705
  0
VERTEX
  8
0
 10
58.56773735
 20
649.40441639
  0
VERTEX
  8
0
 10
58.36338589
 20
650.09623581
  0
VERTEX
  8
0
 10
58.12474157
 20
650.77964256
  0
VERTEX
  8
0
 10
57.85177151
 20
651.45331391
  0
VERTEX
  8
0
 10
57.54444285
 20
652.11592710
  0
VERTEX
  8
0
 10
57.20272272
 20
652.76615940
  0
VERTEX
  8
0
 10
56.82657823
 20
653.40268806
  0
VERTEX
  8
0
 10
56.41597652
 20
654.02419035
  0
VERTEX
  8
0
 10
55.97088471
 20
654.62934351
  0
VERTEX
  8
0
 10
55.49126993
 20
655.21682481
  0
VERTEX
  8
0
 10
54.97709931
 20
655.78531150
  0
VERTEX
  8
0
 10
54.45529454
 20
656.30763807
  0
VERTEX
  8
0
 10
53.91425771
 20
656.79883292
  0
VERTEX
  8
0
 10
53.35516853
 20
657.25886530
  0
VERTEX
  8
0
 10
52.77920671
 20
657.68770446
  0
VERTEX
  8
0
 10
52.18755195
 20
658.08531965
  0
VERTEX
  8
0
 10
51.58138397
 20
658.45168012
  0
VERTEX
  8
0
 10
50.96188247
 20
658.78675513
  0
VERTEX
  8
0
 10
50.33022717
 20
659.09051392
  0
VERTEX
  8
0
 10
49.68759777
 20
659.36292574
  0
VERTEX
  8
0
 10
49.03517398
 20
659.60395985
  0
VERTEX
  8
0
 10
48.37413552
 20
659.81358550
  0
VERTEX
  8
0
 10
47.70566209
 20
659.99177194
  0
VERTEX
  8
0
 10
47.03093340
 20
660.13848842
  0
VERTEX
  8
0
 10
46.35112917
 20
660.25370418
  0
VERTEX
  8
0
 10
45.66742909
 20
660.33738849
  0
VERTEX
  8
0
 10
44.98101289
 20
660.38951059
  0
VERTEX
  8
0
 10
44.29306026
 20
660.41003973
  0
VERTEX
  8
0
 10
43.60475092
 20
660.39894517
  0
VERTEX
  8
0
 10
42.91726459
 20
660.35619615
  0
VERTEX
  8
0
 10
42.23178096
 20
660.28176193
  0
VERTEX
  8
0
 10
41.54947974
 20
660.17561176
  0
VERTEX
  8
0
 10
40.87154066
 20
660.03771488
  0
VERTEX
  8
0
 10
40.19914341
 20
659.86804055
  0
VERTEX
  8
0
 10
39.53346771
 20
659.66655803
  0
VERTEX
  8
0
 10
38.87569326
 20
659.43323655
  0
VERTEX
  8
0
 10
38.22699977
 20
659.16804538
  0
VERTEX
  8
0
 10
37.58856697
 20
658.87095375
  0
VERTEX
  8
0
 10
36.96157454
 20
658.54193094
  0
VERTEX
  8
0
 10
36.34720221
 20
658.18094618
  0
VERTEX
  8
0
 10
35.74662968
 20
657.78796872
  0
VERTEX
  8
0
 10
35.16103666
 20
657.36296782
  0
VERTEX
  8
0
 10
34.59160286
 20
656.90591273
 42
-0.01176157
  0
VERTEX
  8
0
 10
36.26384056
 20
666.61179800
 42
-0.01240832
  0
VERTEX
  8
0
 10
38.25569988
 20
675.55700477
 42
-0.01209225
  0
VERTEX
  8
0
 10
40.29117435
 20
682.96269324
 42
-0.01224409
  0
VERTEX
  8
0
 10
42.32285724
 20
689.15457939
 42
-0.01283375
  0
VERTEX
  8
0
 10
44.31829104
 20
694.34059047
 42
-0.01388862
  0
VERTEX
  8
0
 10
46.25146548
 20
698.66234051
 42
-0.01725294
  0
VERTEX
  8
0
 10
48.30845163
 20
702.59327622
 42
-0.01841535
  0
VERTEX
  8
0
 10
50.29356080
 20
705.79287453
 42
-0.04172253
  0
VERTEX
  8
0
 10
56.42015117
 20
713.48696074
 42
-0.02774087
  0
VERTEX
  8
0
 10
61.01836312
 20
717.84356913
  0
VERTEX
  8
0
 10
91.68586559
 20
689.76387321
 42
0.37614761
  0
VERTEX
  8
0
 10
104.86369506
 20
689.47623553
 42
0.37614761
  0
VERTEX
  8
0
 10
106.87922791
 20
702.50219239
  0
VERTEX
  8
0
 10
88.61735407
 20
731.24325108
 42
-0.02082659
  0
VERTEX
  8
0
 10
95.74657859
 20
732.60277844
 42
-0.02209717
  0
VERTEX
  8
0
 10
104.48245628
 20
733.50094599
 42
-0.02049138
  0
VERTEX
  8
0
 10
113.91897845
 20
733.66490007
 42
-0.01602149
  0
VERTEX
  8
0
 10
122.29030323
 20
733.20233789
 42
-0.01509466
  0
VERTEX
  8
0
 10
131.10777460
 20
732.16388717
 42
-0.01458090
  0
VERTEX
  8
0
 10
140.56866658
 20
730.47624703
 42
-0.01447300
  0
VERTEX
  8
0
 10
150.91327446
 20
728.00260051
 42
-0.01440920
  0
VERTEX
  8
0
 10
162.14347938
 20
724.61934665
 42
-0.01484687
  0
VERTEX
  8
0
 10
174.61680143
 20
720.04793692
 42
-0.00609876
  0
VERTEX
  8
0
 10
180.11370097
 20
717.76657000
 42
0.00619850
  0
VERTEX
  8
0
 10
179.54326817
 20
717.76248839
 42
0.18763599
  0
VERTEX
  8
0
 10
164.12736442
 20
711.43971689
  0
VERTEX
  8
0
 10
98.92680906
 20
649.40131530
  0
VERTEX
  8
0
 10
34.45659217
 20
588.05783160
  0
SEQEND
  0
POLYLINE
  8
По_умолчанию
 62
256
 66
   1
 39
0.000000
 70
    1
  0
VERTEX
  8
0
 10
326.51528864
 20
559.43694431
 42
-0.01566680
  0
VERTEX
  8
0
 10
329.63930705
 20
547.74221859
 42
-0.02116565
  0
VERTEX
  8
0
 10
332.45624713
 20
532.91271593
 42
-0.02143678
  0
VERTEX
  8
0
 10
333.87583231
 20
519.11327111
 42
-0.01858966
  0
VERTEX
  8
0
 10
334.12006898
 20
508.12516647
 42
-0.01901439
  0
VERTEX
  8
0
 10
333.57426338
 20
497.82937187
 42
-0.02290624
  0
VERTEX
  8
0
 10
332.02615799
 20
486.56148061
 42
-0.02601637
  0
VERTEX
  8
0
 10
329.30633537
 20
475.15942228
 42
-0.02470210
  0
VERTEX
  8
0
 10
325.93478119
 20
465.49740292
 42
-0.03301890
  0
VERTEX
  8
0
 10
320.41947277
 20
454.10395883
 42
-0.00241597
  0
VERTEX
  8
0
 10
319.68413347
 20
452.83437943
 42
0.22680359
  0
VERTEX
  8
0
 10
319.04831937
 20
444.22631448
 42
0.04906222
  0
VERTEX
  8
0
 10
321.35861713
 20
439.62508116
 42
0.03409524
  0
VERTEX
  8
0
 10
323.77909322
 20
436.31312589
 42
0.03301595
  0
VERTEX
  8
0
 10
327.09843496
 20
432.86336213
 42
0.02274242
  0
VERTEX
  8
0
 10
330.26407253
 20
430.22479956
 42
0.01758724
  0
VERTEX
  8
0
 10
333.54036728
 20
427.90601559
 42
0.01439124
  0
VERTEX
  8
0
 10
337.20337020
 20
425.64304948
 42
0.00981081
  0
VERTEX
  8
0
 10
340.32141041
 20
423.90660042
  0
VERTEX
  8
0
 10
342.95952235
 20
422.53462913
 42
0.00390015
  0
VERTEX
  8
0
 10
343.79430129
 20
422.11491852
 42
0.00524555
  0
VERTEX
  8
0
 10
347.22594042
 20
420.44644228
  0
VERTEX
  8
0
 10
350.40439384
 20
418.95838892
  0
VERTEX
  8
0
 10
350.47350464
 20
418.92635374
  0
VERTEX
  8
0
 10
355.25609973
 20
416.73155035
  0
VERTEX
  8
0
 10
358.39455589
 20
415.28148076
 42
-0.00672216
  0
VERTEX
  8
0
 10
363.04451675
 20
413.04486386
 42
-0.00396456
  0
VERTEX
  8
0
 10
364.79609659
 20
412.15102056
 42
0.00154755
  0
VERTEX
  8
0
 10
365.79217654
 20
411.62906914
 42
0.00928608
  0
VERTEX
  8
0
 10
366.12529711
 20
411.46482259
 42
0.00140326
  0
VERTEX
  8
0
 10
367.35242811
 20
410.88803063
 42
0.00701664
  0
VERTEX
  8
0
 10
367.60870458
 20
410.77362826
  0
VERTEX
  8
0
 10
369.54691362
 20
409.94082571
 42
0.00357157
  0
VERTEX
  8
0
 10
369.67857064
 20
409.88536648
  0
VERTEX
  8
0
 10
373.55350507
 20
408.28558172
  0
VERTEX
  8
0
 10
375.91755839
 20
407.29629018
 42
-0.01695750
  0
VERTEX
  8
0
 10
368.78633426
 20
405.24502285
 42
-0.01048963
  0
VERTEX
  8
0
 10
365.93854583
 20
404.59390164
 42
-0.00328758
  0
VERTEX
  8
0
 10
365.24326941
 20
404.45677310
  0
VERTEX
  8
0
 10
363.93627970
 20
404.23462568
 42
-0.01163879
  0
VERTEX
  8
0
 10
363.26431415
 20
404.15091197
 42
-0.03712905
  0
VERTEX
  8
0
 10
362.32259081
 20
404.49410919
 42
-0.02385426
  0
VERTEX
  8
0
 10
361.18172107
 20
405.06612809
 42
-0.01763427
  0
VERTEX
  8
0
 10
359.84740606
 20
405.87538262
 42
-0.01375129
  0
VERTEX
  8
0
 10
358.29943426
 20
406.94674472
 42
-0.00881007
  0
VERTEX
  8
0
 10
356.84940876
 20
408.04122413
  0
VERTEX
  8
0
 10
355.13769669
 20
409.41347865
  0
VERTEX
  8
0
 10
352.81573029
 20
411.35030992
  0
VERTEX
  8
0
 10
350.45593197
 20
413.33968625
  0
VERTEX
  8
0
 10
350.36319706
 20
413.41691197
  0
VERTEX
  8
0
 10
348.31900026
 20
415.09844843
 42
0.01409603
  0
VERTEX
  8
0
 10
345.17155877
 20
417.51032130
 42
0.01851034
  0
VERTEX
  8
0
 10
342.47651626
 20
419.30624894
 42
0.02243490
  0
VERTEX
  8
0
 10
340.03562916
 20
420.65379297
 42
0.02869781
  0
VERTEX
  8
0
 10
337.50279364
 20
421.72922077
 42
0.03695781
  0
VERTEX
  8
0
 10
334.72804122
 20
422.50002073
 42
0.04200298
  0
VERTEX
  8
0
 10
331.86623632
 20
422.82901703
 42
0.06299817
  0
VERTEX
  8
0
 10
327.90277319
 20
422.45045469
 42
0.09483237
  0
VERTEX
  8
0
 10
322.51555893
 20
420.09436537
 42
0.04884826
  0
VERTEX
  8
0
 10
319.95569437
 20
417.94810066
 42
0.04725320
  0
VERTEX
  8
0
 10
317.67212205
 20
415.14690090
 42
0.04507073
  0
VERTEX
  8
0
 10
316.17710270
 20
412.41406250
 42
0.08457273
  0
VERTEX
  8
0
 10
314.89336071
 20
407.20016605
 42
0.06478705
  0
VERTEX
  8
0
 10
315.13715336
 20
403.05299050
 42
0.04513327
  0
VERTEX
  8
0
 10
316.00422503
 20
400.00689714
 42
0.03561196
  0
VERTEX
  8
0
 10
317.21341293
 20
397.41885108
 42
0.02713872
  0
VERTEX
  8
0
 10
318.52247727
 20
395.32071418
  0
VERTEX
  8
0
 10
318.59105177
 20
395.22587770
 42
0.00137247
  0
VERTEX
  8
0
 10
319.33169208
 20
394.21437132
 42
0.01070066
  0
VERTEX
  8
0
 10
319.85644818
 20
393.54637278
 42
0.01902047
  0
VERTEX
  8
0
 10
321.76598153
 20
391.37185740
 42
0.01358861
  0
VERTEX
  8
0
 10
323.77770262
 20
389.35445616
 42
0.00864737
  0
VERTEX
  8
0
 10
325.65536455
 20
387.62129959
 42
0.00080480
  0
VERTEX
  8
0
 10
326.98317595
 20
386.45132446
 42
0.00413421
  0
VERTEX
  8
0
 10
327.10815130
 20
386.34303366
  0
VERTEX
  8
0
 10
329.84017659
 20
384.01501060
  0
VERTEX
  8
0
 10
329.85791531
 20
383.99993063
 42
0.00058206
  0
VERTEX
  8
0
 10
331.93928171
 20
382.24297705
  0
VERTEX
  8
0
 10
334.31012015
 20
380.19913056
 42
-0.01335312
  0
VERTEX
  8
0
 10
337.11686487
 20
377.60628208
 42
-0.00424274
  0
VERTEX
  8
0
 10
337.66048467
 20
377.06310249
 42
-0.01081857
  0
VERTEX
  8
0
 10
329.69377761
 20
381.34446319
 42
-0.00286976
  0
VERTEX
  8
0
 10
326.96662062
 20
382.90299864
  0
VERTEX
  8
0
 10
324.80177851
 20
384.16510177
 42
-0.01986582
  0
VERTEX
  8
0
 10
324.05895578
 20
384.65005278
 42
-0.00923725
  0
VERTEX
  8
0
 10
323.36860655
 20
385.15186269
  0
VERTEX
  8
0
 10
322.63050265
 20
385.71980019
  0
VERTEX
  8
0
 10
321.58955640
 20
386.54697678
  0
VERTEX
  8
0
 10
319.91299383
 20
387.89165833
 42
0.00498867
  0
VERTEX
  8
0
 10
319.75609565
 20
388.01494593
  0
VERTEX
  8
0
 10
318.05712443
 20
389.32276005
 42
0.01676129
  0
VERTEX
  8
0
 10
315.96443891
 20
390.79120052
 42
0.02523424
  0
VERTEX
  8
0
 10
313.54618081
 20
392.20993979
 42
0.03074071
  0
VERTEX
  8
0
 10
311.13876713
 20
393.27673908
 42
0.04142898
  0
VERTEX
  8
0
 10
308.33310806
 20
394.05620087
 42
0.05591104
  0
VERTEX
  8
0
 10
304.90833321
 20
394.31243076
 42
0.13403206
  0
VERTEX
  8
0
 10
297.68749798
 20
392.03440067
 42
0.08598817
  0
VERTEX
  8
0
 10
293.80022362
 20
388.46606872
 42
0.11085525
  0
VERTEX
  8
0
 10
291.04249528
 20
382.52509785
 42
0.04915082
  0
VERTEX
  8
0
 10
290.66910992
 20
379.33638024
 42
0.03419139
  0
VERTEX
  8
0
 10
290.79381203
 20
376.77425982
 42
0.02507982
  0
VERTEX
  8
0
 10
291.12612400
 20
374.73569308
 42
0.00132341
  0
VERTEX
  8
0
 10
291.32249680
 20
373.85956320
 42
0.01279572
  0
VERTEX
  8
0
 10
291.69120950
 20
372.47650232
 42
0.01026832
  0
VERTEX
  8
0
 10
291.98392094
 20
371.52690015
  0
VERTEX
  8
0
 10
292.57539891
 20
369.78475975
 42
0.00707713
  0
VERTEX
  8
0
 10
292.67018771
 20
369.51803083
  0
VERTEX
  8
0
 10
293.45738134
 20
367.39849052
  0
VERTEX
  8
0
 10
294.09475188
 20
365.66400841
 42
-0.01510870
  0
VERTEX
  8
0
 10
294.61094612
 20
364.07639231
 42
-0.02011475
  0
VERTEX
  8
0
 10
294.82179790
 20
363.22718201
 42
-0.01857827
  0
VERTEX
  8
0
 10
294.88404831
 20
362.83864558
  0
VERTEX
  8
0
 10
294.81458086
 20
362.33773919
  0
VERTEX
  8
0
 10
294.58215912
 20
361.07377534
 42
-0.01106362
  0
VERTEX
  8
0
 10
293.90527919
 20
358.14778374
 42
-0.00899748
  0
VERTEX
  8
0
 10
292.79059935
 20
354.04580001
 42
-0.01797047
  0
VERTEX
  8
0
 10
288.98993539
 20
342.51099919
 42
-0.01130344
  0
VERTEX
  8
0
 10
286.53313990
 20
336.27409409
 42
-0.01409795
  0
VERTEX
  8
0
 10
283.98950745
 20
330.65333666
 42
-0.01239013
  0
VERTEX
  8
0
 10
282.28334490
 20
327.36502627
 42
-0.01218540
  0
VERTEX
  8
0
 10
280.95096883
 20
325.08466453
  0
VERTEX
  8
0
 10
280.83616863
 20
324.90113740
 42
-0.01636301
  0
VERTEX
  8
0
 10
279.82686982
 20
328.44100908
 42
-0.01239771
  0
VERTEX
  8
0
 10
279.01888703
 20
331.98347248
 42
-0.01438121
  0
VERTEX
  8
0
 10
278.36603434
 20
335.85144908
 42
-0.01072771
  0
VERTEX
  8
0
 10
277.88334273
 20
339.90700015
 42
-0.00887297
  0
VERTEX
  8
0
 10
277.48903512
 20
344.79336945
 42
-0.00615571
  0
VERTEX
  8
0
 10
277.21560154
 20
350.07283166
 42
-0.00315144
  0
VERTEX
  8
0
 10
277.05981647
 20
354.53993490
 42
-0.00045007
  0
VERTEX
  8
0
 10
276.77166973
 20
365.65682187
 42
0.00396988
  0
VERTEX
  8
0
 10
276.55063590
 20
371.92943301
  0
VERTEX
  8
0
 10
276.54592133
 20
372.02755479
  0
VERTEX
  8
0
 10
276.32482312
 20
376.20139448
 42
0.01026165
  0
VERTEX
  8
0
 10
275.81682563
 20
382.47276324
 42
0.01333046
  0
VERTEX
  8
0
 10
275.08824822
 20
388.14503843
 42
0.01440039
  0
VERTEX
  8
0
 10
274.25640957
 20
392.61866595
 42
0.01705874
  0
VERTEX
  8
0
 10
273.23727920
 20
396.66562755
 42
0.02442550
  0
VERTEX
  8
0
 10
271.70356084
 20
401.16142651
 42
0.02185252
  0
VERTEX
  8
0
 10
270.29371773
 20
404.29721131
 42
0.00147112
  0
VERTEX
  8
0
 10
269.96641711
 20
404.93237573
 42
0.33758724
  0
VERTEX
  8
0
 10
258.98970085
 20
410.07578646
 42
-0.02635190
  0
VERTEX
  8
0
 10
246.97084497
 20
408.13790498
 42
-0.02016612
  0
VERTEX
  8
0
 10
236.82101789
 20
407.45321165
 42
-0.01903964
  0
VERTEX
  8
0
 10
226.38356535
 20
407.56399049
 42
-0.01867540
  0
VERTEX
  8
0
 10
215.27207076
 20
408.51789202
 42
-0.01780754
  0
VERTEX
  8
0
 10
203.85855120
 20
410.33910953
 42
-0.01723327
  0
VERTEX
  8
0
 10
192.07995132
 20
413.07136104
 42
-0.01767600
  0
VERTEX
  8
0
 10
179.28557581
 20
416.99243759
 42
-0.00235068
  0
VERTEX
  8
0
 10
177.47829965
 20
417.62574521
 42
0.14960612
  0
VERTEX
  8
0
 10
189.51276864
 20
423.63581834
  0
VERTEX
  8
0
 10
319.91204983
 20
547.71088070
 42
0.03529447
  0
VERTEX
  8
0
 10
322.09122625
 20
550.09701909
 42
0.11374597
  0
VERTEX
  8
0
 10
326.51528864
 20
559.43694431
  0
SEQEND
  0
POLYLINE
  8
По_умолчанию
 62
256
 66
   1
 39
0.000000
 70
    1
  0
VERTEX
  8
0
 10
197.96942676
 20
709.23986993
  0
VERTEX
  8
0
 10
317.63700551
 20
583.47272579
 42
0.00576078
  0
VERTEX
  8
0
 10
315.53868468
 20
588.11282682
 42
0.01741300
  0
VERTEX
  8
0
 10
308.14739040
 20
602.62842357
 42
0.01866239
  0
VERTEX
  8
0
 10
298.65619487
 20
618.35045925
 42
0.02100380
  0
VERTEX
  8
0
 10
286.04181843
 20
635.92611102
 42
0.03922688
  0
VERTEX
  8
0
 10
257.59563593
 20
666.88709784
 42
0.02861585
  0
VERTEX
  8
0
 10
233.01543627
 20
687.25034671
 42
0.02707067
  0
VERTEX
  8
0
 10
207.81341569
 20
703.79348342
 42
0.01069548
  0
VERTEX
  8
0
 10
197.96942676
 20
709.23986993
  0
SEQEND
  0
POLYLINE
  8
По_умолчанию
 62
256
 66
   1
 39
0.000000
 70
    1
  0
VERTEX
  8
0
 10
36.93906097
 20
573.69514162
 42
-0.07411401
  0
VERTEX
  8
0
 10
38.36392667
 20
577.26939339
 42
-0.07067816
  0
VERTEX
  8
0
 10
40.61959479
 20
580.11847802
  0
VERTEX
  8
0
 10
105.82001768
 20
642.15675356
  0
VERTEX
  8
0
 10
171.02057305
 20
704.19515514
 42
-0.17292185
  0
VERTEX
  8
0
 10
178.97293220
 20
707.72729337
 42
-0.15238759
  0
VERTEX
  8
0
 10
186.55169230
 20
705.99390748
 42
-0.07067816
  0
VERTEX
  8
0
 10
189.40077694
 20
703.73823936
  0
VERTEX
  8
0
 10
313.47745406
 20
573.33726109
 42
-0.17292185
  0
VERTEX
  8
0
 10
317.00959229
 20
565.38490194
 42
-0.15238759
  0
VERTEX
  8
0
 10
315.27620639
 20
557.80614184
 42
-0.07067816
  0
VERTEX
  8
0
 10
313.02053827
 20
554.95705720
  0
VERTEX
  8
0
 10
182.61956001
 20
430.88038008
 42
-0.17292185
  0
VERTEX
  8
0
 10
174.66720086
 20
427.34824186
 42
-0.15238759
  0
VERTEX
  8
0
 10
167.08844076
 20
429.08162775
 42
-0.07067816
  0
VERTEX
  8
0
 10
164.23935612
 20
431.33729587
  0
VERTEX
  8
0
 10
40.16267900
 20
561.73827413
 42
-0.01756319
  0
VERTEX
  8
0
 10
39.55905021
 20
562.41916347
 42
-0.00802444
  0
VERTEX
  8
0
 10
37.90692951
 20
569.21027699
 42
-0.00495510
  0
VERTEX
  8
0
 10
36.93906097
 20
573.69514162
  0
SEQEND
  0
POLYLINE
  8
По_умолчанию
 62
256
 66
   1
 39
0.000000
 70
    0
  0
VERTEX
  8
0
 10
103.04821931
 20
316.82452295
  0
VERTEX
  8
0
 10
123.80298625
 20
276.89659225
  0
VERTEX
  8
0
 10
118.18210962
 20
273.97482841
  0
VERTEX
  8
0
 10
117.62597497
 20
274.30415702
  0
VERTEX
  8
0
 10
117.05120854
 20
274.59626645
  0
VERTEX
  8
0
 10
116.45985030
 20
274.85051119
  0
VERTEX
  8
0
 10
115.85394021
 20
275.06624572
  0
VERTEX
  8
0
 10
115.23551821
 20
275.24282453
  0
VERTEX
  8
0
 10
114.60662428
 20
275.37960210
  0
VERTEX
  8
0
 10
113.96929836
 20
275.47593290
  0
VERTEX
  8
0
 10
113.32558042
 20
275.53117142
  0
VERTEX
  8
0
 10
112.67751041
 20
275.54467214
  0
VERTEX
  8
0
 10
112.02712828
 20
275.51578955
  0
VERTEX
  8
0
 10
111.37647401
 20
275.44387813
  0
VERTEX
  8
0
 10
110.72758754
 20
275.32829235
  0
VERTEX
  8
0
 10
110.08250883
 20
275.16838670
  0
VERTEX
  8
0
 10
109.44327784
 20
274.96351567
  0
VERTEX
  8
0
 10
108.81193452
 20
274.71303373
  0
VERTEX
  8
0
 10
108.19051885
 20
274.41629537
  0
VERTEX
  8
0
 10
107.73992705
 20
274.16741017
  0
VERTEX
  8
0
 10
107.30713838
 20
273.89892124
  0
VERTEX
  8
0
 10
106.89242054
 20
273.61167590
  0
VERTEX
  8
0
 10
106.49604127
 20
273.30652147
  0
VERTEX
  8
0
 10
106.11826827
 20
272.98430528
  0
VERTEX
  8
0
 10
105.75936927
 20
272.64587466
  0
VERTEX
  8
0
 10
105.41961199
 20
272.29207694
  0
VERTEX
  8
0
 10
105.09926414
 20
271.92375943
  0
VERTEX
  8
0
 10
104.79859344
 20
271.54176947
  0
VERTEX
  8
0
 10
104.51786762
 20
271.14695438
  0
VERTEX
  8
0
 10
104.25735439
 20
270.74016148
  0
VERTEX
  8
0
 10
104.01732148
 20
270.32223810
  0
VERTEX
  8
0
 10
103.79803659
 20
269.89403157
  0
VERTEX
  8
0
 10
103.59976745
 20
269.45638922
  0
VERTEX
  8
0
 10
103.42278178
 20
269.01015836
  0
VERTEX
  8
0
 10
103.26734730
 20
268.55618632
  0
VERTEX
  8
0
 10
103.13373172
 20
268.09532043
  0
VERTEX
  8
0
 10
103.02220277
 20
267.62840802
  0
VERTEX
  8
0
 10
102.93302816
 20
267.15629641
  0
VERTEX
  8
0
 10
102.86647562
 20
266.67983292
  0
VERTEX
  8
0
 10
102.82281286
 20
266.19986489
  0
VERTEX
  8
0
 10
102.80230760
 20
265.71723963
  0
VERTEX
  8
0
 10
102.80522756
 20
265.23280448
  0
VERTEX
  8
0
 10
102.83184047
 20
264.74740675
  0
VERTEX
  8
0
 10
102.88241403
 20
264.26189378
  0
VERTEX
  8
0
 10
102.95721596
 20
263.77711289
  0
VERTEX
  8
0
 10
103.05651400
 20
263.29391141
  0
VERTEX
  8
0
 10
103.18057585
 20
262.81313665
  0
VERTEX
  8
0
 10
103.32966923
 20
262.33563595
  0
VERTEX
  8
0
 10
103.50406187
 20
261.86225664
  0
VERTEX
  8
0
 10
103.70402148
 20
261.39384603
  0
VERTEX
  8
0
 10
103.92981579
 20
260.93125145
  0
VERTEX
  8
0
 10
104.17870099
 20
260.48065966
  0
VERTEX
  8
0
 10
104.44718992
 20
260.04787099
  0
VERTEX
  8
0
 10
104.73443526
 20
259.63315315
  0
VERTEX
  8
0
 10
105.03958969
 20
259.23677388
  0
VERTEX
  8
0
 10
105.36180588
 20
258.85900088
  0
VERTEX
  8
0
 10
105.70023650
 20
258.50010188
  0
VERTEX
  8
0
 10
106.05403422
 20
258.16034459
  0
VERTEX
  8
0
 10
106.42235173
 20
257.83999675
  0
VERTEX
  8
0
 10
106.80434169
 20
257.53932605
  0
VERTEX
  8
0
 10
107.19915678
 20
257.25860023
  0
VERTEX
  8
0
 10
107.60594968
 20
256.99808700
  0
VERTEX
  8
0
 10
108.02387306
 20
256.75805408
  0
VERTEX
  8
0
 10
108.45207959
 20
256.53876920
  0
VERTEX
  8
0
 10
108.88972194
 20
256.34050006
  0
VERTEX
  8
0
 10
109.33595280
 20
256.16351439
  0
VERTEX
  8
0
 10
109.78992484
 20
256.00807990
  0
VERTEX
  8
0
 10
110.25079073
 20
255.87446433
  0
VERTEX
  8
0
 10
110.71770314
 20
255.76293538
  0
VERTEX
  8
0
 10
111.18981475
 20
255.67376077
  0
VERTEX
  8
0
 10
111.66627824
 20
255.60720823
  0
VERTEX
  8
0
 10
112.14624627
 20
255.56354547
  0
VERTEX
  8
0
 10
112.62887153
 20
255.54304021
  0
VERTEX
  8
0
 10
113.11330668
 20
255.54596017
  0
VERTEX
  8
0
 10
113.59870441
 20
255.57257307
  0
VERTEX
  8
0
 10
114.08421738
 20
255.62314663
  0
VERTEX
  8
0
 10
114.56899827
 20
255.69794857
  0
VERTEX
  8
0
 10
115.05219975
 20
255.79724661
  0
VERTEX
  8
0
 10
115.53297451
 20
255.92130846
  0
VERTEX
  8
0
 10
116.01047521
 20
256.07040184
  0
VERTEX
  8
0
 10
116.48385452
 20
256.24479448
  0
VERTEX
  8
0
 10
116.95226513
 20
256.44475409
  0
VERTEX
  8
0
 10
117.41485971
 20
256.67054840
  0
VERTEX
  8
0
 10
118.01476855
 20
257.00866151
  0
VERTEX
  8
0
 10
118.58252217
 20
257.38147702
  0
VERTEX
  8
0
 10
119.11747683
 20
257.78695441
  0
VERTEX
  8
0
 10
119.61898878
 20
258.22305316
  0
VERTEX
  8
0
 10
120.08641429
 20
258.68773274
  0
VERTEX
  8
0
 10
120.51910962
 20
259.17895264
  0
VERTEX
  8
0
 10
120.91643103
 20
259.69467234
  0
VERTEX
  8
0
 10
121.27773477
 20
260.23285132
  0
VERTEX
  8
0
 10
121.60237712
 20
260.79144906
  0
VERTEX
  8
0
 10
121.88971431
 20
261.36842504
  0
VERTEX
  8
0
 10
122.13910263
 20
261.96173875
  0
VERTEX
  8
0
 10
122.34989832
 20
262.56934965
  0
VERTEX
  8
0
 10
122.52145765
 20
263.18921724
  0
VERTEX
  8
0
 10
122.65313687
 20
263.81930100
  0
VERTEX
  8
0
 10
122.74429225
 20
264.45756040
  0
VERTEX
  8
0
 10
122.79428005
 20
265.10195492
  0
VERTEX
  8
0
 10
128.41515667
 20
268.02371877
  0
VERTEX
  8
0
 10
149.16992360
 20
228.09578807
  0
VERTEX
  8
0
 10
109.24199291
 20
207.34102114
  0
VERTEX
  8
0
 10
112.16375675
 20
201.72014451
  0
VERTEX
  8
0
 10
112.80815128
 20
201.67015672
  0
VERTEX
  8
0
 10
113.44641068
 20
201.57900134
  0
VERTEX
  8
0
 10
114.07649443
 20
201.44732211
  0
VERTEX
  8
0
 10
114.69636202
 20
201.27576278
  0
VERTEX
  8
0
 10
115.30397293
 20
201.06496709
  0
VERTEX
  8
0
 10
115.89728663
 20
200.81557878
  0
VERTEX
  8
0
 10
116.47426262
 20
200.52824158
  0
VERTEX
  8
0
 10
117.03286036
 20
200.20359924
  0
VERTEX
  8
0
 10
117.57103934
 20
199.84229550
  0
VERTEX
  8
0
 10
118.08675904
 20
199.44497409
  0
VERTEX
  8
0
 10
118.57797894
 20
199.01227876
  0
VERTEX
  8
0
 10
119.04265852
 20
198.54485325
  0
VERTEX
  8
0
 10
119.47875726
 20
198.04334129
  0
VERTEX
  8
0
 10
119.88423465
 20
197.50838664
  0
VERTEX
  8
0
 10
120.25705016
 20
196.94063301
  0
VERTEX
  8
0
 10
120.59516328
 20
196.34072417
  0
VERTEX
  8
0
 10
120.82095758
 20
195.87812960
  0
VERTEX
  8
0
 10
121.02091720
 20
195.40971899
  0
VERTEX
  8
0
 10
121.19530983
 20
194.93633967
  0
VERTEX
  8
0
 10
121.34440322
 20
194.45883897
  0
VERTEX
  8
0
 10
121.46846507
 20
193.97806422
  0
VERTEX
  8
0
 10
121.56776310
 20
193.49486273
  0
VERTEX
  8
0
 10
121.64256504
 20
193.01008184
  0
VERTEX
  8
0
 10
121.69313860
 20
192.52456887
  0
VERTEX
  8
0
 10
121.71975150
 20
192.03917115
  0
VERTEX
  8
0
 10
121.72267147
 20
191.55473599
  0
VERTEX
  8
0
 10
121.70216621
 20
191.07211074
  0
VERTEX
  8
0
 10
121.65850345
 20
190.59214270
  0
VERTEX
  8
0
 10
121.59195090
 20
190.11567922
  0
VERTEX
  8
0
 10
121.50277630
 20
189.64356760
  0
VERTEX
  8
0
 10
121.39124735
 20
189.17665519
  0
VERTEX
  8
0
 10
121.25763177
 20
188.71578931
  0
VERTEX
  8
0
 10
121.10219729
 20
188.26181727
  0
VERTEX
  8
0
 10
120.92521162
 20
187.81558641
  0
VERTEX
  8
0
 10
120.72694248
 20
187.37794405
  0
VERTEX
  8
0
 10
120.50765759
 20
186.94973752
  0
VERTEX
  8
0
 10
120.26762467
 20
186.53181415
  0
VERTEX
  8
0
 10
120.00711145
 20
186.12502125
  0
VERTEX
  8
0
 10
119.72638562
 20
185.73020616
  0
VERTEX
  8
0
 10
119.42571493
 20
185.34821619
  0
VERTEX
  8
0
 10
119.10536708
 20
184.97989869
  0
VERTEX
  8
0
 10
118.76560980
 20
184.62610096
  0
VERTEX
  8
0
 10
118.40671080
 20
184.28767034
  0
VERTEX
  8
0
 10
118.02893780
 20
183.96545416
  0
VERTEX
  8
0
 10
117.63255852
 20
183.66029973
  0
VERTEX
  8
0
 10
117.21784069
 20
183.37305439
  0
VERTEX
  8
0
 10
116.78505202
 20
183.10456545
  0
VERTEX
  8
0
 10
116.33446022
 20
182.85568025
  0
VERTEX
  8
0
 10
115.87186565
 20
182.62988595
  0
VERTEX
  8
0
 10
115.40345504
 20
182.42992634
  0
VERTEX
  8
0
 10
114.93007572
 20
182.25553370
  0
VERTEX
  8
0
 10
114.45257502
 20
182.10644031
  0
VERTEX
  8
0
 10
113.97180027
 20
181.98237846
  0
VERTEX
  8
0
 10
113.48859878
 20
181.88308043
  0
VERTEX
  8
0
 10
113.00381789
 20
181.80827849
  0
VERTEX
  8
0
 10
112.51830492
 20
181.75770493
  0
VERTEX
  8
0
 10
112.03290720
 20
181.73109203
  0
VERTEX
  8
0
 10
111.54847204
 20
181.72817207
  0
VERTEX
  8
0
 10
111.06584679
 20
181.74867733
  0
VERTEX
  8
0
 10
110.58587875
 20
181.79234009
  0
VERTEX
  8
0
 10
110.10941527
 20
181.85889263
  0
VERTEX
  8
0
 10
109.63730365
 20
181.94806724
  0
VERTEX
  8
0
 10
109.17039124
 20
182.05959619
  0
VERTEX
  8
0
 10
108.70952536
 20
182.19321176
  0
VERTEX
  8
0
 10
108.25555332
 20
182.34864625
  0
VERTEX
  8
0
 10
107.80932246
 20
182.52563192
  0
VERTEX
  8
0
 10
107.37168010
 20
182.72390105
  0
VERTEX
  8
0
 10
106.94347357
 20
182.94318594
  0
VERTEX
  8
0
 10
106.52555020
 20
183.18321886
  0
VERTEX
  8
0
 10
106.11875730
 20
183.44373209
  0
VERTEX
  8
0
 10
105.72394221
 20
183.72445791
  0
VERTEX
  8
0
 10
105.34195224
 20
184.02512860
  0
VERTEX
  8
0
 10
104.97363474
 20
184.34547645
  0
VERTEX
  8
0
 10
104.61983701
 20
184.68523374
  0
VERTEX
  8
0
 10
104.28140639
 20
185.04413274
  0
VERTEX
  8
0
 10
103.95919021
 20
185.42190573
  0
VERTEX
  8
0
 10
103.65403578
 20
185.81828501
  0
VERTEX
  8
0
 10
103.36679044
 20
186.23300284
  0
VERTEX
  8
0
 10
103.09830150
 20
186.66579152
  0
VERTEX
  8
0
 10
102.84941630
 20
187.11638331
  0
VERTEX
  8
0
 10
102.55267794
 20
187.73779899
  0
VERTEX
  8
0
 10
102.30219601
 20
188.36914230
  0
VERTEX
  8
0
 10
102.09732497
 20
189.00837329
  0
VERTEX
  8
0
 10
101.93741933
 20
189.65345200
  0
VERTEX
  8
0
 10
101.82183355
 20
190.30233847
  0
VERTEX
  8
0
 10
101.74992212
 20
190.95299275
  0
VERTEX
  8
0
 10
101.72103953
 20
191.60337487
  0
VERTEX
  8
0
 10
101.73454026
 20
192.25144488
  0
VERTEX
  8
0
 10
101.78977878
 20
192.89516283
  0
VERTEX
  8
0
 10
101.88610958
 20
193.53248874
  0
VERTEX
  8
0
 10
102.02288714
 20
194.16138268
  0
VERTEX
  8
0
 10
102.19946595
 20
194.77980467
  0
VERTEX
  8
0
 10
102.41520049
 20
195.38571477
  0
VERTEX
  8
0
 10
102.66944523
 20
195.97707301
  0
VERTEX
  8
0
 10
102.96155466
 20
196.55183943
  0
VERTEX
  8
0
 10
103.29088327
 20
197.10797409
  0
VERTEX
  8
0
 10
100.36911942
 20
202.72885071
  0
VERTEX
  8
0
 10
60.44118873
 20
181.97408378
  0
SEQEND
  0
POLYLINE
  8
По_умолчанию
 62
256
 66
   1
 39
0.000000
 70
    0
  0
VERTEX
  8
0
 10
195.29162789
 20
139.36705319
  0
VERTEX
  8
0
 10
174.53686096
 20
179.29498389
  0
VERTEX
  8
0
 10
180.15773759
 20
182.21674773
  0
VERTEX
  8
0
 10
180.71387224
 20
181.88741913
  0
VERTEX
  8
0
 10
181.28863867
 20
181.59530969
  0
VERTEX
  8
0
 10
181.87999691
 20
181.34106495
  0
VERTEX
  8
0
 10
182.48590700
 20
181.12533042
  0
VERTEX
  8
0
 10
183.10432900
 20
180.94875161
  0
VERTEX
  8
0
 10
183.73322293
 20
180.81197405
  0
VERTEX
  8
0
 10
184.37054885
 20
180.71564324
  0
VERTEX
  8
0
 10
185.01426679
 20
180.66040472
  0
VERTEX
  8
0
 10
185.66233680
 20
180.64690400
  0
VERTEX
  8
0
 10
186.31271893
 20
180.67578659
  0
VERTEX
  8
0
 10
186.96337320
 20
180.74769802
  0
VERTEX
  8
0
 10
187.61225967
 20
180.86328379
  0
VERTEX
  8
0
 10
188.25733838
 20
181.02318944
  0
VERTEX
  8
0
 10
188.89656937
 20
181.22806047
  0
VERTEX
  8
0
 10
189.52791268
 20
181.47854241
  0
VERTEX
  8
0
 10
190.14932836
 20
181.77528077
  0
VERTEX
  8
0
 10
190.59992016
 20
182.02416597
  0
VERTEX
  8
0
 10
191.03270883
 20
182.29265490
  0
VERTEX
  8
0
 10
191.44742667
 20
182.57990025
  0
VERTEX
  8
0
 10
191.84380594
 20
182.88505467
  0
VERTEX
  8
0
 10
192.22157894
 20
183.20727086
  0
VERTEX
  8
0
 10
192.58047794
 20
183.54570148
  0
VERTEX
  8
0
 10
192.92023522
 20
183.89949920
  0
VERTEX
  8
0
 10
193.24058307
 20
184.26781671
  0
VERTEX
  8
0
 10
193.54125377
 20
184.64980667
  0
VERTEX
  8
0
 10
193.82197959
 20
185.04462177
  0
VERTEX
  8
0
 10
194.08249282
 20
185.45141466
  0
VERTEX
  8
0
 10
194.32252573
 20
185.86933804
  0
VERTEX
  8
0
 10
194.54181062
 20
186.29754457
  0
VERTEX
  8
0
 10
194.74007976
 20
186.73518693
  0
VERTEX
  8
0
 10
194.91706543
 20
187.18141779
  0
VERTEX
  8
0
 10
195.07249991
 20
187.63538982
  0
VERTEX
  8
0
 10
195.20611549
 20
188.09625571
  0
VERTEX
  8
0
 10
195.31764444
 20
188.56316812
  0
VERTEX
  8
0
 10
195.40681905
 20
189.03527973
  0
VERTEX
  8
0
 10
195.47337159
 20
189.51174322
  0
VERTEX
  8
0
 10
195.51703435
 20
189.99171125
  0
VERTEX
  8
0
 10
195.53753961
 20
190.47433651
  0
VERTEX
  8
0
 10
195.53461965
 20
190.95877166
  0
VERTEX
  8
0
 10
195.50800674
 20
191.44416939
  0
VERTEX
  8
0
 10
195.45743318
 20
191.92968236
  0
VERTEX
  8
0
 10
195.38263125
 20
192.41446325
  0
VERTEX
  8
0
 10
195.28333321
 20
192.89766474
  0
VERTEX
  8
0
 10
195.15927136
 20
193.37843949
  0
VERTEX
  8
0
 10
195.01017798
 20
193.85594019
  0
VERTEX
  8
0
 10
194.83578534
 20
194.32931950
  0
VERTEX
  8
0
 10
194.63582573
 20
194.79773011
  0
VERTEX
  8
0
 10
194.41003142
 20
195.26032469
  0
VERTEX
  8
0
 10
194.16114622
 20
195.71091648
  0
VERTEX
  8
0
 10
193.89265729
 20
196.14370516
  0
VERTEX
  8
0
 10
193.60541195
 20
196.55842299
  0
VERTEX
  8
0
 10
193.30025752
 20
196.95480227
  0
VERTEX
  8
0
 10
192.97804133
 20
197.33257526
  0
VERTEX
  8
0
 10
192.63961071
 20
197.69147426
  0
VERTEX
  8
0
 10
192.28581299
 20
198.03123155
  0
VERTEX
  8
0
 10
191.91749548
 20
198.35157940
  0
VERTEX
  8
0
 10
191.53550552
 20
198.65225009
  0
VERTEX
  8
0
 10
191.14069043
 20
198.93297591
  0
VERTEX
  8
0
 10
190.73389753
 20
199.19348914
  0
VERTEX
  8
0
 10
190.31597415
 20
199.43352206
  0
VERTEX
  8
0
 10
189.88776762
 20
199.65280695
  0
VERTEX
  8
0
 10
189.45012527
 20
199.85107608
  0
VERTEX
  8
0
 10
189.00389441
 20
200.02806175
  0
VERTEX
  8
0
 10
188.54992237
 20
200.18349624
  0
VERTEX
  8
0
 10
188.08905648
 20
200.31711181
  0
VERTEX
  8
0
 10
187.62214407
 20
200.42864076
  0
VERTEX
  8
0
 10
187.15003246
 20
200.51781537
  0
VERTEX
  8
0
 10
186.67356897
 20
200.58436791
  0
VERTEX
  8
0
 10
186.19360094
 20
200.62803067
  0
VERTEX
  8
0
 10
185.71097568
 20
200.64853593
  0
VERTEX
  8
0
 10
185.22654053
 20
200.64561597
  0
VERTEX
  8
0
 10
184.74114280
 20
200.61900307
  0
VERTEX
  8
0
 10
184.25562983
 20
200.56842951
  0
VERTEX
  8
0
 10
183.77084894
 20
200.49362757
  0
VERTEX
  8
0
 10
183.28764746
 20
200.39432954
  0
VERTEX
  8
0
 10
182.80687270
 20
200.27026769
  0
VERTEX
  8
0
 10
182.32937200
 20
200.12117430
  0
VERTEX
  8
0
 10
181.85599269
 20
199.94678166
  0
VERTEX
  8
0
 10
181.38758208
 20
199.74682205
  0
VERTEX
  8
0
 10
180.92498750
 20
199.52102775
  0
VERTEX
  8
0
 10
180.32507866
 20
199.18291463
  0
VERTEX
  8
0
 10
179.75732504
 20
198.81009912
  0
VERTEX
  8
0
 10
179.22237038
 20
198.40462173
  0
VERTEX
  8
0
 10
178.72085843
 20
197.96852299
  0
VERTEX
  8
0
 10
178.25343291
 20
197.50384340
  0
VERTEX
  8
0
 10
177.82073759
 20
197.01262350
  0
VERTEX
  8
0
 10
177.42341618
 20
196.49690380
  0
VERTEX
  8
0
 10
177.06211243
 20
195.95872482
  0
VERTEX
  8
0
 10
176.73747009
 20
195.40012708
  0
VERTEX
  8
0
 10
176.45013290
 20
194.82315110
  0
VERTEX
  8
0
 10
176.20074458
 20
194.22983740
  0
VERTEX
  8
0
 10
175.98994889
 20
193.62222649
  0
VERTEX
  8
0
 10
175.81838956
 20
193.00235890
  0
VERTEX
  8
0
 10
175.68671034
 20
192.37227514
  0
VERTEX
  8
0
 10
175.59555496
 20
191.73401575
  0
VERTEX
  8
0
 10
175.54556716
 20
191.08962122
  0
VERTEX
  8
0
 10
169.92469054
 20
188.16785738
  0
VERTEX
  8
0
 10
149.16992360
 20
228.09578807
  0
VERTEX
  8
0
 10
189.09785430
 20
248.85055500
  0
VERTEX
  8
0
 10
186.17609046
 20
254.47143163
  0
VERTEX
  8
0
 10
185.53169593
 20
254.52141942
  0
VERTEX
  8
0
 10
184.89343653
 20
254.61257481
  0
VERTEX
  8
0
 10
184.26335278
 20
254.74425403
  0
VERTEX
  8
0
 10
183.64348519
 20
254.91581336
  0
VERTEX
  8
0
 10
183.03587428
 20
255.12660905
  0
VERTEX
  8
0
 10
182.44256058
 20
255.37599736
  0
VERTEX
  8
0
 10
181.86558459
 20
255.66333456
  0
VERTEX
  8
0
 10
181.30698685
 20
255.98797690
  0
VERTEX
  8
0
 10
180.76880787
 20
256.34928064
  0
VERTEX
  8
0
 10
180.25308817
 20
256.74660205
  0
VERTEX
  8
0
 10
179.76186827
 20
257.17929738
  0
VERTEX
  8
0
 10
179.29718869
 20
257.64672289
  0
VERTEX
  8
0
 10
178.86108994
 20
258.14823485
  0
VERTEX
  8
0
 10
178.45561256
 20
258.68318951
  0
VERTEX
  8
0
 10
178.08279705
 20
259.25094313
  0
VERTEX
  8
0
 10
177.74468393
 20
259.85085197
  0
VERTEX
  8
0
 10
177.51888963
 20
260.31344655
  0
VERTEX
  8
0
 10
177.31893001
 20
260.78185715
  0
VERTEX
  8
0
 10
177.14453738
 20
261.25523647
  0
VERTEX
  8
0
 10
176.99544399
 20
261.73273717
  0
VERTEX
  8
0
 10
176.87138214
 20
262.21351192
  0
VERTEX
  8
0
 10
176.77208411
 20
262.69671341
  0
VERTEX
  8
0
 10
176.69728217
 20
263.18149430
  0
VERTEX
  8
0
 10
176.64670861
 20
263.66700727
  0
VERTEX
  8
0
 10
176.62009571
 20
264.15240500
  0
VERTEX
  8
0
 10
176.61717574
 20
264.63684015
  0
VERTEX
  8
0
 10
176.63768100
 20
265.11946541
  0
VERTEX
  8
0
 10
176.68134376
 20
265.59943344
  0
VERTEX
  8
0
 10
176.74789631
 20
266.07589693
  0
VERTEX
  8
0
 10
176.83707091
 20
266.54800854
  0
VERTEX
  8
0
 10
176.94859986
 20
267.01492095
  0
VERTEX
  8
0
 10
177.08221544
 20
267.47578684
  0
VERTEX
  8
0
 10
177.23764992
 20
267.92975887
  0
VERTEX
  8
0
 10
177.41463559
 20
268.37598973
  0
VERTEX
  8
0
 10
177.61290473
 20
268.81363209
  0
VERTEX
  8
0
 10
177.83218962
 20
269.24183862
  0
VERTEX
  8
0
 10
178.07222253
 20
269.65976200
  0
VERTEX
  8
0
 10
178.33273576
 20
270.06655489
  0
VERTEX
  8
0
 10
178.61346159
 20
270.46136999
  0
VERTEX
  8
0
 10
178.91413228
 20
270.84335995
  0
VERTEX
  8
0
 10
179.23448013
 20
271.21167746
  0
VERTEX
  8
0
 10
179.57423741
 20
271.56547518
  0
VERTEX
  8
0
 10
179.93313641
 20
271.90390580
  0
VERTEX
  8
0
 10
180.31090941
 20
272.22612198
  0
VERTEX
  8
0
 10
180.70728868
 20
272.53127641
  0
VERTEX
  8
0
 10
181.12200652
 20
272.81852176
  0
VERTEX
  8
0
 10
181.55479519
 20
273.08701069
  0
VERTEX
  8
0
 10
182.00538699
 20
273.33589589
  0
VERTEX
  8
0
 10
182.46798156
 20
273.56169019
  0
VERTEX
  8
0
 10
182.93639217
 20
273.76164980
  0
VERTEX
  8
0
 10
183.40977149
 20
273.93604244
  0
VERTEX
  8
0
 10
183.88727219
 20
274.08513583
  0
VERTEX
  8
0
 10
184.36804694
 20
274.20919768
  0
VERTEX
  8
0
 10
184.85124843
 20
274.30849571
  0
VERTEX
  8
0
 10
185.33602932
 20
274.38329765
  0
VERTEX
  8
0
 10
185.82154229
 20
274.43387121
  0
VERTEX
  8
0
 10
186.30694001
 20
274.46048411
  0
VERTEX
  8
0
 10
186.79137517
 20
274.46340407
  0
VERTEX
  8
0
 10
187.27400042
 20
274.44289881
  0
VERTEX
  8
0
 10
187.75396846
 20
274.39923605
  0
VERTEX
  8
0
 10
188.23043194
 20
274.33268351
  0
VERTEX
  8
0
 10
188.70254356
 20
274.24350891
  0
VERTEX
  8
0
 10
189.16945597
 20
274.13197995
  0
VERTEX
  8
0
 10
189.63032185
 20
273.99836438
  0
VERTEX
  8
0
 10
190.08429389
 20
273.84292990
  0
VERTEX
  8
0
 10
190.53052475
 20
273.66594423
  0
VERTEX
  8
0
 10
190.96816711
 20
273.46767509
  0
VERTEX
  8
0
 10
191.39637364
 20
273.24839020
  0
VERTEX
  8
0
 10
191.81429701
 20
273.00835728
  0
VERTEX
  8
0
 10
192.22108991
 20
272.74784405
  0
VERTEX
  8
0
 10
192.61590500
 20
272.46711823
  0
VERTEX
  8
0
 10
192.99789497
 20
272.16644754
  0
VERTEX
  8
0
 10
193.36621247
 20
271.84609969
  0
VERTEX
  8
0
 10
193.72001020
 20
271.50634240
  0
VERTEX
  8
0
 10
194.05844082
 20
271.14744340
  0
VERTEX
  8
0
 10
194.38065700
 20
270.76967041
  0
VERTEX
  8
0
 10
194.68581143
 20
270.37329113
  0
VERTEX
  8
0
 10
194.97305677
 20
269.95857330
  0
VERTEX
  8
0
 10
195.24154571
 20
269.52578462
  0
VERTEX
  8
0
 10
195.49043091
 20
269.07519283
  0
VERTEX
  8
0
 10
195.78716927
 20
268.45377715
  0
VERTEX
  8
0
 10
196.03765120
 20
267.82243384
  0
VERTEX
  8
0
 10
196.24252224
 20
267.18320285
  0
VERTEX
  8
0
 10
196.40242788
 20
266.53812414
  0
VERTEX
  8
0
 10
196.51801366
 20
265.88923767
  0
VERTEX
  8
0
 10
196.58992509
 20
265.23858339
  0
VERTEX
  8
0
 10
196.61880768
 20
264.58820127
  0
VERTEX
  8
0
 10
196.60530695
 20
263.94013126
  0
VERTEX
  8
0
 10
196.55006843
 20
263.29641332
  0
VERTEX
  8
0
 10
196.45373763
 20
262.65908740
  0
VERTEX
  8
0
 10
196.31696007
 20
262.03019346
  0
VERTEX
  8
0
 10
196.14038126
 20
261.41177147
  0
VERTEX
  8
0
 10
195.92464672
 20
260.80586137
  0
VERTEX
  8
0
 10
195.67040198
 20
260.21450314
  0
VERTEX
  8
0
 10
195.37829255
 20
259.63973671
  0
VERTEX
  8
0
 10
195.04896394
 20
259.08360206
  0
VERTEX
  8
0
 10
197.97072779
 20
253.46272543
  0
VERTEX
  8
0
 10
237.89865848
 20
274.21749236
  0
SEQEND
  0
POLYLINE
  8
По_умолчанию
 62
256
 66
   1
 39
0.000000
 70
    1
  0
VERTEX
  8
0
 10
73.92623264
 20
177.71338072
  0
VERTEX
  8
0
 10
92.23354378
 20
187.22962585
  0
VERTEX
  8
0
 10
92.38362305
 20
186.62341477
  0
VERTEX
  8
0
 10
92.55301646
 20
186.02073865
  0
VERTEX
  8
0
 10
92.74175203
 20
185.42204922
  0
VERTEX
  8
0
 10
92.94985777
 20
184.82779821
  0
VERTEX
  8
0
 10
93.17736171
 20
184.23843734
  0
VERTEX
  8
0
 10
93.42429185
 20
183.65441834
  0
VERTEX
  8
0
 10
93.69067621
 20
183.07619295
  0
VERTEX
  8
0
 10
93.97654282
 20
182.50421288
  0
VERTEX
  8
0
 10
94.47418761
 20
181.60329123
  0
VERTEX
  8
0
 10
95.01107243
 20
180.73795119
  0
VERTEX
  8
0
 10
95.58550017
 20
179.90872899
  0
VERTEX
  8
0
 10
96.19577373
 20
179.11616082
  0
VERTEX
  8
0
 10
96.84019603
 20
178.36078291
  0
VERTEX
  8
0
 10
97.51706996
 20
177.64313145
  0
VERTEX
  8
0
 10
98.22469843
 20
176.96374267
  0
VERTEX
  8
0
 10
98.96138435
 20
176.32315277
  0
VERTEX
  8
0
 10
99.72543062
 20
175.72189796
  0
VERTEX
  8
0
 10
100.51514013
 20
175.16051446
  0
VERTEX
  8
0
 10
101.32881581
 20
174.63953846
  0
VERTEX
  8
0
 10
102.16476054
 20
174.15950619
  0
VERTEX
  8
0
 10
103.02127724
 20
173.72095386
  0
VERTEX
  8
0
 10
103.89666881
 20
173.32441767
  0
VERTEX
  8
0
 10
104.78923816
 20
172.97043383
  0
VERTEX
  8
0
 10
105.69728818
 20
172.65953856
  0
VERTEX
  8
0
 10
106.61912179
 20
172.39226806
  0
VERTEX
  8
0
 10
107.55304188
 20
172.16915855
  0
VERTEX
  8
0
 10
108.49735136
 20
171.99074624
  0
VERTEX
  8
0
 10
109.45035314
 20
171.85756733
  0
VERTEX
  8
0
 10
110.41035012
 20
171.77015804
  0
VERTEX
  8
0
 10
111.37564520
 20
171.72905458
  0
VERTEX
  8
0
 10
112.34454129
 20
171.73479315
  0
VERTEX
  8
0
 10
113.31534129
 20
171.78790998
  0
VERTEX
  8
0
 10
114.28634810
 20
171.88894126
  0
VERTEX
  8
0
 10
115.25586464
 20
172.03842321
  0
VERTEX
  8
0
 10
116.22219381
 20
172.23689205
  0
VERTEX
  8
0
 10
117.18363850
 20
172.48488397
  0
VERTEX
  8
0
 10
118.13850163
 20
172.78293519
  0
VERTEX
  8
0
 10
119.08508609
 20
173.13158192
  0
VERTEX
  8
0
 10
120.02169480
 20
173.53136038
  0
VERTEX
  8
0
 10
120.94663065
 20
173.98280677
  0
VERTEX
  8
0
 10
121.84755230
 20
174.48045156
  0
VERTEX
  8
0
 10
122.71289234
 20
175.01733638
  0
VERTEX
  8
0
 10
123.54211455
 20
175.59176412
  0
VERTEX
  8
0
 10
124.33468271
 20
176.20203768
  0
VERTEX
  8
0
 10
125.09006063
 20
176.84645998
  0
VERTEX
  8
0
 10
125.80771208
 20
177.52333391
  0
VERTEX
  8
0
 10
126.48710086
 20
178.23096238
  0
VERTEX
  8
0
 10
127.12769076
 20
178.96764830
  0
VERTEX
  8
0
 10
127.72894557
 20
179.73169457
  0
VERTEX
  8
0
 10
128.29032908
 20
180.52140408
  0
VERTEX
  8
0
 10
128.81130507
 20
181.33507976
  0
VERTEX
  8
0
 10
129.29133734
 20
182.17102449
  0
VERTEX
  8
0
 10
129.72988968
 20
183.02754119
  0
VERTEX
  8
0
 10
130.12642587
 20
183.90293276
  0
VERTEX
  8
0
 10
130.48040970
 20
184.79550211
  0
VERTEX
  8
0
 10
130.79130498
 20
185.70355213
  0
VERTEX
  8
0
 10
131.05857547
 20
186.62538574
  0
VERTEX
  8
0
 10
131.28168498
 20
187.55930583
  0
VERTEX
  8
0
 10
131.46009730
 20
188.50361531
  0
VERTEX
  8
0
 10
131.59327620
 20
189.45661709
  0
VERTEX
  8
0
 10
131.68068549
 20
190.41661407
  0
VERTEX
  8
0
 10
131.72178896
 20
191.38190915
  0
VERTEX
  8
0
 10
131.71605038
 20
192.35080524
  0
VERTEX
  8
0
 10
131.66293356
 20
193.32160524
  0
VERTEX
  8
0
 10
131.56190227
 20
194.29261205
  0
VERTEX
  8
0
 10
131.41242032
 20
195.26212859
  0
VERTEX
  8
0
 10
131.21395149
 20
196.22845776
  0
VERTEX
  8
0
 10
130.96595957
 20
197.18990245
  0
VERTEX
  8
0
 10
130.66790834
 20
198.14476558
  0
VERTEX
  8
0
 10
130.31926161
 20
199.09135004
  0
VERTEX
  8
0
 10
129.91948315
 20
200.02795875
  0
VERTEX
  8
0
 10
129.46803677
 20
200.95289460
  0
VERTEX
  8
0
 10
129.16413847
 20
201.51550169
  0
VERTEX
  8
0
 10
128.84393493
 20
202.06575157
  0
VERTEX
  8
0
 10
128.50781196
 20
202.60340762
  0
VERTEX
  8
0
 10
128.15615539
 20
203.12823323
  0
VERTEX
  8
0
 10
127.78935102
 20
203.63999179
  0
VERTEX
  8
0
 10
127.40778469
 20
204.13844669
  0
VERTEX
  8
0
 10
127.01184221
 20
204.62336131
  0
VERTEX
  8
0
 10
126.60190941
 20
205.09449903
  0
VERTEX
  8
0
 10
144.90922055
 20
214.61074415
  0
VERTEX
  8
0
 10
181.80658398
 20
143.62775625
  0
VERTEX
  8
0
 10
110.83938979
 20
106.73860248
  0
VERTEX
  8
0
 10
110.81538641
 20
106.74618653
  0
VERTEX
  8
0
 10
73.92623264
 20
177.71338072
  0
SEQEND
  0
POLYLINE
  8
По_умолчанию
 62
256
 66
   1
 39
0.000000
 70
    1
  0
VERTEX
  8
0
 10
103.04821931
 20
316.82452295
  0
VERTEX
  8
0
 10
182.90408071
 20
358.33405681
  0
VERTEX
  8
0
 10
183.36493291
 20
358.55887281
  0
VERTEX
  8
0
 10
183.83188171
 20
358.75786411
  0
VERTEX
  8
0
 10
184.30406296
 20
358.93130373
  0
VERTEX
  8
0
 10
184.78061253
 20
359.07946471
  0
VERTEX
  8
0
 10
185.26066627
 20
359.20262008
  0
VERTEX
  8
0
 10
185.74336005
 20
359.30104288
  0
VERTEX
  8
0
 10
186.22782972
 20
359.37500613
  0
VERTEX
  8
0
 10
186.71321113
 20
359.42478287
  0
VERTEX
  8
0
 10
187.19864016
 20
359.45064613
  0
VERTEX
  8
0
 10
187.68325266
 20
359.45286894
  0
VERTEX
  8
0
 10
188.16618449
 20
359.43172433
  0
VERTEX
  8
0
 10
188.64657151
 20
359.38748534
  0
VERTEX
  8
0
 10
189.12354958
 20
359.32042500
  0
VERTEX
  8
0
 10
189.59625455
 20
359.23081633
  0
VERTEX
  8
0
 10
190.06382229
 20
359.11893237
  0
VERTEX
  8
0
 10
190.52538865
 20
358.98504616
  0
VERTEX
  8
0
 10
190.98008950
 20
358.82943072
  0
VERTEX
  8
0
 10
191.42706069
 20
358.65235909
  0
VERTEX
  8
0
 10
191.86543808
 20
358.45410429
  0
VERTEX
  8
0
 10
192.29435754
 20
358.23493937
  0
VERTEX
  8
0
 10
192.71295492
 20
357.99513734
  0
VERTEX
  8
0
 10
193.12036607
 20
357.73497126
  0
VERTEX
  8
0
 10
193.51572687
 20
357.45471413
  0
VERTEX
  8
0
 10
193.89817317
 20
357.15463901
  0
VERTEX
  8
0
 10
194.26684083
 20
356.83501891
  0
VERTEX
  8
0
 10
194.62086570
 20
356.49612688
  0
VERTEX
  8
0
 10
194.95938365
 20
356.13823594
  0
VERTEX
  8
0
 10
195.28153054
 20
355.76161912
  0
VERTEX
  8
0
 10
195.58644222
 20
355.36654946
  0
VERTEX
  8
0
 10
195.87325455
 20
354.95330000
  0
VERTEX
  8
0
 10
196.14110340
 20
354.52214375
  0
VERTEX
  8
0
 10
196.38912462
 20
354.07335375
  0
VERTEX
  8
0
 10
237.89865848
 20
274.21749236
  0
VERTEX
  8
0
 10
279.40819235
 20
194.36163097
  0
VERTEX
  8
0
 10
279.63300834
 20
193.90077877
  0
VERTEX
  8
0
 10
279.83199964
 20
193.43382997
  0
VERTEX
  8
0
 10
280.00543926
 20
192.96164871
  0
VERTEX
  8
0
 10
280.15360024
 20
192.48509915
  0
VERTEX
  8
0
 10
280.27675562
 20
192.00504540
  0
VERTEX
  8
0
 10
280.37517841
 20
191.52235163
  0
VERTEX
  8
0
 10
280.44914167
 20
191.03788196
  0
VERTEX
  8
0
 10
280.49891841
 20
190.55250054
  0
VERTEX
  8
0
 10
280.52478167
 20
190.06707151
  0
VERTEX
  8
0
 10
280.52700448
 20
189.58245901
  0
VERTEX
  8
0
 10
280.50585987
 20
189.09952718
  0
VERTEX
  8
0
 10
280.46162088
 20
188.61914016
  0
VERTEX
  8
0
 10
280.39456053
 20
188.14216210
  0
VERTEX
  8
0
 10
280.30495186
 20
187.66945713
  0
VERTEX
  8
0
 10
280.19306791
 20
187.20188939
  0
VERTEX
  8
0
 10
280.05918169
 20
186.74032303
  0
VERTEX
  8
0
 10
279.90356625
 20
186.28562218
  0
VERTEX
  8
0
 10
279.72649462
 20
185.83865099
  0
VERTEX
  8
0
 10
279.52823983
 20
185.40027359
  0
VERTEX
  8
0
 10
279.30907490
 20
184.97135414
  0
VERTEX
  8
0
 10
279.06927288
 20
184.55275676
  0
VERTEX
  8
0
 10
278.80910679
 20
184.14534560
  0
VERTEX
  8
0
 10
278.52884967
 20
183.74998480
  0
VERTEX
  8
0
 10
278.22877454
 20
183.36753851
  0
VERTEX
  8
0
 10
277.90915445
 20
182.99887085
  0
VERTEX
  8
0
 10
277.57026241
 20
182.64484598
  0
VERTEX
  8
0
 10
277.21237147
 20
182.30632803
  0
VERTEX
  8
0
 10
276.83575466
 20
181.98418114
  0
VERTEX
  8
0
 10
276.44068500
 20
181.67926946
  0
VERTEX
  8
0
 10
276.02743553
 20
181.39245712
  0
VERTEX
  8
0
 10
275.59627928
 20
181.12460827
  0
VERTEX
  8
0
 10
275.14748929
 20
180.87658705
  0
VERTEX
  8
0
 10
195.29162789
 20
139.36705319
  0
VERTEX
  8
0
 10
115.43576650
 20
97.85751933
  0
VERTEX
  8
0
 10
114.97491430
 20
97.63270333
  0
VERTEX
  8
0
 10
114.50796550
 20
97.43371204
  0
VERTEX
  8
0
 10
114.03578425
 20
97.26027241
  0
VERTEX
  8
0
 10
113.55923468
 20
97.11211143
  0
VERTEX
  8
0
 10
113.07918094
 20
96.98895606
  0
VERTEX
  8
0
 10
112.59648716
 20
96.89053326
  0
VERTEX
  8
0
 10
112.11201749
 20
96.81657001
  0
VERTEX
  8
0
 10
111.62663607
 20
96.76679327
  0
VERTEX
  8
0
 10
111.14120704
 20
96.74093001
  0
VERTEX
  8
0
 10
110.65659455
 20
96.73870720
  0
VERTEX
  8
0
 10
110.17366272
 20
96.75985181
  0
VERTEX
  8
0
 10
109.69327570
 20
96.80409080
  0
VERTEX
  8
0
 10
109.21629763
 20
96.87115115
  0
VERTEX
  8
0
 10
108.74359266
 20
96.96075981
  0
VERTEX
  8
0
 10
108.27602492
 20
97.07264377
  0
VERTEX
  8
0
 10
107.81445856
 20
97.20652998
  0
VERTEX
  8
0
 10
107.35975771
 20
97.36214542
  0
VERTEX
  8
0
 10
106.91278652
 20
97.53921706
  0
VERTEX
  8
0
 10
106.47440913
 20
97.73747185
  0
VERTEX
  8
0
 10
106.04548967
 20
97.95663677
  0
VERTEX
  8
0
 10
105.62689229
 20
98.19643880
  0
VERTEX
  8
0
 10
105.21948114
 20
98.45660489
  0
VERTEX
  8
0
 10
104.82412034
 20
98.73686201
  0
VERTEX
  8
0
 10
104.44167404
 20
99.03693713
  0
VERTEX
  8
0
 10
104.07300638
 20
99.35655723
  0
VERTEX
  8
0
 10
103.71898151
 20
99.69544926
  0
VERTEX
  8
0
 10
103.38046356
 20
100.05334020
  0
VERTEX
  8
0
 10
103.05831667
 20
100.42995702
  0
VERTEX
  8
0
 10
102.75340499
 20
100.82502668
  0
VERTEX
  8
0
 10
102.46659266
 20
101.23827615
  0
VERTEX
  8
0
 10
102.19874381
 20
101.66943239
  0
VERTEX
  8
0
 10
101.95072259
 20
102.11822239
  0
VERTEX
  8
0
 10
60.44118873
 20
181.97408378
  0
VERTEX
  8
0
 10
18.93165486
 20
261.82994517
  0
VERTEX
  8
0
 10
18.70683886
 20
262.29079738
  0
VERTEX
  8
0
 10
18.50784757
 20
262.75774617
  0
VERTEX
  8
0
 10
18.33440795
 20
263.22992743
  0
VERTEX
  8
0
 10
18.18624697
 20
263.70647700
  0
VERTEX
  8
0
 10
18.06309159
 20
264.18653074
  0
VERTEX
  8
0
 10
17.96466880
 20
264.66922451
  0
VERTEX
  8
0
 10
17.89070554
 20
265.15369418
  0
VERTEX
  8
0
 10
17.84092880
 20
265.63907560
  0
VERTEX
  8
0
 10
17.81506554
 20
266.12450463
  0
VERTEX
  8
0
 10
17.81284273
 20
266.60911713
  0
VERTEX
  8
0
 10
17.83398734
 20
267.09204896
  0
VERTEX
  8
0
 10
17.87822633
 20
267.57243598
  0
VERTEX
  8
0
 10
17.94528668
 20
268.04941404
  0
VERTEX
  8
0
 10
18.03489535
 20
268.52211901
  0
VERTEX
  8
0
 10
18.14677930
 20
268.98968675
  0
VERTEX
  8
0
 10
18.28066552
 20
269.45125311
  0
VERTEX
  8
0
 10
18.43628096
 20
269.90595396
  0
VERTEX
  8
0
 10
18.61335259
 20
270.35292515
  0
VERTEX
  8
0
 10
18.81160738
 20
270.79130255
  0
VERTEX
  8
0
 10
19.03077231
 20
271.22022200
  0
VERTEX
  8
0
 10
19.27057433
 20
271.63881938
  0
VERTEX
  8
0
 10
19.53074042
 20
272.04623054
  0
VERTEX
  8
0
 10
19.81099754
 20
272.44159134
  0
VERTEX
  8
0
 10
20.11107267
 20
272.82403764
  0
VERTEX
  8
0
 10
20.43069276
 20
273.19270529
  0
VERTEX
  8
0
 10
20.76958480
 20
273.54673017
  0
VERTEX
  8
0
 10
21.12747574
 20
273.88524812
  0
VERTEX
  8
0
 10
21.50409255
 20
274.20739500
  0
VERTEX
  8
0
 10
21.89916221
 20
274.51230668
  0
VERTEX
  8
0
 10
22.31241168
 20
274.79911902
  0
VERTEX
  8
0
 10
22.74356793
 20
275.06696787
  0
VERTEX
  8
0
 10
23.19235792
 20
275.31498909
  0
VERTEX
  8
0
 10
103.04821931
 20
316.82452295
  0
SEQEND
  0
POLYLINE
  8
По_умолчанию
 62
256
 66
   1
 39
0.000000
 70
    1
  0
VERTEX
  8
0
 10
98.78751626
 20
303.33947903
  0
VERTEX
  8
0
 10
108.30376138
 20
285.03216789
  0
VERTEX
  8
0
 10
107.69755030
 20
284.88208863
  0
VERTEX
  8
0
 10
107.09487418
 20
284.71269522
  0
VERTEX
  8
0
 10
106.49618475
 20
284.52395965
  0
VERTEX
  8
0
 10
105.90193374
 20
284.31585390
  0
VERTEX
  8
0
 10
105.31257287
 20
284.08834997
  0
VERTEX
  8
0
 10
104.72855388
 20
283.84141983
  0
VERTEX
  8
0
 10
104.15032848
 20
283.57503546
  0
VERTEX
  8
0
 10
103.57834842
 20
283.28916886
  0
VERTEX
  8
0
 10
102.67742676
 20
282.79152406
  0
VERTEX
  8
0
 10
101.81208673
 20
282.25463925
  0
VERTEX
  8
0
 10
100.98286452
 20
281.68021151
  0
VERTEX
  8
0
 10
100.19029636
 20
281.06993794
  0
VERTEX
  8
0
 10
99.43491844
 20
280.42551565
  0
VERTEX
  8
0
 10
98.71726699
 20
279.74864171
  0
VERTEX
  8
0
 10
98.03787821
 20
279.04101324
  0
VERTEX
  8
0
 10
97.39728831
 20
278.30432732
  0
VERTEX
  8
0
 10
96.79603350
 20
277.54028106
  0
VERTEX
  8
0
 10
96.23464999
 20
276.75057154
  0
VERTEX
  8
0
 10
95.71367400
 20
275.93689587
  0
VERTEX
  8
0
 10
95.23364173
 20
275.10095113
  0
VERTEX
  8
0
 10
94.79508939
 20
274.24443443
  0
VERTEX
  8
0
 10
94.39855320
 20
273.36904286
  0
VERTEX
  8
0
 10
94.04456936
 20
272.47647352
  0
VERTEX
  8
0
 10
93.73367409
 20
271.56842349
  0
VERTEX
  8
0
 10
93.46640360
 20
270.64658989
  0
VERTEX
  8
0
 10
93.24329409
 20
269.71266980
  0
VERTEX
  8
0
 10
93.06488177
 20
268.76836032
  0
VERTEX
  8
0
 10
92.93170287
 20
267.81535854
  0
VERTEX
  8
0
 10
92.84429358
 20
266.85536156
  0
VERTEX
  8
0
 10
92.80319011
 20
265.89006648
  0
VERTEX
  8
0
 10
92.80892869
 20
264.92117039
  0
VERTEX
  8
0
 10
92.86204551
 20
263.95037039
  0
VERTEX
  8
0
 10
92.96307680
 20
262.97936357
  0
VERTEX
  8
0
 10
93.11255875
 20
262.00984703
  0
VERTEX
  8
0
 10
93.31102758
 20
261.04351787
  0
VERTEX
  8
0
 10
93.55901950
 20
260.08207318
  0
VERTEX
  8
0
 10
93.85707072
 20
259.12721005
  0
VERTEX
  8
0
 10
94.20571746
 20
258.18062558
  0
VERTEX
  8
0
 10
94.60549591
 20
257.24401688
  0
VERTEX
  8
0
 10
95.05694230
 20
256.31908103
  0
VERTEX
  8
0
 10
95.55458710
 20
255.41815937
  0
VERTEX
  8
0
 10
96.09147191
 20
254.55281934
  0
VERTEX
  8
0
 10
96.66589965
 20
253.72359713
  0
VERTEX
  8
0
 10
97.27617322
 20
252.93102896
  0
VERTEX
  8
0
 10
97.92059551
 20
252.17565105
  0
VERTEX
  8
0
 10
98.59746945
 20
251.45799960
  0
VERTEX
  8
0
 10
99.30509792
 20
250.77861081
  0
VERTEX
  8
0
 10
100.04178384
 20
250.13802091
  0
VERTEX
  8
0
 10
100.80583010
 20
249.53676610
  0
VERTEX
  8
0
 10
101.59553962
 20
248.97538260
  0
VERTEX
  8
0
 10
102.40921529
 20
248.45440660
  0
VERTEX
  8
0
 10
103.24516003
 20
247.97437434
  0
VERTEX
  8
0
 10
104.10167673
 20
247.53582200
  0
VERTEX
  8
0
 10
104.97706830
 20
247.13928581
  0
VERTEX
  8
0
 10
105.86963764
 20
246.78530197
  0
VERTEX
  8
0
 10
106.77768766
 20
246.47440670
  0
VERTEX
  8
0
 10
107.69952127
 20
246.20713620
  0
VERTEX
  8
0
 10
108.63344136
 20
245.98402669
  0
VERTEX
  8
0
 10
109.57775084
 20
245.80561438
  0
VERTEX
  8
0
 10
110.53075262
 20
245.67243547
  0
VERTEX
  8
0
 10
111.49074960
 20
245.58502618
  0
VERTEX
  8
0
 10
112.45604468
 20
245.54392272
  0
VERTEX
  8
0
 10
113.42494077
 20
245.54966130
  0
VERTEX
  8
0
 10
114.39574077
 20
245.60277812
  0
VERTEX
  8
0
 10
115.36674759
 20
245.70380940
  0
VERTEX
  8
0
 10
116.33626413
 20
245.85329136
  0
VERTEX
  8
0
 10
117.30259329
 20
246.05176019
  0
VERTEX
  8
0
 10
118.26403798
 20
246.29975211
  0
VERTEX
  8
0
 10
119.21890111
 20
246.59780333
  0
VERTEX
  8
0
 10
120.16548557
 20
246.94645007
  0
VERTEX
  8
0
 10
121.10209428
 20
247.34622852
  0
VERTEX
  8
0
 10
122.02703013
 20
247.79767491
  0
VERTEX
  8
0
 10
122.58963722
 20
248.10157320
  0
VERTEX
  8
0
 10
123.13988710
 20
248.42177674
  0
VERTEX
  8
0
 10
123.67754315
 20
248.75789971
  0
VERTEX
  8
0
 10
124.20236877
 20
249.10955629
  0
VERTEX
  8
0
 10
124.71412733
 20
249.47636065
  0
VERTEX
  8
0
 10
125.21258222
 20
249.85792698
  0
VERTEX
  8
0
 10
125.69749684
 20
250.25386946
  0
VERTEX
  8
0
 10
126.16863456
 20
250.66380227
  0
VERTEX
  8
0
 10
135.68487969
 20
232.35649113
  0
VERTEX
  8
0
 10
64.70189178
 20
195.45912770
  0
VERTEX
  8
0
 10
27.81273802
 20
266.42632189
  0
VERTEX
  8
0
 10
27.82032207
 20
266.45032526
  0
VERTEX
  8
0
 10
98.78751626
 20
303.33947903
  0
SEQEND
  0
POLYLINE
  8
По_умолчанию
 62
256
 66
   1
 39
0.000000
 70
    1
  0
VERTEX
  8
0
 10
224.41361457
 20
278.47819542
  0
VERTEX
  8
0
 10
206.10630343
 20
268.96195030
  0
VERTEX
  8
0
 10
205.95622416
 20
269.56816138
  0
VERTEX
  8
0
 10
205.78683075
 20
270.17083749
  0
VERTEX
  8
0
 10
205.59809518
 20
270.76952692
  0
VERTEX
  8
0
 10
205.38998944
 20
271.36377794
  0
VERTEX
  8
0
 10
205.16248550
 20
271.95313880
  0
VERTEX
  8
0
 10
204.91555536
 20
272.53715780
  0
VERTEX
  8
0
 10
204.64917100
 20
273.11538319
  0
VERTEX
  8
0
 10
204.36330439
 20
273.68736326
  0
VERTEX
  8
0
 10
203.86565960
 20
274.58828491
  0
VERTEX
  8
0
 10
203.32877478
 20
275.45362495
  0
VERTEX
  8
0
 10
202.75434704
 20
276.28284715
  0
VERTEX
  8
0
 10
202.14407348
 20
277.07541532
  0
VERTEX
  8
0
 10
201.49965118
 20
277.83079323
  0
VERTEX
  8
0
 10
200.82277725
 20
278.54844469
  0
VERTEX
  8
0
 10
200.11514877
 20
279.22783347
  0
VERTEX
  8
0
 10
199.37846286
 20
279.86842337
  0
VERTEX
  8
0
 10
198.61441659
 20
280.46967818
  0
VERTEX
  8
0
 10
197.82470708
 20
281.03106169
  0
VERTEX
  8
0
 10
197.01103140
 20
281.55203768
  0
VERTEX
  8
0
 10
196.17508667
 20
282.03206995
  0
VERTEX
  8
0
 10
195.31856997
 20
282.47062228
  0
VERTEX
  8
0
 10
194.44317840
 20
282.86715848
  0
VERTEX
  8
0
 10
193.55060905
 20
283.22114231
  0
VERTEX
  8
0
 10
192.64255903
 20
283.53203758
  0
VERTEX
  8
0
 10
191.72072542
 20
283.79930808
  0
VERTEX
  8
0
 10
190.78680533
 20
284.02241759
  0
VERTEX
  8
0
 10
189.84249585
 20
284.20082990
  0
VERTEX
  8
0
 10
188.88949407
 20
284.33400881
  0
VERTEX
  8
0
 10
187.92949709
 20
284.42141810
  0
VERTEX
  8
0
 10
186.96420201
 20
284.46252156
  0
VERTEX
  8
0
 10
185.99530592
 20
284.45678299
  0
VERTEX
  8
0
 10
185.02450592
 20
284.40366616
  0
VERTEX
  8
0
 10
184.05349910
 20
284.30263488
  0
VERTEX
  8
0
 10
183.08398257
 20
284.15315293
  0
VERTEX
  8
0
 10
182.11765340
 20
283.95468410
  0
VERTEX
  8
0
 10
181.15620871
 20
283.70669217
  0
VERTEX
  8
0
 10
180.20134558
 20
283.40864095
  0
VERTEX
  8
0
 10
179.25476112
 20
283.05999422
  0
VERTEX
  8
0
 10
178.31815241
 20
282.66021576
  0
VERTEX
  8
0
 10
177.39321656
 20
282.20876938
  0
VERTEX
  8
0
 10
176.49229490
 20
281.71112458
  0
VERTEX
  8
0
 10
175.62695487
 20
281.17423976
  0
VERTEX
  8
0
 10
174.79773266
 20
280.59981202
  0
VERTEX
  8
0
 10
174.00516450
 20
279.98953846
  0
VERTEX
  8
0
 10
173.24978658
 20
279.34511616
  0
VERTEX
  8
0
 10
172.53213513
 20
278.66824223
  0
VERTEX
  8
0
 10
171.85274635
 20
277.96061376
  0
VERTEX
  8
0
 10
171.21215645
 20
277.22392784
  0
VERTEX
  8
0
 10
170.61090164
 20
276.45988158
  0
VERTEX
  8
0
 10
170.04951813
 20
275.67017206
  0
VERTEX
  8
0
 10
169.52854214
 20
274.85649638
  0
VERTEX
  8
0
 10
169.04850987
 20
274.02055165
  0
VERTEX
  8
0
 10
168.60995753
 20
273.16403495
  0
VERTEX
  8
0
 10
168.21342134
 20
272.28864338
  0
VERTEX
  8
0
 10
167.85943751
 20
271.39607403
  0
VERTEX
  8
0
 10
167.54854223
 20
270.48802401
  0
VERTEX
  8
0
 10
167.28127174
 20
269.56619041
  0
VERTEX
  8
0
 10
167.05816223
 20
268.63227031
  0
VERTEX
  8
0
 10
166.87974991
 20
267.68796083
  0
VERTEX
  8
0
 10
166.74657101
 20
266.73495905
  0
VERTEX
  8
0
 10
166.65916172
 20
265.77496208
  0
VERTEX
  8
0
 10
166.61805825
 20
264.80966700
  0
VERTEX
  8
0
 10
166.62379683
 20
263.84077091
  0
VERTEX
  8
0
 10
166.67691365
 20
262.86997090
  0
VERTEX
  8
0
 10
166.77794494
 20
261.89896409
  0
VERTEX
  8
0
 10
166.92742689
 20
260.92944755
  0
VERTEX
  8
0
 10
167.12589572
 20
259.96311838
  0
VERTEX
  8
0
 10
167.37388764
 20
259.00167369
  0
VERTEX
  8
0
 10
167.67193887
 20
258.04681057
  0
VERTEX
  8
0
 10
168.02058560
 20
257.10022610
  0
VERTEX
  8
0
 10
168.42036405
 20
256.16361739
  0
VERTEX
  8
0
 10
168.87181044
 20
255.23868154
  0
VERTEX
  8
0
 10
169.17570874
 20
254.67607445
  0
VERTEX
  8
0
 10
169.49591228
 20
254.12582457
  0
VERTEX
  8
0
 10
169.83203525
 20
253.58816852
  0
VERTEX
  8
0
 10
170.18369182
 20
253.06334291
  0
VERTEX
  8
0
 10
170.55049619
 20
252.55158435
  0
VERTEX
  8
0
 10
170.93206252
 20
252.05312945
  0
VERTEX
  8
0
 10
171.32800500
 20
251.56821484
  0
VERTEX
  8
0
 10
171.73793780
 20
251.09707711
  0
VERTEX
  8
0
 10
153.43062666
 20
241.58083199
  0
VERTEX
  8
0
 10
116.53326323
 20
312.56381989
  0
VERTEX
  8
0
 10
187.50045742
 20
349.45297366
  0
VERTEX
  8
0
 10
187.52446080
 20
349.44538961
  0
VERTEX
  8
0
 10
224.41361457
 20
278.47819542
  0
SEQEND
  0
POLYLINE
  8
По_умолчанию
 62
256
 66
   1
 39
0.000000
 70
    1
  0
VERTEX
  8
0
 10
199.55233095
 20
152.85209711
  0
VERTEX
  8
0
 10
190.03608583
 20
171.15940825
  0
VERTEX
  8
0
 10
190.64229691
 20
171.30948752
  0
VERTEX
  8
0
 10
191.24497303
 20
171.47888093
  0
VERTEX
  8
0
 10
191.84366246
 20
171.66761650
  0
VERTEX
  8
0
 10
192.43791347
 20
171.87572224
  0
VERTEX
  8
0
 10
193.02727434
 20
172.10322617
  0
VERTEX
  8
0
 10
193.61129333
 20
172.35015631
  0
VERTEX
  8
0
 10
194.18951873
 20
172.61654068
  0
VERTEX
  8
0
 10
194.76149879
 20
172.90240728
  0
VERTEX
  8
0
 10
195.66242045
 20
173.40005208
  0
VERTEX
  8
0
 10
196.52776048
 20
173.93693690
  0
VERTEX
  8
0
 10
197.35698269
 20
174.51136463
  0
VERTEX
  8
0
 10
198.14955085
 20
175.12163820
  0
VERTEX
  8
0
 10
198.90492877
 20
175.76606050
  0
VERTEX
  8
0
 10
199.62258022
 20
176.44293443
  0
VERTEX
  8
0
 10
200.30196900
 20
177.15056290
  0
VERTEX
  8
0
 10
200.94255890
 20
177.88724882
  0
VERTEX
  8
0
 10
201.54381371
 20
178.65129508
  0
VERTEX
  8
0
 10
202.10519722
 20
179.44100460
  0
VERTEX
  8
0
 10
202.62617321
 20
180.25468027
  0
VERTEX
  8
0
 10
203.10620548
 20
181.09062501
  0
VERTEX
  8
0
 10
203.54475782
 20
181.94714171
  0
VERTEX
  8
0
 10
203.94129401
 20
182.82253328
  0
VERTEX
  8
0
 10
204.29527785
 20
183.71510262
  0
VERTEX
  8
0
 10
204.60617312
 20
184.62315265
  0
VERTEX
  8
0
 10
204.87344361
 20
185.54498625
  0
VERTEX
  8
0
 10
205.09655312
 20
186.47890634
  0
VERTEX
  8
0
 10
205.27496544
 20
187.42321583
  0
VERTEX
  8
0
 10
205.40814434
 20
188.37621760
  0
VERTEX
  8
0
 10
205.49555363
 20
189.33621458
  0
VERTEX
  8
0
 10
205.53665710
 20
190.30150966
  0
VERTEX
  8
0
 10
205.53091852
 20
191.27040575
  0
VERTEX
  8
0
 10
205.47780170
 20
192.24120575
  0
VERTEX
  8
0
 10
205.37677041
 20
193.21221257
  0
VERTEX
  8
0
 10
205.22728846
 20
194.18172911
  0
VERTEX
  8
0
 10
205.02881963
 20
195.14805827
  0
VERTEX
  8
0
 10
204.78082771
 20
196.10950297
  0
VERTEX
  8
0
 10
204.48277648
 20
197.06436609
  0
VERTEX
  8
0
 10
204.13412975
 20
198.01095056
  0
VERTEX
  8
0
 10
203.73435130
 20
198.94755926
  0
VERTEX
  8
0
 10
203.28290491
 20
199.87249512
  0
VERTEX
  8
0
 10
202.78526011
 20
200.77341677
  0
VERTEX
  8
0
 10
202.24837530
 20
201.63875681
  0
VERTEX
  8
0
 10
201.67394756
 20
202.46797901
  0
VERTEX
  8
0
 10
201.06367399
 20
203.26054718
  0
VERTEX
  8
0
 10
200.41925170
 20
204.01592509
  0
VERTEX
  8
0
 10
199.74237776
 20
204.73357655
  0
VERTEX
  8
0
 10
199.03474929
 20
205.41296533
  0
VERTEX
  8
0
 10
198.29806337
 20
206.05355523
  0
VERTEX
  8
0
 10
197.53401711
 20
206.65481004
  0
VERTEX
  8
0
 10
196.74430759
 20
207.21619354
  0
VERTEX
  8
0
 10
195.93063192
 20
207.73716954
  0
VERTEX
  8
0
 10
195.09468718
 20
208.21720181
  0
VERTEX
  8
0
 10
194.23817048
 20
208.65575414
  0
VERTEX
  8
0
 10
193.36277891
 20
209.05229033
  0
VERTEX
  8
0
 10
192.47020957
 20
209.40627417
  0
VERTEX
  8
0
 10
191.56215954
 20
209.71716944
  0
VERTEX
  8
0
 10
190.64032594
 20
209.98443994
  0
VERTEX
  8
0
 10
189.70640585
 20
210.20754945
  0
VERTEX
  8
0
 10
188.76209637
 20
210.38596176
  0
VERTEX
  8
0
 10
187.80909459
 20
210.51914067
  0
VERTEX
  8
0
 10
186.84909761
 20
210.60654996
  0
VERTEX
  8
0
 10
185.88380253
 20
210.64765342
  0
VERTEX
  8
0
 10
184.91490644
 20
210.64191485
  0
VERTEX
  8
0
 10
183.94410644
 20
210.58879802
  0
VERTEX
  8
0
 10
182.97309962
 20
210.48776674
  0
VERTEX
  8
0
 10
182.00358308
 20
210.33828479
  0
VERTEX
  8
0
 10
181.03725392
 20
210.13981595
  0
VERTEX
  8
0
 10
180.07580923
 20
209.89182403
  0
VERTEX
  8
0
 10
179.12094610
 20
209.59377281
  0
VERTEX
  8
0
 10
178.17436163
 20
209.24512608
  0
VERTEX
  8
0
 10
177.23775293
 20
208.84534762
  0
VERTEX
  8
0
 10
176.31281708
 20
208.39390123
  0
VERTEX
  8
0
 10
175.75020998
 20
208.09000294
  0
VERTEX
  8
0
 10
175.19996011
 20
207.76979940
  0
VERTEX
  8
0
 10
174.66230405
 20
207.43367643
  0
VERTEX
  8
0
 10
174.13747844
 20
207.08201985
  0
VERTEX
  8
0
 10
173.62571988
 20
206.71521549
  0
VERTEX
  8
0
 10
173.12726499
 20
206.33364916
  0
VERTEX
  8
0
 10
172.64235037
 20
205.93770668
  0
VERTEX
  8
0
 10
172.17121265
 20
205.52777387
  0
VERTEX
  8
0
 10
162.65496752
 20
223.83508501
  0
VERTEX
  8
0
 10
233.63795543
 20
260.73244844
  0
VERTEX
  8
0
 10
270.52710919
 20
189.76525426
  0
VERTEX
  8
0
 10
270.51952514
 20
189.74125088
  0
VERTEX
  8
0
 10
199.55233095
 20
152.85209711
  0
SEQEND
  0
POLYLINE
  8
По_умолчанию
 62
256
 66
   1
 39
0.000000
 70
    1
  0
VERTEX
  8
0
 10
40.93961300
 20
345.79897447
  0
VERTEX
  8
0
 10
40.64970726
 20
345.63884469
  0
VERTEX
  8
0
 10
40.37125598
 20
345.46610248
  0
VERTEX
  8
0
 10
40.10443140
 20
345.28129299
  0
VERTEX
  8
0
 10
39.84940577
 20
345.08496135
  0
VERTEX
  8
0
 10
39.60635131
 20
344.87765269
  0
VERTEX
  8
0
 10
39.37544026
 20
344.65991214
  0
VERTEX
  8
0
 10
39.15684488
 20
344.43228484
  0
VERTEX
  8
0
 10
38.95073739
 20
344.19531591
  0
VERTEX
  8
0
 10
38.75729003
 20
343.94955050
  0
VERTEX
  8
0
 10
38.57667505
 20
343.69553373
  0
VERTEX
  8
0
 10
38.40906467
 20
343.43381073
  0
VERTEX
  8
0
 10
38.25463115
 20
343.16492665
  0
VERTEX
  8
0
 10
37.98598361
 20
342.60785573
  0
VERTEX
  8
0
 10
37.77211034
 20
342.02868205
  0
VERTEX
  8
0
 10
37.61438924
 20
341.43176665
  0
VERTEX
  8
0
 10
37.51419824
 20
340.82147060
  0
VERTEX
  8
0
 10
37.48610711
 20
340.51266766
  0
VERTEX
  8
0
 10
37.47291523
 20
340.20215496
  0
VERTEX
  8
0
 10
37.47479482
 20
339.89047763
  0
VERTEX
  8
0
 10
37.49191813
 20
339.57818080
  0
VERTEX
  8
0
 10
37.52445740
 20
339.26580960
  0
VERTEX
  8
0
 10
37.57258486
 20
338.95390917
  0
VERTEX
  8
0
 10
37.63647275
 20
338.64302464
  0
VERTEX
  8
0
 10
37.71629332
 20
338.33370113
  0
VERTEX
  8
0
 10
37.81221879
 20
338.02648380
  0
VERTEX
  8
0
 10
37.92442142
 20
337.72191775
  0
VERTEX
  8
0
 10
38.05307343
 20
337.42054814
  0
VERTEX
  8
0
 10
38.19834707
 20
337.12292009
  0
VERTEX
  8
0
 10
38.35847685
 20
336.83301435
  0
VERTEX
  8
0
 10
38.53121906
 20
336.55456308
  0
VERTEX
  8
0
 10
38.71602855
 20
336.28773850
  0
VERTEX
  8
0
 10
38.91236019
 20
336.03271286
  0
VERTEX
  8
0
 10
39.11966885
 20
335.78965840
  0
VERTEX
  8
0
 10
39.33740940
 20
335.55874736
  0
VERTEX
  8
0
 10
39.56503670
 20
335.34015198
  0
VERTEX
  8
0
 10
39.80200563
 20
335.13404449
  0
VERTEX
  8
0
 10
40.04777104
 20
334.94059713
  0
VERTEX
  8
0
 10
40.30178781
 20
334.75998214
  0
VERTEX
  8
0
 10
40.56351081
 20
334.59237177
  0
VERTEX
  8
0
 10
40.83239489
 20
334.43793825
  0
VERTEX
  8
0
 10
41.38946581
 20
334.16929071
  0
VERTEX
  8
0
 10
41.96863949
 20
333.95541743
  0
VERTEX
  8
0
 10
42.56555489
 20
333.79769634
  0
VERTEX
  8
0
 10
43.17585094
 20
333.69750533
  0
VERTEX
  8
0
 10
43.48465388
 20
333.66941421
  0
VERTEX
  8
0
 10
43.79516658
 20
333.65622233
  0
VERTEX
  8
0
 10
44.10684391
 20
333.65810192
  0
VERTEX
  8
0
 10
44.41914074
 20
333.67522523
  0
VERTEX
  8
0
 10
44.73151194
 20
333.70776450
  0
VERTEX
  8
0
 10
45.04341237
 20
333.75589196
  0
VERTEX
  8
0
 10
45.35429691
 20
333.81977985
  0
VERTEX
  8
0
 10
45.66362041
 20
333.89960041
  0
VERTEX
  8
0
 10
45.97083775
 20
333.99552589
  0
VERTEX
  8
0
 10
46.27540379
 20
334.10772851
  0
VERTEX
  8
0
 10
46.57677340
 20
334.23638053
  0
VERTEX
  8
0
 10
46.87440145
 20
334.38165417
  0
VERTEX
  8
0
 10
47.16430719
 20
334.54178395
  0
VERTEX
  8
0
 10
47.44275846
 20
334.71452616
  0
VERTEX
  8
0
 10
47.70958304
 20
334.89933565
  0
VERTEX
  8
0
 10
47.96460868
 20
335.09566729
  0
VERTEX
  8
0
 10
48.20766314
 20
335.30297595
  0
VERTEX
  8
0
 10
48.43857418
 20
335.52071650
  0
VERTEX
  8
0
 10
48.65716957
 20
335.74834380
  0
VERTEX
  8
0
 10
48.86327706
 20
335.98531273
  0
VERTEX
  8
0
 10
49.05672441
 20
336.23107814
  0
VERTEX
  8
0
 10
49.23733940
 20
336.48509491
  0
VERTEX
  8
0
 10
49.40494977
 20
336.74681791
  0
VERTEX
  8
0
 10
49.55938329
 20
337.01570199
  0
VERTEX
  8
0
 10
49.82803083
 20
337.57277291
  0
VERTEX
  8
0
 10
50.04190411
 20
338.15194659
  0
VERTEX
  8
0
 10
50.19962520
 20
338.74886199
  0
VERTEX
  8
0
 10
50.29981621
 20
339.35915804
  0
VERTEX
  8
0
 10
50.32790733
 20
339.66796098
  0
VERTEX
  8
0
 10
50.34109921
 20
339.97847368
  0
VERTEX
  8
0
 10
50.33921962
 20
340.29015101
  0
VERTEX
  8
0
 10
50.32209631
 20
340.60244784
  0
VERTEX
  8
0
 10
50.28955704
 20
340.91481904
  0
VERTEX
  8
0
 10
50.24142958
 20
341.22671947
  0
VERTEX
  8
0
 10
50.17754169
 20
341.53760400
  0
VERTEX
  8
0
 10
50.09772113
 20
341.84692751
  0
VERTEX
  8
0
 10
50.00179565
 20
342.15414484
  0
VERTEX
  8
0
 10
49.88959303
 20
342.45871088
  0
VERTEX
  8
0
 10
49.76094102
 20
342.76008050
  0
VERTEX
  8
0
 10
49.61566738
 20
343.05770854
  0
VERTEX
  8
0
 10
49.45553759
 20
343.34761428
  0
VERTEX
  8
0
 10
49.28279538
 20
343.62606556
  0
VERTEX
  8
0
 10
49.09798590
 20
343.89289014
  0
VERTEX
  8
0
 10
48.90165425
 20
344.14791578
  0
VERTEX
  8
0
 10
48.69434559
 20
344.39097024
  0
VERTEX
  8
0
 10
48.47660504
 20
344.62188128
  0
VERTEX
  8
0
 10
48.24897774
 20
344.84047666
  0
VERTEX
  8
0
 10
48.01200881
 20
345.04658415
  0
VERTEX
  8
0
 10
47.76624340
 20
345.24003151
  0
VERTEX
  8
0
 10
47.51222663
 20
345.42064650
  0
VERTEX
  8
0
 10
47.25050364
 20
345.58825687
  0
VERTEX
  8
0
 10
46.98161955
 20
345.74269039
  0
VERTEX
  8
0
 10
46.42454864
 20
346.01133793
  0
VERTEX
  8
0
 10
45.84537495
 20
346.22521120
  0
VERTEX
  8
0
 10
45.24845955
 20
346.38293230
  0
VERTEX
  8
0
 10
44.63816350
 20
346.48312331
  0
VERTEX
  8
0
 10
44.32936057
 20
346.51121443
  0
VERTEX
  8
0
 10
44.01884787
 20
346.52440631
  0
VERTEX
  8
0
 10
43.70717053
 20
346.52252672
  0
VERTEX
  8
0
 10
43.39487370
 20
346.50540341
  0
VERTEX
  8
0
 10
43.08250250
 20
346.47286414
  0
VERTEX
  8
0
 10
42.77060207
 20
346.42473668
  0
VERTEX
  8
0
 10
42.45971754
 20
346.36084879
  0
VERTEX
  8
0
 10
42.15039404
 20
346.28102823
  0
VERTEX
  8
0
 10
41.84317670
 20
346.18510275
  0
VERTEX
  8
0
 10
41.53861066
 20
346.07290013
  0
VERTEX
  8
0
 10
41.23724105
 20
345.94424811
  0
VERTEX
  8
0
 10
40.93961300
 20
345.79897447
  0
SEQEND
  0
POLYLINE
  8
По_умолчанию
 62
256
 66
   1
 39
0.000000
 70
    1
  0
VERTEX
  8
0
 10
88.35107898
 20
100.09486203
  0
VERTEX
  8
0
 10
16.50680012
 20
238.30857442
 42
0.00518476
  0
VERTEX
  8
0
 10
16.90091010
 20
234.09675821
 42
0.02310079
  0
VERTEX
  8
0
 10
19.53597079
 20
216.59707029
 42
0.02633466
  0
VERTEX
  8
0
 10
24.22607785
 20
198.06652779
 42
0.04386288
  0
VERTEX
  8
0
 10
35.76489039
 20
169.82364490
 42
0.02531028
  0
VERTEX
  8
0
 10
49.36711781
 20
146.46567066
 42
0.02050976
  0
VERTEX
  8
0
 10
61.56376368
 20
129.33642231
 42
0.01944409
  0
VERTEX
  8
0
 10
73.80869825
 20
114.75111064
 42
0.01883647
  0
VERTEX
  8
0
 10
86.03366503
 20
102.26044853
 42
0.00363525
  0
VERTEX
  8
0
 10
88.35107898
 20
100.09486203
  0
SEQEND
  0
POLYLINE
  8
По_умолчанию
 62
256
 66
   1
 39
0.000000
 70
    1
  0
VERTEX
  8
0
 10
18.09164091
 20
287.31500509
 42
-0.00218953
  0
VERTEX
  8
0
 10
18.38639261
 20
289.32087001
 42
-0.02759618
  0
VERTEX
  8
0
 10
23.89469342
 20
315.75980128
 42
-0.01968505
  0
VERTEX
  8
0
 10
29.59266825
 20
334.21286097
  0
VERTEX
  8
0
 10
29.86812318
 20
333.57908079
  0
VERTEX
  8
0
 10
30.17561460
 20
332.95265783
  0
VERTEX
  8
0
 10
30.54622419
 20
332.28169056
  0
VERTEX
  8
0
 10
30.94602436
 20
331.63723386
  0
VERTEX
  8
0
 10
31.37375346
 20
331.01968638
  0
VERTEX
  8
0
 10
31.82814979
 20
330.42944675
  0
VERTEX
  8
0
 10
32.30795170
 20
329.86691361
  0
VERTEX
  8
0
 10
32.81189751
 20
329.33248558
  0
VERTEX
  8
0
 10
33.33872555
 20
328.82656131
  0
VERTEX
  8
0
 10
33.88717414
 20
328.34953943
  0
VERTEX
  8
0
 10
34.45598161
 20
327.90181857
  0
VERTEX
  8
0
 10
35.04388628
 20
327.48379737
  0
VERTEX
  8
0
 10
35.64962650
 20
327.09587447
  0
VERTEX
  8
0
 10
36.27194057
 20
326.73844850
  0
VERTEX
  8
0
 10
36.90956684
 20
326.41191810
  0
VERTEX
  8
0
 10
37.56124362
 20
326.11668190
  0
VERTEX
  8
0
 10
38.22570924
 20
325.85313853
  0
VERTEX
  8
0
 10
38.90170204
 20
325.62168664
  0
VERTEX
  8
0
 10
39.58796033
 20
325.42272485
  0
VERTEX
  8
0
 10
40.28322245
 20
325.25665181
  0
VERTEX
  8
0
 10
40.98622673
 20
325.12386614
  0
VERTEX
  8
0
 10
41.69571148
 20
325.02476648
  0
VERTEX
  8
0
 10
42.41041504
 20
324.95975148
  0
VERTEX
  8
0
 10
43.12907574
 20
324.92921975
  0
VERTEX
  8
0
 10
43.85043189
 20
324.93356994
  0
VERTEX
  8
0
 10
44.57322184
 20
324.97320069
  0
VERTEX
  8
0
 10
45.29618390
 20
325.04851062
  0
VERTEX
  8
0
 10
46.01805641
 20
325.15989838
  0
VERTEX
  8
0
 10
46.73757768
 20
325.30776260
  0
VERTEX
  8
0
 10
47.45348606
 20
325.49250191
  0
VERTEX
  8
0
 10
48.16451986
 20
325.71451495
  0
VERTEX
  8
0
 10
48.86941741
 20
325.97420035
  0
VERTEX
  8
0
 10
49.56691704
 20
326.27195676
  0
VERTEX
  8
0
 10
50.25575708
 20
326.60818280
  0
VERTEX
  8
0
 10
50.92672436
 20
326.97879238
  0
VERTEX
  8
0
 10
51.57118105
 20
327.37859256
  0
VERTEX
  8
0
 10
52.18872853
 20
327.80632165
  0
VERTEX
  8
0
 10
52.77896816
 20
328.26071799
  0
VERTEX
  8
0
 10
53.34150131
 20
328.74051990
  0
VERTEX
  8
0
 10
53.87592934
 20
329.24446571
  0
VERTEX
  8
0
 10
54.38185361
 20
329.77129375
  0
VERTEX
  8
0
 10
54.85887549
 20
330.31974234
  0
VERTEX
  8
0
 10
55.30659635
 20
330.88854980
  0
VERTEX
  8
0
 10
55.72461754
 20
331.47645448
  0
VERTEX
  8
0
 10
56.11254044
 20
332.08219469
  0
VERTEX
  8
0
 10
56.46996641
 20
332.70450877
  0
VERTEX
  8
0
 10
56.79649682
 20
333.34213503
  0
VERTEX
  8
0
 10
57.09173302
 20
333.99381181
  0
VERTEX
  8
0
 10
57.35527638
 20
334.65827744
  0
VERTEX
  8
0
 10
57.58672828
 20
335.33427023
  0
VERTEX
  8
0
 10
57.78569006
 20
336.02052853
  0
VERTEX
  8
0
 10
57.95176311
 20
336.71579065
  0
VERTEX
  8
0
 10
58.08454878
 20
337.41879492
  0
VERTEX
  8
0
 10
58.18364843
 20
338.12827968
  0
VERTEX
  8
0
 10
58.24866344
 20
338.84298324
  0
VERTEX
  8
0
 10
58.27919516
 20
339.56164393
  0
VERTEX
  8
0
 10
58.27484497
 20
340.28300009
  0
VERTEX
  8
0
 10
58.23521423
 20
341.00579004
  0
VERTEX
  8
0
 10
58.15990429
 20
341.72875210
  0
VERTEX
  8
0
 10
58.04851653
 20
342.45062460
  0
VERTEX
  8
0
 10
57.90065232
 20
343.17014588
  0
VERTEX
  8
0
 10
57.71591301
 20
343.88605426
  0
VERTEX
  8
0
 10
57.49389997
 20
344.59708806
  0
VERTEX
  8
0
 10
57.23421456
 20
345.30198561
  0
VERTEX
  8
0
 10
56.93645816
 20
345.99948524
  0
VERTEX
  8
0
 10
56.60023212
 20
346.68832528
  0
VERTEX
  8
0
 10
56.24386259
 20
347.33493646
  0
VERTEX
  8
0
 10
55.86037741
 20
347.95697533
  0
VERTEX
  8
0
 10
55.45090145
 20
348.55408498
  0
VERTEX
  8
0
 10
55.01655954
 20
349.12590851
  0
VERTEX
  8
0
 10
54.55847653
 20
349.67208902
  0
VERTEX
  8
0
 10
54.07777727
 20
350.19226961
  0
VERTEX
  8
0
 10
53.57558661
 20
350.68609336
  0
VERTEX
  8
0
 10
53.05302938
 20
351.15320338
  0
VERTEX
  8
0
 10
52.51123045
 20
351.59324276
  0
VERTEX
  8
0
 10
51.95131464
 20
352.00585460
  0
VERTEX
  8
0
 10
51.37440682
 20
352.39068200
  0
VERTEX
  8
0
 10
50.78163182
 20
352.74736804
  0
VERTEX
  8
0
 10
50.17411449
 20
353.07555583
  0
VERTEX
  8
0
 10
49.55297968
 20
353.37488846
  0
VERTEX
  8
0
 10
48.91935224
 20
353.64500903
  0
VERTEX
  8
0
 10
48.27435701
 20
353.88556064
  0
VERTEX
  8
0
 10
47.61911884
 20
354.09618637
  0
VERTEX
  8
0
 10
46.95476258
 20
354.27652933
  0
VERTEX
  8
0
 10
46.28241306
 20
354.42623262
  0
VERTEX
  8
0
 10
45.60319515
 20
354.54493932
  0
VERTEX
  8
0
 10
44.91823367
 20
354.63229254
  0
VERTEX
  8
0
 10
44.22865349
 20
354.68793537
  0
VERTEX
  8
0
 10
43.53557945
 20
354.71151091
  0
VERTEX
  8
0
 10
42.84013638
 20
354.70266225
  0
VERTEX
  8
0
 10
42.14344915
 20
354.66103249
  0
VERTEX
  8
0
 10
41.44664260
 20
354.58626473
  0
VERTEX
  8
0
 10
40.75084157
 20
354.47800205
  0
VERTEX
  8
0
 10
40.05717090
 20
354.33588757
  0
VERTEX
  8
0
 10
39.36675545
 20
354.15956437
  0
VERTEX
  8
0
 10
38.68072007
 20
353.94867555
  0
VERTEX
  8
0
 10
38.00018959
 20
353.70286421
  0
VERTEX
  8
0
 10
37.32628887
 20
353.42177343
 42
-0.01176157
  0
VERTEX
  8
0
 10
41.62617967
 20
362.28244648
 42
-0.01240832
  0
VERTEX
  8
0
 10
46.02205587
 20
370.32362178
 42
-0.01209225
  0
VERTEX
  8
0
 10
50.03262701
 20
376.87363682
 42
-0.01224409
  0
VERTEX
  8
0
 10
53.70273246
 20
382.25857096
 42
-0.01283375
  0
VERTEX
  8
0
 10
57.05888795
 20
386.68719232
 42
-0.01388862
  0
VERTEX
  8
0
 10
60.11540180
 20
390.30277110
 42
-0.01725294
  0
VERTEX
  8
0
 10
63.18241626
 20
393.50852685
 42
-0.01841535
  0
VERTEX
  8
0
 10
65.97743469
 20
396.03161221
 42
-0.04172253
  0
VERTEX
  8
0
 10
73.99848137
 20
401.72343813
 42
-0.02774087
  0
VERTEX
  8
0
 10
79.62504258
 20
404.63297397
  0
VERTEX
  8
0
 10
101.29619904
 20
369.14599032
 42
0.37614761
  0
VERTEX
  8
0
 10
113.87668215
 20
365.21287840
 42
0.37614761
  0
VERTEX
  8
0
 10
119.42768643
 20
377.16797256
  0
VERTEX
  8
0
 10
109.85848071
 20
409.84785618
 42
-0.02082659
  0
VERTEX
  8
0
 10
117.08498242
 20
409.17567319
 42
-0.02209717
  0
VERTEX
  8
0
 10
125.72701509
 20
407.61441238
 42
-0.02049138
  0
VERTEX
  8
0
 10
134.83843612
 20
405.15334788
 42
-0.01602149
  0
VERTEX
  8
0
 10
142.75263831
 20
402.38595813
 42
-0.01509466
  0
VERTEX
  8
0
 10
150.93566001
 20
398.94149346
 42
-0.01458090
  0
VERTEX
  8
0
 10
159.55668723
 20
394.69478931
 42
-0.01447300
  0
VERTEX
  8
0
 10
168.80861229
 20
389.44772137
 42
-0.01440920
  0
VERTEX
  8
0
 10
178.65894391
 20
383.08102080
 42
-0.01484687
  0
VERTEX
  8
0
 10
189.37386584
 20
375.22786870
 42
-0.00609876
  0
VERTEX
  8
0
 10
194.02182148
 20
371.51073970
 42
0.00619850
  0
VERTEX
  8
0
 10
193.47265848
 20
371.66511015
 42
0.18763599
  0
VERTEX
  8
0
 10
176.90764638
 20
369.86847383
  0
VERTEX
  8
0
 10
97.05239776
 20
328.35925849
  0
VERTEX
  8
0
 10
18.09164091
 20
287.31500509
  0
SEQEND
  0
POLYLINE
  8
По_умолчанию
 62
256
 66
   1
 39
0.000000
 70
    1
  0
VERTEX
  8
0
 10
208.81019585
 20
358.36404654
  0
VERTEX
  8
0
 10
288.87846275
 20
204.32906160
 42
0.00576078
  0
VERTEX
  8
0
 10
288.15014946
 20
209.36920521
 42
0.01741300
  0
VERTEX
  8
0
 10
285.07712418
 20
225.36577659
 42
0.01866239
  0
VERTEX
  8
0
 10
280.32144612
 20
243.10411713
 42
0.02100380
  0
VERTEX
  8
0
 10
273.07961044
 20
263.48994170
 42
0.03922688
  0
VERTEX
  8
0
 10
254.34207813
 20
301.12865697
 42
0.02861585
  0
VERTEX
  8
0
 10
236.37789096
 20
327.51304817
 42
0.02707067
  0
VERTEX
  8
0
 10
216.75624466
 20
350.39990488
 42
0.01069548
  0
VERTEX
  8
0
 10
208.81019585
 20
358.36404654
  0
SEQEND
  0
POLYLINE
  8
По_умолчанию
 62
256
 66
   1
 39
0.000000
 70
    1
  0
VERTEX
  8
0
 10
16.49105414
 20
272.82750576
 42
-0.07411401
  0
VERTEX
  8
0
 10
18.85179549
 20
275.86599522
 42
-0.07067816
  0
VERTEX
  8
0
 10
21.80948181
 20
277.97725399
  0
VERTEX
  8
0
 10
101.66456819
 20
319.48638500
  0
VERTEX
  8
0
 10
181.51981681
 20
360.99560034
 42
-0.17292185
  0
VERTEX
  8
0
 10
190.14001325
 20
362.18228895
 42
-0.15238759
  0
VERTEX
  8
0
 10
196.94013076
 20
358.41391618
 42
-0.07067816
  0
VERTEX
  8
0
 10
199.05138953
 20
355.45622987
  0
VERTEX
  8
0
 10
282.06973587
 20
195.74589487
 42
-0.17292185
  0
VERTEX
  8
0
 10
283.25642448
 20
187.12569842
 42
-0.15238759
  0
VERTEX
  8
0
 10
279.48805172
 20
180.32558092
 42
-0.07067816
  0
VERTEX
  8
0
 10
276.53036540
 20
178.21432215
  0
VERTEX
  8
0
 10
116.82003040
 20
95.19597580
 42
-0.17292185
  0
VERTEX
  8
0
 10
108.19983396
 20
94.00928719
 42
-0.15238759
  0
VERTEX
  8
0
 10
101.39971645
 20
97.77765996
 42
-0.07067816
  0
VERTEX
  8
0
 10
99.28845768
 20
100.73534627
  0
VERTEX
  8
0
 10
16.27011134
 20
260.44568128
 42
-0.01756319
  0
VERTEX
  8
0
 10
15.87913146
 20
261.26733372
 42
-0.00802444
  0
VERTEX
  8
0
 10
16.17638822
 20
268.25019590
 42
-0.00495510
  0
VERTEX
  8
0
 10
16.49105414
 20
272.82750576
  0
SEQEND
  0
POLYLINE
  8
По_умолчанию
 62
256
 66
   1
 39
0.000000
 70
    1
  0
VERTEX
  8
0
 10
237.53765818
 20
36.18239559
 42
-0.00183692
  0
VERTEX
  8
0
 10
204.77941176
 20
18.75000000
 42
0.00253010
  0
VERTEX
  8
0
 10
156.98529412
 20
8.74198508
 42
0.02694792
  0
VERTEX
  8
0
 10
146.69117647
 20
12.13235294
 42
0.17813777
  0
VERTEX
  8
0
 10
193.70293834
 20
45.63481650
 42
0.28578065
  0
VERTEX
  8
0
 10
186.11684194
 20
53.75187835
 42
0.02582694
  0
VERTEX
  8
0
 10
178.09360670
 20
54.66775187
 42
-0.08421964
  0
VERTEX
  8
0
 10
134.41713860
 20
68.14881871
 42
-0.04359351
  0
VERTEX
  8
0
 10
108.20259749
 20
83.88855551
 42
0.14960612
  0
VERTEX
  8
0
 10
121.43220083
 20
86.32310232
  0
VERTEX
  8
0
 10
281.14045732
 20
169.34036824
 42
0.14979610
  0
VERTEX
  8
0
 10
290.73828331
 20
178.77355789
 42
-0.09797997
  0
VERTEX
  8
0
 10
280.05630050
 20
116.55166145
 42
-0.10734205
  0
VERTEX
  8
0
 10
254.59381813
 20
78.25316615
 42
0.22680359
  0
VERTEX
  8
0
 10
251.59428652
 20
70.15959760
 42
0.12723354
  0
VERTEX
  8
0
 10
257.16826457
 20
55.46009956
 42
0.05715432
  0
VERTEX
  8
0
 10
268.21072006
 20
42.98070788
  0
VERTEX
  8
0
 10
289.20163297
 20
24.34876421
  0
VERTEX
  8
0
 10
295.98225300
 20
18.89903310
 42
-0.05219814
  0
VERTEX
  8
0
 10
282.95311143
 20
19.38838351
 42
-0.09055880
  0
VERTEX
  8
0
 10
276.60597940
 20
26.69936390
 42
0.03737915
  0
VERTEX
  8
0
 10
267.32163353
 20
39.60795398
 42
0.13093085
  0
VERTEX
  8
0
 10
258.41775260
 20
45.87911862
 42
0.39609532
  0
VERTEX
  8
0
 10
237.53765818
 20
36.18239559
  0
SEQEND
  0
POLYLINE
  8
По_умолчанию
 62
256
 66
   1
 39
0.000000
 70
    1
  0
VERTEX
  8
0
 10
132.35294118
 20
11.76470588
  0
VERTEX
  8
0
 10
133.05653810
 20
11.22207440
  0
VERTEX
  8
0
 10
133.74767893
 20
10.65924457
  0
VERTEX
  8
0
 10
135.12248696
 20
9.52146592
  0
VERTEX
  8
0
 10
135.82110145
 20
8.97075510
  0
VERTEX
  8
0
 10
136.53715445
 20
8.44832195
  0
VERTEX
  8
0
 10
137.27811961
 20
7.96628549
  0
VERTEX
  8
0
 10
137.66027977
 20
7.74420320
  0
VERTEX
  8
0
 10
138.05147059
 20
7.53676471
  0
VERTEX
  8
0
 10
139.04450220
 20
7.05141091
  0
VERTEX
  8
0
 10
140.04983876
 20
6.58968699
  0
VERTEX
  8
0
 10
141.06667073
 20
6.15120550
  0
VERTEX
  8
0
 10
142.09418859
 20
5.73557895
  0
VERTEX
  8
0
 10
143.13158282
 20
5.34241987
  0
VERTEX
  8
0
 10
144.17804388
 20
4.97134079
  0
VERTEX
  8
0
 10
145.23276226
 20
4.62195423
  0
VERTEX
  8
0
 10
146.29492843
 20
4.29387273
  0
VERTEX
  8
0
 10
147.36373287
 20
3.98670880
  0
VERTEX
  8
0
 10
148.43836605
 20
3.70007499
  0
VERTEX
  8
0
 10
149.51801844
 20
3.43358381
  0
VERTEX
  8
0
 10
150.60188053
 20
3.18684779
  0
VERTEX
  8
0
 10
151.68914278
 20
2.95947946
  0
VERTEX
  8
0
 10
152.77899568
 20
2.75109135
  0
VERTEX
  8
0
 10
153.87062969
 20
2.56129598
  0
VERTEX
  8
0
 10
154.96323529
 20
2.38970588
  0
VERTEX
  8
0
 10
155.96484132
 20
2.25343623
  0
VERTEX
  8
0
 10
156.96938264
 20
2.14137829
  0
VERTEX
  8
0
 10
157.97649950
 20
2.05223726
  0
VERTEX
  8
0
 10
158.98583216
 20
1.98471834
  0
VERTEX
  8
0
 10
159.99702086
 20
1.93752671
  0
VERTEX
  8
0
 10
161.00970584
 20
1.90936757
  0
VERTEX
  8
0
 10
162.02352736
 20
1.89894612
  0
VERTEX
  8
0
 10
163.03812566
 20
1.90496755
  0
VERTEX
  8
0
 10
165.06821359
 20
1.96115982
  0
VERTEX
  8
0
 10
167.09709162
 20
2.06758593
  0
VERTEX
  8
0
 10
169.12188172
 20
2.21388743
  0
VERTEX
  8
0
 10
171.13970588
 20
2.38970588
  0
VERTEX
  8
0
 10
172.99956796
 20
2.58093427
  0
VERTEX
  8
0
 10
174.85490246
 20
2.80648446
  0
VERTEX
  8
0
 10
176.70606169
 20
3.06338582
  0
VERTEX
  8
0
 10
178.55339791
 20
3.34866767
  0
VERTEX
  8
0
 10
180.39726342
 20
3.65935939
  0
VERTEX
  8
0
 10
182.23801051
 20
3.99249030
  0
VERTEX
  8
0
 10
184.07599145
 20
4.34508976
  0
VERTEX
  8
0
 10
185.91155854
 20
4.71418711
  0
VERTEX
  8
0
 10
189.57686028
 20
5.48999288
  0
VERTEX
  8
0
 10
193.23673401
 20
6.29614240
  0
VERTEX
  8
0
 10
196.89399802
 20
7.10887043
  0
VERTEX
  8
0
 10
200.55147059
 20
7.90441176
  0
VERTEX
  8
0
 10
201.56617312
 20
8.13090906
  0
VERTEX
  8
0
 10
202.57744761
 20
8.37519091
  0
VERTEX
  8
0
 10
204.59223096
 20
8.90355248
  0
VERTEX
  8
0
 10
208.60836504
 20
10.02457671
  0
VERTEX
  8
0
 10
210.61978994
 20
10.56301624
  0
VERTEX
  8
0
 10
211.62854558
 20
10.81485656
  0
VERTEX
  8
0
 10
212.64016954
 20
11.05059199
  0
VERTEX
  8
0
 10
213.65529144
 20
11.26683358
  0
VERTEX
  8
0
 10
214.67454092
 20
11.46019239
  0
VERTEX
  8
0
 10
215.69854762
 20
11.62727947
  0
VERTEX
  8
0
 10
216.72794118
 20
11.76470588
  0
VERTEX
  8
0
 10
218.18967524
 20
11.92498532
  0
VERTEX
  8
0
 10
219.61165268
 20
12.06070447
  0
VERTEX
  8
0
 10
222.35698341
 20
12.28220435
  0
VERTEX
  8
0
 10
225.00522484
 20
12.47669037
  0
VERTEX
  8
0
 10
227.59766845
 20
12.69164738
  0
VERTEX
  8
0
 10
228.88586965
 20
12.82164152
  0
VERTEX
  8
0
 10
230.17560570
 20
12.97456023
  0
VERTEX
  8
0
 10
231.47203804
 20
13.15633911
  0
VERTEX
  8
0
 10
232.78032808
 20
13.37291378
  0
VERTEX
  8
0
 10
234.10563728
 20
13.63021982
  0
VERTEX
  8
0
 10
235.45312706
 20
13.93419287
  0
VERTEX
  8
0
 10
236.82795886
 20
14.29076851
  0
VERTEX
  8
0
 10
238.23529412
 20
14.70588235
  0
VERTEX
  8
0
 10
239.11239832
 20
14.96647840
  0
VERTEX
  8
0
 10
239.86079747
 20
15.18235203
  0
VERTEX
  8
0
 10
240.53935704
 20
15.40757029
  0
VERTEX
  8
0
 10
240.87084245
 20
15.54057959
  0
VERTEX
  8
0
 10
241.20694252
 20
15.69620017
  0
VERTEX
  8
0
 10
241.55501543
 20
15.88119042
  0
VERTEX
  8
0
 10
241.92241937
 20
16.10230872
  0
VERTEX
  8
0
 10
242.31651253
 20
16.36631343
  0
VERTEX
  8
0
 10
242.74465308
 20
16.67996293
  0
VERTEX
  8
0
 10
243.21419921
 20
17.05001561
  0
VERTEX
  8
0
 10
243.73250911
 20
17.48322984
  0
VERTEX
  8
0
 10
244.94485294
 20
18.56617647
  0
VERTEX
  8
0
 10
245.25337798
 20
19.69423075
  0
VERTEX
  8
0
 10
245.52519921
 20
20.61238687
  0
VERTEX
  8
0
 10
245.76199278
 20
21.34406121
  0
VERTEX
  8
0
 10
245.96543485
 20
21.91267016
  0
VERTEX
  8
0
 10
246.13720156
 20
22.34163010
  0
VERTEX
  8
0
 10
246.27896906
 20
22.65435742
  0
VERTEX
  8
0
 10
246.47921107
 20
23.02477973
  0
VERTEX
  8
0
 10
246.57957007
 20
23.21126819
  0
VERTEX
  8
0
 10
246.59648382
 20
23.29407818
  0
VERTEX
  8
0
 10
246.59345528
 20
23.40115386
  0
VERTEX
  8
0
 10
246.41544118
 20
24.54044118
  0
VERTEX
  8
0
 10
246.38629889
 20
24.82669638
  0
VERTEX
  8
0
 10
246.37911017
 20
25.10598876
  0
VERTEX
  8
0
 10
246.39004401
 20
25.37911289
  0
VERTEX
  8
0
 10
246.41526945
 20
25.64686334
  0
VERTEX
  8
0
 10
246.49327118
 20
26.16942150
  0
VERTEX
  8
0
 10
246.58246748
 20
26.68001985
  0
VERTEX
  8
0
 10
246.65221050
 20
27.18501498
  0
VERTEX
  8
0
 10
246.67020957
 20
27.43739778
  0
VERTEX
  8
0
 10
246.67185238
 20
27.69076349
  0
VERTEX
  8
0
 10
246.65330793
 20
27.94590670
  0
VERTEX
  8
0
 10
246.61074526
 20
28.20362198
  0
VERTEX
  8
0
 10
246.54033336
 20
28.46470389
  0
VERTEX
  8
0
 10
246.43824127
 20
28.72994703
  0
VERTEX
  8
0
 10
246.37387467
 20
29.23959257
  0
VERTEX
  8
0
 10
246.33895410
 20
29.74017136
  0
VERTEX
  8
0
 10
246.33458973
 20
30.23139609
  0
VERTEX
  8
0
 10
246.36189174
 20
30.71297947
  0
VERTEX
  8
0
 10
246.42197028
 20
31.18463421
  0
VERTEX
  8
0
 10
246.51593552
 20
31.64607301
  0
VERTEX
  8
0
 10
246.64489764
 20
32.09700858
  0
VERTEX
  8
0
 10
246.80996679
 20
32.53715362
  0
VERTEX
  8
0
 10
247.01225314
 20
32.96622083
  0
VERTEX
  8
0
 10
247.25286686
 20
33.38392292
  0
VERTEX
  8
0
 10
247.53291812
 20
33.78997260
  0
VERTEX
  8
0
 10
247.85351709
 20
34.18408257
  0
VERTEX
  8
0
 10
248.21577392
 20
34.56596553
  0
VERTEX
  8
0
 10
248.62079879
 20
34.93533419
  0
VERTEX
  8
0
 10
249.06970186
 20
35.29190126
  0
VERTEX
  8
0
 10
249.56359331
 20
35.63537944
  0
VERTEX
  8
0
 10
250.07368602
 20
35.94468700
  0
VERTEX
  8
0
 10
250.57788150
 20
36.20455162
  0
VERTEX
  8
0
 10
251.07639451
 20
36.41627666
  0
VERTEX
  8
0
 10
251.56943984
 20
36.58116552
  0
VERTEX
  8
0
 10
252.05723224
 20
36.70052155
  0
VERTEX
  8
0
 10
252.53998651
 20
36.77564815
  0
VERTEX
  8
0
 10
253.01791741
 20
36.80784869
  0
VERTEX
  8
0
 10
253.49123973
 20
36.79842655
  0
VERTEX
  8
0
 10
253.96016822
 20
36.74868510
  0
VERTEX
  8
0
 10
254.42491768
 20
36.65992773
  0
VERTEX
  8
0
 10
254.88570287
 20
36.53345781
  0
VERTEX
  8
0
 10
255.34273857
 20
36.37057872
  0
VERTEX
  8
0
 10
255.79623956
 20
36.17259383
  0
VERTEX
  8
0
 10
256.24642061
 20
35.94080654
  0
VERTEX
  8
0
 10
256.69349649
 20
35.67652020
  0
VERTEX
  8
0
 10
257.13768198
 20
35.38103821
  0
VERTEX
  8
0
 10
257.57919185
 20
35.05566394
  0
VERTEX
  8
0
 10
258.01824089
 20
34.70170076
  0
VERTEX
  8
0
 10
258.45504386
 20
34.32045206
  0
VERTEX
  8
0
 10
258.88981554
 20
33.91322121
  0
VERTEX
  8
0
 10
259.32277070
 20
33.48131159
  0
VERTEX
  8
0
 10
259.75412412
 20
33.02602658
  0
VERTEX
  8
0
 10
260.61288485
 20
32.05054390
  0
VERTEX
  8
0
 10
261.46781591
 20
30.99720019
  0
VERTEX
  8
0
 10
262.32063551
 20
29.87642247
  0
VERTEX
  8
0
 10
263.17306185
 20
28.69863776
  0
VERTEX
  8
0
 10
264.02681313
 20
27.47427309
  0
VERTEX
  8
0
 10
265.74516330
 20
24.92751196
  0
VERTEX
  8
0
 10
267.48943161
 20
22.31955527
  0
VERTEX
  8
0
 10
268.37558057
 20
21.01869614
  0
VERTEX
  8
0
 10
269.27336367
 20
19.73381918
  0
VERTEX
  8
0
 10
270.18449910
 20
18.47535143
  0
VERTEX
  8
0
 10
271.11070507
 20
17.25371990
  0
VERTEX
  8
0
 10
272.05369978
 20
16.07935161
  0
VERTEX
  8
0
 10
273.01520142
 20
14.96267359
  0
VERTEX
  8
0
 10
273.50342928
 20
14.42922688
  0
VERTEX
  8
0
 10
273.99692820
 20
13.91411287
  0
VERTEX
  8
0
 10
274.49591295
 20
13.41863494
  0
VERTEX
  8
0
 10
275.00059831
 20
12.94409646
  0
VERTEX
  8
0
 10
275.51119905
 20
12.49180082
  0
VERTEX
  8
0
 10
276.02792995
 20
12.06305139
  0
VERTEX
  8
0
 10
276.55100579
 20
11.65915155
  0
VERTEX
  8
0
 10
277.08064134
 20
11.28140468
  0
VERTEX
  8
0
 10
277.61705136
 20
10.93111415
  0
VERTEX
  8
0
 10
278.16045065
 20
10.60958335
  0
VERTEX
  8
0
 10
278.71105397
 20
10.31811565
  0
VERTEX
  8
0
 10
279.26907610
 20
10.05801444
  0
VERTEX
  8
0
 10
279.76323850
 20
9.87800629
  0
VERTEX
  8
0
 10
280.38024205
 20
9.71155640
  0
VERTEX
  8
0
 10
281.11162977
 20
9.55889753
  0
VERTEX
  8
0
 10
281.94894469
 20
9.42026245
  0
VERTEX
  8
0
 10
282.88372984
 20
9.29588393
  0
VERTEX
  8
0
 10
283.90752824
 20
9.18599474
  0
VERTEX
  8
0
 10
285.01188290
 20
9.09082765
  0
VERTEX
  8
0
 10
286.18833686
 20
9.01061543
  0
VERTEX
  8
0
 10
287.42843314
 20
8.94559084
  0
VERTEX
  8
0
 10
288.72371477
 20
8.89598665
  0
VERTEX
  8
0
 10
290.06572476
 20
8.86203563
  0
VERTEX
  8
0
 10
291.44600614
 20
8.84397054
  0
VERTEX
  8
0
 10
292.85610194
 20
8.84202417
  0
VERTEX
  8
0
 10
294.28755517
 20
8.85642927
  0
VERTEX
  8
0
 10
295.73190887
 20
8.88741862
  0
VERTEX
  8
0
 10
297.18070606
 20
8.93522497
  0
VERTEX
  8
0
 10
298.62548976
 20
9.00008111
  0
VERTEX
  8
0
 10
300.05780299
 20
9.08221980
  0
VERTEX
  8
0
 10
301.46918878
 20
9.18187380
  0
VERTEX
  8
0
 10
302.85119015
 20
9.29927589
  0
VERTEX
  8
0
 10
304.19535013
 20
9.43465883
  0
VERTEX
  8
0
 10
305.49321175
 20
9.58825540
  0
VERTEX
  8
0
 10
306.73631801
 20
9.76029835
  0
VERTEX
  8
0
 10
307.91621196
 20
9.95102047
  0
VERTEX
  8
0
 10
309.02443661
 20
10.16065451
  0
VERTEX
  8
0
 10
310.05253498
 20
10.38943324
  0
VERTEX
  8
0
 10
310.99205011
 20
10.63758944
  0
VERTEX
  8
0
 10
311.83452501
 20
10.90535587
  0
VERTEX
  8
0
 10
312.57150271
 20
11.19296531
  0
VERTEX
  8
0
 10
312.89778730
 20
11.34428389
  0
VERTEX
  8
0
 10
313.19452623
 20
11.50065051
  0
VERTEX
  8
0
 10
313.46066237
 20
11.66209426
  0
VERTEX
  8
0
 10
313.69513859
 20
11.82864425
  0
VERTEX
  8
0
 10
313.89689779
 20
12.00032956
  0
VERTEX
  8
0
 10
314.06488283
 20
12.17717929
  0
VERTEX
  8
0
 10
314.20812240
 20
12.37422406
  0
VERTEX
  8
0
 10
314.31868619
 20
12.58445924
  0
VERTEX
  8
0
 10
314.39745701
 20
12.80745127
  0
VERTEX
  8
0
 10
314.44531766
 20
13.04276660
  0
VERTEX
  8
0
 10
314.46315096
 20
13.28997166
  0
VERTEX
  8
0
 10
314.45183970
 20
13.54863288
  0
VERTEX
  8
0
 10
314.41226671
 20
13.81831670
  0
VERTEX
  8
0
 10
314.34531477
 20
14.09858956
  0
VERTEX
  8
0
 10
314.25186671
 20
14.38901790
  0
VERTEX
  8
0
 10
314.13280533
 20
14.68916815
  0
VERTEX
  8
0
 10
313.98901342
 20
14.99860675
  0
VERTEX
  8
0
 10
313.82137382
 20
15.31690014
  0
VERTEX
  8
0
 10
313.41808270
 20
15.97831703
  0
VERTEX
  8
0
 10
312.92999443
 20
16.66995031
  0
VERTEX
  8
0
 10
312.36417147
 20
17.38833148
  0
VERTEX
  8
0
 10
311.72767627
 20
18.12999204
  0
VERTEX
  8
0
 10
311.02757128
 20
18.89146348
  0
VERTEX
  8
0
 10
310.27091897
 20
19.66927730
  0
VERTEX
  8
0
 10
309.46478178
 20
20.45996499
  0
VERTEX
  8
0
 10
308.61622217
 20
21.26005805
  0
VERTEX
  8
0
 10
307.73230260
 20
22.06608798
  0
VERTEX
  8
0
 10
306.82008552
 20
22.87458627
  0
VERTEX
  8
0
 10
304.93900867
 20
24.48511392
  0
VERTEX
  8
0
 10
303.02949125
 20
26.06389298
  0
VERTEX
  8
0
 10
301.14803291
 20
27.58317541
  0
VERTEX
  8
0
 10
299.35113329
 20
29.01521318
  0
VERTEX
  8
0
 10
297.69529204
 20
30.33225826
  0
VERTEX
  8
0
 10
296.23700880
 20
31.50656262
  0
VERTEX
  8
0
 10
295.03278321
 20
32.51037823
  0
VERTEX
  8
0
 10
294.54359818
 20
32.93968149
  0
VERTEX
  8
0
 10
294.13911492
 20
33.31595705
  0
VERTEX
  8
0
 10
292.95613750
 20
34.44486172
  0
VERTEX
  8
0
 10
291.73852578
 20
35.57566860
  0
VERTEX
  8
0
 10
290.49080551
 20
36.70851628
  0
VERTEX
  8
0
 10
289.21750242
 20
37.84354338
  0
VERTEX
  8
0
 10
286.61225078
 20
40.12069021
  0
VERTEX
  8
0
 10
283.95897678
 20
42.40821788
  0
VERTEX
  8
0
 10
281.29388633
 20
44.70723518
  0
VERTEX
  8
0
 10
278.65318536
 20
47.01885093
  0
VERTEX
  8
0
 10
277.35329528
 20
48.17972972
  0
VERTEX
  8
0
 10
276.07307979
 20
49.34417391
  0
VERTEX
  8
0
 10
274.81706463
 20
50.51232212
  0
VERTEX
  8
0
 10
273.58977554
 20
51.68431293
  0
VERTEX
  8
0
 10
272.39573826
 20
52.86028495
  0
VERTEX
  8
0
 10
271.23947853
 20
54.04037678
  0
VERTEX
  8
0
 10
270.12552210
 20
55.22472702
  0
VERTEX
  8
0
 10
269.05839469
 20
56.41347427
  0
VERTEX
  8
0
 10
268.04262206
 20
57.60675713
  0
VERTEX
  8
0
 10
267.08272994
 20
58.80471419
  0
VERTEX
  8
0
 10
266.18324407
 20
60.00748407
  0
VERTEX
  8
0
 10
265.34869020
 20
61.21520535
  0
VERTEX
  8
0
 10
264.95717705
 20
61.82096608
  0
VERTEX
  8
0
 10
264.58359406
 20
62.42801664
  0
VERTEX
  8
0
 10
264.22850693
 20
63.03637435
  0
VERTEX
  8
0
 10
263.89248139
 20
63.64605653
  0
VERTEX
  8
0
 10
263.57608315
 20
64.25708052
  0
VERTEX
  8
0
 10
263.27987793
 20
64.86946364
  0
VERTEX
  8
0
 10
263.00443145
 20
65.48322320
  0
VERTEX
  8
0
 10
262.75030943
 20
66.09837655
  0
VERTEX
  8
0
 10
262.51807758
 20
66.71494099
  0
VERTEX
  8
0
 10
262.30830162
 20
67.33293387
  0
VERTEX
  8
0
 10
262.12154727
 20
67.95237249
  0
VERTEX
  8
0
 10
261.95838025
 20
68.57327419
  0
VERTEX
  8
0
 10
261.81936627
 20
69.19565630
  0
VERTEX
  8
0
 10
261.70507105
 20
69.81953613
  0
VERTEX
  8
0
 10
261.61606031
 20
70.44493101
  0
VERTEX
  8
0
 10
261.55289976
 20
71.07185827
  0
VERTEX
  8
0
 10
262.65845150
 20
72.13303885
  0
VERTEX
  8
0
 10
263.74866939
 20
73.21120631
  0
VERTEX
  8
0
 10
264.82353216
 20
74.30620405
  0
VERTEX
  8
0
 10
265.88301855
 20
75.41787548
  0
VERTEX
  8
0
 10
266.92710731
 20
76.54606399
  0
VERTEX
  8
0
 10
267.95577716
 20
77.69061299
  0
VERTEX
  8
0
 10
268.96900685
 20
78.85136588
  0
VERTEX
  8
0
 10
269.96677513
 20
80.02816605
  0
VERTEX
  8
0
 10
270.94906071
 20
81.22085692
  0
VERTEX
  8
0
 10
271.91584236
 20
82.42928187
  0
VERTEX
  8
0
 10
272.86709880
 20
83.65328431
  0
VERTEX
  8
0
 10
273.80280877
 20
84.89270765
  0
VERTEX
  8
0
 10
274.72295101
 20
86.14739528
  0
VERTEX
  8
0
 10
275.62750427
 20
87.41719061
  0
VERTEX
  8
0
 10
276.51644727
 20
88.70193703
  0
VERTEX
  8
0
 10
277.38975876
 20
90.00147794
  0
VERTEX
  8
0
 10
278.24741748
 20
91.31565676
  0
VERTEX
  8
0
 10
279.08940217
 20
92.64431687
  0
VERTEX
  8
0
 10
279.91569156
 20
93.98730168
  0
VERTEX
  8
0
 10
280.72626439
 20
95.34445460
  0
VERTEX
  8
0
 10
281.52109941
 20
96.71561901
  0
VERTEX
  8
0
 10
282.30017535
 20
98.10063833
  0
VERTEX
  8
0
 10
283.06347095
 20
99.49935595
  0
VERTEX
  8
0
 10
283.81096494
 20
100.91161528
  0
VERTEX
  8
0
 10
284.54263608
 20
102.33725971
  0
VERTEX
  8
0
 10
285.25846309
 20
103.77613264
  0
VERTEX
  8
0
 10
285.95842471
 20
105.22807749
  0
VERTEX
  8
0
 10
286.64249969
 20
106.69293765
  0
VERTEX
  8
0
 10
287.31066676
 20
108.17055651
  0
VERTEX
  8
0
 10
287.96290467
 20
109.66077749
  0
VERTEX
  8
0
 10
288.59919214
 20
111.16344397
  0
VERTEX
  8
0
 10
289.21950793
 20
112.67839937
  0
VERTEX
  8
0
 10
289.82383076
 20
114.20548709
  0
VERTEX
  8
0
 10
290.41213938
 20
115.74455052
  0
VERTEX
  8
0
 10
290.98441252
 20
117.29543306
  0
VERTEX
  8
0
 10
291.54062893
 20
118.85797812
  0
VERTEX
  8
0
 10
292.08076734
 20
120.43202911
  0
VERTEX
  8
0
 10
292.60480649
 20
122.01742941
  0
VERTEX
  8
0
 10
293.11272513
 20
123.61402243
  0
VERTEX
  8
0
 10
293.60450198
 20
125.22165157
  0
VERTEX
  8
0
 10
294.08011580
 20
126.84016023
  0
VERTEX
  8
0
 10
294.53954531
 20
128.46939182
  0
VERTEX
  8
0
 10
294.98276925
 20
130.10918973
  0
VERTEX
  8
0
 10
295.40976637
 20
131.75939736
  0
VERTEX
  8
0
 10
295.82051541
 20
133.41985813
  0
VERTEX
  8
0
 10
296.21499509
 20
135.09041542
  0
VERTEX
  8
0
 10
296.59318417
 20
136.77091264
  0
VERTEX
  8
0
 10
296.95506138
 20
138.46119319
  0
VERTEX
  8
0
 10
297.30060546
 20
140.16110046
  0
VERTEX
  8
0
 10
297.62979514
 20
141.87047787
  0
VERTEX
  8
0
 10
297.94260918
 20
143.58916882
  0
VERTEX
  8
0
 10
298.23902629
 20
145.31701669
  0
VERTEX
  8
0
 10
298.51902523
 20
147.05386491
  0
VERTEX
  8
0
 10
298.78258474
 20
148.79955685
  0
VERTEX
  8
0
 10
299.02968354
 20
150.55393594
  0
VERTEX
  8
0
 10
299.26030039
 20
152.31684556
  0
VERTEX
  8
0
 10
299.47441401
 20
154.08812912
  0
VERTEX
  8
0
 10
299.67200316
 20
155.86763002
  0
VERTEX
  8
0
 10
299.85304656
 20
157.65519166
  0
VERTEX
  8
0
 10
300.01752295
 20
159.45065744
  0
VERTEX
  8
0
 10
300.16541109
 20
161.25387077
  0
VERTEX
  8
0
 10
300.29668969
 20
163.06467504
  0
VERTEX
  8
0
 10
300.41133751
 20
164.88291366
  0
VERTEX
  8
0
 10
300.50933327
 20
166.70843002
  0
VERTEX
  8
0
 10
300.59065573
 20
168.54106752
  0
VERTEX
  8
0
 10
300.65528361
 20
170.38066958
  0
VERTEX
  8
0
 10
300.70319567
 20
172.22707959
  0
VERTEX
  8
0
 10
300.73437063
 20
174.08014094
  0
VERTEX
  8
0
 10
300.74878723
 20
175.93969705
  0
VERTEX
  8
0
 10
300.74642422
 20
177.80559131
  0
VERTEX
  8
0
 10
300.72726033
 20
179.67766712
  0
VERTEX
  8
0
 10
300.69127430
 20
181.55576789
  0
VERTEX
  8
0
 10
300.63844487
 20
183.43973701
  0
VERTEX
  8
0
 10
300.56875078
 20
185.32941789
  0
VERTEX
  8
0
 10
300.48217077
 20
187.22465392
  0
VERTEX
  8
0
 10
300.37868357
 20
189.12528852
  0
VERTEX
  8
0
 10
300.25826793
 20
191.03116507
  0
VERTEX
  8
0
 10
300.12090259
 20
192.94212698
  0
VERTEX
  8
0
 10
299.96656628
 20
194.85801766
  0
VERTEX
  8
0
 10
299.79523774
 20
196.77868050
  0
VERTEX
  8
0
 10
299.60689571
 20
198.70395890
  0
VERTEX
  8
0
 10
299.40151892
 20
200.63369627
  0
VERTEX
  8
0
 10
299.17908613
 20
202.56773600
  0
VERTEX
  8
0
 10
298.93957607
 20
204.50592150
  0
VERTEX
  8
0
 10
298.68296747
 20
206.44809617
  0
VERTEX
  8
0
 10
298.40923907
 20
208.39410340
  0
VERTEX
  8
0
 10
298.11836962
 20
210.34378661
  0
VERTEX
  8
0
 10
297.81033785
 20
212.29698918
  0
VERTEX
  8
0
 10
297.48512250
 20
214.25355453
  0
VERTEX
  8
0
 10
297.14270231
 20
216.21332605
  0
VERTEX
  8
0
 10
296.78305602
 20
218.17614715
  0
VERTEX
  8
0
 10
296.40616237
 20
220.14186122
  0
VERTEX
  8
0
 10
296.01200009
 20
222.11031166
  0
VERTEX
  8
0
 10
295.60054793
 20
224.08134189
  0
VERTEX
  8
0
 10
295.17178462
 20
226.05479529
  0
VERTEX
  8
0
 10
294.72568891
 20
228.03051527
  0
VERTEX
  8
0
 10
294.26223953
 20
230.00834523
  0
VERTEX
  8
0
 10
293.78141521
 20
231.98812857
  0
VERTEX
  8
0
 10
293.28319471
 20
233.96970869
  0
VERTEX
  8
0
 10
292.76755675
 20
235.95292900
  0
VERTEX
  8
0
 10
292.23448008
 20
237.93763289
  0
VERTEX
  8
0
 10
291.68394344
 20
239.92366377
  0
VERTEX
  8
0
 10
291.11592556
 20
241.91086503
  0
VERTEX
  8
0
 10
290.53040518
 20
243.89908008
  0
VERTEX
  8
0
 10
289.92736105
 20
245.88815232
  0
VERTEX
  8
0
 10
289.30677189
 20
247.87792515
  0
VERTEX
  8
0
 10
288.66861646
 20
249.86824197
  0
VERTEX
  8
0
 10
288.01287348
 20
251.85894618
  0
VERTEX
  8
0
 10
287.33952170
 20
253.84988118
  0
VERTEX
  8
0
 10
286.64853986
 20
255.84089038
  0
VERTEX
  8
0
 10
285.93990669
 20
257.83181717
  0
VERTEX
  8
0
 10
285.21360093
 20
259.82250496
  0
VERTEX
  8
0
 10
284.46960133
 20
261.81279714
  0
VERTEX
  8
0
 10
283.70788662
 20
263.80253712
  0
VERTEX
  8
0
 10
282.92843553
 20
265.79156830
  0
VERTEX
  8
0
 10
282.13122682
 20
267.77973408
  0
VERTEX
  8
0
 10
281.31623922
 20
269.76687786
  0
VERTEX
  8
0
 10
280.48345146
 20
271.75284304
  0
VERTEX
  8
0
 10
279.63284228
 20
273.73747303
  0
VERTEX
  8
0
 10
278.76439043
 20
275.72061122
  0
VERTEX
  8
0
 10
277.87807464
 20
277.70210101
  0
VERTEX
  8
0
 10
276.97387366
 20
279.68178581
  0
VERTEX
  8
0
 10
276.05176621
 20
281.65950902
  0
VERTEX
  8
0
 10
275.11173104
 20
283.63511404
  0
VERTEX
  8
0
 10
274.15374689
 20
285.60844426
  0
VERTEX
  8
0
 10
273.17779250
 20
287.57934309
  0
VERTEX
  8
0
 10
272.18384661
 20
289.54765394
  0
VERTEX
  8
0
 10
271.17188794
 20
291.51322020
  0
VERTEX
  8
0
 10
270.22824793
 20
293.31222387
  0
VERTEX
  8
0
 10
269.27139816
 20
295.10402257
  0
VERTEX
  8
0
 10
267.31869752
 20
298.66549200
  0
VERTEX
  8
0
 10
265.31504243
 20
302.19660243
  0
VERTEX
  8
0
 10
263.26168928
 20
305.69632778
  0
VERTEX
  8
0
 10
261.15989447
 20
309.16364200
  0
VERTEX
  8
0
 10
259.01091439
 20
312.59751901
  0
VERTEX
  8
0
 10
256.81600546
 20
315.99693276
  0
VERTEX
  8
0
 10
254.57642406
 20
319.36085717
  0
VERTEX
  8
0
 10
252.29342660
 20
322.68826618
  0
VERTEX
  8
0
 10
249.96826946
 20
325.97813373
  0
VERTEX
  8
0
 10
247.60220906
 20
329.22943375
  0
VERTEX
  8
0
 10
245.19650178
 20
332.44114017
  0
VERTEX
  8
0
 10
242.75240404
 20
335.61222693
  0
VERTEX
  8
0
 10
240.27117221
 20
338.74166796
  0
VERTEX
  8
0
 10
237.75406272
 20
341.82843720
  0
VERTEX
  8
0
 10
235.20233194
 20
344.87150857
  0
VERTEX
  8
0
 10
232.61723628
 20
347.86985603
  0
VERTEX
  8
0
 10
230.00003214
 20
350.82245349
  0
VERTEX
  8
0
 10
227.35197592
 20
353.72827489
  0
VERTEX
  8
0
 10
224.67432401
 20
356.58629418
  0
VERTEX
  8
0
 10
221.96833282
 20
359.39548527
  0
VERTEX
  8
0
 10
219.23525874
 20
362.15482211
  0
VERTEX
  8
0
 10
216.47635817
 20
364.86327864
  0
VERTEX
  8
0
 10
213.69288750
 20
367.51982877
  0
VERTEX
  8
0
 10
210.88610314
 20
370.12344646
  0
VERTEX
  8
0
 10
208.05726149
 20
372.67310563
  0
VERTEX
  8
0
 10
205.20761894
 20
375.16778022
  0
VERTEX
  8
0
 10
202.33843189
 20
377.60644416
  0
VERTEX
  8
0
 10
199.45095674
 20
379.98807139
  0
VERTEX
  8
0
 10
196.54644989
 20
382.31163584
  0
VERTEX
  8
0
 10
193.62616774
 20
384.57611145
  0
VERTEX
  8
0
 10
190.69136668
 20
386.78047214
  0
VERTEX
  8
0
 10
187.74330311
 20
388.92369186
  0
VERTEX
  8
0
 10
184.78323343
 20
391.00474453
  0
VERTEX
  8
0
 10
181.81241405
 20
393.02260410
  0
VERTEX
  8
0
 10
178.83210135
 20
394.97624450
  0
VERTEX
  8
0
 10
175.84355173
 20
396.86463966
  0
VERTEX
  8
0
 10
174.34658071
 20
397.78404963
  0
VERTEX
  8
0
 10
172.84802160
 20
398.68676351
  0
VERTEX
  8
0
 10
171.34803147
 20
399.57265305
  0
VERTEX
  8
0
 10
169.84676736
 20
400.44158999
  0
VERTEX
  8
0
 10
168.34438631
 20
401.29344608
  0
VERTEX
  8
0
 10
166.84104539
 20
402.12809304
  0
VERTEX
  8
0
 10
165.33690164
 20
402.94540263
  0
VERTEX
  8
0
 10
163.83211210
 20
403.74524659
  0
VERTEX
  8
0
 10
162.32683384
 20
404.52749665
  0
VERTEX
  8
0
 10
160.82122389
 20
405.29202456
  0
VERTEX
  8
0
 10
159.31543932
 20
406.03870207
  0
VERTEX
  8
0
 10
157.80963716
 20
406.76740091
  0
VERTEX
  8
0
 10
156.30397447
 20
407.47799282
  0
VERTEX
  8
0
 10
154.79860830
 20
408.17034956
  0
VERTEX
  8
0
 10
153.29369570
 20
408.84434285
  0
VERTEX
  8
0
 10
151.78939371
 20
409.49984444
  0
VERTEX
  8
0
 10
150.28585940
 20
410.13672607
  0
VERTEX
  8
0
 10
148.78324980
 20
410.75485949
  0
VERTEX
  8
0
 10
147.28172197
 20
411.35411644
  0
VERTEX
  8
0
 10
145.78143295
 20
411.93436865
  0
VERTEX
  8
0
 10
144.28253980
 20
412.49548787
  0
VERTEX
  8
0
 10
142.78519957
 20
413.03734584
  0
VERTEX
  8
0
 10
141.28956930
 20
413.55981431
  0
VERTEX
  8
0
 10
139.79580605
 20
414.06276501
  0
VERTEX
  8
0
 10
138.30406687
 20
414.54606969
  0
VERTEX
  8
0
 10
136.81450880
 20
415.00960009
  0
VERTEX
  8
0
 10
135.32728890
 20
415.45322795
  0
VERTEX
  8
0
 10
133.84256421
 20
415.87682501
  0
VERTEX
  8
0
 10
132.36049179
 20
416.28026301
  0
VERTEX
  8
0
 10
130.88122869
 20
416.66341370
  0
VERTEX
  8
0
 10
129.40493194
 20
417.02614882
  0
VERTEX
  8
0
 10
127.93175862
 20
417.36834010
  0
VERTEX
  8
0
 10
126.46186575
 20
417.68985930
  0
VERTEX
  8
0
 10
124.99541040
 20
417.99057815
  0
VERTEX
  8
0
 10
123.53254962
 20
418.27036840
  0
VERTEX
  8
0
 10
122.07344044
 20
418.52910178
  0
VERTEX
  8
0
 10
120.61823994
 20
418.76665004
  0
VERTEX
  8
0
 10
119.16710514
 20
418.98288492
  0
VERTEX
  8
0
 10
117.72019311
 20
419.17767816
  0
VERTEX
  8
0
 10
116.27766089
 20
419.35090151
  0
VERTEX
  8
0
 10
114.83966553
 20
419.50242670
  0
VERTEX
  8
0
 10
113.40636409
 20
419.63212548
  0
VERTEX
  8
0
 10
111.97791360
 20
419.73986958
  0
VERTEX
  8
0
 10
110.55447113
 20
419.82553076
  0
VERTEX
  8
0
 10
109.13619372
 20
419.88898075
  0
VERTEX
  8
0
 10
107.72323842
 20
419.93009130
  0
VERTEX
  8
0
 10
106.31576229
 20
419.94873414
  0
VERTEX
  8
0
 10
104.91392236
 20
419.94478102
  0
VERTEX
  8
0
 10
103.51787570
 20
419.91810368
  0
VERTEX
  8
0
 10
102.12777934
 20
419.86857386
  0
VERTEX
  8
0
 10
100.74379035
 20
419.79606330
  0
VERTEX
  8
0
 10
99.36606577
 20
419.70044375
  0
VERTEX
  8
0
 10
97.99476264
 20
419.58158695
  0
VERTEX
  8
0
 10
96.63003803
 20
419.43936463
  0
VERTEX
  8
0
 10
109.83065775
 20
374.35780522
  0
VERTEX
  8
0
 10
83.87832051
 20
416.85531424
  0
VERTEX
  8
0
 10
82.16574720
 20
416.32019832
  0
VERTEX
  8
0
 10
80.46705717
 20
415.73986341
  0
VERTEX
  8
0
 10
78.78271845
 20
415.11402614
  0
VERTEX
  8
0
 10
77.11319907
 20
414.44240312
  0
VERTEX
  8
0
 10
75.45896708
 20
413.72471100
  0
VERTEX
  8
0
 10
73.82049051
 20
412.96066638
  0
VERTEX
  8
0
 10
72.19823739
 20
412.14998591
  0
VERTEX
  8
0
 10
70.59267577
 20
411.29238620
  0
VERTEX
  8
0
 10
69.00427368
 20
410.38758388
  0
VERTEX
  8
0
 10
67.43349916
 20
409.43529557
  0
VERTEX
  8
0
 10
65.88082024
 20
408.43523791
  0
VERTEX
  8
0
 10
64.34670497
 20
407.38712751
  0
VERTEX
  8
0
 10
62.83162137
 20
406.29068101
  0
VERTEX
  8
0
 10
61.33603750
 20
405.14561502
  0
VERTEX
  8
0
 10
59.86042138
 20
403.95164618
  0
VERTEX
  8
0
 10
58.40524105
 20
402.70849111
  0
VERTEX
  8
0
 10
57.63460523
 20
402.01915926
  0
VERTEX
  8
0
 10
56.85865977
 20
401.29900424
  0
VERTEX
  8
0
 10
56.07772854
 20
400.54832112
  0
VERTEX
  8
0
 10
55.29213542
 20
399.76740499
  0
VERTEX
  8
0
 10
54.50220426
 20
398.95655094
  0
VERTEX
  8
0
 10
53.70825894
 20
398.11605406
  0
VERTEX
  8
0
 10
52.91062332
 20
397.24620943
  0
VERTEX
  8
0
 10
52.10962128
 20
396.34731213
  0
VERTEX
  8
0
 10
51.30557667
 20
395.41965726
  0
VERTEX
  8
0
 10
50.49881338
 20
394.46353990
  0
VERTEX
  8
0
 10
49.68965526
 20
393.47925513
  0
VERTEX
  8
0
 10
48.87842618
 20
392.46709804
  0
VERTEX
  8
0
 10
48.06545001
 20
391.42736372
  0
VERTEX
  8
0
 10
47.25105063
 20
390.36034726
  0
VERTEX
  8
0
 10
46.43555189
 20
389.26634373
  0
VERTEX
  8
0
 10
45.61927767
 20
388.14564823
  0
VERTEX
  8
0
 10
43.98569824
 20
385.82536166
  0
VERTEX
  8
0
 10
42.35290328
 20
383.40184822
  0
VERTEX
  8
0
 10
40.72348375
 20
380.87746861
  0
VERTEX
  8
0
 10
39.10003058
 20
378.25458352
  0
VERTEX
  8
0
 10
37.48513471
 20
375.53555363
  0
VERTEX
  8
0
 10
35.88138709
 20
372.72273964
  0
VERTEX
  8
0
 10
34.29137867
 20
369.81850223
  0
VERTEX
  8
0
 10
32.71770038
 20
366.82520209
  0
VERTEX
  8
0
 10
31.16294316
 20
363.74519991
  0
VERTEX
  8
0
 10
29.62969797
 20
360.58085638
  0
VERTEX
  8
0
 10
28.12055575
 20
357.33453219
  0
VERTEX
  8
0
 10
26.63810743
 20
354.00858803
  0
VERTEX
  8
0
 10
25.18494396
 20
350.60538459
  0
VERTEX
  8
0
 10
23.76365628
 20
347.12728256
  0
VERTEX
  8
0
 10
22.37683534
 20
343.57664262
  0
VERTEX
  8
0
 10
21.69715957
 20
341.77485865
  0
VERTEX
  8
0
 10
21.02707208
 20
339.95582547
  0
VERTEX
  8
0
 10
20.36689676
 20
338.11983815
  0
VERTEX
  8
0
 10
19.71695745
 20
336.26719179
  0
VERTEX
  8
0
 10
19.07757804
 20
334.39818146
  0
VERTEX
  8
0
 10
18.44908238
 20
332.51310227
  0
VERTEX
  8
0
 10
17.83179435
 20
330.61224929
  0
VERTEX
  8
0
 10
17.22603782
 20
328.69591760
  0
VERTEX
  8
0
 10
16.63213665
 20
326.76440231
  0
VERTEX
  8
0
 10
16.05041472
 20
324.81799848
  0
VERTEX
  8
0
 10
15.48119588
 20
322.85700121
  0
VERTEX
  8
0
 10
14.92480401
 20
320.88170559
  0
VERTEX
  8
0
 10
14.38156297
 20
318.89240669
  0
VERTEX
  8
0
 10
13.85179664
 20
316.88939961
  0
VERTEX
  8
0
 10
13.33582887
 20
314.87297944
  0
VERTEX
  8
0
 10
12.83398355
 20
312.84344125
  0
VERTEX
  8
0
 10
12.34658453
 20
310.80108013
  0
VERTEX
  8
0
 10
11.87395569
 20
308.74619118
  0
VERTEX
  8
0
 10
11.41642088
 20
306.67906947
  0
VERTEX
  8
0
 10
10.97430399
 20
304.60001010
  0
VERTEX
  8
0
 10
10.54792888
 20
302.50930814
  0
VERTEX
  8
0
 10
10.13761941
 20
300.40725869
  0
VERTEX
  8
0
 10
9.74369946
 20
298.29415683
  0
VERTEX
  8
0
 10
9.36649288
 20
296.17029765
  0
VERTEX
  8
0
 10
9.00632356
 20
294.03597623
  0
VERTEX
  8
0
 10
8.66351535
 20
291.89148766
  0
VERTEX
  8
0
 10
8.33839213
 20
289.73712703
  0
VERTEX
  8
0
 10
8.03127777
 20
287.57318941
  0
VERTEX
  8
0
 10
7.74249612
 20
285.39996991
  0
VERTEX
  8
0
 10
7.47237106
 20
283.21776360
  0
VERTEX
  8
0
 10
7.22122646
 20
281.02686557
  0
VERTEX
  8
0
 10
6.98938619
 20
278.82757091
  0
VERTEX
  8
0
 10
6.77717410
 20
276.62017470
  0
VERTEX
  8
0
 10
6.58491408
 20
274.40497202
  0
VERTEX
  8
0
 10
6.41292999
 20
272.18225798
  0
VERTEX
  8
0
 10
6.26154569
 20
269.95232764
  0
VERTEX
  8
0
 10
6.13108506
 20
267.71547610
  0
VERTEX
  8
0
 10
6.02187196
 20
265.47199844
  0
VERTEX
  8
0
 10
5.93423026
 20
263.22218976
  0
VERTEX
  8
0
 10
5.86848382
 20
260.96634513
  0
VERTEX
  8
0
 10
5.82495653
 20
258.70475964
  0
VERTEX
  8
0
 10
5.80397223
 20
256.43772837
  0
VERTEX
  8
0
 10
5.80585481
 20
254.16554643
  0
VERTEX
  8
0
 10
5.83092813
 20
251.88850888
  0
VERTEX
  8
0
 10
5.87951606
 20
249.60691081
  0
VERTEX
  8
0
 10
5.95194246
 20
247.32104732
  0
VERTEX
  8
0
 10
6.04853120
 20
245.03121349
  0
VERTEX
  8
0
 10
6.16960616
 20
242.73770440
  0
VERTEX
  8
0
 10
6.31549119
 20
240.44081515
  0
VERTEX
  8
0
 10
6.48651017
 20
238.14084081
  0
VERTEX
  8
0
 10
6.68298697
 20
235.83807647
  0
VERTEX
  8
0
 10
6.90524544
 20
233.53281722
  0
VERTEX
  8
0
 10
7.15360947
 20
231.22535815
  0
VERTEX
  8
0
 10
7.42840292
 20
228.91599434
  0
VERTEX
  8
0
 10
7.72994966
 20
226.60502087
  0
VERTEX
  8
0
 10
8.05857354
 20
224.29273284
  0
VERTEX
  8
0
 10
8.41459845
 20
221.97942533
  0
VERTEX
  8
0
 10
8.79834826
 20
219.66539343
  0
VERTEX
  8
0
 10
9.21014681
 20
217.35093221
  0
VERTEX
  8
0
 10
9.65031800
 20
215.03633678
  0
VERTEX
  8
0
 10
10.11918568
 20
212.72190221
  0
VERTEX
  8
0
 10
10.61707372
 20
210.40792359
  0
VERTEX
  8
0
 10
11.14430599
 20
208.09469600
  0
VERTEX
  8
0
 10
11.70120635
 20
205.78251454
  0
VERTEX
  8
0
 10
12.28809869
 20
203.47167429
  0
VERTEX
  8
0
 10
12.90530685
 20
201.16247033
  0
VERTEX
  8
0
 10
13.55315472
 20
198.85519776
  0
VERTEX
  8
0
 10
14.23196615
 20
196.55015165
  0
VERTEX
  8
0
 10
14.94206503
 20
194.24762709
  0
VERTEX
  8
0
 10
15.68377520
 20
191.94791917
  0
VERTEX
  8
0
 10
16.45742055
 20
189.65132298
  0
VERTEX
  8
0
 10
17.26332494
 20
187.35813360
  0
VERTEX
  8
0
 10
18.10181224
 20
185.06864612
  0
VERTEX
  8
0
 10
18.97320632
 20
182.78315562
  0
VERTEX
  8
0
 10
19.87783104
 20
180.50195720
  0
VERTEX
  8
0
 10
20.81601027
 20
178.22534592
  0
VERTEX
  8
0
 10
21.78806788
 20
175.95361690
  0
VERTEX
  8
0
 10
22.79432774
 20
173.68706519
  0
VERTEX
  8
0
 10
23.83511372
 20
171.42598591
  0
VERTEX
  8
0
 10
24.91074968
 20
169.17067412
  0
VERTEX
  8
0
 10
26.02155949
 20
166.92142493
  0
VERTEX
  8
0
 10
27.16786702
 20
164.67853340
  0
VERTEX
  8
0
 10
28.92420253
 20
161.35401206
  0
VERTEX
  8
0
 10
30.71675256
 20
158.06779073
  0
VERTEX
  8
0
 10
32.54482476
 20
154.82022744
  0
VERTEX
  8
0
 10
34.40772680
 20
151.61168023
  0
VERTEX
  8
0
 10
36.30476633
 20
148.44250715
  0
VERTEX
  8
0
 10
38.23525100
 20
145.31306625
  0
VERTEX
  8
0
 10
40.19848847
 20
142.22371555
  0
VERTEX
  8
0
 10
42.19378641
 20
139.17481311
  0
VERTEX
  8
0
 10
44.22045245
 20
136.16671697
  0
VERTEX
  8
0
 10
46.27779427
 20
133.19978516
  0
VERTEX
  8
0
 10
48.36511951
 20
130.27437573
  0
VERTEX
  8
0
 10
50.48173583
 20
127.39084673
  0
VERTEX
  8
0
 10
52.62695089
 20
124.54955619
  0
VERTEX
  8
0
 10
54.80007234
 20
121.75086216
  0
VERTEX
  8
0
 10
57.00040785
 20
118.99512267
  0
VERTEX
  8
0
 10
59.22726506
 20
116.28269578
  0
VERTEX
  8
0
 10
61.47995163
 20
113.61393951
  0
VERTEX
  8
0
 10
63.75777522
 20
110.98921192
  0
VERTEX
  8
0
 10
66.06004348
 20
108.40887105
  0
VERTEX
  8
0
 10
68.38606407
 20
105.87327494
  0
VERTEX
  8
0
 10
70.73514465
 20
103.38278162
  0
VERTEX
  8
0
 10
73.10659287
 20
100.93774915
  0
VERTEX
  8
0
 10
75.49971639
 20
98.53853557
  0
VERTEX
  8
0
 10
77.91382286
 20
96.18549890
  0
VERTEX
  8
0
 10
80.34821995
 20
93.87899721
  0
VERTEX
  8
0
 10
82.80221530
 20
91.61938853
  0
VERTEX
  8
0
 10
85.27511657
 20
89.40703090
  0
VERTEX
  8
0
 10
87.76623142
 20
87.24228236
  0
VERTEX
  8
0
 10
90.27486750
 20
85.12550096
  0
VERTEX
  8
0
 10
92.80033248
 20
83.05704474
  0
VERTEX
  8
0
 10
95.34193400
 20
81.03727174
  0
VERTEX
  8
0
 10
97.89897972
 20
79.06654000
  0
VERTEX
  8
0
 10
100.47077730
 20
77.14520757
  0
VERTEX
  8
0
 10
103.05663440
 20
75.27363248
  0
VERTEX
  8
0
 10
105.65585866
 20
73.45217278
  0
VERTEX
  8
0
 10
108.26775776
 20
71.68118651
  0
VERTEX
  8
0
 10
110.89163933
 20
69.96103171
  0
VERTEX
  8
0
 10
113.52681105
 20
68.29206643
  0
VERTEX
  8
0
 10
116.17258056
 20
66.67464871
  0
VERTEX
  8
0
 10
118.82825552
 20
65.10913658
  0
VERTEX
  8
0
 10
121.49314358
 20
63.59588809
  0
VERTEX
  8
0
 10
124.16655241
 20
62.13526129
  0
VERTEX
  8
0
 10
126.84778966
 20
60.72761421
  0
VERTEX
  8
0
 10
129.53616298
 20
59.37330489
  0
VERTEX
  8
0
 10
132.23098004
 20
58.07269139
  0
VERTEX
  8
0
 10
134.93154848
 20
56.82613173
  0
VERTEX
  8
0
 10
137.63717596
 20
55.63398397
  0
VERTEX
  8
0
 10
140.34717014
 20
54.49660614
  0
VERTEX
  8
0
 10
143.06083868
 20
53.41435629
  0
VERTEX
  8
0
 10
145.77748923
 20
52.38759246
  0
VERTEX
  8
0
 10
148.49642944
 20
51.41667269
  0
VERTEX
  8
0
 10
151.21696698
 20
50.50195502
  0
VERTEX
  8
0
 10
153.93840950
 20
49.64379749
  0
VERTEX
  8
0
 10
156.66006466
 20
48.84255815
  0
VERTEX
  8
0
 10
159.38124010
 20
48.09859504
  0
VERTEX
  8
0
 10
162.10124349
 20
47.41226620
  0
VERTEX
  8
0
 10
164.81938249
 20
46.78392967
  0
VERTEX
  8
0
 10
167.53496474
 20
46.21394350
  0
VERTEX
  8
0
 10
170.24729791
 20
45.70266573
  0
VERTEX
  8
0
 10
172.95568965
 20
45.25045439
  0
VERTEX
  8
0
 10
175.65944762
 20
44.85766753
  0
VERTEX
  8
0
 10
178.35787947
 20
44.52466320
  0
VERTEX
  8
0
 10
181.05029287
 20
44.25179943
  0
VERTEX
  8
0
 10
183.73599545
 20
44.03943426
  0
VERTEX
  8
0
 10
183.77609181
 20
43.80377970
  0
VERTEX
  8
0
 10
183.79746167
 20
43.56884569
  0
VERTEX
  8
0
 10
183.80038535
 20
43.33460890
  0
VERTEX
  8
0
 10
183.78514317
 20
43.10104599
  0
VERTEX
  8
0
 10
183.75201545
 20
42.86813361
  0
VERTEX
  8
0
 10
183.70128249
 20
42.63584843
  0
VERTEX
  8
0
 10
183.63322463
 20
42.40416711
  0
VERTEX
  8
0
 10
183.54812217
 20
42.17306631
  0
VERTEX
  8
0
 10
183.44625544
 20
41.94252269
  0
VERTEX
  8
0
 10
183.32790474
 20
41.71251290
  0
VERTEX
  8
0
 10
183.04287275
 20
41.25400149
  0
VERTEX
  8
0
 10
182.69526873
 20
40.79734535
  0
VERTEX
  8
0
 10
182.28733521
 20
40.34235777
  0
VERTEX
  8
0
 10
181.82131475
 20
39.88885204
  0
VERTEX
  8
0
 10
181.29944987
 20
39.43664142
  0
VERTEX
  8
0
 10
180.72398311
 20
38.98553922
  0
VERTEX
  8
0
 10
180.09715701
 20
38.53535870
  0
VERTEX
  8
0
 10
179.42121411
 20
38.08591315
  0
VERTEX
  8
0
 10
178.69839695
 20
37.63701586
  0
VERTEX
  8
0
 10
177.93094806
 20
37.18848010
  0
VERTEX
  8
0
 10
177.12110998
 20
36.74011915
  0
VERTEX
  8
0
 10
176.27112526
 20
36.29174630
  0
VERTEX
  8
0
 10
175.38323642
 20
35.84317484
  0
VERTEX
  8
0
 10
173.50271656
 20
34.94468917
  0
VERTEX
  8
0
 10
171.49749072
 20
34.04316841
  0
VERTEX
  8
0
 10
169.38549918
 20
33.13711881
  0
VERTEX
  8
0
 10
167.18468226
 20
32.22504664
  0
VERTEX
  8
0
 10
164.91298026
 20
31.30545813
  0
VERTEX
  8
0
 10
160.22868222
 20
29.43775718
  0
VERTEX
  8
0
 10
157.85196680
 20
28.48665724
  0
VERTEX
  8
0
 10
155.47612750
 20
27.52206600
  0
VERTEX
  8
0
 10
153.11910464
 20
26.54248972
  0
VERTEX
  8
0
 10
150.79883852
 20
25.54643465
  0
VERTEX
  8
0
 10
148.53326945
 20
24.53240705
  0
VERTEX
  8
0
 10
146.34033772
 20
23.49891318
  0
VERTEX
  8
0
 10
145.27671720
 20
22.97439960
  0
VERTEX
  8
0
 10
144.23798363
 20
22.44445930
  0
VERTEX
  8
0
 10
143.22637956
 20
21.90890555
  0
VERTEX
  8
0
 10
142.24414751
 20
21.36755165
  0
VERTEX
  8
0
 10
141.29353002
 20
20.82021087
  0
VERTEX
  8
0
 10
140.37676963
 20
20.26669650
  0
VERTEX
  8
0
 10
139.49610889
 20
19.70682182
  0
VERTEX
  8
0
 10
138.65379032
 20
19.14040010
  0
VERTEX
  8
0
 10
137.85205647
 20
18.56724464
  0
VERTEX
  8
0
 10
137.09314987
 20
17.98716871
  0
VERTEX
  8
0
 10
136.37931306
 20
17.39998560
  0
VERTEX
  8
0
 10
135.71278858
 20
16.80550859
  0
VERTEX
  8
0
 10
135.09581897
 20
16.20355096
  0
VERTEX
  8
0
 10
134.53064677
 20
15.59392599
  0
VERTEX
  8
0
 10
134.01951451
 20
14.97644696
  0
VERTEX
  8
0
 10
133.56466473
 20
14.35092717
  0
VERTEX
  8
0
 10
133.16833997
 20
13.71717988
  0
VERTEX
  8
0
 10
132.83278276
 20
13.07501838
  0
VERTEX
  8
0
 10
132.68849279
 20
12.75072395
  0
VERTEX
  8
0
 10
132.56023565
 20
12.42425595
  0
VERTEX
  8
0
 10
132.44829168
 20
12.09559104
  0
VERTEX
  8
0
 10
132.35294118
 20
11.76470588
  0
SEQEND
  0
ENDSEC
  0
EOF
