0
SECTION
2
HEADER
9
$ACADVER
1
AC1009
0
ENDSEC
0
SECTION
2
TABLES
0
TABLE
2
VPORT
70
1
0
VPORT
2
ACTIVE
70
0
10
0.0
20
0.0
11
0.0
21
0.0
12
0.0
22
0.0
13
0.0
23
0.0
14
0.0
24
0.0
15
0.0
25
0.0
16
0.0
26
0.0
36
0.0
17
0.0
27
0.0
37
0.0
40
0.0
41
0.0
42
0.0
43
0.0
44
0.0
50
0.0
51
0.0
71
0
72
1000
73
1
74
3
75
0
76
0
77
0
78
0
0
ENDTAB
0
ENDSEC
0
SECTION
2
ENTITIES
0
LINE
8
boundary
62
5
39
2
10
26.987500
20
39.226502
11
26.987500
21
33.513821
0
LINE
8
boundary
62
5
39
2
10
26.987500
20
33.513821
11
48.105590
21
33.196321
0
LINE
8
boundary
62
5
39
2
10
48.105590
20
33.196321
11
48.105590
21
27.100321
0
LINE
8
boundary
62
5
39
2
10
48.105590
20
27.100321
11
48.959450
21
26.987500
0
LINE
8
boundary
62
5
39
2
10
48.959450
20
26.987500
11
66.047961
21
26.987500
0
LINE
8
boundary
62
5
39
2
10
66.047961
20
26.987500
11
67.490219
21
26.987500
0
LINE
8
boundary
62
5
39
2
10
67.490219
20
26.987500
11
67.787011
21
27.456778
0
LINE
8
boundary
62
5
39
2
10
67.787011
20
27.456778
11
76.162099
21
40.789908
0
LINE
8
boundary
62
5
39
2
10
76.162099
20
40.789908
11
75.604331
21
42.027259
0
LINE
8
boundary
62
5
39
2
10
75.604331
20
42.027259
11
68.837772
21
56.888762
0
LINE
8
boundary
62
5
39
2
10
68.837772
20
56.888762
11
69.475546
21
57.868538
0
LINE
8
boundary
62
5
39
2
10
69.475546
20
57.868538
11
82.804310
21
78.365282
0
LINE
8
boundary
62
5
39
2
10
82.804310
20
78.365282
11
82.578131
21
80.908406
0
LINE
8
boundary
62
5
39
2
10
82.578131
20
80.908406
11
80.752694
21
101.033582
0
LINE
8
boundary
62
5
39
2
10
80.752694
20
101.033582
11
83.061413
21
104.500137
0
LINE
8
boundary
62
5
39
2
10
83.061413
20
104.500137
11
106.731244
21
139.837367
0
LINE
8
boundary
62
5
39
2
10
106.731244
20
139.837367
11
81.254207
21
171.150110
0
LINE
8
boundary
62
5
39
2
10
81.254207
20
171.150110
11
78.965958
21
173.963365
0
LINE
8
boundary
62
5
39
2
10
78.965958
20
173.963365
11
77.587434
21
171.940062
0
LINE
8
boundary
62
5
39
2
10
77.587434
20
171.940062
11
71.103482
21
162.432992
0
LINE
8
boundary
62
5
39
2
10
71.103482
20
162.432992
11
79.822360
21
162.115492
0
LINE
8
boundary
62
5
39
2
10
79.822360
20
162.115492
11
79.822360
21
156.019492
0
LINE
8
boundary
62
5
39
2
10
79.822360
20
156.019492
11
66.729388
21
156.019492
0
LINE
8
boundary
62
5
39
2
10
66.729388
20
156.019492
11
57.244966
21
142.112993
0
LINE
8
boundary
62
5
39
2
10
57.244966
20
142.112993
11
80.337543
21
141.795494
0
LINE
8
boundary
62
5
39
2
10
80.337543
20
141.795494
11
80.337543
21
135.699494
0
LINE
8
boundary
62
5
39
2
10
80.337543
20
135.699494
11
52.870872
21
135.699494
0
LINE
8
boundary
62
5
39
2
10
52.870872
20
135.699494
11
48.371467
21
129.102258
0
LINE
8
boundary
62
5
39
2
10
48.371467
20
129.102258
11
43.387167
21
121.792995
0
LINE
8
boundary
62
5
39
2
10
43.387167
20
121.792995
11
66.631830
21
121.475495
0
LINE
8
boundary
62
5
39
2
10
66.631830
20
121.475495
11
66.631830
21
115.379495
0
LINE
8
boundary
62
5
39
2
10
66.631830
20
115.379495
11
39.013703
21
115.379495
0
LINE
8
boundary
62
5
39
2
10
39.013703
20
115.379495
11
35.982947
21
110.935021
0
LINE
8
boundary
62
5
39
2
10
35.982947
20
110.935021
11
42.205608
21
101.155496
0
LINE
8
boundary
62
5
39
2
10
42.205608
20
101.155496
11
62.383741
21
101.155496
0
LINE
8
boundary
62
5
39
2
10
62.383741
20
101.155496
11
62.383741
21
95.059496
0
LINE
8
boundary
62
5
39
2
10
62.383741
20
95.059496
11
46.472960
21
95.059496
0
LINE
8
boundary
62
5
39
2
10
46.472960
20
95.059496
11
48.793479
21
90.823970
0
LINE
8
boundary
62
5
39
2
10
48.793479
20
90.823970
11
52.018365
21
85.760438
0
LINE
8
boundary
62
5
39
2
10
52.018365
20
85.760438
11
50.353832
21
81.152997
0
LINE
8
boundary
62
5
39
2
10
50.353832
20
81.152997
11
65.641948
21
80.835497
0
LINE
8
boundary
62
5
39
2
10
65.641948
20
80.835497
11
65.641948
21
74.739497
0
LINE
8
boundary
62
5
39
2
10
65.641948
20
74.739497
11
48.097044
21
74.739497
0
LINE
8
boundary
62
5
39
2
10
48.097044
20
74.739497
11
43.739734
21
62.865996
0
LINE
8
boundary
62
5
39
2
10
43.739734
20
62.865996
11
44.687817
21
60.832997
0
LINE
8
boundary
62
5
39
2
10
44.687817
20
60.832997
11
57.604548
21
60.515498
0
LINE
8
boundary
62
5
39
2
10
57.604548
20
60.515498
11
57.604548
21
54.419498
0
LINE
8
boundary
62
5
39
2
10
57.604548
20
54.419498
11
47.987190
21
54.419498
0
LINE
8
boundary
62
5
39
2
10
47.987190
20
54.419498
11
48.744328
21
52.086007
0
LINE
8
boundary
62
5
39
2
10
48.744328
20
52.086007
11
51.415180
21
46.332487
0
LINE
8
boundary
62
5
39
2
10
51.415180
20
46.332487
11
48.959734
21
45.615651
0
LINE
8
boundary
62
5
39
2
10
48.959734
20
45.615651
11
26.987500
21
39.226502
0
LINE
8
annotation
62
1
39
211
10
54.788131
20
27.740076
11
54.788131
21
32.556565
0
LINE
8
annotation
62
1
39
211
10
54.788131
20
32.556565
11
53.717364
21
31.485496
0
LINE
8
annotation
62
1
39
211
10
67.923002
20
54.005522
11
64.847959
21
54.005522
0
LINE
8
annotation
62
1
39
211
10
64.847959
20
54.005522
11
67.689400
21
58.579876
0
LINE
8
annotation
62
1
39
211
10
67.689400
20
58.579876
11
67.689400
21
58.579876
0
LINE
8
annotation
62
1
39
211
10
67.689400
20
58.579876
11
67.692796
21
58.584080
0
LINE
8
annotation
62
1
39
211
10
67.692796
20
58.584080
11
67.696054
21
58.588319
0
LINE
8
annotation
62
1
39
211
10
67.696054
20
58.588319
11
67.699193
21
58.592629
0
LINE
8
annotation
62
1
39
211
10
67.699193
20
58.592629
11
67.702236
21
58.597047
0
LINE
8
annotation
62
1
39
211
10
67.702236
20
58.597047
11
67.705204
21
58.601608
0
LINE
8
annotation
62
1
39
211
10
67.705204
20
58.601608
11
67.708119
21
58.606347
0
LINE
8
annotation
62
1
39
211
10
67.708119
20
58.606347
11
67.711001
21
58.611301
0
LINE
8
annotation
62
1
39
211
10
67.711001
20
58.611301
11
67.713872
21
58.616505
0
LINE
8
annotation
62
1
39
211
10
67.713872
20
58.616505
11
67.716754
21
58.621994
0
LINE
8
annotation
62
1
39
211
10
67.716754
20
58.621994
11
67.716754
21
58.621994
0
LINE
8
annotation
62
1
39
211
10
67.716754
20
58.621994
11
67.834077
21
58.873895
0
LINE
8
annotation
62
1
39
211
10
67.834077
20
58.873895
11
67.902615
21
59.135013
0
LINE
8
annotation
62
1
39
211
10
67.902615
20
59.135013
11
67.924047
21
59.399447
0
LINE
8
annotation
62
1
39
211
10
67.924047
20
59.399447
11
67.900055
21
59.661298
0
LINE
8
annotation
62
1
39
211
10
67.900055
20
59.661298
11
67.832316
21
59.914664
0
LINE
8
annotation
62
1
39
211
10
67.832316
20
59.914664
11
67.722512
21
60.153646
0
LINE
8
annotation
62
1
39
211
10
67.722512
20
60.153646
11
67.572321
21
60.372344
0
LINE
8
annotation
62
1
39
211
10
67.572321
20
60.372344
11
67.383423
21
60.564857
0
LINE
8
annotation
62
1
39
211
10
67.383423
20
60.564857
11
67.157498
21
60.725286
0
LINE
8
annotation
62
1
39
211
10
67.157498
20
60.725286
11
67.157498
21
60.725286
0
LINE
8
annotation
62
1
39
211
10
67.157498
20
60.725286
11
66.904896
21
60.840941
0
LINE
8
annotation
62
1
39
211
10
66.904896
20
60.840941
11
66.643378
21
60.908423
0
LINE
8
annotation
62
1
39
211
10
66.643378
20
60.908423
11
66.378791
21
60.929250
0
LINE
8
annotation
62
1
39
211
10
66.378791
20
60.929250
11
66.116980
21
60.904941
0
LINE
8
annotation
62
1
39
211
10
66.116980
20
60.904941
11
65.863792
21
60.837015
0
LINE
8
annotation
62
1
39
211
10
65.863792
20
60.837015
11
65.625074
21
60.726990
0
LINE
8
annotation
62
1
39
211
10
65.625074
20
60.726990
11
65.406673
21
60.576387
0
LINE
8
annotation
62
1
39
211
10
65.406673
20
60.576387
11
65.214435
21
60.386722
0
LINE
8
annotation
62
1
39
211
10
65.214435
20
60.386722
11
65.054207
21
60.159516
0
LINE
8
annotation
62
1
39
211
10
65.054207
20
60.159516
11
64.852301
21
59.772205
0
LINE
8
annotation
62
1
39
211
10
74.200978
20
73.685825
11
76.022743
21
73.685825
0
LINE
8
annotation
62
1
39
211
10
76.022743
20
73.685825
11
76.022743
21
73.685825
0
LINE
8
annotation
62
1
39
211
10
76.022743
20
73.685825
11
76.350392
21
73.715217
0
LINE
8
annotation
62
1
39
211
10
76.350392
20
73.715217
11
76.658698
21
73.799927
0
LINE
8
annotation
62
1
39
211
10
76.658698
20
73.799927
11
76.942534
21
73.934755
0
LINE
8
annotation
62
1
39
211
10
76.942534
20
73.934755
11
77.196771
21
74.114502
0
LINE
8
annotation
62
1
39
211
10
77.196771
20
74.114502
11
77.416282
21
74.333967
0
LINE
8
annotation
62
1
39
211
10
77.416282
20
74.333967
11
77.595939
21
74.587951
0
LINE
8
annotation
62
1
39
211
10
77.595939
20
74.587951
11
77.730615
21
74.871254
0
LINE
8
annotation
62
1
39
211
10
77.730615
20
74.871254
11
77.815180
21
75.178676
0
LINE
8
annotation
62
1
39
211
10
77.815180
20
75.178676
11
77.844508
21
75.505017
0
LINE
8
annotation
62
1
39
211
10
77.844508
20
75.505017
11
77.844508
21
76.417186
0
LINE
8
annotation
62
1
39
211
10
77.844508
20
76.417186
11
77.844508
21
76.417186
0
LINE
8
annotation
62
1
39
211
10
77.844508
20
76.417186
11
77.815180
21
76.743392
0
LINE
8
annotation
62
1
39
211
10
77.815180
20
76.743392
11
77.730615
21
77.050742
0
LINE
8
annotation
62
1
39
211
10
77.730615
20
77.050742
11
77.595939
21
77.334023
0
LINE
8
annotation
62
1
39
211
10
77.595939
20
77.334023
11
77.416282
21
77.588024
0
LINE
8
annotation
62
1
39
211
10
77.416282
20
77.588024
11
77.196771
21
77.807532
0
LINE
8
annotation
62
1
39
211
10
77.196771
20
77.807532
11
76.942534
21
77.987334
0
LINE
8
annotation
62
1
39
211
10
76.942534
20
77.987334
11
76.658698
21
78.122217
0
LINE
8
annotation
62
1
39
211
10
76.658698
20
78.122217
11
76.350392
21
78.206970
0
LINE
8
annotation
62
1
39
211
10
76.350392
20
78.206970
11
76.022743
21
78.236379
0
LINE
8
annotation
62
1
39
211
10
76.022743
20
78.236379
11
75.110574
21
78.236379
0
LINE
8
annotation
62
1
39
211
10
75.110574
20
78.236379
11
76.022743
21
78.236379
0
LINE
8
annotation
62
1
39
211
10
76.022743
20
78.236379
11
76.022743
21
78.236379
0
LINE
8
annotation
62
1
39
211
10
76.022743
20
78.236379
11
76.350392
21
78.265795
0
LINE
8
annotation
62
1
39
211
10
76.350392
20
78.265795
11
76.658698
21
78.350597
0
LINE
8
annotation
62
1
39
211
10
76.658698
20
78.350597
11
76.942534
21
78.485615
0
LINE
8
annotation
62
1
39
211
10
76.942534
20
78.485615
11
77.196771
21
78.665678
0
LINE
8
annotation
62
1
39
211
10
77.196771
20
78.665678
11
77.416282
21
78.885616
0
LINE
8
annotation
62
1
39
211
10
77.416282
20
78.885616
11
77.595939
21
79.140259
0
LINE
8
annotation
62
1
39
211
10
77.595939
20
79.140259
11
77.730615
21
79.424437
0
LINE
8
annotation
62
1
39
211
10
77.730615
20
79.424437
11
77.815180
21
79.732979
0
LINE
8
annotation
62
1
39
211
10
77.815180
20
79.732979
11
77.844508
21
80.060716
0
LINE
8
annotation
62
1
39
211
10
77.844508
20
80.060716
11
77.844508
21
80.060716
0
LINE
8
annotation
62
1
39
211
10
77.844508
20
80.060716
11
77.815180
21
80.386922
0
LINE
8
annotation
62
1
39
211
10
77.815180
20
80.386922
11
77.730615
21
80.694272
0
LINE
8
annotation
62
1
39
211
10
77.730615
20
80.694272
11
77.595939
21
80.977553
0
LINE
8
annotation
62
1
39
211
10
77.595939
20
80.977553
11
77.416282
21
81.231554
0
LINE
8
annotation
62
1
39
211
10
77.416282
20
81.231554
11
77.196771
21
81.451062
0
LINE
8
annotation
62
1
39
211
10
77.196771
20
81.451062
11
76.942534
21
81.630864
0
LINE
8
annotation
62
1
39
211
10
76.942534
20
81.630864
11
76.658698
21
81.765747
0
LINE
8
annotation
62
1
39
211
10
76.658698
20
81.765747
11
76.350392
21
81.850500
0
LINE
8
annotation
62
1
39
211
10
76.350392
20
81.850500
11
76.022743
21
81.879909
0
LINE
8
annotation
62
1
39
211
10
76.022743
20
81.879909
11
74.200978
21
81.879909
0
LINE
8
annotation
62
1
39
211
10
78.030132
20
95.286194
11
72.388802
21
95.286194
0
LINE
8
annotation
62
1
39
211
10
72.388802
20
95.286194
11
74.641766
21
103.187496
0
LINE
8
annotation
62
1
39
211
10
76.339135
20
93.027496
11
76.339135
21
97.539795
0
LINE
8
annotation
62
1
39
211
10
77.201406
20
113.347495
11
79.457556
21
113.347495
0
LINE
8
annotation
62
1
39
211
10
79.457556
20
113.347495
11
79.457556
21
113.347495
0
LINE
8
annotation
62
1
39
211
10
79.457556
20
113.347495
11
79.862491
21
113.383903
0
LINE
8
annotation
62
1
39
211
10
79.862491
20
113.383903
11
80.243864
21
113.488867
0
LINE
8
annotation
62
1
39
211
10
80.243864
20
113.488867
11
80.595247
21
113.655993
0
LINE
8
annotation
62
1
39
211
10
80.595247
20
113.655993
11
80.910210
21
113.878890
0
LINE
8
annotation
62
1
39
211
10
80.910210
20
113.878890
11
81.182324
21
114.151165
0
LINE
8
annotation
62
1
39
211
10
81.182324
20
114.151165
11
81.405159
21
114.466425
0
LINE
8
annotation
62
1
39
211
10
81.405159
20
114.466425
11
81.572288
21
114.818278
0
LINE
8
annotation
62
1
39
211
10
81.572288
20
114.818278
11
81.677279
21
115.200331
0
LINE
8
annotation
62
1
39
211
10
81.677279
20
115.200331
11
81.713705
21
115.606193
0
LINE
8
annotation
62
1
39
211
10
81.713705
20
115.606193
11
81.713705
21
116.730126
0
LINE
8
annotation
62
1
39
211
10
81.713705
20
116.730126
11
81.713705
21
116.730126
0
LINE
8
annotation
62
1
39
211
10
81.713705
20
116.730126
11
81.677300
21
117.135791
0
LINE
8
annotation
62
1
39
211
10
81.677300
20
117.135791
11
81.572361
21
117.517317
0
LINE
8
annotation
62
1
39
211
10
81.572361
20
117.517317
11
81.405301
21
117.868407
0
LINE
8
annotation
62
1
39
211
10
81.405301
20
117.868407
11
81.182533
21
118.182763
0
LINE
8
annotation
62
1
39
211
10
81.182533
20
118.182763
11
80.910472
21
118.454085
0
LINE
8
annotation
62
1
39
211
10
80.910472
20
118.454085
11
80.595530
21
118.676078
0
LINE
8
annotation
62
1
39
211
10
80.595530
20
118.676078
11
80.244121
21
118.842441
0
LINE
8
annotation
62
1
39
211
10
80.244121
20
118.842441
11
79.862658
21
118.946878
0
LINE
8
annotation
62
1
39
211
10
79.862658
20
118.946878
11
79.457556
21
118.983090
0
LINE
8
annotation
62
1
39
211
10
79.457556
20
118.983090
11
77.201406
21
118.983090
0
LINE
8
annotation
62
1
39
211
10
77.201406
20
118.983090
11
77.201406
21
123.507495
0
LINE
8
annotation
62
1
39
211
10
77.201406
20
123.507495
11
81.713705
21
123.507495
0
LINE
8
annotation
62
1
39
211
10
94.296122
20
143.827493
11
94.296122
21
143.827493
0
LINE
8
annotation
62
1
39
211
10
94.296122
20
143.827493
11
93.649792
21
143.585159
0
LINE
8
annotation
62
1
39
211
10
93.649792
20
143.585159
11
93.056699
21
143.258641
0
LINE
8
annotation
62
1
39
211
10
93.056699
20
143.258641
11
92.522933
21
142.856122
0
LINE
8
annotation
62
1
39
211
10
92.522933
20
142.856122
11
92.054580
21
142.385782
0
LINE
8
annotation
62
1
39
211
10
92.054580
20
142.385782
11
91.657730
21
141.855801
0
LINE
8
annotation
62
1
39
211
10
91.657730
20
141.855801
11
91.338470
21
141.274361
0
LINE
8
annotation
62
1
39
211
10
91.338470
20
141.274361
11
91.102890
21
140.649642
0
LINE
8
annotation
62
1
39
211
10
91.102890
20
140.649642
11
90.957076
21
139.989824
0
LINE
8
annotation
62
1
39
211
10
90.957076
20
139.989824
11
90.907119
21
139.303089
0
LINE
8
annotation
62
1
39
211
10
90.907119
20
139.303089
11
90.907119
21
135.926192
0
LINE
8
annotation
62
1
39
211
10
90.907119
20
135.926192
11
90.907119
21
135.926192
0
LINE
8
annotation
62
1
39
211
10
90.907119
20
135.926192
11
90.943545
21
135.520330
0
LINE
8
annotation
62
1
39
211
10
90.943545
20
135.520330
11
91.048537
21
135.138277
0
LINE
8
annotation
62
1
39
211
10
91.048537
20
135.138277
11
91.215665
21
134.786424
0
LINE
8
annotation
62
1
39
211
10
91.215665
20
134.786424
11
91.438501
21
134.471164
0
LINE
8
annotation
62
1
39
211
10
91.438501
20
134.471164
11
91.710615
21
134.198889
0
LINE
8
annotation
62
1
39
211
10
91.710615
20
134.198889
11
92.025578
21
133.975992
0
LINE
8
annotation
62
1
39
211
10
92.025578
20
133.975992
11
92.376960
21
133.808866
0
LINE
8
annotation
62
1
39
211
10
92.376960
20
133.808866
11
92.758334
21
133.703902
0
LINE
8
annotation
62
1
39
211
10
92.758334
20
133.703902
11
93.163269
21
133.667493
0
LINE
8
annotation
62
1
39
211
10
93.163269
20
133.667493
11
93.163269
21
133.667493
0
LINE
8
annotation
62
1
39
211
10
93.163269
20
133.667493
11
93.569043
21
133.703902
0
LINE
8
annotation
62
1
39
211
10
93.569043
20
133.703902
11
93.950862
21
133.808866
0
LINE
8
annotation
62
1
39
211
10
93.950862
20
133.808866
11
94.302376
21
133.975992
0
LINE
8
annotation
62
1
39
211
10
94.302376
20
133.975992
11
94.617234
21
134.198889
0
LINE
8
annotation
62
1
39
211
10
94.617234
20
134.198889
11
94.889085
21
134.471164
0
LINE
8
annotation
62
1
39
211
10
94.889085
20
134.471164
11
95.111580
21
134.786424
0
LINE
8
annotation
62
1
39
211
10
95.111580
20
134.786424
11
95.278368
21
135.138277
0
LINE
8
annotation
62
1
39
211
10
95.278368
20
135.138277
11
95.383097
21
135.520330
0
LINE
8
annotation
62
1
39
211
10
95.383097
20
135.520330
11
95.419418
21
135.926192
0
LINE
8
annotation
62
1
39
211
10
95.419418
20
135.926192
11
95.419418
21
137.050125
0
LINE
8
annotation
62
1
39
211
10
95.419418
20
137.050125
11
95.419418
21
137.050125
0
LINE
8
annotation
62
1
39
211
10
95.419418
20
137.050125
11
95.383097
21
137.455789
0
LINE
8
annotation
62
1
39
211
10
95.383097
20
137.455789
11
95.278368
21
137.837316
0
LINE
8
annotation
62
1
39
211
10
95.278368
20
137.837316
11
95.111580
21
138.188406
0
LINE
8
annotation
62
1
39
211
10
95.111580
20
138.188406
11
94.889085
21
138.502761
0
LINE
8
annotation
62
1
39
211
10
94.889085
20
138.502761
11
94.617234
21
138.774084
0
LINE
8
annotation
62
1
39
211
10
94.617234
20
138.774084
11
94.302376
21
138.996077
0
LINE
8
annotation
62
1
39
211
10
94.302376
20
138.996077
11
93.950862
21
139.162440
0
LINE
8
annotation
62
1
39
211
10
93.950862
20
139.162440
11
93.569043
21
139.266877
0
LINE
8
annotation
62
1
39
211
10
93.569043
20
139.266877
11
93.163269
21
139.303089
0
LINE
8
annotation
62
1
39
211
10
93.163269
20
139.303089
11
90.907119
21
139.303089
0
LINE
8
annotation
62
1
39
211
10
90.624543
20
132.397493
11
95.704543
21
132.397493
0
LINE
8
annotation
62
1
39
211
10
86.458428
20
156.463604
11
87.616184
21
161.671381
0
LINE
8
annotation
62
1
39
211
10
87.616184
20
161.671381
11
85.300346
21
161.671381
0
LINE
8
annotation
62
1
39
211
10
87.616184
20
159.352277
11
86.458428
21
159.352277
0
LINE
8
annotation
62
1
39
211
10
53.694759
20
110.011611
11
51.929988
21
107.459030
0
LINE
8
annotation
62
1
39
211
10
51.929988
20
107.459030
11
50.164884
21
110.011611
0
LINE
8
annotation
62
1
39
211
10
51.929988
20
107.664445
11
51.929988
21
104.719619
0
LINE
8
annotation
62
1
39
211
10
58.573185
20
107.365615
11
55.679795
21
107.365615
0
LINE
8
annotation
62
1
39
211
10
61.733629
20
104.719785
11
61.733629
21
110.011445
0
LINE
8
annotation
62
1
39
211
10
61.733629
20
110.011445
11
60.557226
21
108.834709
0
LINE
8
annotation
62
1
39
211
10
66.611723
20
107.365615
11
63.718334
21
107.365615
0
LINE
8
annotation
62
1
39
211
10
69.772168
20
104.719785
11
69.772168
21
110.011445
0
LINE
8
annotation
62
1
39
211
10
69.772168
20
110.011445
11
68.595764
21
108.834709
0
LINE
8
boundary
62
5
39
2
10
47.278076
20
177.138365
11
50.053615
21
177.138365
0
LINE
8
boundary
62
5
39
2
10
50.053615
20
177.138365
11
51.105524
21
177.138365
0
LINE
8
boundary
62
5
39
2
10
51.105524
20
177.138365
11
64.204267
21
186.755365
0
LINE
8
boundary
62
5
39
2
10
64.204267
20
186.755365
11
65.003830
21
187.663097
0
LINE
8
boundary
62
5
39
2
10
65.003830
20
187.663097
11
77.045363
21
201.370337
0
LINE
8
boundary
62
5
39
2
10
77.045363
20
201.370337
11
77.604484
21
202.006802
0
LINE
8
boundary
62
5
39
2
10
77.604484
20
202.006802
11
77.307706
21
204.138512
0
LINE
8
boundary
62
5
39
2
10
77.307706
20
204.138512
11
75.596678
21
217.786436
0
LINE
8
boundary
62
5
39
2
10
75.596678
20
217.786436
11
74.899431
21
222.838892
0
LINE
8
boundary
62
5
39
2
10
74.899431
20
222.838892
11
74.790431
21
223.626503
0
LINE
8
boundary
62
5
39
2
10
74.790431
20
223.626503
11
74.526907
21
225.536082
0
LINE
8
boundary
62
5
39
2
10
74.526907
20
225.536082
11
74.328326
21
226.972820
0
LINE
8
boundary
62
5
39
2
10
74.328326
20
226.972820
11
74.034658
21
229.098598
0
LINE
8
boundary
62
5
39
2
10
74.034658
20
229.098598
11
73.942904
21
229.760679
0
LINE
8
boundary
62
5
39
2
10
73.942904
20
229.760679
11
73.713477
21
231.423215
0
LINE
8
boundary
62
5
39
2
10
73.713477
20
231.423215
11
73.639569
21
231.952816
0
LINE
8
boundary
62
5
39
2
10
73.639569
20
231.952816
11
72.824982
21
237.855726
0
LINE
8
boundary
62
5
39
2
10
72.824982
20
237.855726
11
72.447732
21
240.583965
0
LINE
8
boundary
62
5
39
2
10
72.447732
20
240.583965
11
72.238873
21
242.033231
0
LINE
8
boundary
62
5
39
2
10
72.238873
20
242.033231
11
69.505243
21
263.261667
0
LINE
8
boundary
62
5
39
2
10
69.505243
20
263.261667
11
70.177638
21
263.838909
0
LINE
8
boundary
62
5
39
2
10
70.177638
20
263.838909
11
83.953911
21
275.550096
0
LINE
8
boundary
62
5
39
2
10
83.953911
20
275.550096
11
84.150306
21
276.374508
0
LINE
8
boundary
62
5
39
2
10
84.150306
20
276.374508
11
87.557454
21
289.620962
0
LINE
8
boundary
62
5
39
2
10
87.557454
20
289.620962
11
81.781528
21
292.987851
0
LINE
8
boundary
62
5
39
2
10
81.781528
20
292.987851
11
81.383282
21
293.534052
0
LINE
8
boundary
62
5
39
2
10
81.383282
20
293.534052
11
80.922783
21
295.784681
0
LINE
8
boundary
62
5
39
2
10
80.922783
20
295.784681
11
76.653769
21
317.442188
0
LINE
8
boundary
62
5
39
2
10
76.653769
20
317.442188
11
76.508673
21
318.269491
0
LINE
8
boundary
62
5
39
2
10
76.508673
20
318.269491
11
75.580860
21
319.214385
0
LINE
8
boundary
62
5
39
2
10
75.580860
20
319.214385
11
55.658718
21
338.514358
0
LINE
8
boundary
62
5
39
2
10
55.658718
20
338.514358
11
54.895788
21
338.366651
0
LINE
8
boundary
62
5
39
2
10
54.895788
20
338.366651
11
34.358913
21
332.903856
0
LINE
8
boundary
62
5
39
2
10
34.358913
20
332.903856
11
45.828789
21
332.586356
0
LINE
8
boundary
62
5
39
2
10
45.828789
20
332.586356
11
45.828789
21
326.490356
0
LINE
8
boundary
62
5
39
2
10
45.828789
20
326.490356
11
27.165300
21
326.490356
0
LINE
8
boundary
62
5
39
2
10
27.165300
20
326.490356
11
26.987500
21
312.583857
0
LINE
8
boundary
62
5
39
2
10
26.987500
20
312.583857
11
52.504154
21
312.266357
0
LINE
8
boundary
62
5
39
2
10
52.504154
20
312.266357
11
52.504154
21
306.170357
0
LINE
8
boundary
62
5
39
2
10
52.504154
20
306.170357
11
27.165300
21
306.170357
0
LINE
8
boundary
62
5
39
2
10
27.165300
20
306.170357
11
26.987500
21
292.263858
0
LINE
8
boundary
62
5
39
2
10
26.987500
20
292.263858
11
57.052546
21
291.946358
0
LINE
8
boundary
62
5
39
2
10
57.052546
20
291.946358
11
57.052546
21
285.850358
0
LINE
8
boundary
62
5
39
2
10
57.052546
20
285.850358
11
27.165300
21
285.850358
0
LINE
8
boundary
62
5
39
2
10
27.165300
20
285.850358
11
26.987500
21
271.943860
0
LINE
8
boundary
62
5
39
2
10
26.987500
20
271.943860
11
51.243158
21
271.626360
0
LINE
8
boundary
62
5
39
2
10
51.243158
20
271.626360
11
51.243158
21
265.530360
0
LINE
8
boundary
62
5
39
2
10
51.243158
20
265.530360
11
27.165300
21
265.530359
0
LINE
8
boundary
62
5
39
2
10
27.165300
20
265.530359
11
26.987500
21
251.623861
0
LINE
8
boundary
62
5
39
2
10
26.987500
20
251.623861
11
49.085375
21
251.306361
0
LINE
8
boundary
62
5
39
2
10
49.085375
20
251.306361
11
49.085375
21
245.210361
0
LINE
8
boundary
62
5
39
2
10
49.085375
20
245.210361
11
27.165300
21
245.210361
0
LINE
8
boundary
62
5
39
2
10
27.165300
20
245.210361
11
26.987500
21
231.303862
0
LINE
8
boundary
62
5
39
2
10
26.987500
20
231.303862
11
50.464136
21
230.986362
0
LINE
8
boundary
62
5
39
2
10
50.464136
20
230.986362
11
50.464136
21
224.890362
0
LINE
8
boundary
62
5
39
2
10
50.464136
20
224.890362
11
27.165300
21
224.890362
0
LINE
8
boundary
62
5
39
2
10
27.165300
20
224.890362
11
26.987500
21
210.983863
0
LINE
8
boundary
62
5
39
2
10
26.987500
20
210.983863
11
51.802470
21
210.666363
0
LINE
8
boundary
62
5
39
2
10
51.802470
20
210.666363
11
51.802470
21
204.570363
0
LINE
8
boundary
62
5
39
2
10
51.802470
20
204.570363
11
27.165300
21
204.570363
0
LINE
8
boundary
62
5
39
2
10
27.165300
20
204.570363
11
26.987500
21
183.664685
0
LINE
8
boundary
62
5
39
2
10
26.987500
20
183.664685
11
41.325662
21
183.347186
0
LINE
8
boundary
62
5
39
2
10
41.325662
20
183.347186
11
41.325662
21
177.251186
0
LINE
8
boundary
62
5
39
2
10
41.325662
20
177.251186
11
47.278076
21
177.138365
0
LINE
8
annotation
62
1
39
211
10
48.008203
20
177.890941
11
48.008203
21
182.707430
0
LINE
8
annotation
62
1
39
211
10
48.008203
20
182.707430
11
46.937436
21
181.636361
0
LINE
8
annotation
62
1
39
211
10
66.884346
20
202.538281
11
62.372047
21
202.538281
0
LINE
8
annotation
62
1
39
211
10
62.372047
20
202.538281
11
66.541559
21
209.250660
0
LINE
8
annotation
62
1
39
211
10
66.541559
20
209.250660
11
66.541559
21
209.250660
0
LINE
8
annotation
62
1
39
211
10
66.541559
20
209.250660
11
66.546543
21
209.256828
0
LINE
8
annotation
62
1
39
211
10
66.546543
20
209.256828
11
66.551323
21
209.263048
0
LINE
8
annotation
62
1
39
211
10
66.551323
20
209.263048
11
66.555930
21
209.269373
0
LINE
8
annotation
62
1
39
211
10
66.555930
20
209.269373
11
66.560395
21
209.275856
0
LINE
8
annotation
62
1
39
211
10
66.560395
20
209.275856
11
66.564750
21
209.282548
0
LINE
8
annotation
62
1
39
211
10
66.564750
20
209.282548
11
66.569027
21
209.289502
0
LINE
8
annotation
62
1
39
211
10
66.569027
20
209.289502
11
66.573256
21
209.296772
0
LINE
8
annotation
62
1
39
211
10
66.573256
20
209.296772
11
66.577470
21
209.304408
0
LINE
8
annotation
62
1
39
211
10
66.577470
20
209.304408
11
66.581699
21
209.312463
0
LINE
8
annotation
62
1
39
211
10
66.581699
20
209.312463
11
66.581699
21
209.312463
0
LINE
8
annotation
62
1
39
211
10
66.581699
20
209.312463
11
66.753857
21
209.682102
0
LINE
8
annotation
62
1
39
211
10
66.753857
20
209.682102
11
66.854429
21
210.065264
0
LINE
8
annotation
62
1
39
211
10
66.854429
20
210.065264
11
66.885879
21
210.453293
0
LINE
8
annotation
62
1
39
211
10
66.885879
20
210.453293
11
66.850673
21
210.837531
0
LINE
8
annotation
62
1
39
211
10
66.850673
20
210.837531
11
66.751274
21
211.209319
0
LINE
8
annotation
62
1
39
211
10
66.751274
20
211.209319
11
66.590147
21
211.560000
0
LINE
8
annotation
62
1
39
211
10
66.590147
20
211.560000
11
66.369758
21
211.880915
0
LINE
8
annotation
62
1
39
211
10
66.369758
20
211.880915
11
66.092570
21
212.163408
0
LINE
8
annotation
62
1
39
211
10
66.092570
20
212.163408
11
65.761049
21
212.398820
0
LINE
8
annotation
62
1
39
211
10
65.761049
20
212.398820
11
65.761049
21
212.398820
0
LINE
8
annotation
62
1
39
211
10
65.761049
20
212.398820
11
65.390383
21
212.568532
0
LINE
8
annotation
62
1
39
211
10
65.390383
20
212.568532
11
65.006634
21
212.667554
0
LINE
8
annotation
62
1
39
211
10
65.006634
20
212.667554
11
64.618379
21
212.698115
0
LINE
8
annotation
62
1
39
211
10
64.618379
20
212.698115
11
64.234199
21
212.662445
0
LINE
8
annotation
62
1
39
211
10
64.234199
20
212.662445
11
63.862673
21
212.562770
0
LINE
8
annotation
62
1
39
211
10
63.862673
20
212.562770
11
63.512381
21
212.401321
0
LINE
8
annotation
62
1
39
211
10
63.512381
20
212.401321
11
63.191900
21
212.180326
0
LINE
8
annotation
62
1
39
211
10
63.191900
20
212.180326
11
62.909811
21
211.902014
0
LINE
8
annotation
62
1
39
211
10
62.909811
20
211.902014
11
62.674693
21
211.568613
0
LINE
8
annotation
62
1
39
211
10
62.674693
20
211.568613
11
62.378418
21
211.000275
0
LINE
8
annotation
62
1
39
211
10
61.033713
20
222.858681
11
63.289862
21
222.858681
0
LINE
8
annotation
62
1
39
211
10
63.289862
20
222.858681
11
63.289862
21
222.858681
0
LINE
8
annotation
62
1
39
211
10
63.289862
20
222.858681
11
63.695636
21
222.895081
0
LINE
8
annotation
62
1
39
211
10
63.695636
20
222.895081
11
64.077455
21
222.999990
0
LINE
8
annotation
62
1
39
211
10
64.077455
20
222.999990
11
64.428969
21
223.166967
0
LINE
8
annotation
62
1
39
211
10
64.428969
20
223.166967
11
64.743827
21
223.389573
0
LINE
8
annotation
62
1
39
211
10
64.743827
20
223.389573
11
65.015679
21
223.661368
0
LINE
8
annotation
62
1
39
211
10
65.015679
20
223.661368
11
65.238174
21
223.975912
0
LINE
8
annotation
62
1
39
211
10
65.238174
20
223.975912
11
65.404961
21
224.326766
0
LINE
8
annotation
62
1
39
211
10
65.404961
20
224.326766
11
65.509691
21
224.707490
0
LINE
8
annotation
62
1
39
211
10
65.509691
20
224.707490
11
65.546012
21
225.111644
0
LINE
8
annotation
62
1
39
211
10
65.546012
20
225.111644
11
65.546012
21
226.241312
0
LINE
8
annotation
62
1
39
211
10
65.546012
20
226.241312
11
65.546012
21
226.241312
0
LINE
8
annotation
62
1
39
211
10
65.546012
20
226.241312
11
65.509691
21
226.645298
0
LINE
8
annotation
62
1
39
211
10
65.509691
20
226.645298
11
65.404961
21
227.025933
0
LINE
8
annotation
62
1
39
211
10
65.404961
20
227.025933
11
65.238174
21
227.376761
0
LINE
8
annotation
62
1
39
211
10
65.238174
20
227.376761
11
65.015679
21
227.691326
0
LINE
8
annotation
62
1
39
211
10
65.015679
20
227.691326
11
64.743827
21
227.963174
0
LINE
8
annotation
62
1
39
211
10
64.743827
20
227.963174
11
64.428969
21
228.185848
0
LINE
8
annotation
62
1
39
211
10
64.428969
20
228.185848
11
64.077455
21
228.352893
0
LINE
8
annotation
62
1
39
211
10
64.077455
20
228.352893
11
63.695636
21
228.457854
0
LINE
8
annotation
62
1
39
211
10
63.695636
20
228.457854
11
63.289862
21
228.494276
0
LINE
8
annotation
62
1
39
211
10
63.289862
20
228.494276
11
62.160194
21
228.494276
0
LINE
8
annotation
62
1
39
211
10
62.160194
20
228.494276
11
63.289862
21
228.494276
0
LINE
8
annotation
62
1
39
211
10
63.289862
20
228.494276
11
63.289862
21
228.494276
0
LINE
8
annotation
62
1
39
211
10
63.289862
20
228.494276
11
63.695636
21
228.530706
0
LINE
8
annotation
62
1
39
211
10
63.695636
20
228.530706
11
64.077455
21
228.635728
0
LINE
8
annotation
62
1
39
211
10
64.077455
20
228.635728
11
64.428969
21
228.802940
0
LINE
8
annotation
62
1
39
211
10
64.428969
20
228.802940
11
64.743827
21
229.025937
0
LINE
8
annotation
62
1
39
211
10
64.743827
20
229.025937
11
65.015679
21
229.298317
0
LINE
8
annotation
62
1
39
211
10
65.015679
20
229.298317
11
65.238174
21
229.613678
0
LINE
8
annotation
62
1
39
211
10
65.238174
20
229.613678
11
65.404961
21
229.965616
0
LINE
8
annotation
62
1
39
211
10
65.404961
20
229.965616
11
65.509691
21
230.347728
0
LINE
8
annotation
62
1
39
211
10
65.509691
20
230.347728
11
65.546012
21
230.753611
0
LINE
8
annotation
62
1
39
211
10
65.546012
20
230.753611
11
65.546012
21
230.753611
0
LINE
8
annotation
62
1
39
211
10
65.546012
20
230.753611
11
65.509691
21
231.157597
0
LINE
8
annotation
62
1
39
211
10
65.509691
20
231.157597
11
65.404961
21
231.538232
0
LINE
8
annotation
62
1
39
211
10
65.404961
20
231.538232
11
65.238174
21
231.889060
0
LINE
8
annotation
62
1
39
211
10
65.238174
20
231.889060
11
65.015679
21
232.203625
0
LINE
8
annotation
62
1
39
211
10
65.015679
20
232.203625
11
64.743827
21
232.475473
0
LINE
8
annotation
62
1
39
211
10
64.743827
20
232.475473
11
64.428969
21
232.698147
0
LINE
8
annotation
62
1
39
211
10
64.428969
20
232.698147
11
64.077455
21
232.865192
0
LINE
8
annotation
62
1
39
211
10
64.077455
20
232.865192
11
63.695636
21
232.970153
0
LINE
8
annotation
62
1
39
211
10
63.695636
20
232.970153
11
63.289862
21
233.006575
0
LINE
8
annotation
62
1
39
211
10
63.289862
20
233.006575
11
61.033713
21
233.006575
0
LINE
8
annotation
62
1
39
211
10
64.731765
20
245.437059
11
59.090436
21
245.437059
0
LINE
8
annotation
62
1
39
211
10
59.090436
20
245.437059
11
61.343400
21
253.338361
0
LINE
8
annotation
62
1
39
211
10
63.040768
20
243.178361
11
63.040768
21
247.690660
0
LINE
8
annotation
62
1
39
211
10
61.812735
20
263.498360
11
64.068884
21
263.498360
0
LINE
8
annotation
62
1
39
211
10
64.068884
20
263.498360
11
64.068884
21
263.498360
0
LINE
8
annotation
62
1
39
211
10
64.068884
20
263.498360
11
64.473819
21
263.534768
0
LINE
8
annotation
62
1
39
211
10
64.473819
20
263.534768
11
64.855192
21
263.639732
0
LINE
8
annotation
62
1
39
211
10
64.855192
20
263.639732
11
65.206575
21
263.806858
0
LINE
8
annotation
62
1
39
211
10
65.206575
20
263.806858
11
65.521538
21
264.029755
0
LINE
8
annotation
62
1
39
211
10
65.521538
20
264.029755
11
65.793652
21
264.302030
0
LINE
8
annotation
62
1
39
211
10
65.793652
20
264.302030
11
66.016488
21
264.617290
0
LINE
8
annotation
62
1
39
211
10
66.016488
20
264.617290
11
66.183616
21
264.969143
0
LINE
8
annotation
62
1
39
211
10
66.183616
20
264.969143
11
66.288608
21
265.351196
0
LINE
8
annotation
62
1
39
211
10
66.288608
20
265.351196
11
66.325034
21
265.757058
0
LINE
8
annotation
62
1
39
211
10
66.325034
20
265.757058
11
66.325034
21
266.880991
0
LINE
8
annotation
62
1
39
211
10
66.325034
20
266.880991
11
66.325034
21
266.880991
0
LINE
8
annotation
62
1
39
211
10
66.325034
20
266.880991
11
66.288629
21
267.286656
0
LINE
8
annotation
62
1
39
211
10
66.288629
20
267.286656
11
66.183689
21
267.668182
0
LINE
8
annotation
62
1
39
211
10
66.183689
20
267.668182
11
66.016629
21
268.019272
0
LINE
8
annotation
62
1
39
211
10
66.016629
20
268.019272
11
65.793862
21
268.333627
0
LINE
8
annotation
62
1
39
211
10
65.793862
20
268.333627
11
65.521800
21
268.604950
0
LINE
8
annotation
62
1
39
211
10
65.521800
20
268.604950
11
65.206858
21
268.826943
0
LINE
8
annotation
62
1
39
211
10
65.206858
20
268.826943
11
64.855449
21
268.993306
0
LINE
8
annotation
62
1
39
211
10
64.855449
20
268.993306
11
64.473987
21
269.097743
0
LINE
8
annotation
62
1
39
211
10
64.473987
20
269.097743
11
64.068884
21
269.133955
0
LINE
8
annotation
62
1
39
211
10
64.068884
20
269.133955
11
61.812735
21
269.133955
0
LINE
8
annotation
62
1
39
211
10
61.812735
20
269.133955
11
61.812735
21
273.658360
0
LINE
8
annotation
62
1
39
211
10
61.812735
20
273.658360
11
66.325034
21
273.658360
0
LINE
8
annotation
62
1
39
211
10
71.011125
20
293.978358
11
71.011125
21
293.978358
0
LINE
8
annotation
62
1
39
211
10
71.011125
20
293.978358
11
70.364795
21
293.736024
0
LINE
8
annotation
62
1
39
211
10
70.364795
20
293.736024
11
69.771702
21
293.409506
0
LINE
8
annotation
62
1
39
211
10
69.771702
20
293.409506
11
69.237935
21
293.006987
0
LINE
8
annotation
62
1
39
211
10
69.237935
20
293.006987
11
68.769582
21
292.536647
0
LINE
8
annotation
62
1
39
211
10
68.769582
20
292.536647
11
68.372732
21
292.006666
0
LINE
8
annotation
62
1
39
211
10
68.372732
20
292.006666
11
68.053473
21
291.425226
0
LINE
8
annotation
62
1
39
211
10
68.053473
20
291.425226
11
67.817892
21
290.800507
0
LINE
8
annotation
62
1
39
211
10
67.817892
20
290.800507
11
67.672079
21
290.140689
0
LINE
8
annotation
62
1
39
211
10
67.672079
20
290.140689
11
67.622122
21
289.453953
0
LINE
8
annotation
62
1
39
211
10
67.622122
20
289.453953
11
67.622122
21
286.077056
0
LINE
8
annotation
62
1
39
211
10
67.622122
20
286.077056
11
67.622122
21
286.077056
0
LINE
8
annotation
62
1
39
211
10
67.622122
20
286.077056
11
67.658548
21
285.671195
0
LINE
8
annotation
62
1
39
211
10
67.658548
20
285.671195
11
67.763539
21
285.289142
0
LINE
8
annotation
62
1
39
211
10
67.763539
20
285.289142
11
67.930668
21
284.937289
0
LINE
8
annotation
62
1
39
211
10
67.930668
20
284.937289
11
68.153503
21
284.622029
0
LINE
8
annotation
62
1
39
211
10
68.153503
20
284.622029
11
68.425617
21
284.349754
0
LINE
8
annotation
62
1
39
211
10
68.425617
20
284.349754
11
68.740580
21
284.126857
0
LINE
8
annotation
62
1
39
211
10
68.740580
20
284.126857
11
69.091963
21
283.959731
0
LINE
8
annotation
62
1
39
211
10
69.091963
20
283.959731
11
69.473336
21
283.854767
0
LINE
8
annotation
62
1
39
211
10
69.473336
20
283.854767
11
69.878271
21
283.818358
0
LINE
8
annotation
62
1
39
211
10
69.878271
20
283.818358
11
69.878271
21
283.818358
0
LINE
8
annotation
62
1
39
211
10
69.878271
20
283.818358
11
70.284045
21
283.854767
0
LINE
8
annotation
62
1
39
211
10
70.284045
20
283.854767
11
70.665864
21
283.959731
0
LINE
8
annotation
62
1
39
211
10
70.665864
20
283.959731
11
71.017378
21
284.126857
0
LINE
8
annotation
62
1
39
211
10
71.017378
20
284.126857
11
71.332236
21
284.349754
0
LINE
8
annotation
62
1
39
211
10
71.332236
20
284.349754
11
71.604088
21
284.622029
0
LINE
8
annotation
62
1
39
211
10
71.604088
20
284.622029
11
71.826583
21
284.937289
0
LINE
8
annotation
62
1
39
211
10
71.826583
20
284.937289
11
71.993370
21
285.289142
0
LINE
8
annotation
62
1
39
211
10
71.993370
20
285.289142
11
72.098100
21
285.671195
0
LINE
8
annotation
62
1
39
211
10
72.098100
20
285.671195
11
72.134421
21
286.077056
0
LINE
8
annotation
62
1
39
211
10
72.134421
20
286.077056
11
72.134421
21
287.200990
0
LINE
8
annotation
62
1
39
211
10
72.134421
20
287.200990
11
72.134421
21
287.200990
0
LINE
8
annotation
62
1
39
211
10
72.134421
20
287.200990
11
72.098100
21
287.606654
0
LINE
8
annotation
62
1
39
211
10
72.098100
20
287.606654
11
71.993370
21
287.988181
0
LINE
8
annotation
62
1
39
211
10
71.993370
20
287.988181
11
71.826583
21
288.339271
0
LINE
8
annotation
62
1
39
211
10
71.826583
20
288.339271
11
71.604088
21
288.653626
0
LINE
8
annotation
62
1
39
211
10
71.604088
20
288.653626
11
71.332236
21
288.924949
0
LINE
8
annotation
62
1
39
211
10
71.332236
20
288.924949
11
71.017378
21
289.146941
0
LINE
8
annotation
62
1
39
211
10
71.017378
20
289.146941
11
70.665864
21
289.313305
0
LINE
8
annotation
62
1
39
211
10
70.665864
20
289.313305
11
70.284045
21
289.417742
0
LINE
8
annotation
62
1
39
211
10
70.284045
20
289.417742
11
69.878271
21
289.453953
0
LINE
8
annotation
62
1
39
211
10
69.878271
20
289.453953
11
67.622122
21
289.453953
0
LINE
8
annotation
62
1
39
211
10
67.339546
20
282.548358
11
72.419546
21
282.548358
0
LINE
8
annotation
62
1
39
211
10
65.329880
20
304.138357
11
67.588578
21
314.298357
0
LINE
8
annotation
62
1
39
211
10
67.588578
20
314.298357
11
63.070544
21
314.298357
0
LINE
8
annotation
62
1
39
211
10
67.588578
20
309.773952
11
65.329880
21
309.773952
0
LINE
8
annotation
62
1
39
211
10
54.501494
20
327.224584
11
54.501494
21
327.224584
0
LINE
8
annotation
62
1
39
211
10
54.501494
20
327.224584
11
54.531304
21
326.892607
0
LINE
8
annotation
62
1
39
211
10
54.531304
20
326.892607
11
54.617224
21
326.580384
0
LINE
8
annotation
62
1
39
211
10
54.617224
20
326.580384
11
54.753994
21
326.293069
0
LINE
8
annotation
62
1
39
211
10
54.753994
20
326.293069
11
54.936352
21
326.035815
0
LINE
8
annotation
62
1
39
211
10
54.936352
20
326.035815
11
55.159037
21
325.813778
0
LINE
8
annotation
62
1
39
211
10
55.159037
20
325.813778
11
55.416787
21
325.632110
0
LINE
8
annotation
62
1
39
211
10
55.416787
20
325.632110
11
55.704342
21
325.495966
0
LINE
8
annotation
62
1
39
211
10
55.704342
20
325.495966
11
56.016440
21
325.410500
0
LINE
8
annotation
62
1
39
211
10
56.016440
20
325.410500
11
56.347819
21
325.380866
0
LINE
8
annotation
62
1
39
211
10
56.347819
20
325.380866
11
56.347819
21
325.380866
0
LINE
8
annotation
62
1
39
211
10
56.347819
20
325.380866
11
56.679199
21
325.410500
0
LINE
8
annotation
62
1
39
211
10
56.679199
20
325.410500
11
56.991297
21
325.495966
0
LINE
8
annotation
62
1
39
211
10
56.991297
20
325.495966
11
57.278851
21
325.632110
0
LINE
8
annotation
62
1
39
211
10
57.278851
20
325.632110
11
57.536602
21
325.813778
0
LINE
8
annotation
62
1
39
211
10
57.536602
20
325.813778
11
57.759287
21
326.035815
0
LINE
8
annotation
62
1
39
211
10
57.759287
20
326.035815
11
57.941645
21
326.293069
0
LINE
8
annotation
62
1
39
211
10
57.941645
20
326.293069
11
58.078415
21
326.580384
0
LINE
8
annotation
62
1
39
211
10
58.078415
20
326.580384
11
58.164335
21
326.892607
0
LINE
8
annotation
62
1
39
211
10
58.164335
20
326.892607
11
58.194144
21
327.224584
0
LINE
8
annotation
62
1
39
211
10
58.194144
20
327.224584
11
58.194144
21
328.144357
0
LINE
8
annotation
62
1
39
211
10
58.194144
20
328.144357
11
58.194144
21
328.144357
0
LINE
8
annotation
62
1
39
211
10
58.194144
20
328.144357
11
58.164352
21
328.476495
0
LINE
8
annotation
62
1
39
211
10
58.164352
20
328.476495
11
58.078475
21
328.789149
0
LINE
8
annotation
62
1
39
211
10
58.078475
20
328.789149
11
57.941761
21
329.077088
0
LINE
8
annotation
62
1
39
211
10
57.941761
20
329.077088
11
57.759459
21
329.335082
0
LINE
8
annotation
62
1
39
211
10
57.759459
20
329.335082
11
57.536817
21
329.557899
0
LINE
8
annotation
62
1
39
211
10
57.536817
20
329.557899
11
57.279083
21
329.740307
0
LINE
8
annotation
62
1
39
211
10
57.279083
20
329.740307
11
56.991507
21
329.877075
0
LINE
8
annotation
62
1
39
211
10
56.991507
20
329.877075
11
56.679336
21
329.962973
0
LINE
8
annotation
62
1
39
211
10
56.679336
20
329.962973
11
56.347819
21
329.992768
0
LINE
8
annotation
62
1
39
211
10
56.347819
20
329.992768
11
56.347819
21
329.992768
0
LINE
8
annotation
62
1
39
211
10
56.347819
20
329.992768
11
56.016303
21
329.962956
0
LINE
8
annotation
62
1
39
211
10
56.016303
20
329.962956
11
55.704132
21
329.877015
0
LINE
8
annotation
62
1
39
211
10
55.704132
20
329.877015
11
55.416556
21
329.740191
0
LINE
8
annotation
62
1
39
211
10
55.416556
20
329.740191
11
55.158822
21
329.557727
0
LINE
8
annotation
62
1
39
211
10
55.158822
20
329.557727
11
54.936180
21
329.334868
0
LINE
8
annotation
62
1
39
211
10
54.936180
20
329.334868
11
54.753878
21
329.076857
0
LINE
8
annotation
62
1
39
211
10
54.753878
20
329.076857
11
54.617164
21
328.788939
0
LINE
8
annotation
62
1
39
211
10
54.617164
20
328.788939
11
54.531287
21
328.476357
0
LINE
8
annotation
62
1
39
211
10
54.531287
20
328.476357
11
54.501494
21
328.144357
0
LINE
8
annotation
62
1
39
211
10
54.501494
20
328.144357
11
54.501494
21
327.224584
0
LINE
8
annotation
62
1
39
211
10
58.194144
20
331.841700
11
58.194144
21
331.841700
0
LINE
8
annotation
62
1
39
211
10
58.194144
20
331.841700
11
58.164352
21
332.172303
0
LINE
8
annotation
62
1
39
211
10
58.164352
20
332.172303
11
58.078475
21
332.483797
0
LINE
8
annotation
62
1
39
211
10
58.078475
20
332.483797
11
57.941761
21
332.770897
0
LINE
8
annotation
62
1
39
211
10
57.941761
20
332.770897
11
57.759459
21
333.028322
0
LINE
8
annotation
62
1
39
211
10
57.759459
20
333.028322
11
57.536817
21
333.250789
0
LINE
8
annotation
62
1
39
211
10
57.536817
20
333.250789
11
57.279083
21
333.433015
0
LINE
8
annotation
62
1
39
211
10
57.279083
20
333.433015
11
56.991507
21
333.569717
0
LINE
8
annotation
62
1
39
211
10
56.991507
20
333.569717
11
56.679336
21
333.655612
0
LINE
8
annotation
62
1
39
211
10
56.679336
20
333.655612
11
56.347819
21
333.685418
0
LINE
8
annotation
62
1
39
211
10
56.347819
20
333.685418
11
56.347819
21
333.685418
0
LINE
8
annotation
62
1
39
211
10
56.347819
20
333.685418
11
56.016303
21
333.655612
0
LINE
8
annotation
62
1
39
211
10
56.016303
20
333.655612
11
55.704132
21
333.569717
0
LINE
8
annotation
62
1
39
211
10
55.704132
20
333.569717
11
55.416556
21
333.433015
0
LINE
8
annotation
62
1
39
211
10
55.416556
20
333.433015
11
55.158822
21
333.250789
0
LINE
8
annotation
62
1
39
211
10
55.158822
20
333.250789
11
54.936180
21
333.028322
0
LINE
8
annotation
62
1
39
211
10
54.936180
20
333.028322
11
54.753878
21
332.770897
0
LINE
8
annotation
62
1
39
211
10
54.753878
20
332.770897
11
54.617164
21
332.483797
0
LINE
8
annotation
62
1
39
211
10
54.617164
20
332.483797
11
54.531287
21
332.172303
0
LINE
8
annotation
62
1
39
211
10
54.531287
20
332.172303
11
54.501494
21
331.841700
0
LINE
8
annotation
62
1
39
211
10
54.501494
20
331.841700
11
54.501494
21
331.841700
0
LINE
8
annotation
62
1
39
211
10
54.501494
20
331.841700
11
54.531304
21
331.509544
0
LINE
8
annotation
62
1
39
211
10
54.531304
20
331.509544
11
54.617224
21
331.196842
0
LINE
8
annotation
62
1
39
211
10
54.617224
20
331.196842
11
54.753994
21
330.908833
0
LINE
8
annotation
62
1
39
211
10
54.753994
20
330.908833
11
54.936352
21
330.650757
0
LINE
8
annotation
62
1
39
211
10
54.936352
20
330.650757
11
55.159037
21
330.427854
0
LINE
8
annotation
62
1
39
211
10
55.159037
20
330.427854
11
55.416787
21
330.245364
0
LINE
8
annotation
62
1
39
211
10
55.416787
20
330.245364
11
55.704342
21
330.108526
0
LINE
8
annotation
62
1
39
211
10
55.704342
20
330.108526
11
56.016440
21
330.022581
0
LINE
8
annotation
62
1
39
211
10
56.016440
20
330.022581
11
56.347819
21
329.992768
0
LINE
8
annotation
62
1
39
211
10
56.347819
20
329.992768
11
56.347819
21
329.992768
0
LINE
8
annotation
62
1
39
211
10
56.347819
20
329.992768
11
56.679199
21
330.022581
0
LINE
8
annotation
62
1
39
211
10
56.679199
20
330.022581
11
56.991297
21
330.108526
0
LINE
8
annotation
62
1
39
211
10
56.991297
20
330.108526
11
57.278851
21
330.245364
0
LINE
8
annotation
62
1
39
211
10
57.278851
20
330.245364
11
57.536602
21
330.427854
0
LINE
8
annotation
62
1
39
211
10
57.536602
20
330.427854
11
57.759287
21
330.650757
0
LINE
8
annotation
62
1
39
211
10
57.759287
20
330.650757
11
57.941645
21
330.908833
0
LINE
8
annotation
62
1
39
211
10
57.941645
20
330.908833
11
58.078415
21
331.196842
0
LINE
8
annotation
62
1
39
211
10
58.078415
20
331.196842
11
58.164335
21
331.509544
0
LINE
8
annotation
62
1
39
211
10
58.164335
20
331.509544
11
58.194144
21
331.841700
0
LINE
8
annotation
62
1
39
211
10
58.872669
20
222.905321
11
56.934991
21
220.102648
0
LINE
8
annotation
62
1
39
211
10
56.934991
20
220.102648
11
54.996950
21
222.905321
0
LINE
8
annotation
62
1
39
211
10
56.934991
20
220.328189
11
56.934991
21
217.094840
0
LINE
8
annotation
62
1
39
211
10
64.229064
20
220.000081
11
61.052191
21
220.000081
0
LINE
8
annotation
62
1
39
211
10
69.633372
20
218.386686
11
66.407311
21
218.386686
0
LINE
8
annotation
62
1
39
211
10
66.407311
20
218.386686
11
67.695695
21
222.905139
0
LINE
8
annotation
62
1
39
211
10
68.666355
20
217.095022
11
68.666355
21
219.675434
0
LINE
8
boundary
62
5
39
2
10
90.732453
20
224.307840
11
90.732453
21
218.009011
0
LINE
8
boundary
62
5
39
2
10
90.732453
20
218.009011
11
91.597712
21
217.691511
0
LINE
8
boundary
62
5
39
2
10
91.597712
20
217.691511
11
91.597712
21
211.595511
0
LINE
8
boundary
62
5
39
2
10
91.597712
20
211.595511
11
90.910253
21
211.595511
0
LINE
8
boundary
62
5
39
2
10
90.910253
20
211.595511
11
90.732453
21
197.689012
0
LINE
8
boundary
62
5
39
2
10
90.732453
20
197.689012
11
93.684011
21
197.371512
0
LINE
8
boundary
62
5
39
2
10
93.684011
20
197.371512
11
93.684011
21
191.275512
0
LINE
8
boundary
62
5
39
2
10
93.684011
20
191.275512
11
90.910253
21
191.275512
0
LINE
8
boundary
62
5
39
2
10
90.910253
20
191.275512
11
90.732453
21
177.138365
0
LINE
8
boundary
62
5
39
2
10
90.732453
20
177.138365
11
97.984389
21
186.475280
0
LINE
8
boundary
62
5
39
2
10
97.984389
20
186.475280
11
98.392955
21
187.002216
0
LINE
8
boundary
62
5
39
2
10
98.392955
20
187.002216
11
90.732453
21
224.307840
0
LINE
8
annotation
62
1
39
211
10
96.858588
20
190.748268
11
95.939050
21
190.748268
0
LINE
8
annotation
62
1
39
211
10
95.939050
20
190.748268
11
96.788733
21
192.116150
0
LINE
8
annotation
62
1
39
211
10
96.788733
20
192.116150
11
96.788733
21
192.116150
0
LINE
8
annotation
62
1
39
211
10
96.788733
20
192.116150
11
96.789749
21
192.117407
0
LINE
8
annotation
62
1
39
211
10
96.789749
20
192.117407
11
96.790723
21
192.118674
0
LINE
8
annotation
62
1
39
211
10
96.790723
20
192.118674
11
96.791662
21
192.119963
0
LINE
8
annotation
62
1
39
211
10
96.791662
20
192.119963
11
96.792572
21
192.121284
0
LINE
8
annotation
62
1
39
211
10
96.792572
20
192.121284
11
96.793459
21
192.122648
0
LINE
8
annotation
62
1
39
211
10
96.793459
20
192.122648
11
96.794331
21
192.124065
0
LINE
8
annotation
62
1
39
211
10
96.794331
20
192.124065
11
96.795193
21
192.125546
0
LINE
8
annotation
62
1
39
211
10
96.795193
20
192.125546
11
96.796051
21
192.127103
0
LINE
8
annotation
62
1
39
211
10
96.796051
20
192.127103
11
96.796913
21
192.128744
0
LINE
8
annotation
62
1
39
211
10
96.796913
20
192.128744
11
96.796913
21
192.128744
0
LINE
8
annotation
62
1
39
211
10
96.796913
20
192.128744
11
96.831996
21
192.204071
0
LINE
8
annotation
62
1
39
211
10
96.831996
20
192.204071
11
96.852491
21
192.282154
0
LINE
8
annotation
62
1
39
211
10
96.852491
20
192.282154
11
96.858901
21
192.361228
0
LINE
8
annotation
62
1
39
211
10
96.858901
20
192.361228
11
96.851726
21
192.439530
0
LINE
8
annotation
62
1
39
211
10
96.851726
20
192.439530
11
96.831470
21
192.515295
0
LINE
8
annotation
62
1
39
211
10
96.831470
20
192.515295
11
96.798635
21
192.586758
0
LINE
8
annotation
62
1
39
211
10
96.798635
20
192.586758
11
96.753723
21
192.652156
0
LINE
8
annotation
62
1
39
211
10
96.753723
20
192.652156
11
96.697236
21
192.709724
0
LINE
8
annotation
62
1
39
211
10
96.697236
20
192.709724
11
96.629677
21
192.757697
0
LINE
8
annotation
62
1
39
211
10
96.629677
20
192.757697
11
96.629677
21
192.757697
0
LINE
8
annotation
62
1
39
211
10
96.629677
20
192.757697
11
96.554141
21
192.792282
0
LINE
8
annotation
62
1
39
211
10
96.554141
20
192.792282
11
96.475939
21
192.812461
0
LINE
8
annotation
62
1
39
211
10
96.475939
20
192.812461
11
96.396818
21
192.818689
0
LINE
8
annotation
62
1
39
211
10
96.396818
20
192.818689
11
96.318528
21
192.811420
0
LINE
8
annotation
62
1
39
211
10
96.318528
20
192.811420
11
96.242817
21
192.791108
0
LINE
8
annotation
62
1
39
211
10
96.242817
20
192.791108
11
96.171433
21
192.758207
0
LINE
8
annotation
62
1
39
211
10
96.171433
20
192.758207
11
96.106123
21
192.713171
0
LINE
8
annotation
62
1
39
211
10
96.106123
20
192.713171
11
96.048638
21
192.656455
0
LINE
8
annotation
62
1
39
211
10
96.048638
20
192.656455
11
96.000724
21
192.588513
0
LINE
8
annotation
62
1
39
211
10
96.000724
20
192.588513
11
95.940348
21
192.472695
0
LINE
8
annotation
62
1
39
211
10
92.619590
20
211.668207
11
92.812931
21
211.668207
0
LINE
8
annotation
62
1
39
211
10
92.812931
20
211.668207
11
92.812931
21
211.668207
0
LINE
8
annotation
62
1
39
211
10
92.812931
20
211.668207
11
92.847703
21
211.671326
0
LINE
8
annotation
62
1
39
211
10
92.847703
20
211.671326
11
92.880423
21
211.680317
0
LINE
8
annotation
62
1
39
211
10
92.880423
20
211.680317
11
92.910546
21
211.694626
0
LINE
8
annotation
62
1
39
211
10
92.910546
20
211.694626
11
92.937528
21
211.713702
0
LINE
8
annotation
62
1
39
211
10
92.937528
20
211.713702
11
92.960825
21
211.736993
0
LINE
8
annotation
62
1
39
211
10
92.960825
20
211.736993
11
92.979891
21
211.763948
0
LINE
8
annotation
62
1
39
211
10
92.979891
20
211.763948
11
92.994184
21
211.794015
0
LINE
8
annotation
62
1
39
211
10
92.994184
20
211.794015
11
93.003159
21
211.826641
0
LINE
8
annotation
62
1
39
211
10
93.003159
20
211.826641
11
93.006272
21
211.861275
0
LINE
8
annotation
62
1
39
211
10
93.006272
20
211.861275
11
93.006272
21
211.958082
0
LINE
8
annotation
62
1
39
211
10
93.006272
20
211.958082
11
93.006272
21
211.958082
0
LINE
8
annotation
62
1
39
211
10
93.006272
20
211.958082
11
93.003159
21
211.992702
0
LINE
8
annotation
62
1
39
211
10
93.003159
20
211.992702
11
92.994184
21
212.025320
0
LINE
8
annotation
62
1
39
211
10
92.994184
20
212.025320
11
92.979891
21
212.055385
0
LINE
8
annotation
62
1
39
211
10
92.979891
20
212.055385
11
92.960825
21
212.082341
0
LINE
8
annotation
62
1
39
211
10
92.960825
20
212.082341
11
92.937528
21
212.105637
0
LINE
8
annotation
62
1
39
211
10
92.937528
20
212.105637
11
92.910546
21
212.124719
0
LINE
8
annotation
62
1
39
211
10
92.910546
20
212.124719
11
92.880423
21
212.139034
0
LINE
8
annotation
62
1
39
211
10
92.880423
20
212.139034
11
92.847703
21
212.148029
0
LINE
8
annotation
62
1
39
211
10
92.847703
20
212.148029
11
92.812931
21
212.151150
0
LINE
8
annotation
62
1
39
211
10
92.812931
20
212.151150
11
92.716124
21
212.151150
0
LINE
8
annotation
62
1
39
211
10
92.716124
20
212.151150
11
92.812931
21
212.151150
0
LINE
8
annotation
62
1
39
211
10
92.812931
20
212.151150
11
92.812931
21
212.151150
0
LINE
8
annotation
62
1
39
211
10
92.812931
20
212.151150
11
92.847703
21
212.154272
0
LINE
8
annotation
62
1
39
211
10
92.847703
20
212.154272
11
92.880423
21
212.163272
0
LINE
8
annotation
62
1
39
211
10
92.880423
20
212.163272
11
92.910546
21
212.177601
0
LINE
8
annotation
62
1
39
211
10
92.910546
20
212.177601
11
92.937528
21
212.196711
0
LINE
8
annotation
62
1
39
211
10
92.937528
20
212.196711
11
92.960825
21
212.220053
0
LINE
8
annotation
62
1
39
211
10
92.960825
20
212.220053
11
92.979891
21
212.247077
0
LINE
8
annotation
62
1
39
211
10
92.979891
20
212.247077
11
92.994184
21
212.277237
0
LINE
8
annotation
62
1
39
211
10
92.994184
20
212.277237
11
93.003159
21
212.309982
0
LINE
8
annotation
62
1
39
211
10
93.003159
20
212.309982
11
93.006272
21
212.344764
0
LINE
8
annotation
62
1
39
211
10
93.006272
20
212.344764
11
93.006272
21
212.344764
0
LINE
8
annotation
62
1
39
211
10
93.006272
20
212.344764
11
93.003159
21
212.379384
0
LINE
8
annotation
62
1
39
211
10
93.003159
20
212.379384
11
92.994184
21
212.412002
0
LINE
8
annotation
62
1
39
211
10
92.994184
20
212.412002
11
92.979891
21
212.442067
0
LINE
8
annotation
62
1
39
211
10
92.979891
20
212.442067
11
92.960825
21
212.469023
0
LINE
8
annotation
62
1
39
211
10
92.960825
20
212.469023
11
92.937528
21
212.492319
0
LINE
8
annotation
62
1
39
211
10
92.937528
20
212.492319
11
92.910546
21
212.511401
0
LINE
8
annotation
62
1
39
211
10
92.910546
20
212.511401
11
92.880423
21
212.525716
0
LINE
8
annotation
62
1
39
211
10
92.880423
20
212.525716
11
92.847703
21
212.534711
0
LINE
8
annotation
62
1
39
211
10
92.847703
20
212.534711
11
92.812931
21
212.537832
0
LINE
8
annotation
62
1
39
211
10
92.812931
20
212.537832
11
92.619590
21
212.537832
0
LINE
8
annotation
62
1
39
211
10
92.724532
20
188.248504
11
92.441345
21
187.838899
0
LINE
8
annotation
62
1
39
211
10
92.441345
20
187.838899
11
92.158105
21
188.248504
0
LINE
8
annotation
62
1
39
211
10
92.441345
20
187.871862
11
92.441345
21
187.399315
0
LINE
8
annotation
62
1
39
211
10
93.507357
20
187.823909
11
93.043065
21
187.823909
0
LINE
8
annotation
62
1
39
211
10
94.014504
20
187.399342
11
94.014504
21
188.248477
0
LINE
8
annotation
62
1
39
211
10
94.014504
20
188.248477
11
93.825730
21
188.059650
0
LINE
8
annotation
62
1
39
211
10
94.797275
20
187.823909
11
94.332983
21
187.823909
0
LINE
8
annotation
62
1
39
211
10
95.492807
20
187.399335
11
95.115685
21
187.399335
0
LINE
8
annotation
62
1
39
211
10
95.115685
20
187.399335
11
95.464158
21
187.960331
0
LINE
8
annotation
62
1
39
211
10
95.464158
20
187.960331
11
95.464158
21
187.960331
0
LINE
8
annotation
62
1
39
211
10
95.464158
20
187.960331
11
95.464575
21
187.960846
0
LINE
8
annotation
62
1
39
211
10
95.464575
20
187.960846
11
95.464974
21
187.961366
0
LINE
8
annotation
62
1
39
211
10
95.464974
20
187.961366
11
95.465359
21
187.961895
0
LINE
8
annotation
62
1
39
211
10
95.465359
20
187.961895
11
95.465732
21
187.962436
0
LINE
8
annotation
62
1
39
211
10
95.465732
20
187.962436
11
95.466096
21
187.962996
0
LINE
8
annotation
62
1
39
211
10
95.466096
20
187.962996
11
95.466454
21
187.963577
0
LINE
8
annotation
62
1
39
211
10
95.466454
20
187.963577
11
95.466807
21
187.964185
0
LINE
8
annotation
62
1
39
211
10
95.466807
20
187.964185
11
95.467159
21
187.964823
0
LINE
8
annotation
62
1
39
211
10
95.467159
20
187.964823
11
95.467513
21
187.965496
0
LINE
8
annotation
62
1
39
211
10
95.467513
20
187.965496
11
95.467513
21
187.965496
0
LINE
8
annotation
62
1
39
211
10
95.467513
20
187.965496
11
95.481901
21
187.996389
0
LINE
8
annotation
62
1
39
211
10
95.481901
20
187.996389
11
95.490307
21
188.028412
0
LINE
8
annotation
62
1
39
211
10
95.490307
20
188.028412
11
95.492935
21
188.060842
0
LINE
8
annotation
62
1
39
211
10
95.492935
20
188.060842
11
95.489993
21
188.092955
0
LINE
8
annotation
62
1
39
211
10
95.489993
20
188.092955
11
95.481685
21
188.124028
0
LINE
8
annotation
62
1
39
211
10
95.481685
20
188.124028
11
95.468219
21
188.153337
0
LINE
8
annotation
62
1
39
211
10
95.468219
20
188.153337
11
95.449800
21
188.180158
0
LINE
8
annotation
62
1
39
211
10
95.449800
20
188.180158
11
95.426633
21
188.203767
0
LINE
8
annotation
62
1
39
211
10
95.426633
20
188.203767
11
95.398926
21
188.223442
0
LINE
8
annotation
62
1
39
211
10
95.398926
20
188.223442
11
95.398926
21
188.223442
0
LINE
8
annotation
62
1
39
211
10
95.398926
20
188.223442
11
95.367947
21
188.237626
0
LINE
8
annotation
62
1
39
211
10
95.367947
20
188.237626
11
95.335875
21
188.245902
0
LINE
8
annotation
62
1
39
211
10
95.335875
20
188.245902
11
95.303426
21
188.248456
0
LINE
8
annotation
62
1
39
211
10
95.303426
20
188.248456
11
95.271317
21
188.245475
0
LINE
8
annotation
62
1
39
211
10
95.271317
20
188.245475
11
95.240267
21
188.237145
0
LINE
8
annotation
62
1
39
211
10
95.240267
20
188.237145
11
95.210990
21
188.223651
0
LINE
8
annotation
62
1
39
211
10
95.210990
20
188.223651
11
95.184206
21
188.205181
0
LINE
8
annotation
62
1
39
211
10
95.184206
20
188.205181
11
95.160630
21
188.181921
0
LINE
8
annotation
62
1
39
211
10
95.160630
20
188.181921
11
95.140980
21
188.154057
0
LINE
8
annotation
62
1
39
211
10
95.140980
20
188.154057
11
95.116218
21
188.106557
0
LINE
8
boundary
62
5
39
2
10
58.300049
20
341.689358
11
68.177675
21
353.072943
0
LINE
8
boundary
62
5
39
2
10
68.177675
20
353.072943
11
71.092628
21
356.386849
0
LINE
8
boundary
62
5
39
2
10
71.092628
20
356.386849
11
78.494825
21
364.790499
0
LINE
8
boundary
62
5
39
2
10
78.494825
20
364.790499
11
77.446995
21
372.499656
0
LINE
8
boundary
62
5
39
2
10
77.446995
20
372.499656
11
75.862975
21
383.592398
0
LINE
8
boundary
62
5
39
2
10
75.862975
20
383.592398
11
79.744686
21
387.160972
0
LINE
8
boundary
62
5
39
2
10
79.744686
20
387.160972
11
80.542677
21
388.120300
0
LINE
8
boundary
62
5
39
2
10
80.542677
20
388.120300
11
80.848262
21
388.979657
0
LINE
8
boundary
62
5
39
2
10
80.848262
20
388.979657
11
81.116908
21
389.735127
0
LINE
8
boundary
62
5
39
2
10
81.116908
20
389.735127
11
81.525515
21
390.900525
0
LINE
8
boundary
62
5
39
2
10
81.525515
20
390.900525
11
83.016330
21
395.090414
0
LINE
8
boundary
62
5
39
2
10
83.016330
20
395.090414
11
83.413565
21
401.499176
0
LINE
8
boundary
62
5
39
2
10
83.413565
20
401.499176
11
83.673735
21
404.726141
0
LINE
8
boundary
62
5
39
2
10
83.673735
20
404.726141
11
80.212995
21
406.639488
0
LINE
8
boundary
62
5
39
2
10
80.212995
20
406.639488
11
75.390891
21
409.215410
0
LINE
8
boundary
62
5
39
2
10
75.390891
20
409.215410
11
72.963479
21
410.536826
0
LINE
8
boundary
62
5
39
2
10
72.963479
20
410.536826
11
72.083677
21
411.048685
0
LINE
8
boundary
62
5
39
2
10
72.083677
20
411.048685
11
70.287682
21
423.794745
0
LINE
8
boundary
62
5
39
2
10
70.287682
20
423.794745
11
69.558112
21
428.215730
0
LINE
8
boundary
62
5
39
2
10
69.558112
20
428.215730
11
68.990412
21
429.121133
0
LINE
8
boundary
62
5
39
2
10
68.990412
20
429.121133
11
69.464441
21
429.479951
0
LINE
8
boundary
62
5
39
2
10
69.464441
20
429.479951
11
71.717663
21
431.201132
0
LINE
8
boundary
62
5
39
2
10
71.717663
20
431.201132
11
80.382778
21
439.185285
0
LINE
8
boundary
62
5
39
2
10
80.382778
20
439.185285
11
82.118101
21
440.762880
0
LINE
8
boundary
62
5
39
2
10
82.118101
20
440.762880
11
83.361357
21
446.290803
0
LINE
8
boundary
62
5
39
2
10
83.361357
20
446.290803
11
82.416109
21
452.788801
0
LINE
8
boundary
62
5
39
2
10
82.416109
20
452.788801
11
80.382411
21
454.046913
0
LINE
8
boundary
62
5
39
2
10
80.382411
20
454.046913
11
79.470988
21
459.521041
0
LINE
8
boundary
62
5
39
2
10
79.470988
20
459.521041
11
71.767756
21
460.934835
0
LINE
8
boundary
62
5
39
2
10
71.767756
20
460.934835
11
71.181753
21
461.069040
0
LINE
8
boundary
62
5
39
2
10
71.181753
20
461.069040
11
73.689696
21
469.683740
0
LINE
8
boundary
62
5
39
2
10
73.689696
20
469.683740
11
75.821981
21
474.970523
0
LINE
8
boundary
62
5
39
2
10
75.821981
20
474.970523
11
76.252439
21
476.462135
0
LINE
8
boundary
62
5
39
2
10
76.252439
20
476.462135
11
75.541176
21
480.916054
0
LINE
8
boundary
62
5
39
2
10
75.541176
20
480.916054
11
75.243848
21
482.782042
0
LINE
8
boundary
62
5
39
2
10
75.243848
20
482.782042
11
63.518003
21
494.693999
0
LINE
8
boundary
62
5
39
2
10
63.518003
20
494.693999
11
57.975455
21
500.380089
0
LINE
8
boundary
62
5
39
2
10
57.975455
20
500.380089
11
49.396331
21
498.639684
0
LINE
8
boundary
62
5
39
2
10
49.396331
20
498.639684
11
43.740543
21
497.454848
0
LINE
8
boundary
62
5
39
2
10
43.740543
20
497.454848
11
45.453181
21
497.137349
0
LINE
8
boundary
62
5
39
2
10
45.453181
20
497.137349
11
45.453181
21
491.041349
0
LINE
8
boundary
62
5
39
2
10
45.453181
20
491.041349
11
27.165300
21
491.041348
0
LINE
8
boundary
62
5
39
2
10
27.165300
20
491.041348
11
26.987500
21
477.134850
0
LINE
8
boundary
62
5
39
2
10
26.987500
20
477.134850
11
51.464607
21
476.817350
0
LINE
8
boundary
62
5
39
2
10
51.464607
20
476.817350
11
51.464607
21
470.721350
0
LINE
8
boundary
62
5
39
2
10
51.464607
20
470.721350
11
27.165300
21
470.721350
0
LINE
8
boundary
62
5
39
2
10
27.165300
20
470.721350
11
26.987500
21
456.814851
0
LINE
8
boundary
62
5
39
2
10
26.987500
20
456.814851
11
54.433367
21
456.497351
0
LINE
8
boundary
62
5
39
2
10
54.433367
20
456.497351
11
54.433366
21
450.401351
0
LINE
8
boundary
62
5
39
2
10
54.433366
20
450.401351
11
27.165300
21
450.401351
0
LINE
8
boundary
62
5
39
2
10
27.165300
20
450.401351
11
26.987500
21
436.494852
0
LINE
8
boundary
62
5
39
2
10
26.987500
20
436.494852
11
50.339998
21
436.177352
0
LINE
8
boundary
62
5
39
2
10
50.339998
20
436.177352
11
50.339998
21
430.081352
0
LINE
8
boundary
62
5
39
2
10
50.339998
20
430.081352
11
27.165300
21
430.081352
0
LINE
8
boundary
62
5
39
2
10
27.165300
20
430.081352
11
26.987500
21
416.174853
0
LINE
8
boundary
62
5
39
2
10
26.987500
20
416.174853
11
49.284544
21
415.857353
0
LINE
8
boundary
62
5
39
2
10
49.284544
20
415.857353
11
49.284544
21
409.761354
0
LINE
8
boundary
62
5
39
2
10
49.284544
20
409.761354
11
27.165300
21
409.761353
0
LINE
8
boundary
62
5
39
2
10
27.165300
20
409.761353
11
26.987500
21
395.854854
0
LINE
8
boundary
62
5
39
2
10
26.987500
20
395.854854
11
54.412170
21
395.537355
0
LINE
8
boundary
62
5
39
2
10
54.412170
20
395.537355
11
54.412170
21
389.441355
0
LINE
8
boundary
62
5
39
2
10
54.412170
20
389.441355
11
27.165300
21
389.441355
0
LINE
8
boundary
62
5
39
2
10
27.165300
20
389.441355
11
26.987500
21
375.534856
0
LINE
8
boundary
62
5
39
2
10
26.987500
20
375.534856
11
52.220556
21
375.217356
0
LINE
8
boundary
62
5
39
2
10
52.220556
20
375.217356
11
52.220556
21
369.121356
0
LINE
8
boundary
62
5
39
2
10
52.220556
20
369.121356
11
27.165300
21
369.121356
0
LINE
8
boundary
62
5
39
2
10
27.165300
20
369.121356
11
26.987500
21
348.215678
0
LINE
8
boundary
62
5
39
2
10
26.987500
20
348.215678
11
45.100946
21
347.898178
0
LINE
8
boundary
62
5
39
2
10
45.100946
20
347.898178
11
45.100946
21
341.802178
0
LINE
8
boundary
62
5
39
2
10
45.100946
20
341.802178
11
57.978629
21
341.689358
0
LINE
8
boundary
62
5
39
2
10
57.978629
20
341.689358
11
58.300049
21
341.689358
0
LINE
8
annotation
62
1
39
211
10
51.783487
20
342.441934
11
51.783487
21
347.258422
0
LINE
8
annotation
62
1
39
211
10
51.783487
20
347.258422
11
50.712720
21
346.187353
0
LINE
8
annotation
62
1
39
211
10
67.302431
20
367.089273
11
62.790132
21
367.089273
0
LINE
8
annotation
62
1
39
211
10
62.790132
20
367.089273
11
66.959644
21
373.801652
0
LINE
8
annotation
62
1
39
211
10
66.959644
20
373.801652
11
66.959644
21
373.801652
0
LINE
8
annotation
62
1
39
211
10
66.959644
20
373.801652
11
66.964628
21
373.807820
0
LINE
8
annotation
62
1
39
211
10
66.964628
20
373.807820
11
66.969408
21
373.814041
0
LINE
8
annotation
62
1
39
211
10
66.969408
20
373.814041
11
66.974015
21
373.820366
0
LINE
8
annotation
62
1
39
211
10
66.974015
20
373.820366
11
66.978480
21
373.826848
0
LINE
8
annotation
62
1
39
211
10
66.978480
20
373.826848
11
66.982836
21
373.833541
0
LINE
8
annotation
62
1
39
211
10
66.982836
20
373.833541
11
66.987112
21
373.840495
0
LINE
8
annotation
62
1
39
211
10
66.987112
20
373.840495
11
66.991341
21
373.847764
0
LINE
8
annotation
62
1
39
211
10
66.991341
20
373.847764
11
66.995555
21
373.855400
0
LINE
8
annotation
62
1
39
211
10
66.995555
20
373.855400
11
66.999784
21
373.863456
0
LINE
8
annotation
62
1
39
211
10
66.999784
20
373.863456
11
66.999784
21
373.863456
0
LINE
8
annotation
62
1
39
211
10
66.999784
20
373.863456
11
67.171943
21
374.233094
0
LINE
8
annotation
62
1
39
211
10
67.171943
20
374.233094
11
67.272514
21
374.616257
0
LINE
8
annotation
62
1
39
211
10
67.272514
20
374.616257
11
67.303965
21
375.004286
0
LINE
8
annotation
62
1
39
211
10
67.303965
20
375.004286
11
67.268758
21
375.388523
0
LINE
8
annotation
62
1
39
211
10
67.268758
20
375.388523
11
67.169359
21
375.760311
0
LINE
8
annotation
62
1
39
211
10
67.169359
20
375.760311
11
67.008233
21
376.110992
0
LINE
8
annotation
62
1
39
211
10
67.008233
20
376.110992
11
66.787843
21
376.431908
0
LINE
8
annotation
62
1
39
211
10
66.787843
20
376.431908
11
66.510656
21
376.714401
0
LINE
8
annotation
62
1
39
211
10
66.510656
20
376.714401
11
66.179135
21
376.949812
0
LINE
8
annotation
62
1
39
211
10
66.179135
20
376.949812
11
66.179135
21
376.949812
0
LINE
8
annotation
62
1
39
211
10
66.179135
20
376.949812
11
65.808469
21
377.119524
0
LINE
8
annotation
62
1
39
211
10
65.808469
20
377.119524
11
65.424719
21
377.218547
0
LINE
8
annotation
62
1
39
211
10
65.424719
20
377.218547
11
65.036464
21
377.249108
0
LINE
8
annotation
62
1
39
211
10
65.036464
20
377.249108
11
64.652285
21
377.213437
0
LINE
8
annotation
62
1
39
211
10
64.652285
20
377.213437
11
64.280759
21
377.113763
0
LINE
8
annotation
62
1
39
211
10
64.280759
20
377.113763
11
63.930466
21
376.952314
0
LINE
8
annotation
62
1
39
211
10
63.930466
20
376.952314
11
63.609985
21
376.731319
0
LINE
8
annotation
62
1
39
211
10
63.609985
20
376.731319
11
63.327896
21
376.453007
0
LINE
8
annotation
62
1
39
211
10
63.327896
20
376.453007
11
63.092778
21
376.119606
0
LINE
8
annotation
62
1
39
211
10
63.092778
20
376.119606
11
62.796503
21
375.551267
0
LINE
8
annotation
62
1
39
211
10
64.981747
20
387.409673
11
67.237896
21
387.409673
0
LINE
8
annotation
62
1
39
211
10
67.237896
20
387.409673
11
67.237896
21
387.409673
0
LINE
8
annotation
62
1
39
211
10
67.237896
20
387.409673
11
67.643670
21
387.446074
0
LINE
8
annotation
62
1
39
211
10
67.643670
20
387.446074
11
68.025489
21
387.550982
0
LINE
8
annotation
62
1
39
211
10
68.025489
20
387.550982
11
68.377003
21
387.717960
0
LINE
8
annotation
62
1
39
211
10
68.377003
20
387.717960
11
68.691861
21
387.940565
0
LINE
8
annotation
62
1
39
211
10
68.691861
20
387.940565
11
68.963713
21
388.212360
0
LINE
8
annotation
62
1
39
211
10
68.963713
20
388.212360
11
69.186207
21
388.526905
0
LINE
8
annotation
62
1
39
211
10
69.186207
20
388.526905
11
69.352995
21
388.877759
0
LINE
8
annotation
62
1
39
211
10
69.352995
20
388.877759
11
69.457724
21
389.258483
0
LINE
8
annotation
62
1
39
211
10
69.457724
20
389.258483
11
69.494046
21
389.662637
0
LINE
8
annotation
62
1
39
211
10
69.494046
20
389.662637
11
69.494046
21
390.792305
0
LINE
8
annotation
62
1
39
211
10
69.494046
20
390.792305
11
69.494046
21
390.792305
0
LINE
8
annotation
62
1
39
211
10
69.494046
20
390.792305
11
69.457724
21
391.196291
0
LINE
8
annotation
62
1
39
211
10
69.457724
20
391.196291
11
69.352995
21
391.576926
0
LINE
8
annotation
62
1
39
211
10
69.352995
20
391.576926
11
69.186207
21
391.927754
0
LINE
8
annotation
62
1
39
211
10
69.186207
20
391.927754
11
68.963713
21
392.242319
0
LINE
8
annotation
62
1
39
211
10
68.963713
20
392.242319
11
68.691861
21
392.514166
0
LINE
8
annotation
62
1
39
211
10
68.691861
20
392.514166
11
68.377003
21
392.736840
0
LINE
8
annotation
62
1
39
211
10
68.377003
20
392.736840
11
68.025489
21
392.903886
0
LINE
8
annotation
62
1
39
211
10
68.025489
20
392.903886
11
67.643670
21
393.008847
0
LINE
8
annotation
62
1
39
211
10
67.643670
20
393.008847
11
67.237896
21
393.045268
0
LINE
8
annotation
62
1
39
211
10
67.237896
20
393.045268
11
66.108228
21
393.045268
0
LINE
8
annotation
62
1
39
211
10
66.108228
20
393.045268
11
67.237896
21
393.045268
0
LINE
8
annotation
62
1
39
211
10
67.237896
20
393.045268
11
67.237896
21
393.045268
0
LINE
8
annotation
62
1
39
211
10
67.237896
20
393.045268
11
67.643670
21
393.081699
0
LINE
8
annotation
62
1
39
211
10
67.643670
20
393.081699
11
68.025489
21
393.186721
0
LINE
8
annotation
62
1
39
211
10
68.025489
20
393.186721
11
68.377003
21
393.353932
0
LINE
8
annotation
62
1
39
211
10
68.377003
20
393.353932
11
68.691861
21
393.576930
0
LINE
8
annotation
62
1
39
211
10
68.691861
20
393.576930
11
68.963713
21
393.849310
0
LINE
8
annotation
62
1
39
211
10
68.963713
20
393.849310
11
69.186207
21
394.164671
0
LINE
8
annotation
62
1
39
211
10
69.186207
20
394.164671
11
69.352995
21
394.516608
0
LINE
8
annotation
62
1
39
211
10
69.352995
20
394.516608
11
69.457724
21
394.898720
0
LINE
8
annotation
62
1
39
211
10
69.457724
20
394.898720
11
69.494046
21
395.304604
0
LINE
8
annotation
62
1
39
211
10
69.494046
20
395.304604
11
69.494046
21
395.304604
0
LINE
8
annotation
62
1
39
211
10
69.494046
20
395.304604
11
69.457724
21
395.708590
0
LINE
8
annotation
62
1
39
211
10
69.457724
20
395.708590
11
69.352995
21
396.089225
0
LINE
8
annotation
62
1
39
211
10
69.352995
20
396.089225
11
69.186207
21
396.440053
0
LINE
8
annotation
62
1
39
211
10
69.186207
20
396.440053
11
68.963713
21
396.754618
0
LINE
8
annotation
62
1
39
211
10
68.963713
20
396.754618
11
68.691861
21
397.026465
0
LINE
8
annotation
62
1
39
211
10
68.691861
20
397.026465
11
68.377003
21
397.249139
0
LINE
8
annotation
62
1
39
211
10
68.377003
20
397.249139
11
68.025489
21
397.416185
0
LINE
8
annotation
62
1
39
211
10
68.025489
20
397.416185
11
67.643670
21
397.521146
0
LINE
8
annotation
62
1
39
211
10
67.643670
20
397.521146
11
67.237896
21
397.557567
0
LINE
8
annotation
62
1
39
211
10
67.237896
20
397.557567
11
64.981747
21
397.557567
0
LINE
8
annotation
62
1
39
211
10
64.930935
20
409.988051
11
59.289605
21
409.988051
0
LINE
8
annotation
62
1
39
211
10
59.289605
20
409.988051
11
61.542569
21
417.889353
0
LINE
8
annotation
62
1
39
211
10
63.239937
20
407.729353
11
63.239937
21
412.241652
0
LINE
8
annotation
62
1
39
211
10
60.909574
20
428.049352
11
63.165724
21
428.049352
0
LINE
8
annotation
62
1
39
211
10
63.165724
20
428.049352
11
63.165724
21
428.049352
0
LINE
8
annotation
62
1
39
211
10
63.165724
20
428.049352
11
63.570659
21
428.085761
0
LINE
8
annotation
62
1
39
211
10
63.570659
20
428.085761
11
63.952032
21
428.190724
0
LINE
8
annotation
62
1
39
211
10
63.952032
20
428.190724
11
64.303415
21
428.357851
0
LINE
8
annotation
62
1
39
211
10
64.303415
20
428.357851
11
64.618378
21
428.580748
0
LINE
8
annotation
62
1
39
211
10
64.618378
20
428.580748
11
64.890492
21
428.853023
0
LINE
8
annotation
62
1
39
211
10
64.890492
20
428.853023
11
65.113328
21
429.168283
0
LINE
8
annotation
62
1
39
211
10
65.113328
20
429.168283
11
65.280456
21
429.520136
0
LINE
8
annotation
62
1
39
211
10
65.280456
20
429.520136
11
65.385448
21
429.902189
0
LINE
8
annotation
62
1
39
211
10
65.385448
20
429.902189
11
65.421873
21
430.308050
0
LINE
8
annotation
62
1
39
211
10
65.421873
20
430.308050
11
65.421873
21
431.431984
0
LINE
8
annotation
62
1
39
211
10
65.421873
20
431.431984
11
65.421873
21
431.431984
0
LINE
8
annotation
62
1
39
211
10
65.421873
20
431.431984
11
65.385469
21
431.837648
0
LINE
8
annotation
62
1
39
211
10
65.385469
20
431.837648
11
65.280529
21
432.219175
0
LINE
8
annotation
62
1
39
211
10
65.280529
20
432.219175
11
65.113469
21
432.570264
0
LINE
8
annotation
62
1
39
211
10
65.113469
20
432.570264
11
64.890702
21
432.884620
0
LINE
8
annotation
62
1
39
211
10
64.890702
20
432.884620
11
64.618640
21
433.155943
0
LINE
8
annotation
62
1
39
211
10
64.618640
20
433.155943
11
64.303698
21
433.377935
0
LINE
8
annotation
62
1
39
211
10
64.303698
20
433.377935
11
63.952289
21
433.544299
0
LINE
8
annotation
62
1
39
211
10
63.952289
20
433.544299
11
63.570827
21
433.648735
0
LINE
8
annotation
62
1
39
211
10
63.570827
20
433.648735
11
63.165724
21
433.684947
0
LINE
8
annotation
62
1
39
211
10
63.165724
20
433.684947
11
60.909574
21
433.684947
0
LINE
8
annotation
62
1
39
211
10
60.909574
20
433.684947
11
60.909574
21
438.209352
0
LINE
8
annotation
62
1
39
211
10
60.909574
20
438.209352
11
65.421873
21
438.209352
0
LINE
8
annotation
62
1
39
211
10
68.391945
20
458.529351
11
68.391945
21
458.529351
0
LINE
8
annotation
62
1
39
211
10
68.391945
20
458.529351
11
67.745615
21
458.287016
0
LINE
8
annotation
62
1
39
211
10
67.745615
20
458.287016
11
67.152523
21
457.960499
0
LINE
8
annotation
62
1
39
211
10
67.152523
20
457.960499
11
66.618756
21
457.557980
0
LINE
8
annotation
62
1
39
211
10
66.618756
20
457.557980
11
66.150403
21
457.087640
0
LINE
8
annotation
62
1
39
211
10
66.150403
20
457.087640
11
65.753553
21
456.557659
0
LINE
8
annotation
62
1
39
211
10
65.753553
20
456.557659
11
65.434293
21
455.976219
0
LINE
8
annotation
62
1
39
211
10
65.434293
20
455.976219
11
65.198713
21
455.351499
0
LINE
8
annotation
62
1
39
211
10
65.198713
20
455.351499
11
65.052900
21
454.691681
0
LINE
8
annotation
62
1
39
211
10
65.052900
20
454.691681
11
65.002943
21
454.004946
0
LINE
8
annotation
62
1
39
211
10
65.002943
20
454.004946
11
65.002943
21
450.628049
0
LINE
8
annotation
62
1
39
211
10
65.002943
20
450.628049
11
65.002943
21
450.628049
0
LINE
8
annotation
62
1
39
211
10
65.002943
20
450.628049
11
65.039369
21
450.222188
0
LINE
8
annotation
62
1
39
211
10
65.039369
20
450.222188
11
65.144360
21
449.840134
0
LINE
8
annotation
62
1
39
211
10
65.144360
20
449.840134
11
65.311489
21
449.488281
0
LINE
8
annotation
62
1
39
211
10
65.311489
20
449.488281
11
65.534324
21
449.173021
0
LINE
8
annotation
62
1
39
211
10
65.534324
20
449.173021
11
65.806438
21
448.900747
0
LINE
8
annotation
62
1
39
211
10
65.806438
20
448.900747
11
66.121401
21
448.677850
0
LINE
8
annotation
62
1
39
211
10
66.121401
20
448.677850
11
66.472784
21
448.510723
0
LINE
8
annotation
62
1
39
211
10
66.472784
20
448.510723
11
66.854157
21
448.405759
0
LINE
8
annotation
62
1
39
211
10
66.854157
20
448.405759
11
67.259092
21
448.369351
0
LINE
8
annotation
62
1
39
211
10
67.259092
20
448.369351
11
67.259092
21
448.369351
0
LINE
8
annotation
62
1
39
211
10
67.259092
20
448.369351
11
67.664866
21
448.405759
0
LINE
8
annotation
62
1
39
211
10
67.664866
20
448.405759
11
68.046685
21
448.510723
0
LINE
8
annotation
62
1
39
211
10
68.046685
20
448.510723
11
68.398199
21
448.677850
0
LINE
8
annotation
62
1
39
211
10
68.398199
20
448.677850
11
68.713057
21
448.900747
0
LINE
8
annotation
62
1
39
211
10
68.713057
20
448.900747
11
68.984909
21
449.173021
0
LINE
8
annotation
62
1
39
211
10
68.984909
20
449.173021
11
69.207404
21
449.488281
0
LINE
8
annotation
62
1
39
211
10
69.207404
20
449.488281
11
69.374191
21
449.840134
0
LINE
8
annotation
62
1
39
211
10
69.374191
20
449.840134
11
69.478921
21
450.222188
0
LINE
8
annotation
62
1
39
211
10
69.478921
20
450.222188
11
69.515242
21
450.628049
0
LINE
8
annotation
62
1
39
211
10
69.515242
20
450.628049
11
69.515242
21
451.751982
0
LINE
8
annotation
62
1
39
211
10
69.515242
20
451.751982
11
69.515242
21
451.751982
0
LINE
8
annotation
62
1
39
211
10
69.515242
20
451.751982
11
69.478921
21
452.157647
0
LINE
8
annotation
62
1
39
211
10
69.478921
20
452.157647
11
69.374191
21
452.539173
0
LINE
8
annotation
62
1
39
211
10
69.374191
20
452.539173
11
69.207404
21
452.890263
0
LINE
8
annotation
62
1
39
211
10
69.207404
20
452.890263
11
68.984909
21
453.204619
0
LINE
8
annotation
62
1
39
211
10
68.984909
20
453.204619
11
68.713057
21
453.475942
0
LINE
8
annotation
62
1
39
211
10
68.713057
20
453.475942
11
68.398199
21
453.697934
0
LINE
8
annotation
62
1
39
211
10
68.398199
20
453.697934
11
68.046685
21
453.864298
0
LINE
8
annotation
62
1
39
211
10
68.046685
20
453.864298
11
67.664866
21
453.968734
0
LINE
8
annotation
62
1
39
211
10
67.664866
20
453.968734
11
67.259092
21
454.004946
0
LINE
8
annotation
62
1
39
211
10
67.259092
20
454.004946
11
65.002943
21
454.004946
0
LINE
8
annotation
62
1
39
211
10
64.720366
20
447.099351
11
69.800366
21
447.099351
0
LINE
8
annotation
62
1
39
211
10
64.290332
20
468.689350
11
66.549030
21
478.849350
0
LINE
8
annotation
62
1
39
211
10
66.549030
20
478.849350
11
62.030997
21
478.849350
0
LINE
8
annotation
62
1
39
211
10
66.549030
20
474.324945
11
64.290332
21
474.324945
0
LINE
8
annotation
62
1
39
211
10
51.454785
20
492.498784
11
51.454785
21
492.498784
0
LINE
8
annotation
62
1
39
211
10
51.454785
20
492.498784
11
51.475277
21
492.270572
0
LINE
8
annotation
62
1
39
211
10
51.475277
20
492.270572
11
51.534341
21
492.055940
0
LINE
8
annotation
62
1
39
211
10
51.534341
20
492.055940
11
51.628361
21
491.858430
0
LINE
8
annotation
62
1
39
211
10
51.628361
20
491.858430
11
51.753720
21
491.681585
0
LINE
8
annotation
62
1
39
211
10
51.753720
20
491.681585
11
51.906802
21
491.528949
0
LINE
8
annotation
62
1
39
211
10
51.906802
20
491.528949
11
52.083988
21
491.404064
0
LINE
8
annotation
62
1
39
211
10
52.083988
20
491.404064
11
52.281663
21
491.310474
0
LINE
8
annotation
62
1
39
211
10
52.281663
20
491.310474
11
52.496209
21
491.251722
0
LINE
8
annotation
62
1
39
211
10
52.496209
20
491.251722
11
52.724011
21
491.231351
0
LINE
8
annotation
62
1
39
211
10
52.724011
20
491.231351
11
52.724011
21
491.231351
0
LINE
8
annotation
62
1
39
211
10
52.724011
20
491.231351
11
52.951812
21
491.251722
0
LINE
8
annotation
62
1
39
211
10
52.951812
20
491.251722
11
53.166358
21
491.310474
0
LINE
8
annotation
62
1
39
211
10
53.166358
20
491.310474
11
53.364033
21
491.404064
0
LINE
8
annotation
62
1
39
211
10
53.364033
20
491.404064
11
53.541219
21
491.528949
0
LINE
8
annotation
62
1
39
211
10
53.541219
20
491.528949
11
53.694301
21
491.681585
0
LINE
8
annotation
62
1
39
211
10
53.694301
20
491.681585
11
53.819660
21
491.858430
0
LINE
8
annotation
62
1
39
211
10
53.819660
20
491.858430
11
53.913680
21
492.055940
0
LINE
8
annotation
62
1
39
211
10
53.913680
20
492.055940
11
53.972744
21
492.270572
0
LINE
8
annotation
62
1
39
211
10
53.972744
20
492.270572
11
53.993236
21
492.498784
0
LINE
8
annotation
62
1
39
211
10
53.993236
20
492.498784
11
53.993236
21
493.131067
0
LINE
8
annotation
62
1
39
211
10
53.993236
20
493.131067
11
53.993236
21
493.131067
0
LINE
8
annotation
62
1
39
211
10
53.993236
20
493.131067
11
53.972756
21
493.359389
0
LINE
8
annotation
62
1
39
211
10
53.972756
20
493.359389
11
53.913721
21
493.574318
0
LINE
8
annotation
62
1
39
211
10
53.913721
20
493.574318
11
53.819739
21
493.772258
0
LINE
8
annotation
62
1
39
211
10
53.819739
20
493.772258
11
53.694419
21
493.949611
0
LINE
8
annotation
62
1
39
211
10
53.694419
20
493.949611
11
53.541367
21
494.102783
0
LINE
8
annotation
62
1
39
211
10
53.541367
20
494.102783
11
53.364192
21
494.228176
0
LINE
8
annotation
62
1
39
211
10
53.364192
20
494.228176
11
53.166503
21
494.322196
0
LINE
8
annotation
62
1
39
211
10
53.166503
20
494.322196
11
52.951906
21
494.381244
0
LINE
8
annotation
62
1
39
211
10
52.951906
20
494.381244
11
52.724011
21
494.401726
0
LINE
8
annotation
62
1
39
211
10
52.724011
20
494.401726
11
52.724011
21
494.401726
0
LINE
8
annotation
62
1
39
211
10
52.724011
20
494.401726
11
52.496115
21
494.381233
0
LINE
8
annotation
62
1
39
211
10
52.496115
20
494.381233
11
52.281518
21
494.322154
0
LINE
8
annotation
62
1
39
211
10
52.281518
20
494.322154
11
52.083829
21
494.228097
0
LINE
8
annotation
62
1
39
211
10
52.083829
20
494.228097
11
51.906654
21
494.102665
0
LINE
8
annotation
62
1
39
211
10
51.906654
20
494.102665
11
51.753602
21
493.949464
0
LINE
8
annotation
62
1
39
211
10
51.753602
20
493.949464
11
51.628282
21
493.772099
0
LINE
8
annotation
62
1
39
211
10
51.628282
20
493.772099
11
51.534300
21
493.574174
0
LINE
8
annotation
62
1
39
211
10
51.534300
20
493.574174
11
51.475265
21
493.359295
0
LINE
8
annotation
62
1
39
211
10
51.475265
20
493.359295
11
51.454785
21
493.131067
0
LINE
8
annotation
62
1
39
211
10
51.454785
20
493.131067
11
51.454785
21
492.498784
0
LINE
8
annotation
62
1
39
211
10
53.993236
20
495.672744
11
53.993236
21
495.672744
0
LINE
8
annotation
62
1
39
211
10
53.993236
20
495.672744
11
53.972756
21
495.900012
0
LINE
8
annotation
62
1
39
211
10
53.972756
20
495.900012
11
53.913721
21
496.114143
0
LINE
8
annotation
62
1
39
211
10
53.913721
20
496.114143
11
53.819739
21
496.311506
0
LINE
8
annotation
62
1
39
211
10
53.819739
20
496.311506
11
53.694419
21
496.488468
0
LINE
8
annotation
62
1
39
211
10
53.694419
20
496.488468
11
53.541367
21
496.641399
0
LINE
8
annotation
62
1
39
211
10
53.541367
20
496.641399
11
53.364192
21
496.766668
0
LINE
8
annotation
62
1
39
211
10
53.364192
20
496.766668
11
53.166503
21
496.860641
0
LINE
8
annotation
62
1
39
211
10
53.166503
20
496.860641
11
52.951906
21
496.919688
0
LINE
8
annotation
62
1
39
211
10
52.951906
20
496.919688
11
52.724011
21
496.940178
0
LINE
8
annotation
62
1
39
211
10
52.724011
20
496.940178
11
52.724011
21
496.940178
0
LINE
8
annotation
62
1
39
211
10
52.724011
20
496.940178
11
52.496115
21
496.919688
0
LINE
8
annotation
62
1
39
211
10
52.496115
20
496.919688
11
52.281518
21
496.860641
0
LINE
8
annotation
62
1
39
211
10
52.281518
20
496.860641
11
52.083829
21
496.766668
0
LINE
8
annotation
62
1
39
211
10
52.083829
20
496.766668
11
51.906654
21
496.641399
0
LINE
8
annotation
62
1
39
211
10
51.906654
20
496.641399
11
51.753602
21
496.488468
0
LINE
8
annotation
62
1
39
211
10
51.753602
20
496.488468
11
51.628282
21
496.311506
0
LINE
8
annotation
62
1
39
211
10
51.628282
20
496.311506
11
51.534300
21
496.114143
0
LINE
8
annotation
62
1
39
211
10
51.534300
20
496.114143
11
51.475265
21
495.900012
0
LINE
8
annotation
62
1
39
211
10
51.475265
20
495.900012
11
51.454785
21
495.672744
0
LINE
8
annotation
62
1
39
211
10
51.454785
20
495.672744
11
51.454785
21
495.672744
0
LINE
8
annotation
62
1
39
211
10
51.454785
20
495.672744
11
51.475277
21
495.444409
0
LINE
8
annotation
62
1
39
211
10
51.475277
20
495.444409
11
51.534341
21
495.229448
0
LINE
8
annotation
62
1
39
211
10
51.534341
20
495.229448
11
51.628361
21
495.031460
0
LINE
8
annotation
62
1
39
211
10
51.628361
20
495.031460
11
51.753720
21
494.854050
0
LINE
8
annotation
62
1
39
211
10
51.753720
20
494.854050
11
51.906802
21
494.700819
0
LINE
8
annotation
62
1
39
211
10
51.906802
20
494.700819
11
52.083988
21
494.575369
0
LINE
8
annotation
62
1
39
211
10
52.083988
20
494.575369
11
52.281663
21
494.481302
0
LINE
8
annotation
62
1
39
211
10
52.281663
20
494.481302
11
52.496209
21
494.422221
0
LINE
8
annotation
62
1
39
211
10
52.496209
20
494.422221
11
52.724011
21
494.401726
0
LINE
8
annotation
62
1
39
211
10
52.724011
20
494.401726
11
52.724011
21
494.401726
0
LINE
8
annotation
62
1
39
211
10
52.724011
20
494.401726
11
52.951812
21
494.422221
0
LINE
8
annotation
62
1
39
211
10
52.951812
20
494.422221
11
53.166358
21
494.481302
0
LINE
8
annotation
62
1
39
211
10
53.166358
20
494.481302
11
53.364033
21
494.575369
0
LINE
8
annotation
62
1
39
211
10
53.364033
20
494.575369
11
53.541219
21
494.700819
0
LINE
8
annotation
62
1
39
211
10
53.541219
20
494.700819
11
53.694301
21
494.854050
0
LINE
8
annotation
62
1
39
211
10
53.694301
20
494.854050
11
53.819660
21
495.031460
0
LINE
8
annotation
62
1
39
211
10
53.819660
20
495.031460
11
53.913680
21
495.229448
0
LINE
8
annotation
62
1
39
211
10
53.913680
20
495.229448
11
53.972744
21
495.444409
0
LINE
8
annotation
62
1
39
211
10
53.972744
20
495.444409
11
53.993236
21
495.672744
0
LINE
8
annotation
62
1
39
211
10
59.701426
20
406.533087
11
57.795992
21
403.777050
0
LINE
8
annotation
62
1
39
211
10
57.795992
20
403.777050
11
55.890199
21
406.533087
0
LINE
8
annotation
62
1
39
211
10
57.795992
20
403.998837
11
57.795992
21
400.819291
0
LINE
8
annotation
62
1
39
211
10
64.968692
20
403.676189
11
61.844682
21
403.676189
0
LINE
8
annotation
62
1
39
211
10
67.110694
20
400.819470
11
68.379431
21
400.819470
0
LINE
8
annotation
62
1
39
211
10
68.379431
20
400.819470
11
68.379431
21
400.819470
0
LINE
8
annotation
62
1
39
211
10
68.379431
20
400.819470
11
68.607144
21
400.839944
0
LINE
8
annotation
62
1
39
211
10
68.607144
20
400.839944
11
68.821608
21
400.898970
0
LINE
8
annotation
62
1
39
211
10
68.821608
20
400.898970
11
69.019207
21
400.992953
0
LINE
8
annotation
62
1
39
211
10
69.019207
20
400.992953
11
69.196325
21
401.118298
0
LINE
8
annotation
62
1
39
211
10
69.196325
20
401.118298
11
69.349347
21
401.271411
0
LINE
8
annotation
62
1
39
211
10
69.349347
20
401.271411
11
69.474658
21
401.448696
0
LINE
8
annotation
62
1
39
211
10
69.474658
20
401.448696
11
69.568642
21
401.646559
0
LINE
8
annotation
62
1
39
211
10
69.568642
20
401.646559
11
69.627684
21
401.861406
0
LINE
8
annotation
62
1
39
211
10
69.627684
20
401.861406
11
69.648168
21
402.089640
0
LINE
8
annotation
62
1
39
211
10
69.648168
20
402.089640
11
69.648168
21
402.721680
0
LINE
8
annotation
62
1
39
211
10
69.648168
20
402.721680
11
69.648168
21
402.721680
0
LINE
8
annotation
62
1
39
211
10
69.648168
20
402.721680
11
69.627696
21
402.949804
0
LINE
8
annotation
62
1
39
211
10
69.627696
20
402.949804
11
69.568683
21
403.164354
0
LINE
8
annotation
62
1
39
211
10
69.568683
20
403.164354
11
69.474738
21
403.361788
0
LINE
8
annotation
62
1
39
211
10
69.474738
20
403.361788
11
69.349465
21
403.538565
0
LINE
8
annotation
62
1
39
211
10
69.349465
20
403.538565
11
69.196473
21
403.691142
0
LINE
8
annotation
62
1
39
211
10
69.196473
20
403.691142
11
69.019366
21
403.815978
0
LINE
8
annotation
62
1
39
211
10
69.019366
20
403.815978
11
68.821753
21
403.909532
0
LINE
8
annotation
62
1
39
211
10
68.821753
20
403.909532
11
68.607239
21
403.968262
0
LINE
8
annotation
62
1
39
211
10
68.607239
20
403.968262
11
68.379431
21
403.988626
0
LINE
8
annotation
62
1
39
211
10
68.379431
20
403.988626
11
67.110694
21
403.988626
0
LINE
8
annotation
62
1
39
211
10
67.110694
20
403.988626
11
67.110694
21
406.532908
0
LINE
8
annotation
62
1
39
211
10
67.110694
20
406.532908
11
69.648168
21
406.532908
0
LINE
8
boundary
62
5
39
2
10
92.673212
20
342.046776
11
96.514095
21
341.872074
0
LINE
8
boundary
62
5
39
2
10
96.514095
20
341.872074
11
100.356336
21
342.018733
0
LINE
8
boundary
62
5
39
2
10
100.356336
20
342.018733
11
106.178188
21
341.689357
0
LINE
8
boundary
62
5
39
2
10
106.178188
20
341.689357
11
101.586427
21
360.973454
0
LINE
8
boundary
62
5
39
2
10
101.586427
20
360.973454
11
101.066779
21
364.720501
0
LINE
8
boundary
62
5
39
2
10
101.066779
20
364.720501
11
100.223682
21
364.743691
0
LINE
8
boundary
62
5
39
2
10
100.223682
20
364.743691
11
99.721834
21
353.432140
0
LINE
8
boundary
62
5
39
2
10
99.721834
20
353.432140
11
93.626643
21
353.531453
0
LINE
8
boundary
62
5
39
2
10
93.626643
20
353.531453
11
93.806954
21
364.597843
0
LINE
8
boundary
62
5
39
2
10
93.806954
20
364.597843
11
92.123743
21
364.753141
0
LINE
8
boundary
62
5
39
2
10
92.123743
20
364.753141
11
91.576233
21
361.009990
0
LINE
8
boundary
62
5
39
2
10
91.576233
20
361.009990
11
86.848735
21
341.759912
0
LINE
8
boundary
62
5
39
2
10
86.848735
20
341.759912
11
92.673212
21
342.046776
0
LINE
8
annotation
62
1
39
211
10
100.393616
20
344.488100
11
92.663833
21
344.614046
0
LINE
8
annotation
62
1
39
211
10
92.663833
20
344.614046
11
94.354748
21
342.867609
0
LINE
8
annotation
62
1
39
211
10
92.853314
20
346.588601
11
91.464717
21
346.588601
0
LINE
8
annotation
62
1
39
211
10
91.464717
20
346.588601
11
92.853314
21
349.089456
0
LINE
8
annotation
62
1
39
211
10
92.853314
20
349.089456
11
91.464717
21
349.089456
0
LINE
8
annotation
62
1
39
211
10
95.158794
20
347.839029
11
93.791370
21
347.839029
0
LINE
8
annotation
62
1
39
211
10
97.207258
20
346.588581
11
96.096568
21
346.588581
0
LINE
8
annotation
62
1
39
211
10
96.096568
20
346.588581
11
97.122882
21
348.240814
0
LINE
8
annotation
62
1
39
211
10
97.122882
20
348.240814
11
97.122882
21
348.240814
0
LINE
8
annotation
62
1
39
211
10
97.122882
20
348.240814
11
97.124109
21
348.242332
0
LINE
8
annotation
62
1
39
211
10
97.124109
20
348.242332
11
97.125285
21
348.243863
0
LINE
8
annotation
62
1
39
211
10
97.125285
20
348.243863
11
97.126419
21
348.245420
0
LINE
8
annotation
62
1
39
211
10
97.126419
20
348.245420
11
97.127518
21
348.247016
0
LINE
8
annotation
62
1
39
211
10
97.127518
20
348.247016
11
97.128590
21
348.248663
0
LINE
8
annotation
62
1
39
211
10
97.128590
20
348.248663
11
97.129643
21
348.250375
0
LINE
8
annotation
62
1
39
211
10
97.129643
20
348.250375
11
97.130684
21
348.252164
0
LINE
8
annotation
62
1
39
211
10
97.130684
20
348.252164
11
97.131721
21
348.254044
0
LINE
8
annotation
62
1
39
211
10
97.131721
20
348.254044
11
97.132762
21
348.256027
0
LINE
8
annotation
62
1
39
211
10
97.132762
20
348.256027
11
97.132762
21
348.256027
0
LINE
8
annotation
62
1
39
211
10
97.132762
20
348.256027
11
97.175139
21
348.347012
0
LINE
8
annotation
62
1
39
211
10
97.175139
20
348.347012
11
97.199894
21
348.441326
0
LINE
8
annotation
62
1
39
211
10
97.199894
20
348.441326
11
97.207635
21
348.536839
0
LINE
8
annotation
62
1
39
211
10
97.207635
20
348.536839
11
97.198969
21
348.631418
0
LINE
8
annotation
62
1
39
211
10
97.198969
20
348.631418
11
97.174503
21
348.722932
0
LINE
8
annotation
62
1
39
211
10
97.174503
20
348.722932
11
97.134842
21
348.809251
0
LINE
8
annotation
62
1
39
211
10
97.134842
20
348.809251
11
97.080594
21
348.888244
0
LINE
8
annotation
62
1
39
211
10
97.080594
20
348.888244
11
97.012365
21
348.957779
0
LINE
8
annotation
62
1
39
211
10
97.012365
20
348.957779
11
96.930762
21
349.015725
0
LINE
8
annotation
62
1
39
211
10
96.930762
20
349.015725
11
96.930762
21
349.015725
0
LINE
8
annotation
62
1
39
211
10
96.930762
20
349.015725
11
96.839523
21
349.057499
0
LINE
8
annotation
62
1
39
211
10
96.839523
20
349.057499
11
96.745064
21
349.081873
0
LINE
8
annotation
62
1
39
211
10
96.745064
20
349.081873
11
96.649497
21
349.089395
0
LINE
8
annotation
62
1
39
211
10
96.649497
20
349.089395
11
96.554932
21
349.080615
0
LINE
8
annotation
62
1
39
211
10
96.554932
20
349.080615
11
96.463482
21
349.056080
0
LINE
8
annotation
62
1
39
211
10
96.463482
20
349.056080
11
96.377258
21
349.016340
0
LINE
8
annotation
62
1
39
211
10
96.377258
20
349.016340
11
96.298373
21
348.961943
0
LINE
8
annotation
62
1
39
211
10
96.298373
20
348.961943
11
96.228938
21
348.893437
0
LINE
8
annotation
62
1
39
211
10
96.228938
20
348.893437
11
96.171064
21
348.811371
0
LINE
8
annotation
62
1
39
211
10
96.171064
20
348.811371
11
96.098137
21
348.671477
0
LINE
8
annotation
62
1
39
211
10
99.512927
20
347.839029
11
98.145502
21
347.839029
0
LINE
8
annotation
62
1
39
211
10
101.561391
20
346.588581
11
100.450701
21
346.588581
0
LINE
8
annotation
62
1
39
211
10
100.450701
20
346.588581
11
101.477015
21
348.240814
0
LINE
8
annotation
62
1
39
211
10
101.477015
20
348.240814
11
101.477015
21
348.240814
0
LINE
8
annotation
62
1
39
211
10
101.477015
20
348.240814
11
101.478241
21
348.242332
0
LINE
8
annotation
62
1
39
211
10
101.478241
20
348.242332
11
101.479418
21
348.243863
0
LINE
8
annotation
62
1
39
211
10
101.479418
20
348.243863
11
101.480552
21
348.245420
0
LINE
8
annotation
62
1
39
211
10
101.480552
20
348.245420
11
101.481651
21
348.247016
0
LINE
8
annotation
62
1
39
211
10
101.481651
20
348.247016
11
101.482723
21
348.248663
0
LINE
8
annotation
62
1
39
211
10
101.482723
20
348.248663
11
101.483776
21
348.250375
0
LINE
8
annotation
62
1
39
211
10
101.483776
20
348.250375
11
101.484817
21
348.252164
0
LINE
8
annotation
62
1
39
211
10
101.484817
20
348.252164
11
101.485854
21
348.254044
0
LINE
8
annotation
62
1
39
211
10
101.485854
20
348.254044
11
101.486895
21
348.256027
0
LINE
8
annotation
62
1
39
211
10
101.486895
20
348.256027
11
101.486895
21
348.256027
0
LINE
8
annotation
62
1
39
211
10
101.486895
20
348.256027
11
101.529271
21
348.347012
0
LINE
8
annotation
62
1
39
211
10
101.529271
20
348.347012
11
101.554027
21
348.441326
0
LINE
8
annotation
62
1
39
211
10
101.554027
20
348.441326
11
101.561768
21
348.536839
0
LINE
8
annotation
62
1
39
211
10
101.561768
20
348.536839
11
101.553102
21
348.631418
0
LINE
8
annotation
62
1
39
211
10
101.553102
20
348.631418
11
101.528635
21
348.722932
0
LINE
8
annotation
62
1
39
211
10
101.528635
20
348.722932
11
101.488974
21
348.809251
0
LINE
8
annotation
62
1
39
211
10
101.488974
20
348.809251
11
101.434726
21
348.888244
0
LINE
8
annotation
62
1
39
211
10
101.434726
20
348.888244
11
101.366497
21
348.957779
0
LINE
8
annotation
62
1
39
211
10
101.366497
20
348.957779
11
101.284894
21
349.015725
0
LINE
8
annotation
62
1
39
211
10
101.284894
20
349.015725
11
101.284894
21
349.015725
0
LINE
8
annotation
62
1
39
211
10
101.284894
20
349.015725
11
101.193656
21
349.057499
0
LINE
8
annotation
62
1
39
211
10
101.193656
20
349.057499
11
101.099197
21
349.081873
0
LINE
8
annotation
62
1
39
211
10
101.099197
20
349.081873
11
101.003629
21
349.089395
0
LINE
8
annotation
62
1
39
211
10
101.003629
20
349.089395
11
100.909065
21
349.080615
0
LINE
8
annotation
62
1
39
211
10
100.909065
20
349.080615
11
100.817615
21
349.056080
0
LINE
8
annotation
62
1
39
211
10
100.817615
20
349.056080
11
100.731391
21
349.016340
0
LINE
8
annotation
62
1
39
211
10
100.731391
20
349.016340
11
100.652506
21
348.961943
0
LINE
8
annotation
62
1
39
211
10
100.652506
20
348.961943
11
100.583070
21
348.893437
0
LINE
8
annotation
62
1
39
211
10
100.583070
20
348.893437
11
100.525197
21
348.811371
0
LINE
8
annotation
62
1
39
211
10
100.525197
20
348.811371
11
100.452269
21
348.671477
0
LINE
8
boundary
62
5
39
2
10
47.422422
20
503.555089
11
48.285125
21
503.555089
0
LINE
8
boundary
62
5
39
2
10
48.285125
20
503.555089
11
49.922901
21
503.555089
0
LINE
8
boundary
62
5
39
2
10
49.922901
20
503.555089
11
49.313965
21
504.756306
0
LINE
8
boundary
62
5
39
2
10
49.313965
20
504.756306
11
62.285109
21
518.737616
0
LINE
8
boundary
62
5
39
2
10
62.285109
20
518.737616
11
70.112398
21
527.135427
0
LINE
8
boundary
62
5
39
2
10
70.112398
20
527.135427
11
64.089686
21
556.939612
0
LINE
8
boundary
62
5
39
2
10
64.089686
20
556.939612
11
59.496896
21
580.570549
0
LINE
8
boundary
62
5
39
2
10
59.496896
20
580.570549
11
57.684126
21
590.957397
0
LINE
8
boundary
62
5
39
2
10
57.684126
20
590.957397
11
59.410558
21
593.982848
0
LINE
8
boundary
62
5
39
2
10
59.410558
20
593.982848
11
65.049677
21
604.978608
0
LINE
8
boundary
62
5
39
2
10
65.049677
20
604.978608
11
63.944583
21
610.610153
0
LINE
8
boundary
62
5
39
2
10
63.944583
20
610.610153
11
58.844446
21
636.665471
0
LINE
8
boundary
62
5
39
2
10
58.844446
20
636.665471
11
57.995952
21
640.991002
0
LINE
8
boundary
62
5
39
2
10
57.995952
20
640.991002
11
67.095766
21
648.386766
0
LINE
8
boundary
62
5
39
2
10
67.095766
20
648.386766
11
75.240895
21
654.377745
0
LINE
8
boundary
62
5
39
2
10
75.240895
20
654.377745
11
76.194473
21
655.495851
0
LINE
8
boundary
62
5
39
2
10
76.194473
20
655.495851
11
77.098816
21
656.548928
0
LINE
8
boundary
62
5
39
2
10
77.098816
20
656.548928
11
73.283673
21
672.762482
0
LINE
8
boundary
62
5
39
2
10
73.283673
20
672.762482
11
70.631862
21
682.473593
0
LINE
8
boundary
62
5
39
2
10
70.631862
20
682.473593
11
61.217119
21
669.840680
0
LINE
8
boundary
62
5
39
2
10
61.217119
20
669.840680
11
55.534061
21
659.811159
0
LINE
8
boundary
62
5
39
2
10
55.534061
20
659.811159
11
55.226043
21
659.320580
0
LINE
8
boundary
62
5
39
2
10
55.226043
20
659.320580
11
59.105923
21
659.003080
0
LINE
8
boundary
62
5
39
2
10
59.105923
20
659.003080
11
59.105923
21
652.907080
0
LINE
8
boundary
62
5
39
2
10
59.105923
20
652.907080
11
40.841609
21
652.907080
0
LINE
8
boundary
62
5
39
2
10
40.841609
20
652.907080
11
30.775875
21
639.000581
0
LINE
8
boundary
62
5
39
2
10
30.775875
20
639.000581
11
43.188130
21
638.683081
0
LINE
8
boundary
62
5
39
2
10
43.188130
20
638.683081
11
43.188130
21
632.587081
0
LINE
8
boundary
62
5
39
2
10
43.188130
20
632.587081
11
27.165300
21
632.587081
0
LINE
8
boundary
62
5
39
2
10
27.165300
20
632.587081
11
26.987500
21
618.680583
0
LINE
8
boundary
62
5
39
2
10
26.987500
20
618.680583
11
45.176876
21
618.363082
0
LINE
8
boundary
62
5
39
2
10
45.176876
20
618.363082
11
45.176876
21
612.267083
0
LINE
8
boundary
62
5
39
2
10
45.176876
20
612.267083
11
27.165300
21
612.267082
0
LINE
8
boundary
62
5
39
2
10
27.165300
20
612.267082
11
26.987500
21
598.360584
0
LINE
8
boundary
62
5
39
2
10
26.987500
20
598.360584
11
44.113165
21
598.043084
0
LINE
8
boundary
62
5
39
2
10
44.113165
20
598.043084
11
44.113164
21
591.947084
0
LINE
8
boundary
62
5
39
2
10
44.113164
20
591.947084
11
27.165300
21
591.947084
0
LINE
8
boundary
62
5
39
2
10
27.165300
20
591.947084
11
26.987500
21
591.399666
0
LINE
8
boundary
62
5
39
2
10
26.987500
20
591.399666
11
26.987500
21
590.634206
0
LINE
8
boundary
62
5
39
2
10
26.987500
20
590.634206
11
26.987500
21
578.040585
0
LINE
8
boundary
62
5
39
2
10
26.987500
20
578.040585
11
43.984302
21
577.723085
0
LINE
8
boundary
62
5
39
2
10
43.984302
20
577.723085
11
43.984302
21
571.627085
0
LINE
8
boundary
62
5
39
2
10
43.984302
20
571.627085
11
27.165300
21
571.627085
0
LINE
8
boundary
62
5
39
2
10
27.165300
20
571.627085
11
26.987500
21
557.720586
0
LINE
8
boundary
62
5
39
2
10
26.987500
20
557.720586
11
45.980693
21
557.403086
0
LINE
8
boundary
62
5
39
2
10
45.980693
20
557.403086
11
45.980692
21
551.307086
0
LINE
8
boundary
62
5
39
2
10
45.980692
20
551.307086
11
27.165300
21
551.307086
0
LINE
8
boundary
62
5
39
2
10
27.165300
20
551.307086
11
26.987500
21
537.400587
0
LINE
8
boundary
62
5
39
2
10
26.987500
20
537.400587
11
48.033785
21
537.083088
0
LINE
8
boundary
62
5
39
2
10
48.033785
20
537.083088
11
48.033785
21
530.987087
0
LINE
8
boundary
62
5
39
2
10
48.033785
20
530.987087
11
27.165300
21
530.987087
0
LINE
8
boundary
62
5
39
2
10
27.165300
20
530.987087
11
26.987500
21
510.081410
0
LINE
8
boundary
62
5
39
2
10
26.987500
20
510.081410
11
27.536520
21
509.763910
0
LINE
8
boundary
62
5
39
2
10
27.536520
20
509.763910
11
40.621142
21
509.763910
0
LINE
8
boundary
62
5
39
2
10
40.621142
20
509.763910
11
40.621142
21
504.836697
0
LINE
8
boundary
62
5
39
2
10
40.621142
20
504.836697
11
44.094639
21
503.555089
0
LINE
8
boundary
62
5
39
2
10
44.094639
20
503.555089
11
47.023698
21
503.555089
0
LINE
8
boundary
62
5
39
2
10
47.023698
20
503.555089
11
47.422422
21
503.555089
0
LINE
8
annotation
62
1
39
211
10
44.742815
20
505.248426
11
44.742815
21
508.183393
0
LINE
8
annotation
62
1
39
211
10
44.742815
20
508.183393
11
44.090334
21
507.530728
0
LINE
8
annotation
62
1
39
211
10
63.115660
20
528.955005
11
58.603361
21
528.955005
0
LINE
8
annotation
62
1
39
211
10
58.603361
20
528.955005
11
62.772873
21
535.667384
0
LINE
8
annotation
62
1
39
211
10
62.772873
20
535.667384
11
62.772873
21
535.667384
0
LINE
8
annotation
62
1
39
211
10
62.772873
20
535.667384
11
62.777858
21
535.673552
0
LINE
8
annotation
62
1
39
211
10
62.777858
20
535.673552
11
62.782638
21
535.679772
0
LINE
8
annotation
62
1
39
211
10
62.782638
20
535.679772
11
62.787244
21
535.686097
0
LINE
8
annotation
62
1
39
211
10
62.787244
20
535.686097
11
62.791710
21
535.692580
0
LINE
8
annotation
62
1
39
211
10
62.791710
20
535.692580
11
62.796065
21
535.699272
0
LINE
8
annotation
62
1
39
211
10
62.796065
20
535.699272
11
62.800341
21
535.706227
0
LINE
8
annotation
62
1
39
211
10
62.800341
20
535.706227
11
62.804571
21
535.713496
0
LINE
8
annotation
62
1
39
211
10
62.804571
20
535.713496
11
62.808784
21
535.721132
0
LINE
8
annotation
62
1
39
211
10
62.808784
20
535.721132
11
62.813014
21
535.729188
0
LINE
8
annotation
62
1
39
211
10
62.813014
20
535.729188
11
62.813014
21
535.729188
0
LINE
8
annotation
62
1
39
211
10
62.813014
20
535.729188
11
62.985172
21
536.098826
0
LINE
8
annotation
62
1
39
211
10
62.985172
20
536.098826
11
63.085744
21
536.481988
0
LINE
8
annotation
62
1
39
211
10
63.085744
20
536.481988
11
63.117194
21
536.870017
0
LINE
8
annotation
62
1
39
211
10
63.117194
20
536.870017
11
63.081987
21
537.254255
0
LINE
8
annotation
62
1
39
211
10
63.081987
20
537.254255
11
62.982588
21
537.626043
0
LINE
8
annotation
62
1
39
211
10
62.982588
20
537.626043
11
62.821462
21
537.976724
0
LINE
8
annotation
62
1
39
211
10
62.821462
20
537.976724
11
62.601072
21
538.297640
0
LINE
8
annotation
62
1
39
211
10
62.601072
20
538.297640
11
62.323885
21
538.580132
0
LINE
8
annotation
62
1
39
211
10
62.323885
20
538.580132
11
61.992364
21
538.815544
0
LINE
8
annotation
62
1
39
211
10
61.992364
20
538.815544
11
61.992364
21
538.815544
0
LINE
8
annotation
62
1
39
211
10
61.992364
20
538.815544
11
61.621698
21
538.985256
0
LINE
8
annotation
62
1
39
211
10
61.621698
20
538.985256
11
61.237948
21
539.084278
0
LINE
8
annotation
62
1
39
211
10
61.237948
20
539.084278
11
60.849694
21
539.114840
0
LINE
8
annotation
62
1
39
211
10
60.849694
20
539.114840
11
60.465514
21
539.079169
0
LINE
8
annotation
62
1
39
211
10
60.465514
20
539.079169
11
60.093988
21
538.979495
0
LINE
8
annotation
62
1
39
211
10
60.093988
20
538.979495
11
59.743695
21
538.818046
0
LINE
8
annotation
62
1
39
211
10
59.743695
20
538.818046
11
59.423215
21
538.597050
0
LINE
8
annotation
62
1
39
211
10
59.423215
20
538.597050
11
59.141126
21
538.318738
0
LINE
8
annotation
62
1
39
211
10
59.141126
20
538.318738
11
58.906007
21
537.985337
0
LINE
8
annotation
62
1
39
211
10
58.906007
20
537.985337
11
58.609733
21
537.416999
0
LINE
8
annotation
62
1
39
211
10
56.550269
20
549.275405
11
58.806418
21
549.275405
0
LINE
8
annotation
62
1
39
211
10
58.806418
20
549.275405
11
58.806418
21
549.275405
0
LINE
8
annotation
62
1
39
211
10
58.806418
20
549.275405
11
59.212192
21
549.311805
0
LINE
8
annotation
62
1
39
211
10
59.212192
20
549.311805
11
59.594011
21
549.416714
0
LINE
8
annotation
62
1
39
211
10
59.594011
20
549.416714
11
59.945525
21
549.583691
0
LINE
8
annotation
62
1
39
211
10
59.945525
20
549.583691
11
60.260383
21
549.806297
0
LINE
8
annotation
62
1
39
211
10
60.260383
20
549.806297
11
60.532235
21
550.078092
0
LINE
8
annotation
62
1
39
211
10
60.532235
20
550.078092
11
60.754730
21
550.392636
0
LINE
8
annotation
62
1
39
211
10
60.754730
20
550.392636
11
60.921517
21
550.743490
0
LINE
8
annotation
62
1
39
211
10
60.921517
20
550.743490
11
61.026247
21
551.124214
0
LINE
8
annotation
62
1
39
211
10
61.026247
20
551.124214
11
61.062568
21
551.528368
0
LINE
8
annotation
62
1
39
211
10
61.062568
20
551.528368
11
61.062568
21
552.658036
0
LINE
8
annotation
62
1
39
211
10
61.062568
20
552.658036
11
61.062568
21
552.658036
0
LINE
8
annotation
62
1
39
211
10
61.062568
20
552.658036
11
61.026247
21
553.062023
0
LINE
8
annotation
62
1
39
211
10
61.026247
20
553.062023
11
60.921517
21
553.442658
0
LINE
8
annotation
62
1
39
211
10
60.921517
20
553.442658
11
60.754730
21
553.793485
0
LINE
8
annotation
62
1
39
211
10
60.754730
20
553.793485
11
60.532235
21
554.108051
0
LINE
8
annotation
62
1
39
211
10
60.532235
20
554.108051
11
60.260383
21
554.379898
0
LINE
8
annotation
62
1
39
211
10
60.260383
20
554.379898
11
59.945525
21
554.602572
0
LINE
8
annotation
62
1
39
211
10
59.945525
20
554.602572
11
59.594011
21
554.769617
0
LINE
8
annotation
62
1
39
211
10
59.594011
20
554.769617
11
59.212192
21
554.874578
0
LINE
8
annotation
62
1
39
211
10
59.212192
20
554.874578
11
58.806418
21
554.911000
0
LINE
8
annotation
62
1
39
211
10
58.806418
20
554.911000
11
57.676750
21
554.911000
0
LINE
8
annotation
62
1
39
211
10
57.676750
20
554.911000
11
58.806418
21
554.911000
0
LINE
8
annotation
62
1
39
211
10
58.806418
20
554.911000
11
58.806418
21
554.911000
0
LINE
8
annotation
62
1
39
211
10
58.806418
20
554.911000
11
59.212192
21
554.947430
0
LINE
8
annotation
62
1
39
211
10
59.212192
20
554.947430
11
59.594011
21
555.052453
0
LINE
8
annotation
62
1
39
211
10
59.594011
20
555.052453
11
59.945525
21
555.219664
0
LINE
8
annotation
62
1
39
211
10
59.945525
20
555.219664
11
60.260383
21
555.442661
0
LINE
8
annotation
62
1
39
211
10
60.260383
20
555.442661
11
60.532235
21
555.715042
0
LINE
8
annotation
62
1
39
211
10
60.532235
20
555.715042
11
60.754730
21
556.030402
0
LINE
8
annotation
62
1
39
211
10
60.754730
20
556.030402
11
60.921517
21
556.382340
0
LINE
8
annotation
62
1
39
211
10
60.921517
20
556.382340
11
61.026247
21
556.764452
0
LINE
8
annotation
62
1
39
211
10
61.026247
20
556.764452
11
61.062568
21
557.170335
0
LINE
8
annotation
62
1
39
211
10
61.062568
20
557.170335
11
61.062568
21
557.170335
0
LINE
8
annotation
62
1
39
211
10
61.062568
20
557.170335
11
61.026247
21
557.574322
0
LINE
8
annotation
62
1
39
211
10
61.026247
20
557.574322
11
60.921517
21
557.954957
0
LINE
8
annotation
62
1
39
211
10
60.921517
20
557.954957
11
60.754730
21
558.305784
0
LINE
8
annotation
62
1
39
211
10
60.754730
20
558.305784
11
60.532235
21
558.620350
0
LINE
8
annotation
62
1
39
211
10
60.532235
20
558.620350
11
60.260383
21
558.892197
0
LINE
8
annotation
62
1
39
211
10
60.260383
20
558.892197
11
59.945525
21
559.114871
0
LINE
8
annotation
62
1
39
211
10
59.945525
20
559.114871
11
59.594011
21
559.281916
0
LINE
8
annotation
62
1
39
211
10
59.594011
20
559.281916
11
59.212192
21
559.386877
0
LINE
8
annotation
62
1
39
211
10
59.212192
20
559.386877
11
58.806418
21
559.423299
0
LINE
8
annotation
62
1
39
211
10
58.806418
20
559.423299
11
56.550269
21
559.423299
0
LINE
8
annotation
62
1
39
211
10
58.107581
20
572.130672
11
53.019906
21
572.130672
0
LINE
8
annotation
62
1
39
211
10
53.019906
20
572.130672
11
55.051758
21
579.256521
0
LINE
8
annotation
62
1
39
211
10
56.582543
20
570.093648
11
56.582543
21
574.163100
0
LINE
8
annotation
62
1
39
211
10
52.855033
20
590.804209
11
54.716301
21
590.804209
0
LINE
8
annotation
62
1
39
211
10
54.716301
20
590.804209
11
54.716301
21
590.804209
0
LINE
8
annotation
62
1
39
211
10
54.716301
20
590.804209
11
55.050362
21
590.834245
0
LINE
8
annotation
62
1
39
211
10
55.050362
20
590.834245
11
55.364986
21
590.920837
0
LINE
8
annotation
62
1
39
211
10
55.364986
20
590.920837
11
55.654868
21
591.058713
0
LINE
8
annotation
62
1
39
211
10
55.654868
20
591.058713
11
55.914705
21
591.242597
0
LINE
8
annotation
62
1
39
211
10
55.914705
20
591.242597
11
56.139192
21
591.467217
0
LINE
8
annotation
62
1
39
211
10
56.139192
20
591.467217
11
56.323026
21
591.727299
0
LINE
8
annotation
62
1
39
211
10
56.323026
20
591.727299
11
56.460903
21
592.017569
0
LINE
8
annotation
62
1
39
211
10
56.460903
20
592.017569
11
56.547518
21
592.332753
0
LINE
8
annotation
62
1
39
211
10
56.547518
20
592.332753
11
56.577569
21
592.667579
0
LINE
8
annotation
62
1
39
211
10
56.577569
20
592.667579
11
56.577569
21
593.594796
0
LINE
8
annotation
62
1
39
211
10
56.577569
20
593.594796
11
56.577569
21
593.594796
0
LINE
8
annotation
62
1
39
211
10
56.577569
20
593.594796
11
56.547536
21
593.929460
0
LINE
8
annotation
62
1
39
211
10
56.547536
20
593.929460
11
56.460963
21
594.244210
0
LINE
8
annotation
62
1
39
211
10
56.460963
20
594.244210
11
56.323143
21
594.533850
0
LINE
8
annotation
62
1
39
211
10
56.323143
20
594.533850
11
56.139365
21
594.793186
0
LINE
8
annotation
62
1
39
211
10
56.139365
20
594.793186
11
55.914921
21
595.017020
0
LINE
8
annotation
62
1
39
211
10
55.914921
20
595.017020
11
55.655102
21
595.200159
0
LINE
8
annotation
62
1
39
211
10
55.655102
20
595.200159
11
55.365198
21
595.337404
0
LINE
8
annotation
62
1
39
211
10
55.365198
20
595.337404
11
55.050501
21
595.423562
0
LINE
8
annotation
62
1
39
211
10
55.050501
20
595.423562
11
54.716301
21
595.453436
0
LINE
8
annotation
62
1
39
211
10
54.716301
20
595.453436
11
52.855033
21
595.453436
0
LINE
8
annotation
62
1
39
211
10
52.855033
20
595.453436
11
52.855033
21
599.185959
0
LINE
8
annotation
62
1
39
211
10
52.855033
20
599.185959
11
56.577569
21
599.185959
0
LINE
8
annotation
62
1
39
211
10
59.135455
20
620.395083
11
59.135455
21
620.395083
0
LINE
8
annotation
62
1
39
211
10
59.135455
20
620.395083
11
58.489125
21
620.152748
0
LINE
8
annotation
62
1
39
211
10
58.489125
20
620.152748
11
57.896032
21
619.826230
0
LINE
8
annotation
62
1
39
211
10
57.896032
20
619.826230
11
57.362265
21
619.423711
0
LINE
8
annotation
62
1
39
211
10
57.362265
20
619.423711
11
56.893912
21
618.953371
0
LINE
8
annotation
62
1
39
211
10
56.893912
20
618.953371
11
56.497062
21
618.423391
0
LINE
8
annotation
62
1
39
211
10
56.497062
20
618.423391
11
56.177803
21
617.841950
0
LINE
8
annotation
62
1
39
211
10
56.177803
20
617.841950
11
55.942222
21
617.217231
0
LINE
8
annotation
62
1
39
211
10
55.942222
20
617.217231
11
55.796409
21
616.557413
0
LINE
8
annotation
62
1
39
211
10
55.796409
20
616.557413
11
55.746452
21
615.870678
0
LINE
8
annotation
62
1
39
211
10
55.746452
20
615.870678
11
55.746452
21
612.493781
0
LINE
8
annotation
62
1
39
211
10
55.746452
20
612.493781
11
55.746452
21
612.493781
0
LINE
8
annotation
62
1
39
211
10
55.746452
20
612.493781
11
55.782878
21
612.087919
0
LINE
8
annotation
62
1
39
211
10
55.782878
20
612.087919
11
55.887869
21
611.705866
0
LINE
8
annotation
62
1
39
211
10
55.887869
20
611.705866
11
56.054998
21
611.354013
0
LINE
8
annotation
62
1
39
211
10
56.054998
20
611.354013
11
56.277833
21
611.038753
0
LINE
8
annotation
62
1
39
211
10
56.277833
20
611.038753
11
56.549947
21
610.766478
0
LINE
8
annotation
62
1
39
211
10
56.549947
20
610.766478
11
56.864910
21
610.543581
0
LINE
8
annotation
62
1
39
211
10
56.864910
20
610.543581
11
57.216293
21
610.376455
0
LINE
8
annotation
62
1
39
211
10
57.216293
20
610.376455
11
57.597666
21
610.271491
0
LINE
8
annotation
62
1
39
211
10
57.597666
20
610.271491
11
58.002601
21
610.235083
0
LINE
8
annotation
62
1
39
211
10
58.002601
20
610.235083
11
58.002601
21
610.235083
0
LINE
8
annotation
62
1
39
211
10
58.002601
20
610.235083
11
58.408375
21
610.271491
0
LINE
8
annotation
62
1
39
211
10
58.408375
20
610.271491
11
58.790194
21
610.376455
0
LINE
8
annotation
62
1
39
211
10
58.790194
20
610.376455
11
59.141708
21
610.543581
0
LINE
8
annotation
62
1
39
211
10
59.141708
20
610.543581
11
59.456566
21
610.766478
0
LINE
8
annotation
62
1
39
211
10
59.456566
20
610.766478
11
59.728418
21
611.038753
0
LINE
8
annotation
62
1
39
211
10
59.728418
20
611.038753
11
59.950913
21
611.354013
0
LINE
8
annotation
62
1
39
211
10
59.950913
20
611.354013
11
60.117700
21
611.705866
0
LINE
8
annotation
62
1
39
211
10
60.117700
20
611.705866
11
60.222430
21
612.087919
0
LINE
8
annotation
62
1
39
211
10
60.222430
20
612.087919
11
60.258751
21
612.493781
0
LINE
8
annotation
62
1
39
211
10
60.258751
20
612.493781
11
60.258751
21
613.617714
0
LINE
8
annotation
62
1
39
211
10
60.258751
20
613.617714
11
60.258751
21
613.617714
0
LINE
8
annotation
62
1
39
211
10
60.258751
20
613.617714
11
60.222430
21
614.023379
0
LINE
8
annotation
62
1
39
211
10
60.222430
20
614.023379
11
60.117700
21
614.404905
0
LINE
8
annotation
62
1
39
211
10
60.117700
20
614.404905
11
59.950913
21
614.755995
0
LINE
8
annotation
62
1
39
211
10
59.950913
20
614.755995
11
59.728418
21
615.070350
0
LINE
8
annotation
62
1
39
211
10
59.728418
20
615.070350
11
59.456566
21
615.341673
0
LINE
8
annotation
62
1
39
211
10
59.456566
20
615.341673
11
59.141708
21
615.563666
0
LINE
8
annotation
62
1
39
211
10
59.141708
20
615.563666
11
58.790194
21
615.730029
0
LINE
8
annotation
62
1
39
211
10
58.790194
20
615.730029
11
58.408375
21
615.834466
0
LINE
8
annotation
62
1
39
211
10
58.408375
20
615.834466
11
58.002601
21
615.870678
0
LINE
8
annotation
62
1
39
211
10
58.002601
20
615.870678
11
55.746452
21
615.870678
0
LINE
8
annotation
62
1
39
211
10
55.463876
20
608.965083
11
60.543876
21
608.965083
0
LINE
8
annotation
62
1
39
211
10
54.752443
20
631.059697
11
56.786776
21
640.210465
0
LINE
8
annotation
62
1
39
211
10
56.786776
20
640.210465
11
52.717536
21
640.210465
0
LINE
8
annotation
62
1
39
211
10
56.786776
20
636.135487
11
54.752443
21
636.135487
0
LINE
8
annotation
62
1
39
211
10
66.707302
20
653.931373
11
66.707302
21
653.931373
0
LINE
8
annotation
62
1
39
211
10
66.707302
20
653.931373
11
66.733374
21
653.641014
0
LINE
8
annotation
62
1
39
211
10
66.733374
20
653.641014
11
66.808523
21
653.367933
0
LINE
8
annotation
62
1
39
211
10
66.808523
20
653.367933
11
66.928147
21
653.116636
0
LINE
8
annotation
62
1
39
211
10
66.928147
20
653.116636
11
67.087644
21
652.891633
0
LINE
8
annotation
62
1
39
211
10
67.087644
20
652.891633
11
67.282412
21
652.697431
0
LINE
8
annotation
62
1
39
211
10
67.282412
20
652.697431
11
67.507850
21
652.538538
0
LINE
8
annotation
62
1
39
211
10
67.507850
20
652.538538
11
67.759356
21
652.419462
0
LINE
8
annotation
62
1
39
211
10
67.759356
20
652.419462
11
68.032327
21
652.344710
0
LINE
8
annotation
62
1
39
211
10
68.032327
20
652.344710
11
68.322164
21
652.318791
0
LINE
8
annotation
62
1
39
211
10
68.322164
20
652.318791
11
68.322164
21
652.318791
0
LINE
8
annotation
62
1
39
211
10
68.322164
20
652.318791
11
68.612000
21
652.344710
0
LINE
8
annotation
62
1
39
211
10
68.612000
20
652.344710
11
68.884972
21
652.419462
0
LINE
8
annotation
62
1
39
211
10
68.884972
20
652.419462
11
69.136477
21
652.538538
0
LINE
8
annotation
62
1
39
211
10
69.136477
20
652.538538
11
69.361915
21
652.697431
0
LINE
8
annotation
62
1
39
211
10
69.361915
20
652.697431
11
69.556683
21
652.891633
0
LINE
8
annotation
62
1
39
211
10
69.556683
20
652.891633
11
69.716180
21
653.116636
0
LINE
8
annotation
62
1
39
211
10
69.716180
20
653.116636
11
69.835804
21
653.367933
0
LINE
8
annotation
62
1
39
211
10
69.835804
20
653.367933
11
69.910953
21
653.641014
0
LINE
8
annotation
62
1
39
211
10
69.910953
20
653.641014
11
69.937025
21
653.931373
0
LINE
8
annotation
62
1
39
211
10
69.937025
20
653.931373
11
69.937025
21
654.735839
0
LINE
8
annotation
62
1
39
211
10
69.937025
20
654.735839
11
69.937025
21
654.735839
0
LINE
8
annotation
62
1
39
211
10
69.937025
20
654.735839
11
69.910968
21
655.026338
0
LINE
8
annotation
62
1
39
211
10
69.910968
20
655.026338
11
69.835857
21
655.299797
0
LINE
8
annotation
62
1
39
211
10
69.835857
20
655.299797
11
69.716282
21
655.551639
0
LINE
8
annotation
62
1
39
211
10
69.716282
20
655.551639
11
69.556834
21
655.777290
0
LINE
8
annotation
62
1
39
211
10
69.556834
20
655.777290
11
69.362103
21
655.972173
0
LINE
8
annotation
62
1
39
211
10
69.362103
20
655.972173
11
69.136680
21
656.131714
0
LINE
8
annotation
62
1
39
211
10
69.136680
20
656.131714
11
68.885156
21
656.251336
0
LINE
8
annotation
62
1
39
211
10
68.885156
20
656.251336
11
68.612120
21
656.326465
0
LINE
8
annotation
62
1
39
211
10
68.612120
20
656.326465
11
68.322164
21
656.352525
0
LINE
8
annotation
62
1
39
211
10
68.322164
20
656.352525
11
68.322164
21
656.352525
0
LINE
8
annotation
62
1
39
211
10
68.322164
20
656.352525
11
68.032207
21
656.326450
0
LINE
8
annotation
62
1
39
211
10
68.032207
20
656.326450
11
67.759172
21
656.251284
0
LINE
8
annotation
62
1
39
211
10
67.759172
20
656.251284
11
67.507647
21
656.131612
0
LINE
8
annotation
62
1
39
211
10
67.507647
20
656.131612
11
67.282224
21
655.972023
0
LINE
8
annotation
62
1
39
211
10
67.282224
20
655.972023
11
67.087494
21
655.777102
0
LINE
8
annotation
62
1
39
211
10
67.087494
20
655.777102
11
66.928045
21
655.551436
0
LINE
8
annotation
62
1
39
211
10
66.928045
20
655.551436
11
66.808471
21
655.299613
0
LINE
8
annotation
62
1
39
211
10
66.808471
20
655.299613
11
66.733359
21
655.026218
0
LINE
8
annotation
62
1
39
211
10
66.733359
20
655.026218
11
66.707302
21
654.735839
0
LINE
8
annotation
62
1
39
211
10
66.707302
20
654.735839
11
66.707302
21
653.931373
0
LINE
8
annotation
62
1
39
211
10
69.937025
20
657.969667
11
69.937025
21
657.969667
0
LINE
8
annotation
62
1
39
211
10
69.937025
20
657.969667
11
69.910968
21
658.258824
0
LINE
8
annotation
62
1
39
211
10
69.910968
20
658.258824
11
69.835857
21
658.531267
0
LINE
8
annotation
62
1
39
211
10
69.835857
20
658.531267
11
69.716282
21
658.782376
0
LINE
8
annotation
62
1
39
211
10
69.716282
20
658.782376
11
69.556834
21
659.007529
0
LINE
8
annotation
62
1
39
211
10
69.556834
20
659.007529
11
69.362103
21
659.202107
0
LINE
8
annotation
62
1
39
211
10
69.362103
20
659.202107
11
69.136680
21
659.361488
0
LINE
8
annotation
62
1
39
211
10
69.136680
20
659.361488
11
68.885156
21
659.481052
0
LINE
8
annotation
62
1
39
211
10
68.885156
20
659.481052
11
68.612120
21
659.556179
0
LINE
8
annotation
62
1
39
211
10
68.612120
20
659.556179
11
68.322164
21
659.582248
0
LINE
8
annotation
62
1
39
211
10
68.322164
20
659.582248
11
68.322164
21
659.582248
0
LINE
8
annotation
62
1
39
211
10
68.322164
20
659.582248
11
68.032207
21
659.556179
0
LINE
8
annotation
62
1
39
211
10
68.032207
20
659.556179
11
67.759172
21
659.481052
0
LINE
8
annotation
62
1
39
211
10
67.759172
20
659.481052
11
67.507647
21
659.361488
0
LINE
8
annotation
62
1
39
211
10
67.507647
20
659.361488
11
67.282224
21
659.202107
0
LINE
8
annotation
62
1
39
211
10
67.282224
20
659.202107
11
67.087494
21
659.007529
0
LINE
8
annotation
62
1
39
211
10
67.087494
20
659.007529
11
66.928045
21
658.782376
0
LINE
8
annotation
62
1
39
211
10
66.928045
20
658.782376
11
66.808471
21
658.531267
0
LINE
8
annotation
62
1
39
211
10
66.808471
20
658.531267
11
66.733359
21
658.258824
0
LINE
8
annotation
62
1
39
211
10
66.733359
20
658.258824
11
66.707302
21
657.969667
0
LINE
8
annotation
62
1
39
211
10
66.707302
20
657.969667
11
66.707302
21
657.969667
0
LINE
8
annotation
62
1
39
211
10
66.707302
20
657.969667
11
66.733374
21
657.679152
0
LINE
8
annotation
62
1
39
211
10
66.733374
20
657.679152
11
66.808523
21
657.405651
0
LINE
8
annotation
62
1
39
211
10
66.808523
20
657.405651
11
66.928147
21
657.153748
0
LINE
8
annotation
62
1
39
211
10
66.928147
20
657.153748
11
67.087644
21
656.928026
0
LINE
8
annotation
62
1
39
211
10
67.087644
20
656.928026
11
67.282412
21
656.733067
0
LINE
8
annotation
62
1
39
211
10
67.282412
20
656.733067
11
67.507850
21
656.573454
0
LINE
8
annotation
62
1
39
211
10
67.507850
20
656.573454
11
67.759356
21
656.453771
0
LINE
8
annotation
62
1
39
211
10
67.759356
20
656.453771
11
68.032327
21
656.378600
0
LINE
8
annotation
62
1
39
211
10
68.032327
20
656.378600
11
68.322164
21
656.352525
0
LINE
8
annotation
62
1
39
211
10
68.322164
20
656.352525
11
68.322164
21
656.352525
0
LINE
8
annotation
62
1
39
211
10
68.322164
20
656.352525
11
68.612000
21
656.378600
0
LINE
8
annotation
62
1
39
211
10
68.612000
20
656.378600
11
68.884972
21
656.453771
0
LINE
8
annotation
62
1
39
211
10
68.884972
20
656.453771
11
69.136477
21
656.573454
0
LINE
8
annotation
62
1
39
211
10
69.136477
20
656.573454
11
69.361915
21
656.733067
0
LINE
8
annotation
62
1
39
211
10
69.361915
20
656.733067
11
69.556683
21
656.928026
0
LINE
8
annotation
62
1
39
211
10
69.556683
20
656.928026
11
69.716180
21
657.153748
0
LINE
8
annotation
62
1
39
211
10
69.716180
20
657.153748
11
69.835804
21
657.405651
0
LINE
8
annotation
62
1
39
211
10
69.835804
20
657.405651
11
69.910953
21
657.679152
0
LINE
8
annotation
62
1
39
211
10
69.910953
20
657.679152
11
69.937025
21
657.969667
0
LINE
8
annotation
62
1
39
211
10
42.991207
20
526.338368
11
40.842893
21
523.231029
0
LINE
8
annotation
62
1
39
211
10
40.842893
20
523.231029
11
38.694175
21
526.338368
0
LINE
8
annotation
62
1
39
211
10
40.842893
20
523.481087
11
40.842893
21
519.896254
0
LINE
8
annotation
62
1
39
211
10
48.929873
20
523.117311
11
45.407656
21
523.117311
0
LINE
8
annotation
62
1
39
211
10
54.206312
20
519.896404
11
51.345395
21
519.896404
0
LINE
8
annotation
62
1
39
211
10
51.345395
20
519.896404
11
53.988976
21
524.152231
0
LINE
8
annotation
62
1
39
211
10
53.988976
20
524.152231
11
53.988976
21
524.152231
0
LINE
8
annotation
62
1
39
211
10
53.988976
20
524.152231
11
53.992137
21
524.156141
0
LINE
8
annotation
62
1
39
211
10
53.992137
20
524.156141
11
53.995167
21
524.160085
0
LINE
8
annotation
62
1
39
211
10
53.995167
20
524.160085
11
53.998088
21
524.164096
0
LINE
8
annotation
62
1
39
211
10
53.998088
20
524.164096
11
54.000919
21
524.168206
0
LINE
8
annotation
62
1
39
211
10
54.000919
20
524.168206
11
54.003680
21
524.172449
0
LINE
8
annotation
62
1
39
211
10
54.003680
20
524.172449
11
54.006392
21
524.176858
0
LINE
8
annotation
62
1
39
211
10
54.006392
20
524.176858
11
54.009073
21
524.181467
0
LINE
8
annotation
62
1
39
211
10
54.009073
20
524.181467
11
54.011745
21
524.186308
0
LINE
8
annotation
62
1
39
211
10
54.011745
20
524.186308
11
54.014426
21
524.191416
0
LINE
8
annotation
62
1
39
211
10
54.014426
20
524.191416
11
54.014426
21
524.191416
0
LINE
8
annotation
62
1
39
211
10
54.014426
20
524.191416
11
54.123579
21
524.425776
0
LINE
8
annotation
62
1
39
211
10
54.123579
20
524.425776
11
54.187345
21
524.668712
0
LINE
8
annotation
62
1
39
211
10
54.187345
20
524.668712
11
54.207285
21
524.914732
0
LINE
8
annotation
62
1
39
211
10
54.207285
20
524.914732
11
54.184963
21
525.158349
0
LINE
8
annotation
62
1
39
211
10
54.184963
20
525.158349
11
54.121941
21
525.394073
0
LINE
8
annotation
62
1
39
211
10
54.121941
20
525.394073
11
54.019783
21
525.616414
0
LINE
8
annotation
62
1
39
211
10
54.019783
20
525.616414
11
53.880050
21
525.819883
0
LINE
8
annotation
62
1
39
211
10
53.880050
20
525.819883
11
53.704306
21
525.998991
0
LINE
8
annotation
62
1
39
211
10
53.704306
20
525.998991
11
53.494113
21
526.148248
0
LINE
8
annotation
62
1
39
211
10
53.494113
20
526.148248
11
53.494113
21
526.148248
0
LINE
8
annotation
62
1
39
211
10
53.494113
20
526.148248
11
53.259101
21
526.255850
0
LINE
8
annotation
62
1
39
211
10
53.259101
20
526.255850
11
53.015793
21
526.318633
0
LINE
8
annotation
62
1
39
211
10
53.015793
20
526.318633
11
52.769629
21
526.338009
0
LINE
8
annotation
62
1
39
211
10
52.769629
20
526.338009
11
52.526049
21
526.315393
0
LINE
8
annotation
62
1
39
211
10
52.526049
20
526.315393
11
52.290492
21
526.252197
0
LINE
8
annotation
62
1
39
211
10
52.290492
20
526.252197
11
52.068397
21
526.149834
0
LINE
8
annotation
62
1
39
211
10
52.068397
20
526.149834
11
51.865204
21
526.009717
0
LINE
8
annotation
62
1
39
211
10
51.865204
20
526.009717
11
51.686352
21
525.833260
0
LINE
8
annotation
62
1
39
211
10
51.686352
20
525.833260
11
51.537281
21
525.621875
0
LINE
8
annotation
62
1
39
211
10
51.537281
20
525.621875
11
51.349434
21
525.261533
0
LINE
8
boundary
62
5
39
2
10
87.558477
20
554.586876
11
87.275606
21
552.608198
0
LINE
8
boundary
62
5
39
2
10
87.275606
20
552.608198
11
80.273816
21
503.648287
0
LINE
8
boundary
62
5
39
2
10
80.273816
20
503.648287
11
85.980189
21
503.614687
0
LINE
8
boundary
62
5
39
2
10
85.980189
20
503.614687
11
92.281993
21
503.555089
0
LINE
8
boundary
62
5
39
2
10
92.281993
20
503.555089
11
98.584019
21
503.568687
0
LINE
8
boundary
62
5
39
2
10
98.584019
20
503.568687
11
104.397311
21
503.559843
0
LINE
8
boundary
62
5
39
2
10
104.397311
20
503.559843
11
97.657199
21
552.570313
0
LINE
8
boundary
62
5
39
2
10
97.657199
20
552.570313
11
97.388991
21
554.551002
0
LINE
8
boundary
62
5
39
2
10
97.388991
20
554.551002
11
96.560520
21
554.557926
0
LINE
8
boundary
62
5
39
2
10
96.560520
20
554.557926
11
95.828895
21
529.144100
0
LINE
8
boundary
62
5
39
2
10
95.828895
20
529.144100
11
89.733704
21
529.243412
0
LINE
8
boundary
62
5
39
2
10
89.733704
20
529.243412
11
90.143797
21
554.412334
0
LINE
8
boundary
62
5
39
2
10
90.143797
20
554.412334
11
87.665940
21
554.583989
0
LINE
8
boundary
62
5
39
2
10
87.665940
20
554.583989
11
87.558477
21
554.586876
0
LINE
8
annotation
62
1
39
211
10
97.670038
20
517.413941
11
87.511387
21
517.579462
0
LINE
8
annotation
62
1
39
211
10
87.511387
20
517.579462
11
89.733625
21
515.284256
0
LINE
8
annotation
62
1
39
211
10
88.161218
20
507.298998
11
86.119981
21
507.298998
0
LINE
8
annotation
62
1
39
211
10
86.119981
20
507.298998
11
88.161218
21
510.975254
0
LINE
8
annotation
62
1
39
211
10
88.161218
20
510.975254
11
86.119981
21
510.975254
0
LINE
8
annotation
62
1
39
211
10
91.550273
20
509.137126
11
89.540160
21
509.137126
0
LINE
8
annotation
62
1
39
211
10
94.154787
20
510.975254
11
94.154787
21
510.975254
0
LINE
8
annotation
62
1
39
211
10
94.154787
20
510.975254
11
93.920922
21
510.887568
0
LINE
8
annotation
62
1
39
211
10
93.920922
20
510.887568
11
93.706319
21
510.769423
0
LINE
8
annotation
62
1
39
211
10
93.706319
20
510.769423
11
93.513183
21
510.623777
0
LINE
8
annotation
62
1
39
211
10
93.513183
20
510.623777
11
93.343716
21
510.453590
0
LINE
8
annotation
62
1
39
211
10
93.343716
20
510.453590
11
93.200121
21
510.261824
0
LINE
8
annotation
62
1
39
211
10
93.200121
20
510.261824
11
93.084602
21
510.051438
0
LINE
8
annotation
62
1
39
211
10
93.084602
20
510.051438
11
92.999360
21
509.825392
0
LINE
8
annotation
62
1
39
211
10
92.999360
20
509.825392
11
92.946600
21
509.586646
0
LINE
8
annotation
62
1
39
211
10
92.946600
20
509.586646
11
92.928523
21
509.338160
0
LINE
8
annotation
62
1
39
211
10
92.928523
20
509.338160
11
92.928523
21
508.116277
0
LINE
8
annotation
62
1
39
211
10
92.928523
20
508.116277
11
92.928523
21
508.116277
0
LINE
8
annotation
62
1
39
211
10
92.928523
20
508.116277
11
92.941704
21
507.969422
0
LINE
8
annotation
62
1
39
211
10
92.941704
20
507.969422
11
92.979694
21
507.831181
0
LINE
8
annotation
62
1
39
211
10
92.979694
20
507.831181
11
93.040167
21
507.703868
0
LINE
8
annotation
62
1
39
211
10
93.040167
20
507.703868
11
93.120797
21
507.589795
0
LINE
8
annotation
62
1
39
211
10
93.120797
20
507.589795
11
93.219257
21
507.491276
0
LINE
8
annotation
62
1
39
211
10
93.219257
20
507.491276
11
93.333222
21
507.410624
0
LINE
8
annotation
62
1
39
211
10
93.333222
20
507.410624
11
93.460365
21
507.350152
0
LINE
8
annotation
62
1
39
211
10
93.460365
20
507.350152
11
93.598360
21
507.312172
0
LINE
8
annotation
62
1
39
211
10
93.598360
20
507.312172
11
93.744880
21
507.298998
0
LINE
8
annotation
62
1
39
211
10
93.744880
20
507.298998
11
93.744880
21
507.298998
0
LINE
8
annotation
62
1
39
211
10
93.744880
20
507.298998
11
93.891704
21
507.312172
0
LINE
8
annotation
62
1
39
211
10
93.891704
20
507.312172
11
94.029860
21
507.350152
0
LINE
8
annotation
62
1
39
211
10
94.029860
20
507.350152
11
94.157050
21
507.410624
0
LINE
8
annotation
62
1
39
211
10
94.157050
20
507.410624
11
94.270977
21
507.491276
0
LINE
8
annotation
62
1
39
211
10
94.270977
20
507.491276
11
94.369343
21
507.589795
0
LINE
8
annotation
62
1
39
211
10
94.369343
20
507.589795
11
94.449850
21
507.703868
0
LINE
8
annotation
62
1
39
211
10
94.449850
20
507.703868
11
94.510199
21
507.831181
0
LINE
8
annotation
62
1
39
211
10
94.510199
20
507.831181
11
94.548094
21
507.969422
0
LINE
8
annotation
62
1
39
211
10
94.548094
20
507.969422
11
94.561237
21
508.116277
0
LINE
8
annotation
62
1
39
211
10
94.561237
20
508.116277
11
94.561237
21
508.522957
0
LINE
8
annotation
62
1
39
211
10
94.561237
20
508.522957
11
94.561237
21
508.522957
0
LINE
8
annotation
62
1
39
211
10
94.561237
20
508.522957
11
94.548094
21
508.669741
0
LINE
8
annotation
62
1
39
211
10
94.548094
20
508.669741
11
94.510199
21
508.807791
0
LINE
8
annotation
62
1
39
211
10
94.510199
20
508.807791
11
94.449850
21
508.934828
0
LINE
8
annotation
62
1
39
211
10
94.449850
20
508.934828
11
94.369343
21
509.048573
0
LINE
8
annotation
62
1
39
211
10
94.369343
20
509.048573
11
94.270977
21
509.146747
0
LINE
8
annotation
62
1
39
211
10
94.270977
20
509.146747
11
94.157050
21
509.227072
0
LINE
8
annotation
62
1
39
211
10
94.157050
20
509.227072
11
94.029860
21
509.287269
0
LINE
8
annotation
62
1
39
211
10
94.029860
20
509.287269
11
93.891704
21
509.325058
0
LINE
8
annotation
62
1
39
211
10
93.891704
20
509.325058
11
93.744880
21
509.338160
0
LINE
8
annotation
62
1
39
211
10
93.744880
20
509.338160
11
92.928523
21
509.338160
0
LINE
8
annotation
62
1
39
211
10
92.826277
20
506.839466
11
94.664405
21
506.839466
0
LINE
8
annotation
62
1
39
211
10
97.950292
20
509.137126
11
95.940178
21
509.137126
0
LINE
8
annotation
62
1
39
211
10
100.145936
20
507.298998
11
100.145936
21
510.975254
0
LINE
8
annotation
62
1
39
211
10
100.145936
20
510.975254
11
99.328657
21
510.157745
0
LINE
8
boundary
62
5
39
2
10
87.599844
20
609.127653
11
82.112719
21
570.745402
0
LINE
8
boundary
62
5
39
2
10
82.112719
20
570.745402
11
80.273816
21
557.886900
0
LINE
8
boundary
62
5
39
2
10
80.273816
20
557.886900
11
81.772499
21
557.878076
0
LINE
8
boundary
62
5
39
2
10
81.772499
20
557.878076
11
91.710419
21
557.784090
0
LINE
8
boundary
62
5
39
2
10
91.710419
20
557.784090
11
101.648687
21
557.805534
0
LINE
8
boundary
62
5
39
2
10
101.648687
20
557.805534
11
103.175450
21
557.803211
0
LINE
8
boundary
62
5
39
2
10
103.175450
20
557.803211
11
101.405273
21
570.674991
0
LINE
8
boundary
62
5
39
2
10
101.405273
20
570.674991
11
96.202594
21
609.096257
0
LINE
8
boundary
62
5
39
2
10
96.202594
20
609.096257
11
95.501684
21
608.916211
0
LINE
8
boundary
62
5
39
2
10
95.501684
20
608.916211
11
95.087978
21
583.525513
0
LINE
8
boundary
62
5
39
2
10
95.087978
20
583.525513
11
88.992787
21
583.624825
0
LINE
8
boundary
62
5
39
2
10
88.992787
20
583.624825
11
89.404686
21
608.904675
0
LINE
8
boundary
62
5
39
2
10
89.404686
20
608.904675
11
87.599844
21
609.127653
0
LINE
8
annotation
62
1
39
211
10
96.929121
20
571.795354
11
86.770469
21
571.960875
0
LINE
8
annotation
62
1
39
211
10
86.770469
20
571.960875
11
88.992707
21
569.665669
0
LINE
8
annotation
62
1
39
211
10
86.313980
20
559.944586
11
84.261166
21
559.944586
0
LINE
8
annotation
62
1
39
211
10
84.261166
20
559.944586
11
86.313980
21
563.641693
0
LINE
8
annotation
62
1
39
211
10
86.313980
20
563.641693
11
84.261166
21
563.641693
0
LINE
8
annotation
62
1
39
211
10
89.722257
20
561.793139
11
87.700743
21
561.793139
0
LINE
8
annotation
62
1
39
211
10
91.108324
20
559.944586
11
91.929311
21
559.944586
0
LINE
8
annotation
62
1
39
211
10
91.929311
20
559.944586
11
91.929311
21
559.944586
0
LINE
8
annotation
62
1
39
211
10
91.929311
20
559.944586
11
92.076662
21
559.957835
0
LINE
8
annotation
62
1
39
211
10
92.076662
20
559.957835
11
92.215439
21
559.996030
0
LINE
8
annotation
62
1
39
211
10
92.215439
20
559.996030
11
92.343304
21
560.056845
0
LINE
8
annotation
62
1
39
211
10
92.343304
20
560.056845
11
92.457915
21
560.137955
0
LINE
8
annotation
62
1
39
211
10
92.457915
20
560.137955
11
92.556934
21
560.237033
0
LINE
8
annotation
62
1
39
211
10
92.556934
20
560.237033
11
92.638021
21
560.351752
0
LINE
8
annotation
62
1
39
211
10
92.638021
20
560.351752
11
92.698837
21
560.479787
0
LINE
8
annotation
62
1
39
211
10
92.698837
20
560.479787
11
92.737043
21
560.618812
0
LINE
8
annotation
62
1
39
211
10
92.737043
20
560.618812
11
92.750298
21
560.766500
0
LINE
8
annotation
62
1
39
211
10
92.750298
20
560.766500
11
92.750298
21
561.175487
0
LINE
8
annotation
62
1
39
211
10
92.750298
20
561.175487
11
92.750298
21
561.175487
0
LINE
8
annotation
62
1
39
211
10
92.750298
20
561.175487
11
92.737050
21
561.323103
0
LINE
8
annotation
62
1
39
211
10
92.737050
20
561.323103
11
92.698864
21
561.461936
0
LINE
8
annotation
62
1
39
211
10
92.698864
20
561.461936
11
92.638073
21
561.589694
0
LINE
8
annotation
62
1
39
211
10
92.638073
20
561.589694
11
92.557010
21
561.704084
0
LINE
8
annotation
62
1
39
211
10
92.557010
20
561.704084
11
92.458010
21
561.802816
0
LINE
8
annotation
62
1
39
211
10
92.458010
20
561.802816
11
92.343407
21
561.883596
0
LINE
8
annotation
62
1
39
211
10
92.343407
20
561.883596
11
92.215533
21
561.944134
0
LINE
8
annotation
62
1
39
211
10
92.215533
20
561.944134
11
92.076723
21
561.982137
0
LINE
8
annotation
62
1
39
211
10
92.076723
20
561.982137
11
91.929311
21
561.995314
0
LINE
8
annotation
62
1
39
211
10
91.929311
20
561.995314
11
91.108324
21
561.995314
0
LINE
8
annotation
62
1
39
211
10
91.108324
20
561.995314
11
91.108324
21
563.641693
0
LINE
8
annotation
62
1
39
211
10
91.108324
20
563.641693
11
92.750298
21
563.641693
0
LINE
8
annotation
62
1
39
211
10
96.158575
20
561.793139
11
94.137060
21
561.793139
0
LINE
8
annotation
62
1
39
211
10
99.186894
20
559.944556
11
97.544921
21
559.944556
0
LINE
8
annotation
62
1
39
211
10
97.544921
20
559.944556
11
99.062158
21
562.387113
0
LINE
8
annotation
62
1
39
211
10
99.062158
20
562.387113
11
99.062158
21
562.387113
0
LINE
8
annotation
62
1
39
211
10
99.062158
20
562.387113
11
99.063972
21
562.389358
0
LINE
8
annotation
62
1
39
211
10
99.063972
20
562.389358
11
99.065711
21
562.391621
0
LINE
8
annotation
62
1
39
211
10
99.065711
20
562.391621
11
99.067387
21
562.393923
0
LINE
8
annotation
62
1
39
211
10
99.067387
20
562.393923
11
99.069012
21
562.396282
0
LINE
8
annotation
62
1
39
211
10
99.069012
20
562.396282
11
99.070597
21
562.398717
0
LINE
8
annotation
62
1
39
211
10
99.070597
20
562.398717
11
99.072153
21
562.401248
0
LINE
8
annotation
62
1
39
211
10
99.072153
20
562.401248
11
99.073692
21
562.403893
0
LINE
8
annotation
62
1
39
211
10
99.073692
20
562.403893
11
99.075226
21
562.406672
0
LINE
8
annotation
62
1
39
211
10
99.075226
20
562.406672
11
99.076765
21
562.409603
0
LINE
8
annotation
62
1
39
211
10
99.076765
20
562.409603
11
99.076765
21
562.409603
0
LINE
8
annotation
62
1
39
211
10
99.076765
20
562.409603
11
99.139411
21
562.544110
0
LINE
8
annotation
62
1
39
211
10
99.139411
20
562.544110
11
99.176008
21
562.683538
0
LINE
8
annotation
62
1
39
211
10
99.176008
20
562.683538
11
99.187452
21
562.824738
0
LINE
8
annotation
62
1
39
211
10
99.187452
20
562.824738
11
99.174641
21
562.964557
0
LINE
8
annotation
62
1
39
211
10
99.174641
20
562.964557
11
99.138471
21
563.099847
0
LINE
8
annotation
62
1
39
211
10
99.138471
20
563.099847
11
99.079839
21
563.227455
0
LINE
8
annotation
62
1
39
211
10
99.079839
20
563.227455
11
98.999642
21
563.344233
0
LINE
8
annotation
62
1
39
211
10
98.999642
20
563.344233
11
98.898776
21
563.447029
0
LINE
8
annotation
62
1
39
211
10
98.898776
20
563.447029
11
98.778140
21
563.532692
0
LINE
8
annotation
62
1
39
211
10
98.778140
20
563.532692
11
98.778140
21
563.532692
0
LINE
8
annotation
62
1
39
211
10
98.778140
20
563.532692
11
98.643259
21
563.594448
0
LINE
8
annotation
62
1
39
211
10
98.643259
20
563.594448
11
98.503616
21
563.630481
0
LINE
8
annotation
62
1
39
211
10
98.503616
20
563.630481
11
98.362335
21
563.641602
0
LINE
8
annotation
62
1
39
211
10
98.362335
20
563.641602
11
98.222537
21
563.628622
0
LINE
8
annotation
62
1
39
211
10
98.222537
20
563.628622
11
98.087343
21
563.592352
0
LINE
8
annotation
62
1
39
211
10
98.087343
20
563.592352
11
97.959875
21
563.533602
0
LINE
8
annotation
62
1
39
211
10
97.959875
20
563.533602
11
97.843256
21
563.453185
0
LINE
8
annotation
62
1
39
211
10
97.843256
20
563.453185
11
97.740607
21
563.351910
0
LINE
8
annotation
62
1
39
211
10
97.740607
20
563.351910
11
97.655050
21
563.230590
0
LINE
8
annotation
62
1
39
211
10
97.655050
20
563.230590
11
97.547239
21
563.023778
0
LINE
8
boundary
62
5
39
2
10
87.765846
20
649.497616
11
86.563640
21
643.785938
0
LINE
8
boundary
62
5
39
2
10
86.563640
20
643.785938
11
80.273816
21
612.560297
0
LINE
8
boundary
62
5
39
2
10
80.273816
20
612.560297
11
85.789469
21
612.345646
0
LINE
8
boundary
62
5
39
2
10
85.789469
20
612.345646
11
91.680370
21
612.618020
0
LINE
8
boundary
62
5
39
2
10
91.680370
20
612.618020
11
97.569116
21
612.302652
0
LINE
8
boundary
62
5
39
2
10
97.569116
20
612.302652
11
103.086296
21
612.477037
0
LINE
8
boundary
62
5
39
2
10
103.086296
20
612.477037
11
97.017740
21
643.747783
0
LINE
8
boundary
62
5
39
2
10
97.017740
20
643.747783
11
95.855999
21
649.468088
0
LINE
8
boundary
62
5
39
2
10
95.855999
20
649.468088
11
95.270774
21
649.298534
0
LINE
8
boundary
62
5
39
2
10
95.270774
20
649.298534
11
94.973471
21
631.051919
0
LINE
8
boundary
62
5
39
2
10
94.973471
20
631.051919
11
88.878280
21
631.151231
0
LINE
8
boundary
62
5
39
2
10
88.878280
20
631.151231
11
89.174243
21
649.315606
0
LINE
8
boundary
62
5
39
2
10
89.174243
20
649.315606
11
88.511403
21
649.500756
0
LINE
8
boundary
62
5
39
2
10
88.511403
20
649.500756
11
87.765846
21
649.497616
0
LINE
8
annotation
62
1
39
211
10
96.814614
20
619.321760
11
86.655963
21
619.487281
0
LINE
8
annotation
62
1
39
211
10
86.655963
20
619.487281
11
88.878201
21
617.192075
0
LINE
8
annotation
62
1
39
211
10
88.192523
20
620.843261
11
86.705271
21
620.843261
0
LINE
8
annotation
62
1
39
211
10
86.705271
20
620.843261
11
88.192523
21
623.521793
0
LINE
8
annotation
62
1
39
211
10
88.192523
20
623.521793
11
86.705271
21
623.521793
0
LINE
8
annotation
62
1
39
211
10
90.661799
20
622.182527
11
89.197224
21
622.182527
0
LINE
8
annotation
62
1
39
211
10
93.153248
20
621.438733
11
91.665996
21
621.438733
0
LINE
8
annotation
62
1
39
211
10
91.665996
20
621.438733
11
92.259956
21
623.521793
0
LINE
8
annotation
62
1
39
211
10
92.707442
20
620.843261
11
92.707442
21
622.032861
0
LINE
8
annotation
62
1
39
211
10
95.622524
20
622.182527
11
94.157949
21
622.182527
0
LINE
8
annotation
62
1
39
211
10
97.816524
20
620.843239
11
96.626924
21
620.843239
0
LINE
8
annotation
62
1
39
211
10
96.626924
20
620.843239
11
97.726153
21
622.612857
0
LINE
8
annotation
62
1
39
211
10
97.726153
20
622.612857
11
97.726153
21
622.612857
0
LINE
8
annotation
62
1
39
211
10
97.726153
20
622.612857
11
97.727467
21
622.614483
0
LINE
8
annotation
62
1
39
211
10
97.727467
20
622.614483
11
97.728727
21
622.616123
0
LINE
8
annotation
62
1
39
211
10
97.728727
20
622.616123
11
97.729942
21
622.617791
0
LINE
8
annotation
62
1
39
211
10
97.729942
20
622.617791
11
97.731119
21
622.619500
0
LINE
8
annotation
62
1
39
211
10
97.731119
20
622.619500
11
97.732267
21
622.621264
0
LINE
8
annotation
62
1
39
211
10
97.732267
20
622.621264
11
97.733395
21
622.623098
0
LINE
8
annotation
62
1
39
211
10
97.733395
20
622.623098
11
97.734510
21
622.625014
0
LINE
8
annotation
62
1
39
211
10
97.734510
20
622.625014
11
97.735620
21
622.627027
0
LINE
8
annotation
62
1
39
211
10
97.735620
20
622.627027
11
97.736735
21
622.629151
0
LINE
8
annotation
62
1
39
211
10
97.736735
20
622.629151
11
97.736735
21
622.629151
0
LINE
8
annotation
62
1
39
211
10
97.736735
20
622.629151
11
97.782122
21
622.726601
0
LINE
8
annotation
62
1
39
211
10
97.782122
20
622.726601
11
97.808637
21
622.827616
0
LINE
8
annotation
62
1
39
211
10
97.808637
20
622.827616
11
97.816928
21
622.929914
0
LINE
8
annotation
62
1
39
211
10
97.816928
20
622.929914
11
97.807646
21
623.031212
0
LINE
8
annotation
62
1
39
211
10
97.807646
20
623.031212
11
97.781441
21
623.129228
0
LINE
8
annotation
62
1
39
211
10
97.781441
20
623.129228
11
97.738963
21
623.221680
0
LINE
8
annotation
62
1
39
211
10
97.738963
20
623.221680
11
97.680860
21
623.306285
0
LINE
8
annotation
62
1
39
211
10
97.680860
20
623.306285
11
97.607784
21
623.380760
0
LINE
8
annotation
62
1
39
211
10
97.607784
20
623.380760
11
97.520383
21
623.442822
0
LINE
8
annotation
62
1
39
211
10
97.520383
20
623.442822
11
97.520383
21
623.442822
0
LINE
8
annotation
62
1
39
211
10
97.520383
20
623.442822
11
97.422663
21
623.487564
0
LINE
8
annotation
62
1
39
211
10
97.422663
20
623.487564
11
97.321493
21
623.513670
0
LINE
8
annotation
62
1
39
211
10
97.321493
20
623.513670
11
97.219136
21
623.521727
0
LINE
8
annotation
62
1
39
211
10
97.219136
20
623.521727
11
97.117852
21
623.512323
0
LINE
8
annotation
62
1
39
211
10
97.117852
20
623.512323
11
97.019905
21
623.486046
0
LINE
8
annotation
62
1
39
211
10
97.019905
20
623.486046
11
96.927556
21
623.443482
0
LINE
8
annotation
62
1
39
211
10
96.927556
20
623.443482
11
96.843066
21
623.385220
0
LINE
8
annotation
62
1
39
211
10
96.843066
20
623.385220
11
96.768697
21
623.311847
0
LINE
8
annotation
62
1
39
211
10
96.768697
20
623.311847
11
96.706712
21
623.223951
0
LINE
8
annotation
62
1
39
211
10
96.706712
20
623.223951
11
96.628603
21
623.074117
0
LINE
8
annotation
62
1
39
211
10
106.282423
20
612.623725
11
106.277498
21
612.616601
0
LINE
8
annotation
62
1
39
211
10
106.277498
20
612.616601
11
106.272571
21
612.623725
0
LINE
8
annotation
62
1
39
211
10
106.277498
20
612.617174
11
106.277498
21
612.608955
0
LINE
8
annotation
62
1
39
211
10
106.296039
20
612.616340
11
106.287963
21
612.616340
0
LINE
8
annotation
62
1
39
211
10
106.304860
20
612.608956
11
106.304860
21
612.623725
0
LINE
8
annotation
62
1
39
211
10
106.304860
20
612.623725
11
106.301576
21
612.620441
0
LINE
8
annotation
62
1
39
211
10
106.318475
20
612.616340
11
106.310399
21
612.616340
0
LINE
8
annotation
62
1
39
211
10
106.324012
20
612.608956
11
106.327291
21
612.608956
0
LINE
8
annotation
62
1
39
211
10
106.327291
20
612.608956
11
106.327291
21
612.608956
0
LINE
8
annotation
62
1
39
211
10
106.327291
20
612.608956
11
106.327881
21
612.609009
0
LINE
8
annotation
62
1
39
211
10
106.327881
20
612.609009
11
106.328436
21
612.609162
0
LINE
8
annotation
62
1
39
211
10
106.328436
20
612.609162
11
106.328947
21
612.609404
0
LINE
8
annotation
62
1
39
211
10
106.328947
20
612.609404
11
106.329405
21
612.609728
0
LINE
8
annotation
62
1
39
211
10
106.329405
20
612.609728
11
106.329800
21
612.610123
0
LINE
8
annotation
62
1
39
211
10
106.329800
20
612.610123
11
106.330124
21
612.610580
0
LINE
8
annotation
62
1
39
211
10
106.330124
20
612.610580
11
106.330366
21
612.611090
0
LINE
8
annotation
62
1
39
211
10
106.330366
20
612.611090
11
106.330518
21
612.611644
0
LINE
8
annotation
62
1
39
211
10
106.330518
20
612.611644
11
106.330571
21
612.612231
0
LINE
8
annotation
62
1
39
211
10
106.330571
20
612.612231
11
106.330571
21
612.613873
0
LINE
8
annotation
62
1
39
211
10
106.330571
20
612.613873
11
106.330571
21
612.613873
0
LINE
8
annotation
62
1
39
211
10
106.330571
20
612.613873
11
106.330518
21
612.614461
0
LINE
8
annotation
62
1
39
211
10
106.330518
20
612.614461
11
106.330366
21
612.615014
0
LINE
8
annotation
62
1
39
211
10
106.330366
20
612.615014
11
106.330124
21
612.615524
0
LINE
8
annotation
62
1
39
211
10
106.330124
20
612.615524
11
106.329800
21
612.615981
0
LINE
8
annotation
62
1
39
211
10
106.329800
20
612.615981
11
106.329405
21
612.616376
0
LINE
8
annotation
62
1
39
211
10
106.329405
20
612.616376
11
106.328947
21
612.616700
0
LINE
8
annotation
62
1
39
211
10
106.328947
20
612.616700
11
106.328436
21
612.616943
0
LINE
8
annotation
62
1
39
211
10
106.328436
20
612.616943
11
106.327881
21
612.617095
0
LINE
8
annotation
62
1
39
211
10
106.327881
20
612.617095
11
106.327291
21
612.617148
0
LINE
8
annotation
62
1
39
211
10
106.327291
20
612.617148
11
106.325649
21
612.617148
0
LINE
8
annotation
62
1
39
211
10
106.325649
20
612.617148
11
106.327291
21
612.617148
0
LINE
8
annotation
62
1
39
211
10
106.327291
20
612.617148
11
106.327291
21
612.617148
0
LINE
8
annotation
62
1
39
211
10
106.327291
20
612.617148
11
106.327881
21
612.617201
0
LINE
8
annotation
62
1
39
211
10
106.327881
20
612.617201
11
106.328436
21
612.617354
0
LINE
8
annotation
62
1
39
211
10
106.328436
20
612.617354
11
106.328947
21
612.617597
0
LINE
8
annotation
62
1
39
211
10
106.328947
20
612.617597
11
106.329405
21
612.617921
0
LINE
8
annotation
62
1
39
211
10
106.329405
20
612.617921
11
106.329800
21
612.618317
0
LINE
8
annotation
62
1
39
211
10
106.329800
20
612.618317
11
106.330124
21
612.618776
0
LINE
8
annotation
62
1
39
211
10
106.330124
20
612.618776
11
106.330366
21
612.619287
0
LINE
8
annotation
62
1
39
211
10
106.330366
20
612.619287
11
106.330518
21
612.619843
0
LINE
8
annotation
62
1
39
211
10
106.330518
20
612.619843
11
106.330571
21
612.620433
0
LINE
8
annotation
62
1
39
211
10
106.330571
20
612.620433
11
106.330571
21
612.620433
0
LINE
8
annotation
62
1
39
211
10
106.330571
20
612.620433
11
106.330518
21
612.621020
0
LINE
8
annotation
62
1
39
211
10
106.330518
20
612.621020
11
106.330366
21
612.621573
0
LINE
8
annotation
62
1
39
211
10
106.330366
20
612.621573
11
106.330124
21
612.622083
0
LINE
8
annotation
62
1
39
211
10
106.330124
20
612.622083
11
106.329800
21
612.622541
0
LINE
8
annotation
62
1
39
211
10
106.329800
20
612.622541
11
106.329405
21
612.622936
0
LINE
8
annotation
62
1
39
211
10
106.329405
20
612.622936
11
106.328947
21
612.623259
0
LINE
8
annotation
62
1
39
211
10
106.328947
20
612.623259
11
106.328436
21
612.623502
0
LINE
8
annotation
62
1
39
211
10
106.328436
20
612.623502
11
106.327881
21
612.623655
0
LINE
8
annotation
62
1
39
211
10
106.327881
20
612.623655
11
106.327291
21
612.623708
0
LINE
8
annotation
62
1
39
211
10
106.327291
20
612.623708
11
106.324012
21
612.623708
0
LINE
8
boundary
62
5
39
2
10
90.104020
20
674.964760
11
83.449772
21
674.976777
0
LINE
8
boundary
62
5
39
2
10
83.449772
20
674.976777
11
80.273816
21
652.768954
0
LINE
8
boundary
62
5
39
2
10
80.273816
20
652.768954
11
90.187879
21
652.710580
0
LINE
8
boundary
62
5
39
2
10
90.187879
20
652.710580
11
92.853568
21
652.685370
0
LINE
8
boundary
62
5
39
2
10
92.853568
20
652.685370
11
95.519351
21
652.691122
0
LINE
8
boundary
62
5
39
2
10
95.519351
20
652.691122
11
105.619172
21
652.675756
0
LINE
8
boundary
62
5
39
2
10
105.619172
20
652.675756
11
102.561911
21
674.906513
0
LINE
8
boundary
62
5
39
2
10
102.561911
20
674.906513
11
96.835480
21
674.938170
0
LINE
8
boundary
62
5
39
2
10
96.835480
20
674.938170
11
96.338134
21
663.902959
0
LINE
8
boundary
62
5
39
2
10
96.338134
20
663.902959
11
90.242943
21
664.002272
0
LINE
8
boundary
62
5
39
2
10
90.242943
20
664.002272
11
90.418581
21
674.781811
0
LINE
8
boundary
62
5
39
2
10
90.418581
20
674.781811
11
90.104020
21
674.964760
0
LINE
8
annotation
62
1
39
211
10
96.938704
20
655.128589
11
89.356836
21
655.252125
0
LINE
8
annotation
62
1
39
211
10
89.356836
20
655.252125
11
91.015394
21
653.539107
0
LINE
8
annotation
62
1
39
211
10
87.999670
20
656.456368
11
85.972958
21
656.456368
0
LINE
8
annotation
62
1
39
211
10
85.972958
20
656.456368
11
87.999670
21
660.106464
0
LINE
8
annotation
62
1
39
211
10
87.999670
20
660.106464
11
85.972958
21
660.106464
0
LINE
8
annotation
62
1
39
211
10
91.364609
20
658.281416
11
89.368799
21
658.281416
0
LINE
8
annotation
62
1
39
211
10
93.544630
20
656.456368
11
94.356093
21
660.106464
0
LINE
8
annotation
62
1
39
211
10
94.356093
20
660.106464
11
92.732938
21
660.106464
0
LINE
8
annotation
62
1
39
211
10
94.356093
20
658.481020
11
93.544630
21
658.481020
0
LINE
8
annotation
62
1
39
211
10
97.721147
20
658.281416
11
95.725337
21
658.281416
0
LINE
8
annotation
62
1
39
211
10
100.710960
20
656.456338
11
99.089865
21
656.456338
0
LINE
8
annotation
62
1
39
211
10
99.089865
20
656.456338
11
100.587810
21
658.867837
0
LINE
8
annotation
62
1
39
211
10
100.587810
20
658.867837
11
100.587810
21
658.867837
0
LINE
8
annotation
62
1
39
211
10
100.587810
20
658.867837
11
100.589601
21
658.870053
0
LINE
8
annotation
62
1
39
211
10
100.589601
20
658.870053
11
100.591318
21
658.872288
0
LINE
8
annotation
62
1
39
211
10
100.591318
20
658.872288
11
100.592973
21
658.874560
0
LINE
8
annotation
62
1
39
211
10
100.592973
20
658.874560
11
100.594577
21
658.876889
0
LINE
8
annotation
62
1
39
211
10
100.594577
20
658.876889
11
100.596142
21
658.879293
0
LINE
8
annotation
62
1
39
211
10
100.596142
20
658.879293
11
100.597678
21
658.881792
0
LINE
8
annotation
62
1
39
211
10
100.597678
20
658.881792
11
100.599198
21
658.884403
0
LINE
8
annotation
62
1
39
211
10
100.599198
20
658.884403
11
100.600712
21
658.887147
0
LINE
8
annotation
62
1
39
211
10
100.600712
20
658.887147
11
100.602231
21
658.890041
0
LINE
8
annotation
62
1
39
211
10
100.602231
20
658.890041
11
100.602231
21
658.890041
0
LINE
8
annotation
62
1
39
211
10
100.602231
20
658.890041
11
100.664081
21
659.022837
0
LINE
8
annotation
62
1
39
211
10
100.664081
20
659.022837
11
100.700212
21
659.160493
0
LINE
8
annotation
62
1
39
211
10
100.700212
20
659.160493
11
100.711511
21
659.299897
0
LINE
8
annotation
62
1
39
211
10
100.711511
20
659.299897
11
100.698863
21
659.437938
0
LINE
8
annotation
62
1
39
211
10
100.698863
20
659.437938
11
100.663153
21
659.571508
0
LINE
8
annotation
62
1
39
211
10
100.663153
20
659.571508
11
100.605266
21
659.697494
0
LINE
8
annotation
62
1
39
211
10
100.605266
20
659.697494
11
100.526089
21
659.812786
0
LINE
8
annotation
62
1
39
211
10
100.526089
20
659.812786
11
100.426506
21
659.914275
0
LINE
8
annotation
62
1
39
211
10
100.426506
20
659.914275
11
100.307403
21
659.998850
0
LINE
8
annotation
62
1
39
211
10
100.307403
20
659.998850
11
100.307403
21
659.998850
0
LINE
8
annotation
62
1
39
211
10
100.307403
20
659.998850
11
100.174237
21
660.059820
0
LINE
8
annotation
62
1
39
211
10
100.174237
20
660.059820
11
100.036371
21
660.095395
0
LINE
8
annotation
62
1
39
211
10
100.036371
20
660.095395
11
99.896886
21
660.106375
0
LINE
8
annotation
62
1
39
211
10
99.896886
20
660.106375
11
99.758865
21
660.093560
0
LINE
8
annotation
62
1
39
211
10
99.758865
20
660.093560
11
99.625390
21
660.057751
0
LINE
8
annotation
62
1
39
211
10
99.625390
20
660.057751
11
99.499543
21
659.999748
0
LINE
8
annotation
62
1
39
211
10
99.499543
20
659.999748
11
99.384407
21
659.920353
0
LINE
8
annotation
62
1
39
211
10
99.384407
20
659.920353
11
99.283063
21
659.820366
0
LINE
8
annotation
62
1
39
211
10
99.283063
20
659.820366
11
99.198594
21
659.700588
0
LINE
8
annotation
62
1
39
211
10
99.198594
20
659.700588
11
99.092154
21
659.496406
0
LINE
8
boundary
62
5
39
2
10
43.924190
20
685.648593
11
55.117200
21
685.648593
0
LINE
8
boundary
62
5
39
2
10
55.117200
20
685.648593
11
55.880520
21
685.648593
0
LINE
8
boundary
62
5
39
2
10
55.880520
20
685.648593
11
56.488541
21
685.648593
0
LINE
8
boundary
62
5
39
2
10
56.488541
20
685.648593
11
56.490521
21
686.467840
0
LINE
8
boundary
62
5
39
2
10
56.490521
20
686.467840
11
65.815742
21
697.047074
0
LINE
8
boundary
62
5
39
2
10
65.815742
20
697.047074
11
68.591941
21
700.204939
0
LINE
8
boundary
62
5
39
2
10
68.591941
20
700.204939
11
76.087153
21
708.730585
0
LINE
8
boundary
62
5
39
2
10
76.087153
20
708.730585
11
75.084177
21
716.117901
0
LINE
8
boundary
62
5
39
2
10
75.084177
20
716.117901
11
73.455245
21
727.549773
0
LINE
8
boundary
62
5
39
2
10
73.455245
20
727.549773
11
77.451903
21
731.225127
0
LINE
8
boundary
62
5
39
2
10
77.451903
20
731.225127
11
78.187835
21
732.110457
0
LINE
8
boundary
62
5
39
2
10
78.187835
20
732.110457
11
78.470000
21
732.904667
0
LINE
8
boundary
62
5
39
2
10
78.470000
20
732.904667
11
78.718213
21
733.603309
0
LINE
8
boundary
62
5
39
2
10
78.718213
20
733.603309
11
79.096026
21
734.681845
0
LINE
8
boundary
62
5
39
2
10
79.096026
20
734.681845
11
80.477389
21
738.567663
0
LINE
8
boundary
62
5
39
2
10
80.477389
20
738.567663
11
80.900589
21
745.387024
0
LINE
8
boundary
62
5
39
2
10
80.900589
20
745.387024
11
81.177593
21
748.818624
0
LINE
8
boundary
62
5
39
2
10
81.177593
20
748.818624
11
77.481529
21
750.867453
0
LINE
8
boundary
62
5
39
2
10
77.481529
20
750.867453
11
72.289990
21
753.648701
0
LINE
8
boundary
62
5
39
2
10
72.289990
20
753.648701
11
70.355184
21
754.704752
0
LINE
8
boundary
62
5
39
2
10
70.355184
20
754.704752
11
69.660298
21
755.109971
0
LINE
8
boundary
62
5
39
2
10
69.660298
20
755.109971
11
68.252158
21
765.105879
0
LINE
8
boundary
62
5
39
2
10
68.252158
20
765.105879
11
67.160785
21
771.715531
0
LINE
8
boundary
62
5
39
2
10
67.160785
20
771.715531
11
66.309488
21
773.075144
0
LINE
8
boundary
62
5
39
2
10
66.309488
20
773.075144
11
67.014630
21
773.621825
0
LINE
8
boundary
62
5
39
2
10
67.014630
20
773.621825
11
70.326584
21
776.110156
0
LINE
8
boundary
62
5
39
2
10
70.326584
20
776.110156
11
78.156938
21
783.278792
0
LINE
8
boundary
62
5
39
2
10
78.156938
20
783.278792
11
79.766729
21
784.740546
0
LINE
8
boundary
62
5
39
2
10
79.766729
20
784.740546
11
80.923299
21
789.884061
0
LINE
8
boundary
62
5
39
2
10
80.923299
20
789.884061
11
79.864898
21
796.827144
0
LINE
8
boundary
62
5
39
2
10
79.864898
20
796.827144
11
77.990006
21
797.970645
0
LINE
8
boundary
62
5
39
2
10
77.990006
20
797.970645
11
77.033839
21
803.498002
0
LINE
8
boundary
62
5
39
2
10
77.033839
20
803.498002
11
69.142355
21
804.883713
0
LINE
8
boundary
62
5
39
2
10
69.142355
20
804.883713
11
71.172393
21
813.439056
0
LINE
8
boundary
62
5
39
2
10
71.172393
20
813.439056
11
71.345242
21
813.987756
0
LINE
8
boundary
62
5
39
2
10
71.345242
20
813.987756
11
73.430477
21
819.087664
0
LINE
8
boundary
62
5
39
2
10
73.430477
20
819.087664
11
73.818222
21
820.431094
0
LINE
8
boundary
62
5
39
2
10
73.818222
20
820.431094
11
73.014117
21
825.024351
0
LINE
8
boundary
62
5
39
2
10
73.014117
20
825.024351
11
72.731330
21
826.729036
0
LINE
8
boundary
62
5
39
2
10
72.731330
20
826.729036
11
61.830088
21
838.473395
0
LINE
8
boundary
62
5
39
2
10
61.830088
20
838.473395
11
56.179576
21
844.210604
0
LINE
8
boundary
62
5
39
2
10
56.179576
20
844.210604
11
46.935561
21
842.964310
0
LINE
8
boundary
62
5
39
2
10
46.935561
20
842.964310
11
39.936831
21
841.414084
0
LINE
8
boundary
62
5
39
2
10
39.936831
20
841.414084
11
44.483682
21
841.096584
0
LINE
8
boundary
62
5
39
2
10
44.483682
20
841.096584
11
44.483681
21
835.000584
0
LINE
8
boundary
62
5
39
2
10
44.483681
20
835.000584
11
27.165300
21
835.000584
0
LINE
8
boundary
62
5
39
2
10
27.165300
20
835.000584
11
26.987500
21
821.094085
0
LINE
8
boundary
62
5
39
2
10
26.987500
20
821.094085
11
50.245620
21
820.776585
0
LINE
8
boundary
62
5
39
2
10
50.245620
20
820.776585
11
50.245620
21
814.680585
0
LINE
8
boundary
62
5
39
2
10
50.245620
20
814.680585
11
27.165300
21
814.680585
0
LINE
8
boundary
62
5
39
2
10
27.165300
20
814.680585
11
26.987500
21
800.774086
0
LINE
8
boundary
62
5
39
2
10
26.987500
20
800.774086
11
53.223695
21
800.456587
0
LINE
8
boundary
62
5
39
2
10
53.223695
20
800.456587
11
53.223695
21
794.360586
0
LINE
8
boundary
62
5
39
2
10
53.223695
20
794.360586
11
27.165300
21
794.360586
0
LINE
8
boundary
62
5
39
2
10
27.165300
20
794.360586
11
26.987500
21
780.454088
0
LINE
8
boundary
62
5
39
2
10
26.987500
20
780.454088
11
49.139315
21
780.136588
0
LINE
8
boundary
62
5
39
2
10
49.139315
20
780.136588
11
49.139315
21
774.040588
0
LINE
8
boundary
62
5
39
2
10
49.139315
20
774.040588
11
27.165300
21
774.040588
0
LINE
8
boundary
62
5
39
2
10
27.165300
20
774.040588
11
26.987500
21
760.134089
0
LINE
8
boundary
62
5
39
2
10
26.987500
20
760.134089
11
48.080073
21
759.816589
0
LINE
8
boundary
62
5
39
2
10
48.080073
20
759.816589
11
48.080073
21
753.720589
0
LINE
8
boundary
62
5
39
2
10
48.080073
20
753.720589
11
27.165300
21
753.720589
0
LINE
8
boundary
62
5
39
2
10
27.165300
20
753.720589
11
26.987500
21
739.814090
0
LINE
8
boundary
62
5
39
2
10
26.987500
20
739.814090
11
53.228792
21
739.496590
0
LINE
8
boundary
62
5
39
2
10
53.228792
20
739.496590
11
53.228792
21
733.400590
0
LINE
8
boundary
62
5
39
2
10
53.228792
20
733.400590
11
27.165300
21
733.400590
0
LINE
8
boundary
62
5
39
2
10
27.165300
20
733.400590
11
26.987500
21
719.494091
0
LINE
8
boundary
62
5
39
2
10
26.987500
20
719.494091
11
51.008722
21
719.176591
0
LINE
8
boundary
62
5
39
2
10
51.008722
20
719.176591
11
51.008722
21
713.080591
0
LINE
8
boundary
62
5
39
2
10
51.008722
20
713.080591
11
27.165300
21
713.080591
0
LINE
8
boundary
62
5
39
2
10
27.165300
20
713.080591
11
26.987500
21
692.174914
0
LINE
8
boundary
62
5
39
2
10
26.987500
20
692.174914
11
43.987370
21
691.857414
0
LINE
8
boundary
62
5
39
2
10
43.987370
20
691.857414
11
43.987370
21
685.761414
0
LINE
8
boundary
62
5
39
2
10
43.987370
20
685.761414
11
43.924190
21
685.648593
0
LINE
8
annotation
62
1
39
211
10
50.669911
20
686.401170
11
50.669911
21
691.217658
0
LINE
8
annotation
62
1
39
211
10
50.669911
20
691.217658
11
49.599144
21
690.146589
0
LINE
8
annotation
62
1
39
211
10
66.090597
20
711.048509
11
61.578298
21
711.048509
0
LINE
8
annotation
62
1
39
211
10
61.578298
20
711.048509
11
65.747810
21
717.760888
0
LINE
8
annotation
62
1
39
211
10
65.747810
20
717.760888
11
65.747810
21
717.760888
0
LINE
8
annotation
62
1
39
211
10
65.747810
20
717.760888
11
65.752795
21
717.767056
0
LINE
8
annotation
62
1
39
211
10
65.752795
20
717.767056
11
65.757575
21
717.773276
0
LINE
8
annotation
62
1
39
211
10
65.757575
20
717.773276
11
65.762182
21
717.779601
0
LINE
8
annotation
62
1
39
211
10
65.762182
20
717.779601
11
65.766647
21
717.786084
0
LINE
8
annotation
62
1
39
211
10
65.766647
20
717.786084
11
65.771002
21
717.792776
0
LINE
8
annotation
62
1
39
211
10
65.771002
20
717.792776
11
65.775279
21
717.799731
0
LINE
8
annotation
62
1
39
211
10
65.775279
20
717.799731
11
65.779508
21
717.807000
0
LINE
8
annotation
62
1
39
211
10
65.779508
20
717.807000
11
65.783722
21
717.814636
0
LINE
8
annotation
62
1
39
211
10
65.783722
20
717.814636
11
65.787951
21
717.822692
0
LINE
8
annotation
62
1
39
211
10
65.787951
20
717.822692
11
65.787951
21
717.822692
0
LINE
8
annotation
62
1
39
211
10
65.787951
20
717.822692
11
65.960109
21
718.192330
0
LINE
8
annotation
62
1
39
211
10
65.960109
20
718.192330
11
66.060681
21
718.575492
0
LINE
8
annotation
62
1
39
211
10
66.060681
20
718.575492
11
66.092131
21
718.963521
0
LINE
8
annotation
62
1
39
211
10
66.092131
20
718.963521
11
66.056925
21
719.347759
0
LINE
8
annotation
62
1
39
211
10
66.056925
20
719.347759
11
65.957526
21
719.719547
0
LINE
8
annotation
62
1
39
211
10
65.957526
20
719.719547
11
65.796399
21
720.070228
0
LINE
8
annotation
62
1
39
211
10
65.796399
20
720.070228
11
65.576010
21
720.391144
0
LINE
8
annotation
62
1
39
211
10
65.576010
20
720.391144
11
65.298822
21
720.673636
0
LINE
8
annotation
62
1
39
211
10
65.298822
20
720.673636
11
64.967301
21
720.909048
0
LINE
8
annotation
62
1
39
211
10
64.967301
20
720.909048
11
64.967301
21
720.909048
0
LINE
8
annotation
62
1
39
211
10
64.967301
20
720.909048
11
64.596635
21
721.078760
0
LINE
8
annotation
62
1
39
211
10
64.596635
20
721.078760
11
64.212885
21
721.177782
0
LINE
8
annotation
62
1
39
211
10
64.212885
20
721.177782
11
63.824631
21
721.208344
0
LINE
8
annotation
62
1
39
211
10
63.824631
20
721.208344
11
63.440451
21
721.172673
0
LINE
8
annotation
62
1
39
211
10
63.440451
20
721.172673
11
63.068925
21
721.072998
0
LINE
8
annotation
62
1
39
211
10
63.068925
20
721.072998
11
62.718632
21
720.911549
0
LINE
8
annotation
62
1
39
211
10
62.718632
20
720.911549
11
62.398152
21
720.690554
0
LINE
8
annotation
62
1
39
211
10
62.398152
20
720.690554
11
62.116063
21
720.412242
0
LINE
8
annotation
62
1
39
211
10
62.116063
20
720.412242
11
61.880945
21
720.078841
0
LINE
8
annotation
62
1
39
211
10
61.880945
20
720.078841
11
61.584670
21
719.510503
0
LINE
8
annotation
62
1
39
211
10
63.798368
20
731.368909
11
66.054517
21
731.368909
0
LINE
8
annotation
62
1
39
211
10
66.054517
20
731.368909
11
66.054517
21
731.368909
0
LINE
8
annotation
62
1
39
211
10
66.054517
20
731.368909
11
66.460291
21
731.405309
0
LINE
8
annotation
62
1
39
211
10
66.460291
20
731.405309
11
66.842110
21
731.510218
0
LINE
8
annotation
62
1
39
211
10
66.842110
20
731.510218
11
67.193624
21
731.677195
0
LINE
8
annotation
62
1
39
211
10
67.193624
20
731.677195
11
67.508482
21
731.899801
0
LINE
8
annotation
62
1
39
211
10
67.508482
20
731.899801
11
67.780334
21
732.171596
0
LINE
8
annotation
62
1
39
211
10
67.780334
20
732.171596
11
68.002829
21
732.486140
0
LINE
8
annotation
62
1
39
211
10
68.002829
20
732.486140
11
68.169616
21
732.836994
0
LINE
8
annotation
62
1
39
211
10
68.169616
20
732.836994
11
68.274346
21
733.217718
0
LINE
8
annotation
62
1
39
211
10
68.274346
20
733.217718
11
68.310667
21
733.621872
0
LINE
8
annotation
62
1
39
211
10
68.310667
20
733.621872
11
68.310667
21
734.751540
0
LINE
8
annotation
62
1
39
211
10
68.310667
20
734.751540
11
68.310667
21
734.751540
0
LINE
8
annotation
62
1
39
211
10
68.310667
20
734.751540
11
68.274346
21
735.155527
0
LINE
8
annotation
62
1
39
211
10
68.274346
20
735.155527
11
68.169616
21
735.536161
0
LINE
8
annotation
62
1
39
211
10
68.169616
20
735.536161
11
68.002829
21
735.886989
0
LINE
8
annotation
62
1
39
211
10
68.002829
20
735.886989
11
67.780334
21
736.201554
0
LINE
8
annotation
62
1
39
211
10
67.780334
20
736.201554
11
67.508482
21
736.473402
0
LINE
8
annotation
62
1
39
211
10
67.508482
20
736.473402
11
67.193624
21
736.696076
0
LINE
8
annotation
62
1
39
211
10
67.193624
20
736.696076
11
66.842110
21
736.863121
0
LINE
8
annotation
62
1
39
211
10
66.842110
20
736.863121
11
66.460291
21
736.968082
0
LINE
8
annotation
62
1
39
211
10
66.460291
20
736.968082
11
66.054517
21
737.004504
0
LINE
8
annotation
62
1
39
211
10
66.054517
20
737.004504
11
64.924850
21
737.004504
0
LINE
8
annotation
62
1
39
211
10
64.924850
20
737.004504
11
66.054517
21
737.004504
0
LINE
8
annotation
62
1
39
211
10
66.054517
20
737.004504
11
66.054517
21
737.004504
0
LINE
8
annotation
62
1
39
211
10
66.054517
20
737.004504
11
66.460291
21
737.040934
0
LINE
8
annotation
62
1
39
211
10
66.460291
20
737.040934
11
66.842110
21
737.145956
0
LINE
8
annotation
62
1
39
211
10
66.842110
20
737.145956
11
67.193624
21
737.313168
0
LINE
8
annotation
62
1
39
211
10
67.193624
20
737.313168
11
67.508482
21
737.536165
0
LINE
8
annotation
62
1
39
211
10
67.508482
20
737.536165
11
67.780334
21
737.808546
0
LINE
8
annotation
62
1
39
211
10
67.780334
20
737.808546
11
68.002829
21
738.123906
0
LINE
8
annotation
62
1
39
211
10
68.002829
20
738.123906
11
68.169616
21
738.475844
0
LINE
8
annotation
62
1
39
211
10
68.169616
20
738.475844
11
68.274346
21
738.857956
0
LINE
8
annotation
62
1
39
211
10
68.274346
20
738.857956
11
68.310667
21
739.263839
0
LINE
8
annotation
62
1
39
211
10
68.310667
20
739.263839
11
68.310667
21
739.263839
0
LINE
8
annotation
62
1
39
211
10
68.310667
20
739.263839
11
68.274346
21
739.667826
0
LINE
8
annotation
62
1
39
211
10
68.274346
20
739.667826
11
68.169616
21
740.048460
0
LINE
8
annotation
62
1
39
211
10
68.169616
20
740.048460
11
68.002829
21
740.399288
0
LINE
8
annotation
62
1
39
211
10
68.002829
20
740.399288
11
67.780334
21
740.713853
0
LINE
8
annotation
62
1
39
211
10
67.780334
20
740.713853
11
67.508482
21
740.985701
0
LINE
8
annotation
62
1
39
211
10
67.508482
20
740.985701
11
67.193624
21
741.208375
0
LINE
8
annotation
62
1
39
211
10
67.193624
20
741.208375
11
66.842110
21
741.375420
0
LINE
8
annotation
62
1
39
211
10
66.842110
20
741.375420
11
66.460291
21
741.480381
0
LINE
8
annotation
62
1
39
211
10
66.460291
20
741.480381
11
66.054517
21
741.516803
0
LINE
8
annotation
62
1
39
211
10
66.054517
20
741.516803
11
63.798368
21
741.516803
0
LINE
8
annotation
62
1
39
211
10
63.726463
20
753.947287
11
58.085134
21
753.947287
0
LINE
8
annotation
62
1
39
211
10
58.085134
20
753.947287
11
60.338098
21
761.848589
0
LINE
8
annotation
62
1
39
211
10
62.035466
20
751.688589
11
62.035466
21
756.200888
0
LINE
8
annotation
62
1
39
211
10
59.708891
20
772.008588
11
61.965040
21
772.008588
0
LINE
8
annotation
62
1
39
211
10
61.965040
20
772.008588
11
61.965040
21
772.008588
0
LINE
8
annotation
62
1
39
211
10
61.965040
20
772.008588
11
62.369975
21
772.044996
0
LINE
8
annotation
62
1
39
211
10
62.369975
20
772.044996
11
62.751349
21
772.149960
0
LINE
8
annotation
62
1
39
211
10
62.751349
20
772.149960
11
63.102731
21
772.317086
0
LINE
8
annotation
62
1
39
211
10
63.102731
20
772.317086
11
63.417694
21
772.539983
0
LINE
8
annotation
62
1
39
211
10
63.417694
20
772.539983
11
63.689808
21
772.812258
0
LINE
8
annotation
62
1
39
211
10
63.689808
20
772.812258
11
63.912644
21
773.127518
0
LINE
8
annotation
62
1
39
211
10
63.912644
20
773.127518
11
64.079772
21
773.479371
0
LINE
8
annotation
62
1
39
211
10
64.079772
20
773.479371
11
64.184764
21
773.861424
0
LINE
8
annotation
62
1
39
211
10
64.184764
20
773.861424
11
64.221190
21
774.267286
0
LINE
8
annotation
62
1
39
211
10
64.221190
20
774.267286
11
64.221190
21
775.391219
0
LINE
8
annotation
62
1
39
211
10
64.221190
20
775.391219
11
64.221190
21
775.391219
0
LINE
8
annotation
62
1
39
211
10
64.221190
20
775.391219
11
64.184785
21
775.796884
0
LINE
8
annotation
62
1
39
211
10
64.184785
20
775.796884
11
64.079846
21
776.178410
0
LINE
8
annotation
62
1
39
211
10
64.079846
20
776.178410
11
63.912786
21
776.529500
0
LINE
8
annotation
62
1
39
211
10
63.912786
20
776.529500
11
63.690018
21
776.843855
0
LINE
8
annotation
62
1
39
211
10
63.690018
20
776.843855
11
63.417957
21
777.115178
0
LINE
8
annotation
62
1
39
211
10
63.417957
20
777.115178
11
63.103015
21
777.337171
0
LINE
8
annotation
62
1
39
211
10
63.103015
20
777.337171
11
62.751606
21
777.503534
0
LINE
8
annotation
62
1
39
211
10
62.751606
20
777.503534
11
62.370143
21
777.607971
0
LINE
8
annotation
62
1
39
211
10
62.370143
20
777.607971
11
61.965040
21
777.644183
0
LINE
8
annotation
62
1
39
211
10
61.965040
20
777.644183
11
59.708891
21
777.644183
0
LINE
8
annotation
62
1
39
211
10
59.708891
20
777.644183
11
59.708891
21
782.168588
0
LINE
8
annotation
62
1
39
211
10
59.708891
20
782.168588
11
64.221190
21
782.168588
0
LINE
8
annotation
62
1
39
211
10
67.182274
20
802.488586
11
67.182274
21
802.488586
0
LINE
8
annotation
62
1
39
211
10
67.182274
20
802.488586
11
66.535944
21
802.246252
0
LINE
8
annotation
62
1
39
211
10
66.535944
20
802.246252
11
65.942851
21
801.919734
0
LINE
8
annotation
62
1
39
211
10
65.942851
20
801.919734
11
65.409084
21
801.517215
0
LINE
8
annotation
62
1
39
211
10
65.409084
20
801.517215
11
64.940732
21
801.046875
0
LINE
8
annotation
62
1
39
211
10
64.940732
20
801.046875
11
64.543881
21
800.516894
0
LINE
8
annotation
62
1
39
211
10
64.543881
20
800.516894
11
64.224622
21
799.935454
0
LINE
8
annotation
62
1
39
211
10
64.224622
20
799.935454
11
63.989041
21
799.310735
0
LINE
8
annotation
62
1
39
211
10
63.989041
20
799.310735
11
63.843228
21
798.650917
0
LINE
8
annotation
62
1
39
211
10
63.843228
20
798.650917
11
63.793271
21
797.964182
0
LINE
8
annotation
62
1
39
211
10
63.793271
20
797.964182
11
63.793271
21
794.587285
0
LINE
8
annotation
62
1
39
211
10
63.793271
20
794.587285
11
63.793271
21
794.587285
0
LINE
8
annotation
62
1
39
211
10
63.793271
20
794.587285
11
63.829697
21
794.181423
0
LINE
8
annotation
62
1
39
211
10
63.829697
20
794.181423
11
63.934689
21
793.799370
0
LINE
8
annotation
62
1
39
211
10
63.934689
20
793.799370
11
64.101817
21
793.447517
0
LINE
8
annotation
62
1
39
211
10
64.101817
20
793.447517
11
64.324653
21
793.132257
0
LINE
8
annotation
62
1
39
211
10
64.324653
20
793.132257
11
64.596766
21
792.859982
0
LINE
8
annotation
62
1
39
211
10
64.596766
20
792.859982
11
64.911729
21
792.637085
0
LINE
8
annotation
62
1
39
211
10
64.911729
20
792.637085
11
65.263112
21
792.469959
0
LINE
8
annotation
62
1
39
211
10
65.263112
20
792.469959
11
65.644486
21
792.364995
0
LINE
8
annotation
62
1
39
211
10
65.644486
20
792.364995
11
66.049420
21
792.328586
0
LINE
8
annotation
62
1
39
211
10
66.049420
20
792.328586
11
66.049420
21
792.328586
0
LINE
8
annotation
62
1
39
211
10
66.049420
20
792.328586
11
66.455194
21
792.364995
0
LINE
8
annotation
62
1
39
211
10
66.455194
20
792.364995
11
66.837013
21
792.469959
0
LINE
8
annotation
62
1
39
211
10
66.837013
20
792.469959
11
67.188527
21
792.637085
0
LINE
8
annotation
62
1
39
211
10
67.188527
20
792.637085
11
67.503385
21
792.859982
0
LINE
8
annotation
62
1
39
211
10
67.503385
20
792.859982
11
67.775237
21
793.132257
0
LINE
8
annotation
62
1
39
211
10
67.775237
20
793.132257
11
67.997732
21
793.447517
0
LINE
8
annotation
62
1
39
211
10
67.997732
20
793.447517
11
68.164519
21
793.799370
0
LINE
8
annotation
62
1
39
211
10
68.164519
20
793.799370
11
68.269249
21
794.181423
0
LINE
8
annotation
62
1
39
211
10
68.269249
20
794.181423
11
68.305570
21
794.587285
0
LINE
8
annotation
62
1
39
211
10
68.305570
20
794.587285
11
68.305570
21
795.711218
0
LINE
8
annotation
62
1
39
211
10
68.305570
20
795.711218
11
68.305570
21
795.711218
0
LINE
8
annotation
62
1
39
211
10
68.305570
20
795.711218
11
68.269249
21
796.116882
0
LINE
8
annotation
62
1
39
211
10
68.269249
20
796.116882
11
68.164519
21
796.498409
0
LINE
8
annotation
62
1
39
211
10
68.164519
20
796.498409
11
67.997732
21
796.849499
0
LINE
8
annotation
62
1
39
211
10
67.997732
20
796.849499
11
67.775237
21
797.163854
0
LINE
8
annotation
62
1
39
211
10
67.775237
20
797.163854
11
67.503385
21
797.435177
0
LINE
8
annotation
62
1
39
211
10
67.503385
20
797.435177
11
67.188527
21
797.657169
0
LINE
8
annotation
62
1
39
211
10
67.188527
20
797.657169
11
66.837013
21
797.823533
0
LINE
8
annotation
62
1
39
211
10
66.837013
20
797.823533
11
66.455194
21
797.927970
0
LINE
8
annotation
62
1
39
211
10
66.455194
20
797.927970
11
66.049420
21
797.964182
0
LINE
8
annotation
62
1
39
211
10
66.049420
20
797.964182
11
63.793271
21
797.964182
0
LINE
8
annotation
62
1
39
211
10
63.510695
20
791.058586
11
68.590695
21
791.058586
0
LINE
8
annotation
62
1
39
211
10
63.071346
20
812.648585
11
65.330044
21
822.808585
0
LINE
8
annotation
62
1
39
211
10
65.330044
20
822.808585
11
60.812010
21
822.808585
0
LINE
8
annotation
62
1
39
211
10
65.330044
20
818.284180
11
63.071346
21
818.284180
0
LINE
8
annotation
62
1
39
211
10
51.503115
20
836.182440
11
51.503115
21
836.182440
0
LINE
8
annotation
62
1
39
211
10
51.503115
20
836.182440
11
51.527157
21
835.914688
0
LINE
8
annotation
62
1
39
211
10
51.527157
20
835.914688
11
51.596455
21
835.662869
0
LINE
8
annotation
62
1
39
211
10
51.596455
20
835.662869
11
51.706765
21
835.431138
0
LINE
8
annotation
62
1
39
211
10
51.706765
20
835.431138
11
51.853843
21
835.223653
0
LINE
8
annotation
62
1
39
211
10
51.853843
20
835.223653
11
52.033447
21
835.044572
0
LINE
8
annotation
62
1
39
211
10
52.033447
20
835.044572
11
52.241333
21
834.898050
0
LINE
8
annotation
62
1
39
211
10
52.241333
20
834.898050
11
52.473257
21
834.788244
0
LINE
8
annotation
62
1
39
211
10
52.473257
20
834.788244
11
52.724975
21
834.719313
0
LINE
8
annotation
62
1
39
211
10
52.724975
20
834.719313
11
52.992245
21
834.695412
0
LINE
8
annotation
62
1
39
211
10
52.992245
20
834.695412
11
52.992245
21
834.695412
0
LINE
8
annotation
62
1
39
211
10
52.992245
20
834.695412
11
53.259515
21
834.719313
0
LINE
8
annotation
62
1
39
211
10
53.259515
20
834.719313
11
53.511234
21
834.788244
0
LINE
8
annotation
62
1
39
211
10
53.511234
20
834.788244
11
53.743157
21
834.898050
0
LINE
8
annotation
62
1
39
211
10
53.743157
20
834.898050
11
53.951043
21
835.044572
0
LINE
8
annotation
62
1
39
211
10
53.951043
20
835.044572
11
54.130647
21
835.223653
0
LINE
8
annotation
62
1
39
211
10
54.130647
20
835.223653
11
54.277725
21
835.431138
0
LINE
8
annotation
62
1
39
211
10
54.277725
20
835.431138
11
54.388035
21
835.662869
0
LINE
8
annotation
62
1
39
211
10
54.388035
20
835.662869
11
54.457333
21
835.914688
0
LINE
8
annotation
62
1
39
211
10
54.457333
20
835.914688
11
54.481376
21
836.182440
0
LINE
8
annotation
62
1
39
211
10
54.481376
20
836.182440
11
54.481376
21
836.924272
0
LINE
8
annotation
62
1
39
211
10
54.481376
20
836.924272
11
54.481376
21
836.924272
0
LINE
8
annotation
62
1
39
211
10
54.481376
20
836.924272
11
54.457347
21
837.192153
0
LINE
8
annotation
62
1
39
211
10
54.457347
20
837.192153
11
54.388084
21
837.444320
0
LINE
8
annotation
62
1
39
211
10
54.388084
20
837.444320
11
54.277819
21
837.676554
0
LINE
8
annotation
62
1
39
211
10
54.277819
20
837.676554
11
54.130785
21
837.884636
0
LINE
8
annotation
62
1
39
211
10
54.130785
20
837.884636
11
53.951216
21
838.064346
0
LINE
8
annotation
62
1
39
211
10
53.951216
20
838.064346
11
53.743344
21
838.211465
0
LINE
8
annotation
62
1
39
211
10
53.743344
20
838.211465
11
53.511403
21
838.321774
0
LINE
8
annotation
62
1
39
211
10
53.511403
20
838.321774
11
53.259626
21
838.391053
0
LINE
8
annotation
62
1
39
211
10
53.259626
20
838.391053
11
52.992245
21
838.415084
0
LINE
8
annotation
62
1
39
211
10
52.992245
20
838.415084
11
52.992245
21
838.415084
0
LINE
8
annotation
62
1
39
211
10
52.992245
20
838.415084
11
52.724864
21
838.391040
0
LINE
8
annotation
62
1
39
211
10
52.724864
20
838.391040
11
52.473087
21
838.321726
0
LINE
8
annotation
62
1
39
211
10
52.473087
20
838.321726
11
52.241146
21
838.211372
0
LINE
8
annotation
62
1
39
211
10
52.241146
20
838.211372
11
52.033274
21
838.064208
0
LINE
8
annotation
62
1
39
211
10
52.033274
20
838.064208
11
51.853705
21
837.884463
0
LINE
8
annotation
62
1
39
211
10
51.853705
20
837.884463
11
51.706671
21
837.676368
0
LINE
8
annotation
62
1
39
211
10
51.706671
20
837.676368
11
51.596406
21
837.444151
0
LINE
8
annotation
62
1
39
211
10
51.596406
20
837.444151
11
51.527143
21
837.192042
0
LINE
8
annotation
62
1
39
211
10
51.527143
20
837.192042
11
51.503115
21
836.924272
0
LINE
8
annotation
62
1
39
211
10
51.503115
20
836.924272
11
51.503115
21
836.182440
0
LINE
8
annotation
62
1
39
211
10
54.481376
20
839.906317
11
54.481376
21
839.906317
0
LINE
8
annotation
62
1
39
211
10
54.481376
20
839.906317
11
54.457347
21
840.172961
0
LINE
8
annotation
62
1
39
211
10
54.457347
20
840.172961
11
54.388084
21
840.424193
0
LINE
8
annotation
62
1
39
211
10
54.388084
20
840.424193
11
54.277819
21
840.655750
0
LINE
8
annotation
62
1
39
211
10
54.277819
20
840.655750
11
54.130785
21
840.863373
0
LINE
8
annotation
62
1
39
211
10
54.130785
20
840.863373
11
53.951216
21
841.042801
0
LINE
8
annotation
62
1
39
211
10
53.951216
20
841.042801
11
53.743344
21
841.189773
0
LINE
8
annotation
62
1
39
211
10
53.743344
20
841.189773
11
53.511403
21
841.300028
0
LINE
8
annotation
62
1
39
211
10
53.511403
20
841.300028
11
53.259626
21
841.369306
0
LINE
8
annotation
62
1
39
211
10
53.259626
20
841.369306
11
52.992245
21
841.393345
0
LINE
8
annotation
62
1
39
211
10
52.992245
20
841.393345
11
52.992245
21
841.393345
0
LINE
8
annotation
62
1
39
211
10
52.992245
20
841.393345
11
52.724864
21
841.369306
0
LINE
8
annotation
62
1
39
211
10
52.724864
20
841.369306
11
52.473087
21
841.300028
0
LINE
8
annotation
62
1
39
211
10
52.473087
20
841.300028
11
52.241146
21
841.189773
0
LINE
8
annotation
62
1
39
211
10
52.241146
20
841.189773
11
52.033274
21
841.042801
0
LINE
8
annotation
62
1
39
211
10
52.033274
20
841.042801
11
51.853705
21
840.863373
0
LINE
8
annotation
62
1
39
211
10
51.853705
20
840.863373
11
51.706671
21
840.655750
0
LINE
8
annotation
62
1
39
211
10
51.706671
20
840.655750
11
51.596406
21
840.424193
0
LINE
8
annotation
62
1
39
211
10
51.596406
20
840.424193
11
51.527143
21
840.172961
0
LINE
8
annotation
62
1
39
211
10
51.527143
20
840.172961
11
51.503115
21
839.906317
0
LINE
8
annotation
62
1
39
211
10
51.503115
20
839.906317
11
51.503115
21
839.906317
0
LINE
8
annotation
62
1
39
211
10
51.503115
20
839.906317
11
51.527157
21
839.638422
0
LINE
8
annotation
62
1
39
211
10
51.527157
20
839.638422
11
51.596455
21
839.386216
0
LINE
8
annotation
62
1
39
211
10
51.596455
20
839.386216
11
51.706765
21
839.153926
0
LINE
8
annotation
62
1
39
211
10
51.706765
20
839.153926
11
51.853843
21
838.945777
0
LINE
8
annotation
62
1
39
211
10
51.853843
20
838.945777
11
52.033447
21
838.765998
0
LINE
8
annotation
62
1
39
211
10
52.033447
20
838.765998
11
52.241333
21
838.618812
0
LINE
8
annotation
62
1
39
211
10
52.241333
20
838.618812
11
52.473257
21
838.508447
0
LINE
8
annotation
62
1
39
211
10
52.473257
20
838.508447
11
52.724975
21
838.439129
0
LINE
8
annotation
62
1
39
211
10
52.724975
20
838.439129
11
52.992245
21
838.415084
0
LINE
8
annotation
62
1
39
211
10
52.992245
20
838.415084
11
52.992245
21
838.415084
0
LINE
8
annotation
62
1
39
211
10
52.992245
20
838.415084
11
53.259515
21
838.439129
0
LINE
8
annotation
62
1
39
211
10
53.259515
20
838.439129
11
53.511234
21
838.508447
0
LINE
8
annotation
62
1
39
211
10
53.511234
20
838.508447
11
53.743157
21
838.618812
0
LINE
8
annotation
62
1
39
211
10
53.743157
20
838.618812
11
53.951043
21
838.765998
0
LINE
8
annotation
62
1
39
211
10
53.951043
20
838.765998
11
54.130647
21
838.945777
0
LINE
8
annotation
62
1
39
211
10
54.130647
20
838.945777
11
54.277725
21
839.153926
0
LINE
8
annotation
62
1
39
211
10
54.277725
20
839.153926
11
54.388035
21
839.386216
0
LINE
8
annotation
62
1
39
211
10
54.388035
20
839.386216
11
54.457333
21
839.638422
0
LINE
8
annotation
62
1
39
211
10
54.457333
20
839.638422
11
54.481376
21
839.906317
0
LINE
8
annotation
62
1
39
211
10
55.972031
20
760.350842
11
54.068142
21
757.597041
0
LINE
8
annotation
62
1
39
211
10
54.068142
20
757.597041
11
52.163894
21
760.350842
0
LINE
8
annotation
62
1
39
211
10
54.068142
20
757.818648
11
54.068142
21
754.641681
0
LINE
8
annotation
62
1
39
211
10
61.235024
20
757.496261
11
58.113548
21
757.496261
0
LINE
8
annotation
62
1
39
211
10
63.375288
20
754.642039
11
64.642996
21
754.642039
0
LINE
8
annotation
62
1
39
211
10
64.642996
20
754.642039
11
64.642996
21
754.642039
0
LINE
8
annotation
62
1
39
211
10
64.642996
20
754.642039
11
64.870996
21
754.662492
0
LINE
8
annotation
62
1
39
211
10
64.870996
20
754.662492
11
65.085537
21
754.721439
0
LINE
8
annotation
62
1
39
211
10
65.085537
20
754.721439
11
65.283049
21
754.815262
0
LINE
8
annotation
62
1
39
211
10
65.283049
20
754.815262
11
65.459965
21
754.940342
0
LINE
8
annotation
62
1
39
211
10
65.459965
20
754.940342
11
65.612715
21
755.093060
0
LINE
8
annotation
62
1
39
211
10
65.612715
20
755.093060
11
65.737733
21
755.269800
0
LINE
8
annotation
62
1
39
211
10
65.737733
20
755.269800
11
65.831449
21
755.466941
0
LINE
8
annotation
62
1
39
211
10
65.831449
20
755.466941
11
65.890296
21
755.680866
0
LINE
8
annotation
62
1
39
211
10
65.890296
20
755.680866
11
65.910704
21
755.907957
0
LINE
8
annotation
62
1
39
211
10
65.910704
20
755.907957
11
65.910704
21
756.542706
0
LINE
8
annotation
62
1
39
211
10
65.910704
20
756.542706
11
65.910704
21
756.542706
0
LINE
8
annotation
62
1
39
211
10
65.910704
20
756.542706
11
65.890296
21
756.769702
0
LINE
8
annotation
62
1
39
211
10
65.890296
20
756.769702
11
65.831449
21
756.983577
0
LINE
8
annotation
62
1
39
211
10
65.831449
20
756.983577
11
65.737733
21
757.180703
0
LINE
8
annotation
62
1
39
211
10
65.737733
20
757.180703
11
65.612715
21
757.357454
0
LINE
8
annotation
62
1
39
211
10
65.612715
20
757.357454
11
65.459965
21
757.510203
0
LINE
8
annotation
62
1
39
211
10
65.459965
20
757.510203
11
65.283049
21
757.635321
0
LINE
8
annotation
62
1
39
211
10
65.283049
20
757.635321
11
65.085537
21
757.729182
0
LINE
8
annotation
62
1
39
211
10
65.085537
20
757.729182
11
64.870996
21
757.788159
0
LINE
8
annotation
62
1
39
211
10
64.870996
20
757.788159
11
64.642996
21
757.808624
0
LINE
8
annotation
62
1
39
211
10
64.642996
20
757.808624
11
64.008247
21
757.808624
0
LINE
8
annotation
62
1
39
211
10
64.008247
20
757.808624
11
64.642996
21
757.808624
0
LINE
8
annotation
62
1
39
211
10
64.642996
20
757.808624
11
64.642996
21
757.808624
0
LINE
8
annotation
62
1
39
211
10
64.642996
20
757.808624
11
64.870996
21
757.829093
0
LINE
8
annotation
62
1
39
211
10
64.870996
20
757.829093
11
65.085537
21
757.888104
0
LINE
8
annotation
62
1
39
211
10
65.085537
20
757.888104
11
65.283049
21
757.982059
0
LINE
8
annotation
62
1
39
211
10
65.283049
20
757.982059
11
65.459965
21
758.107359
0
LINE
8
annotation
62
1
39
211
10
65.459965
20
758.107359
11
65.612715
21
758.260407
0
LINE
8
annotation
62
1
39
211
10
65.612715
20
758.260407
11
65.737733
21
758.437605
0
LINE
8
annotation
62
1
39
211
10
65.737733
20
758.437605
11
65.831449
21
758.635355
0
LINE
8
annotation
62
1
39
211
10
65.831449
20
758.635355
11
65.890296
21
758.850060
0
LINE
8
annotation
62
1
39
211
10
65.890296
20
758.850060
11
65.910704
21
759.078122
0
LINE
8
annotation
62
1
39
211
10
65.910704
20
759.078122
11
65.910704
21
759.078122
0
LINE
8
annotation
62
1
39
211
10
65.910704
20
759.078122
11
65.890296
21
759.305118
0
LINE
8
annotation
62
1
39
211
10
65.890296
20
759.305118
11
65.831449
21
759.518993
0
LINE
8
annotation
62
1
39
211
10
65.831449
20
759.518993
11
65.737733
21
759.716119
0
LINE
8
annotation
62
1
39
211
10
65.737733
20
759.716119
11
65.612715
21
759.892870
0
LINE
8
annotation
62
1
39
211
10
65.612715
20
759.892870
11
65.459965
21
760.045619
0
LINE
8
annotation
62
1
39
211
10
65.459965
20
760.045619
11
65.283049
21
760.170737
0
LINE
8
annotation
62
1
39
211
10
65.283049
20
760.170737
11
65.085537
21
760.264598
0
LINE
8
annotation
62
1
39
211
10
65.085537
20
760.264598
11
64.870996
21
760.323575
0
LINE
8
annotation
62
1
39
211
10
64.870996
20
760.323575
11
64.642996
21
760.344040
0
LINE
8
annotation
62
1
39
211
10
64.642996
20
760.344040
11
63.375288
21
760.344040
0
LINE
8
boundary
62
5
39
2
10
31.891772
20
880.973754
11
31.715741
21
879.770288
0
LINE
8
boundary
62
5
39
2
10
31.715741
20
879.770288
11
26.987500
21
847.463432
0
LINE
8
boundary
62
5
39
2
10
26.987500
20
847.463432
11
34.627840
21
847.803705
0
LINE
8
boundary
62
5
39
2
10
34.627840
20
847.803705
11
37.650336
21
847.780314
0
LINE
8
boundary
62
5
39
2
10
37.650336
20
847.780314
11
40.673057
21
847.781638
0
LINE
8
boundary
62
5
39
2
10
40.673057
20
847.781638
11
48.310718
21
847.385604
0
LINE
8
boundary
62
5
39
2
10
48.310718
20
847.385604
11
43.823087
21
879.726092
0
LINE
8
boundary
62
5
39
2
10
43.823087
20
879.726092
11
43.656014
21
880.930811
0
LINE
8
boundary
62
5
39
2
10
43.656014
20
880.930811
11
41.562244
21
880.983637
0
LINE
8
boundary
62
5
39
2
10
41.562244
20
880.983637
11
40.975927
21
864.487883
0
LINE
8
boundary
62
5
39
2
10
40.975927
20
864.487883
11
34.880736
21
864.587196
0
LINE
8
boundary
62
5
39
2
10
34.880736
20
864.587196
11
35.145607
21
880.843358
0
LINE
8
boundary
62
5
39
2
10
35.145607
20
880.843358
11
32.031234
21
880.976571
0
LINE
8
boundary
62
5
39
2
10
32.031234
20
880.976571
11
31.891772
21
880.973754
0
LINE
8
annotation
62
1
39
211
10
42.817070
20
852.757725
11
32.658418
21
852.923246
0
LINE
8
annotation
62
1
39
211
10
32.658418
20
852.923246
11
34.880656
21
850.628040
0
LINE
8
annotation
62
1
39
211
10
34.098497
20
855.121446
11
32.751387
21
855.121446
0
LINE
8
annotation
62
1
39
211
10
32.751387
20
855.121446
11
34.098497
21
857.547583
0
LINE
8
annotation
62
1
39
211
10
34.098497
20
857.547583
11
32.751387
21
857.547583
0
LINE
8
annotation
62
1
39
211
10
36.335098
20
856.334514
11
35.008527
21
856.334514
0
LINE
8
annotation
62
1
39
211
10
37.244671
20
855.121522
11
37.783424
21
855.121522
0
LINE
8
annotation
62
1
39
211
10
37.783424
20
855.121522
11
37.783424
21
855.121522
0
LINE
8
annotation
62
1
39
211
10
37.783424
20
855.121522
11
37.880320
21
855.130214
0
LINE
8
annotation
62
1
39
211
10
37.880320
20
855.130214
11
37.971496
21
855.155265
0
LINE
8
annotation
62
1
39
211
10
37.971496
20
855.155265
11
38.055435
21
855.195138
0
LINE
8
annotation
62
1
39
211
10
38.055435
20
855.195138
11
38.130621
21
855.248295
0
LINE
8
annotation
62
1
39
211
10
38.130621
20
855.248295
11
38.195537
21
855.313198
0
LINE
8
annotation
62
1
39
211
10
38.195537
20
855.313198
11
38.248667
21
855.388309
0
LINE
8
annotation
62
1
39
211
10
38.248667
20
855.388309
11
38.288495
21
855.472090
0
LINE
8
annotation
62
1
39
211
10
38.288495
20
855.472090
11
38.313504
21
855.563005
0
LINE
8
annotation
62
1
39
211
10
38.313504
20
855.563005
11
38.322177
21
855.659514
0
LINE
8
annotation
62
1
39
211
10
38.322177
20
855.659514
11
38.322177
21
855.929271
0
LINE
8
annotation
62
1
39
211
10
38.322177
20
855.929271
11
38.322177
21
855.929271
0
LINE
8
annotation
62
1
39
211
10
38.322177
20
855.929271
11
38.313504
21
856.025740
0
LINE
8
annotation
62
1
39
211
10
38.313504
20
856.025740
11
38.288495
21
856.116633
0
LINE
8
annotation
62
1
39
211
10
38.288495
20
856.116633
11
38.248667
21
856.200408
0
LINE
8
annotation
62
1
39
211
10
38.248667
20
856.200408
11
38.195537
21
856.275524
0
LINE
8
annotation
62
1
39
211
10
38.195537
20
856.275524
11
38.130621
21
856.340439
0
LINE
8
annotation
62
1
39
211
10
38.130621
20
856.340439
11
38.055435
21
856.393612
0
LINE
8
annotation
62
1
39
211
10
38.055435
20
856.393612
11
37.971496
21
856.433502
0
LINE
8
annotation
62
1
39
211
10
37.971496
20
856.433502
11
37.880320
21
856.458566
0
LINE
8
annotation
62
1
39
211
10
37.880320
20
856.458566
11
37.783424
21
856.467263
0
LINE
8
annotation
62
1
39
211
10
37.783424
20
856.467263
11
37.513667
21
856.467263
0
LINE
8
annotation
62
1
39
211
10
37.513667
20
856.467263
11
37.783424
21
856.467263
0
LINE
8
annotation
62
1
39
211
10
37.783424
20
856.467263
11
37.783424
21
856.467263
0
LINE
8
annotation
62
1
39
211
10
37.783424
20
856.467263
11
37.880320
21
856.475962
0
LINE
8
annotation
62
1
39
211
10
37.880320
20
856.475962
11
37.971496
21
856.501041
0
LINE
8
annotation
62
1
39
211
10
37.971496
20
856.501041
11
38.055435
21
856.540970
0
LINE
8
annotation
62
1
39
211
10
38.055435
20
856.540970
11
38.130621
21
856.594220
0
LINE
8
annotation
62
1
39
211
10
38.130621
20
856.594220
11
38.195537
21
856.659262
0
LINE
8
annotation
62
1
39
211
10
38.195537
20
856.659262
11
38.248667
21
856.734568
0
LINE
8
annotation
62
1
39
211
10
38.248667
20
856.734568
11
38.288495
21
856.818609
0
LINE
8
annotation
62
1
39
211
10
38.288495
20
856.818609
11
38.313504
21
856.909854
0
LINE
8
annotation
62
1
39
211
10
38.313504
20
856.909854
11
38.322177
21
857.006776
0
LINE
8
annotation
62
1
39
211
10
38.322177
20
857.006776
11
38.322177
21
857.006776
0
LINE
8
annotation
62
1
39
211
10
38.322177
20
857.006776
11
38.313504
21
857.103246
0
LINE
8
annotation
62
1
39
211
10
38.313504
20
857.103246
11
38.288495
21
857.194139
0
LINE
8
annotation
62
1
39
211
10
38.288495
20
857.194139
11
38.248667
21
857.277914
0
LINE
8
annotation
62
1
39
211
10
38.248667
20
857.277914
11
38.195537
21
857.353030
0
LINE
8
annotation
62
1
39
211
10
38.195537
20
857.353030
11
38.130621
21
857.417945
0
LINE
8
annotation
62
1
39
211
10
38.130621
20
857.417945
11
38.055435
21
857.471118
0
LINE
8
annotation
62
1
39
211
10
38.055435
20
857.471118
11
37.971496
21
857.511007
0
LINE
8
annotation
62
1
39
211
10
37.971496
20
857.511007
11
37.880320
21
857.536071
0
LINE
8
annotation
62
1
39
211
10
37.880320
20
857.536071
11
37.783424
21
857.544769
0
LINE
8
annotation
62
1
39
211
10
37.783424
20
857.544769
11
37.244671
21
857.544769
0
LINE
8
annotation
62
1
39
211
10
40.558777
20
856.334514
11
39.232207
21
856.334514
0
LINE
8
annotation
62
1
39
211
10
42.546040
20
855.121426
11
41.468534
21
855.121426
0
LINE
8
annotation
62
1
39
211
10
41.468534
20
855.121426
11
42.464185
21
856.724296
0
LINE
8
annotation
62
1
39
211
10
42.464185
20
856.724296
11
42.464185
21
856.724296
0
LINE
8
annotation
62
1
39
211
10
42.464185
20
856.724296
11
42.465375
21
856.725768
0
LINE
8
annotation
62
1
39
211
10
42.465375
20
856.725768
11
42.466516
21
856.727254
0
LINE
8
annotation
62
1
39
211
10
42.466516
20
856.727254
11
42.467616
21
856.728764
0
LINE
8
annotation
62
1
39
211
10
42.467616
20
856.728764
11
42.468683
21
856.730312
0
LINE
8
annotation
62
1
39
211
10
42.468683
20
856.730312
11
42.469723
21
856.731910
0
LINE
8
annotation
62
1
39
211
10
42.469723
20
856.731910
11
42.470744
21
856.733571
0
LINE
8
annotation
62
1
39
211
10
42.470744
20
856.733571
11
42.471754
21
856.735307
0
LINE
8
annotation
62
1
39
211
10
42.471754
20
856.735307
11
42.472760
21
856.737130
0
LINE
8
annotation
62
1
39
211
10
42.472760
20
856.737130
11
42.473770
21
856.739054
0
LINE
8
annotation
62
1
39
211
10
42.473770
20
856.739054
11
42.473770
21
856.739054
0
LINE
8
annotation
62
1
39
211
10
42.473770
20
856.739054
11
42.514880
21
856.827321
0
LINE
8
annotation
62
1
39
211
10
42.514880
20
856.827321
11
42.538896
21
856.918817
0
LINE
8
annotation
62
1
39
211
10
42.538896
20
856.918817
11
42.546406
21
857.011476
0
LINE
8
annotation
62
1
39
211
10
42.546406
20
857.011476
11
42.537999
21
857.103229
0
LINE
8
annotation
62
1
39
211
10
42.537999
20
857.103229
11
42.514263
21
857.192010
0
LINE
8
annotation
62
1
39
211
10
42.514263
20
857.192010
11
42.475787
21
857.275750
0
LINE
8
annotation
62
1
39
211
10
42.475787
20
857.275750
11
42.423160
21
857.352382
0
LINE
8
annotation
62
1
39
211
10
42.423160
20
857.352382
11
42.356969
21
857.419840
0
LINE
8
annotation
62
1
39
211
10
42.356969
20
857.419840
11
42.277804
21
857.476054
0
LINE
8
annotation
62
1
39
211
10
42.277804
20
857.476054
11
42.277804
21
857.476054
0
LINE
8
annotation
62
1
39
211
10
42.277804
20
857.476054
11
42.189292
21
857.516580
0
LINE
8
annotation
62
1
39
211
10
42.189292
20
857.516580
11
42.097655
21
857.540226
0
LINE
8
annotation
62
1
39
211
10
42.097655
20
857.540226
11
42.004943
21
857.547524
0
LINE
8
annotation
62
1
39
211
10
42.004943
20
857.547524
11
41.913203
21
857.539006
0
LINE
8
annotation
62
1
39
211
10
41.913203
20
857.539006
11
41.824485
21
857.515205
0
LINE
8
annotation
62
1
39
211
10
41.824485
20
857.515205
11
41.740838
21
857.476652
0
LINE
8
annotation
62
1
39
211
10
41.740838
20
857.476652
11
41.664309
21
857.423880
0
LINE
8
annotation
62
1
39
211
10
41.664309
20
857.423880
11
41.596948
21
857.357421
0
LINE
8
annotation
62
1
39
211
10
41.596948
20
857.357421
11
41.540804
21
857.277807
0
LINE
8
annotation
62
1
39
211
10
41.540804
20
857.277807
11
41.470055
21
857.142092
0
LINE
8
boundary
62
5
39
2
10
109.941881
20
33.450183
11
110.635271
21
33.196321
0
LINE
8
boundary
62
5
39
2
10
110.635271
20
33.196321
11
123.823078
21
33.196321
0
LINE
8
boundary
62
5
39
2
10
123.823078
20
33.196321
11
123.823078
21
28.550196
0
LINE
8
boundary
62
5
39
2
10
123.823078
20
28.550196
11
128.366781
21
26.987500
0
LINE
8
boundary
62
5
39
2
10
128.366781
20
26.987500
11
130.768905
21
26.987500
0
LINE
8
boundary
62
5
39
2
10
130.768905
20
26.987500
11
131.707795
21
26.987500
0
LINE
8
boundary
62
5
39
2
10
131.707795
20
26.987500
11
132.851577
21
26.987500
0
LINE
8
boundary
62
5
39
2
10
132.851577
20
26.987500
11
132.435724
21
27.860378
0
LINE
8
boundary
62
5
39
2
10
132.435724
20
27.860378
11
145.589438
21
42.394472
0
LINE
8
boundary
62
5
39
2
10
145.589438
20
42.394472
11
153.028021
21
50.575965
0
LINE
8
boundary
62
5
39
2
10
153.028021
20
50.575965
11
146.780952
21
82.744230
0
LINE
8
boundary
62
5
39
2
10
146.780952
20
82.744230
11
142.642835
21
104.603314
0
LINE
8
boundary
62
5
39
2
10
142.642835
20
104.603314
11
140.811541
21
114.431903
0
LINE
8
boundary
62
5
39
2
10
140.811541
20
114.431903
11
142.628375
21
118.030677
0
LINE
8
boundary
62
5
39
2
10
142.628375
20
118.030677
11
148.169369
21
128.498420
0
LINE
8
boundary
62
5
39
2
10
148.169369
20
128.498420
11
147.264821
21
133.953139
0
LINE
8
boundary
62
5
39
2
10
147.264821
20
133.953139
11
141.062324
21
162.006715
0
LINE
8
boundary
62
5
39
2
10
141.062324
20
162.006715
11
140.645354
21
163.933597
0
LINE
8
boundary
62
5
39
2
10
140.645354
20
163.933597
11
148.255653
21
176.969781
0
LINE
8
boundary
62
5
39
2
10
148.255653
20
176.969781
11
152.768765
21
185.155778
0
LINE
8
boundary
62
5
39
2
10
152.768765
20
185.155778
11
153.194280
21
191.467219
0
LINE
8
boundary
62
5
39
2
10
153.194280
20
191.467219
11
153.923772
21
205.929157
0
LINE
8
boundary
62
5
39
2
10
153.923772
20
205.929157
11
153.393633
21
208.824407
0
LINE
8
boundary
62
5
39
2
10
153.393633
20
208.824407
11
144.078468
21
230.153403
0
LINE
8
boundary
62
5
39
2
10
144.078468
20
230.153403
11
141.793755
21
226.109307
0
LINE
8
boundary
62
5
39
2
10
141.793755
20
226.109307
11
137.323317
21
216.507977
0
LINE
8
boundary
62
5
39
2
10
137.323317
20
216.507977
11
135.017978
21
197.094628
0
LINE
8
boundary
62
5
39
2
10
135.017978
20
197.094628
11
134.277580
21
190.651668
0
LINE
8
boundary
62
5
39
2
10
134.277580
20
190.651668
11
135.766428
21
182.752991
0
LINE
8
boundary
62
5
39
2
10
135.766428
20
182.752991
11
142.165947
21
182.435491
0
LINE
8
boundary
62
5
39
2
10
142.165947
20
182.435491
11
142.165947
21
176.339491
0
LINE
8
boundary
62
5
39
2
10
142.165947
20
176.339491
11
125.582103
21
176.339491
0
LINE
8
boundary
62
5
39
2
10
125.582103
20
176.339491
11
114.212692
21
162.432992
0
LINE
8
boundary
62
5
39
2
10
114.212692
20
162.432992
11
126.019156
21
162.115492
0
LINE
8
boundary
62
5
39
2
10
126.019156
20
162.115492
11
126.019156
21
156.019493
0
LINE
8
boundary
62
5
39
2
10
126.019156
20
156.019493
11
110.084045
21
156.019492
0
LINE
8
boundary
62
5
39
2
10
110.084045
20
156.019492
11
109.906244
21
142.112994
0
LINE
8
boundary
62
5
39
2
10
109.906244
20
142.112994
11
128.265478
21
141.795494
0
LINE
8
boundary
62
5
39
2
10
128.265478
20
141.795494
11
128.265478
21
135.699493
0
LINE
8
boundary
62
5
39
2
10
128.265478
20
135.699493
11
110.084044
21
135.699494
0
LINE
8
boundary
62
5
39
2
10
110.084044
20
135.699494
11
109.906244
21
121.792995
0
LINE
8
boundary
62
5
39
2
10
109.906244
20
121.792995
11
127.052049
21
121.475495
0
LINE
8
boundary
62
5
39
2
10
127.052049
20
121.475495
11
127.052049
21
115.379495
0
LINE
8
boundary
62
5
39
2
10
127.052049
20
115.379495
11
110.084044
21
115.379495
0
LINE
8
boundary
62
5
39
2
10
110.084044
20
115.379495
11
109.906245
21
114.879007
0
LINE
8
boundary
62
5
39
2
10
109.906245
20
114.879007
11
110.302101
21
114.506306
0
LINE
8
boundary
62
5
39
2
10
110.302101
20
114.506306
11
109.906244
21
113.932671
0
LINE
8
boundary
62
5
39
2
10
109.906244
20
113.932671
11
109.906244
21
101.472996
0
LINE
8
boundary
62
5
39
2
10
109.906244
20
101.472996
11
127.050904
21
101.155496
0
LINE
8
boundary
62
5
39
2
10
127.050904
20
101.155496
11
127.050904
21
95.059496
0
LINE
8
boundary
62
5
39
2
10
127.050904
20
95.059496
11
110.084044
21
95.059496
0
LINE
8
boundary
62
5
39
2
10
110.084044
20
95.059496
11
109.906244
21
81.152997
0
LINE
8
boundary
62
5
39
2
10
109.906244
20
81.152997
11
128.993857
21
80.835497
0
LINE
8
boundary
62
5
39
2
10
128.993857
20
80.835497
11
128.993857
21
74.739497
0
LINE
8
boundary
62
5
39
2
10
128.993857
20
74.739497
11
110.084044
21
74.739497
0
LINE
8
boundary
62
5
39
2
10
110.084044
20
74.739497
11
109.906244
21
60.832998
0
LINE
8
boundary
62
5
39
2
10
109.906244
20
60.832998
11
130.966926
21
60.515498
0
LINE
8
boundary
62
5
39
2
10
130.966926
20
60.515498
11
130.966926
21
54.419498
0
LINE
8
boundary
62
5
39
2
10
130.966926
20
54.419498
11
110.084044
21
54.419498
0
LINE
8
boundary
62
5
39
2
10
110.084044
20
54.419498
11
109.906244
21
33.513821
0
LINE
8
boundary
62
5
39
2
10
109.906244
20
33.513821
11
109.941881
21
33.450183
0
LINE
8
annotation
62
1
39
211
10
127.355178
20
28.897423
11
127.355178
21
31.399219
0
LINE
8
annotation
62
1
39
211
10
127.355178
20
31.399219
11
126.798997
21
30.842881
0
LINE
8
annotation
62
1
39
211
10
146.048801
20
52.387416
11
141.536502
21
52.387416
0
LINE
8
annotation
62
1
39
211
10
141.536502
20
52.387416
11
145.706014
21
59.099795
0
LINE
8
annotation
62
1
39
211
10
145.706014
20
59.099795
11
145.706014
21
59.099795
0
LINE
8
annotation
62
1
39
211
10
145.706014
20
59.099795
11
145.710999
21
59.105963
0
LINE
8
annotation
62
1
39
211
10
145.710999
20
59.105963
11
145.715779
21
59.112183
0
LINE
8
annotation
62
1
39
211
10
145.715779
20
59.112183
11
145.720386
21
59.118508
0
LINE
8
annotation
62
1
39
211
10
145.720386
20
59.118508
11
145.724851
21
59.124991
0
LINE
8
annotation
62
1
39
211
10
145.724851
20
59.124991
11
145.729206
21
59.131683
0
LINE
8
annotation
62
1
39
211
10
145.729206
20
59.131683
11
145.733483
21
59.138638
0
LINE
8
annotation
62
1
39
211
10
145.733483
20
59.138638
11
145.737712
21
59.145907
0
LINE
8
annotation
62
1
39
211
10
145.737712
20
59.145907
11
145.741925
21
59.153543
0
LINE
8
annotation
62
1
39
211
10
145.741925
20
59.153543
11
145.746155
21
59.161599
0
LINE
8
annotation
62
1
39
211
10
145.746155
20
59.161599
11
145.746155
21
59.161599
0
LINE
8
annotation
62
1
39
211
10
145.746155
20
59.161599
11
145.918313
21
59.531237
0
LINE
8
annotation
62
1
39
211
10
145.918313
20
59.531237
11
146.018885
21
59.914399
0
LINE
8
annotation
62
1
39
211
10
146.018885
20
59.914399
11
146.050335
21
60.302428
0
LINE
8
annotation
62
1
39
211
10
146.050335
20
60.302428
11
146.015128
21
60.686666
0
LINE
8
annotation
62
1
39
211
10
146.015128
20
60.686666
11
145.915729
21
61.058454
0
LINE
8
annotation
62
1
39
211
10
145.915729
20
61.058454
11
145.754603
21
61.409135
0
LINE
8
annotation
62
1
39
211
10
145.754603
20
61.409135
11
145.534214
21
61.730051
0
LINE
8
annotation
62
1
39
211
10
145.534214
20
61.730051
11
145.257026
21
62.012543
0
LINE
8
annotation
62
1
39
211
10
145.257026
20
62.012543
11
144.925505
21
62.247955
0
LINE
8
annotation
62
1
39
211
10
144.925505
20
62.247955
11
144.925505
21
62.247955
0
LINE
8
annotation
62
1
39
211
10
144.925505
20
62.247955
11
144.554839
21
62.417667
0
LINE
8
annotation
62
1
39
211
10
144.554839
20
62.417667
11
144.171089
21
62.516689
0
LINE
8
annotation
62
1
39
211
10
144.171089
20
62.516689
11
143.782835
21
62.547251
0
LINE
8
annotation
62
1
39
211
10
143.782835
20
62.547251
11
143.398655
21
62.511580
0
LINE
8
annotation
62
1
39
211
10
143.398655
20
62.511580
11
143.027129
21
62.411906
0
LINE
8
annotation
62
1
39
211
10
143.027129
20
62.411906
11
142.676836
21
62.250457
0
LINE
8
annotation
62
1
39
211
10
142.676836
20
62.250457
11
142.356356
21
62.029461
0
LINE
8
annotation
62
1
39
211
10
142.356356
20
62.029461
11
142.074267
21
61.751149
0
LINE
8
annotation
62
1
39
211
10
142.074267
20
61.751149
11
141.839149
21
61.417748
0
LINE
8
annotation
62
1
39
211
10
141.839149
20
61.417748
11
141.542874
21
60.849410
0
LINE
8
annotation
62
1
39
211
10
139.563433
20
72.707816
11
141.819582
21
72.707816
0
LINE
8
annotation
62
1
39
211
10
141.819582
20
72.707816
11
141.819582
21
72.707816
0
LINE
8
annotation
62
1
39
211
10
141.819582
20
72.707816
11
142.225356
21
72.744216
0
LINE
8
annotation
62
1
39
211
10
142.225356
20
72.744216
11
142.607175
21
72.849125
0
LINE
8
annotation
62
1
39
211
10
142.607175
20
72.849125
11
142.958689
21
73.016102
0
LINE
8
annotation
62
1
39
211
10
142.958689
20
73.016102
11
143.273547
21
73.238708
0
LINE
8
annotation
62
1
39
211
10
143.273547
20
73.238708
11
143.545399
21
73.510503
0
LINE
8
annotation
62
1
39
211
10
143.545399
20
73.510503
11
143.767894
21
73.825047
0
LINE
8
annotation
62
1
39
211
10
143.767894
20
73.825047
11
143.934681
21
74.175901
0
LINE
8
annotation
62
1
39
211
10
143.934681
20
74.175901
11
144.039411
21
74.556625
0
LINE
8
annotation
62
1
39
211
10
144.039411
20
74.556625
11
144.075732
21
74.960779
0
LINE
8
annotation
62
1
39
211
10
144.075732
20
74.960779
11
144.075732
21
76.090447
0
LINE
8
annotation
62
1
39
211
10
144.075732
20
76.090447
11
144.075732
21
76.090447
0
LINE
8
annotation
62
1
39
211
10
144.075732
20
76.090447
11
144.039411
21
76.494434
0
LINE
8
annotation
62
1
39
211
10
144.039411
20
76.494434
11
143.934681
21
76.875069
0
LINE
8
annotation
62
1
39
211
10
143.934681
20
76.875069
11
143.767894
21
77.225896
0
LINE
8
annotation
62
1
39
211
10
143.767894
20
77.225896
11
143.545399
21
77.540462
0
LINE
8
annotation
62
1
39
211
10
143.545399
20
77.540462
11
143.273547
21
77.812309
0
LINE
8
annotation
62
1
39
211
10
143.273547
20
77.812309
11
142.958689
21
78.034983
0
LINE
8
annotation
62
1
39
211
10
142.958689
20
78.034983
11
142.607175
21
78.202028
0
LINE
8
annotation
62
1
39
211
10
142.607175
20
78.202028
11
142.225356
21
78.306989
0
LINE
8
annotation
62
1
39
211
10
142.225356
20
78.306989
11
141.819582
21
78.343411
0
LINE
8
annotation
62
1
39
211
10
141.819582
20
78.343411
11
140.689915
21
78.343411
0
LINE
8
annotation
62
1
39
211
10
140.689915
20
78.343411
11
141.819582
21
78.343411
0
LINE
8
annotation
62
1
39
211
10
141.819582
20
78.343411
11
141.819582
21
78.343411
0
LINE
8
annotation
62
1
39
211
10
141.819582
20
78.343411
11
142.225356
21
78.379841
0
LINE
8
annotation
62
1
39
211
10
142.225356
20
78.379841
11
142.607175
21
78.484864
0
LINE
8
annotation
62
1
39
211
10
142.607175
20
78.484864
11
142.958689
21
78.652075
0
LINE
8
annotation
62
1
39
211
10
142.958689
20
78.652075
11
143.273547
21
78.875072
0
LINE
8
annotation
62
1
39
211
10
143.273547
20
78.875072
11
143.545399
21
79.147453
0
LINE
8
annotation
62
1
39
211
10
143.545399
20
79.147453
11
143.767894
21
79.462813
0
LINE
8
annotation
62
1
39
211
10
143.767894
20
79.462813
11
143.934681
21
79.814751
0
LINE
8
annotation
62
1
39
211
10
143.934681
20
79.814751
11
144.039411
21
80.196863
0
LINE
8
annotation
62
1
39
211
10
144.039411
20
80.196863
11
144.075732
21
80.602746
0
LINE
8
annotation
62
1
39
211
10
144.075732
20
80.602746
11
144.075732
21
80.602746
0
LINE
8
annotation
62
1
39
211
10
144.075732
20
80.602746
11
144.039411
21
81.006733
0
LINE
8
annotation
62
1
39
211
10
144.039411
20
81.006733
11
143.934681
21
81.387368
0
LINE
8
annotation
62
1
39
211
10
143.934681
20
81.387368
11
143.767894
21
81.738195
0
LINE
8
annotation
62
1
39
211
10
143.767894
20
81.738195
11
143.545399
21
82.052761
0
LINE
8
annotation
62
1
39
211
10
143.545399
20
82.052761
11
143.273547
21
82.324608
0
LINE
8
annotation
62
1
39
211
10
143.273547
20
82.324608
11
142.958689
21
82.547282
0
LINE
8
annotation
62
1
39
211
10
142.958689
20
82.547282
11
142.607175
21
82.714327
0
LINE
8
annotation
62
1
39
211
10
142.607175
20
82.714327
11
142.225356
21
82.819288
0
LINE
8
annotation
62
1
39
211
10
142.225356
20
82.819288
11
141.819582
21
82.855710
0
LINE
8
annotation
62
1
39
211
10
141.819582
20
82.855710
11
139.563433
21
82.855710
0
LINE
8
annotation
62
1
39
211
10
141.336379
20
95.533598
11
136.189745
21
95.533598
0
LINE
8
annotation
62
1
39
211
10
136.189745
20
95.533598
11
138.245143
21
102.742024
0
LINE
8
annotation
62
1
39
211
10
139.793668
20
93.472968
11
139.793668
21
97.589577
0
LINE
8
annotation
62
1
39
211
10
135.914728
20
114.177849
11
137.802097
21
114.177849
0
LINE
8
annotation
62
1
39
211
10
137.802097
20
114.177849
11
137.802097
21
114.177849
0
LINE
8
annotation
62
1
39
211
10
137.802097
20
114.177849
11
138.140843
21
114.208306
0
LINE
8
annotation
62
1
39
211
10
138.140843
20
114.208306
11
138.459879
21
114.296113
0
LINE
8
annotation
62
1
39
211
10
138.459879
20
114.296113
11
138.753826
21
114.435922
0
LINE
8
annotation
62
1
39
211
10
138.753826
20
114.435922
11
139.017307
21
114.622385
0
LINE
8
annotation
62
1
39
211
10
139.017307
20
114.622385
11
139.244942
21
114.850155
0
LINE
8
annotation
62
1
39
211
10
139.244942
20
114.850155
11
139.431354
21
115.113884
0
LINE
8
annotation
62
1
39
211
10
139.431354
20
115.113884
11
139.571164
21
115.408225
0
LINE
8
annotation
62
1
39
211
10
139.571164
20
115.408225
11
139.658995
21
115.727829
0
LINE
8
annotation
62
1
39
211
10
139.658995
20
115.727829
11
139.689467
21
116.067350
0
LINE
8
annotation
62
1
39
211
10
139.689467
20
116.067350
11
139.689467
21
117.007570
0
LINE
8
annotation
62
1
39
211
10
139.689467
20
117.007570
11
139.689467
21
117.007570
0
LINE
8
annotation
62
1
39
211
10
139.689467
20
117.007570
11
139.659012
21
117.346927
0
LINE
8
annotation
62
1
39
211
10
139.659012
20
117.346927
11
139.571226
21
117.666091
0
LINE
8
annotation
62
1
39
211
10
139.571226
20
117.666091
11
139.431473
21
117.959793
0
LINE
8
annotation
62
1
39
211
10
139.431473
20
117.959793
11
139.245118
21
118.222765
0
LINE
8
annotation
62
1
39
211
10
139.245118
20
118.222765
11
139.017526
21
118.449739
0
LINE
8
annotation
62
1
39
211
10
139.017526
20
118.449739
11
138.754063
21
118.635445
0
LINE
8
annotation
62
1
39
211
10
138.754063
20
118.635445
11
138.460094
21
118.774616
0
LINE
8
annotation
62
1
39
211
10
138.460094
20
118.774616
11
138.140984
21
118.861982
0
LINE
8
annotation
62
1
39
211
10
138.140984
20
118.861982
11
137.802097
21
118.892275
0
LINE
8
annotation
62
1
39
211
10
137.802097
20
118.892275
11
135.914728
21
118.892275
0
LINE
8
annotation
62
1
39
211
10
135.914728
20
118.892275
11
135.914728
21
122.677140
0
LINE
8
annotation
62
1
39
211
10
135.914728
20
122.677140
11
139.689467
21
122.677140
0
LINE
8
annotation
62
1
39
211
10
142.224057
20
143.827494
11
142.224057
21
143.827494
0
LINE
8
annotation
62
1
39
211
10
142.224057
20
143.827494
11
141.577727
21
143.585159
0
LINE
8
annotation
62
1
39
211
10
141.577727
20
143.585159
11
140.984634
21
143.258641
0
LINE
8
annotation
62
1
39
211
10
140.984634
20
143.258641
11
140.450867
21
142.856122
0
LINE
8
annotation
62
1
39
211
10
140.450867
20
142.856122
11
139.982514
21
142.385782
0
LINE
8
annotation
62
1
39
211
10
139.982514
20
142.385782
11
139.585664
21
141.855802
0
LINE
8
annotation
62
1
39
211
10
139.585664
20
141.855802
11
139.266405
21
141.274361
0
LINE
8
annotation
62
1
39
211
10
139.266405
20
141.274361
11
139.030824
21
140.649642
0
LINE
8
annotation
62
1
39
211
10
139.030824
20
140.649642
11
138.885011
21
139.989824
0
LINE
8
annotation
62
1
39
211
10
138.885011
20
139.989824
11
138.835054
21
139.303089
0
LINE
8
annotation
62
1
39
211
10
138.835054
20
139.303089
11
138.835054
21
135.926192
0
LINE
8
annotation
62
1
39
211
10
138.835054
20
135.926192
11
138.835054
21
135.926192
0
LINE
8
annotation
62
1
39
211
10
138.835054
20
135.926192
11
138.871480
21
135.520330
0
LINE
8
annotation
62
1
39
211
10
138.871480
20
135.520330
11
138.976471
21
135.138277
0
LINE
8
annotation
62
1
39
211
10
138.976471
20
135.138277
11
139.143600
21
134.786424
0
LINE
8
annotation
62
1
39
211
10
139.143600
20
134.786424
11
139.366435
21
134.471164
0
LINE
8
annotation
62
1
39
211
10
139.366435
20
134.471164
11
139.638549
21
134.198889
0
LINE
8
annotation
62
1
39
211
10
139.638549
20
134.198889
11
139.953512
21
133.975992
0
LINE
8
annotation
62
1
39
211
10
139.953512
20
133.975992
11
140.304895
21
133.808866
0
LINE
8
annotation
62
1
39
211
10
140.304895
20
133.808866
11
140.686268
21
133.703902
0
LINE
8
annotation
62
1
39
211
10
140.686268
20
133.703902
11
141.091203
21
133.667494
0
LINE
8
annotation
62
1
39
211
10
141.091203
20
133.667494
11
141.091203
21
133.667494
0
LINE
8
annotation
62
1
39
211
10
141.091203
20
133.667494
11
141.496977
21
133.703902
0
LINE
8
annotation
62
1
39
211
10
141.496977
20
133.703902
11
141.878796
21
133.808866
0
LINE
8
annotation
62
1
39
211
10
141.878796
20
133.808866
11
142.230310
21
133.975992
0
LINE
8
annotation
62
1
39
211
10
142.230310
20
133.975992
11
142.545168
21
134.198889
0
LINE
8
annotation
62
1
39
211
10
142.545168
20
134.198889
11
142.817020
21
134.471164
0
LINE
8
annotation
62
1
39
211
10
142.817020
20
134.471164
11
143.039515
21
134.786424
0
LINE
8
annotation
62
1
39
211
10
143.039515
20
134.786424
11
143.206302
21
135.138277
0
LINE
8
annotation
62
1
39
211
10
143.206302
20
135.138277
11
143.311032
21
135.520330
0
LINE
8
annotation
62
1
39
211
10
143.311032
20
135.520330
11
143.347353
21
135.926192
0
LINE
8
annotation
62
1
39
211
10
143.347353
20
135.926192
11
143.347353
21
137.050125
0
LINE
8
annotation
62
1
39
211
10
143.347353
20
137.050125
11
143.347353
21
137.050125
0
LINE
8
annotation
62
1
39
211
10
143.347353
20
137.050125
11
143.311032
21
137.455790
0
LINE
8
annotation
62
1
39
211
10
143.311032
20
137.455790
11
143.206302
21
137.837316
0
LINE
8
annotation
62
1
39
211
10
143.206302
20
137.837316
11
143.039515
21
138.188406
0
LINE
8
annotation
62
1
39
211
10
143.039515
20
138.188406
11
142.817020
21
138.502761
0
LINE
8
annotation
62
1
39
211
10
142.817020
20
138.502761
11
142.545168
21
138.774084
0
LINE
8
annotation
62
1
39
211
10
142.545168
20
138.774084
11
142.230310
21
138.996077
0
LINE
8
annotation
62
1
39
211
10
142.230310
20
138.996077
11
141.878796
21
139.162440
0
LINE
8
annotation
62
1
39
211
10
141.878796
20
139.162440
11
141.496977
21
139.266877
0
LINE
8
annotation
62
1
39
211
10
141.496977
20
139.266877
11
141.091203
21
139.303089
0
LINE
8
annotation
62
1
39
211
10
141.091203
20
139.303089
11
138.835054
21
139.303089
0
LINE
8
annotation
62
1
39
211
10
138.552478
20
132.397494
11
143.632478
21
132.397494
0
LINE
8
annotation
62
1
39
211
10
137.441972
20
154.548713
11
139.451137
21
163.586272
0
LINE
8
annotation
62
1
39
211
10
139.451137
20
163.586272
11
135.432240
21
163.586272
0
LINE
8
annotation
62
1
39
211
10
139.451137
20
159.561707
11
137.441972
21
159.561707
0
LINE
8
annotation
62
1
39
211
10
146.107227
20
178.354765
11
146.107227
21
178.354765
0
LINE
8
annotation
62
1
39
211
10
146.107227
20
178.354765
11
146.120532
21
178.206591
0
LINE
8
annotation
62
1
39
211
10
146.120532
20
178.206591
11
146.158882
21
178.067234
0
LINE
8
annotation
62
1
39
211
10
146.158882
20
178.067234
11
146.219927
21
177.938994
0
LINE
8
annotation
62
1
39
211
10
146.219927
20
177.938994
11
146.301321
21
177.824172
0
LINE
8
annotation
62
1
39
211
10
146.301321
20
177.824172
11
146.400714
21
177.725067
0
LINE
8
annotation
62
1
39
211
10
146.400714
20
177.725067
11
146.515758
21
177.643982
0
LINE
8
annotation
62
1
39
211
10
146.515758
20
177.643982
11
146.644105
21
177.583216
0
LINE
8
annotation
62
1
39
211
10
146.644105
20
177.583216
11
146.783406
21
177.545069
0
LINE
8
annotation
62
1
39
211
10
146.783406
20
177.545069
11
146.931313
21
177.531842
0
LINE
8
annotation
62
1
39
211
10
146.931313
20
177.531842
11
146.931313
21
177.531842
0
LINE
8
annotation
62
1
39
211
10
146.931313
20
177.531842
11
147.079221
21
177.545069
0
LINE
8
annotation
62
1
39
211
10
147.079221
20
177.545069
11
147.218522
21
177.583216
0
LINE
8
annotation
62
1
39
211
10
147.218522
20
177.583216
11
147.346869
21
177.643982
0
LINE
8
annotation
62
1
39
211
10
147.346869
20
177.643982
11
147.461913
21
177.725067
0
LINE
8
annotation
62
1
39
211
10
147.461913
20
177.725067
11
147.561306
21
177.824172
0
LINE
8
annotation
62
1
39
211
10
147.561306
20
177.824172
11
147.642700
21
177.938994
0
LINE
8
annotation
62
1
39
211
10
147.642700
20
177.938994
11
147.703745
21
178.067234
0
LINE
8
annotation
62
1
39
211
10
147.703745
20
178.067234
11
147.742095
21
178.206591
0
LINE
8
annotation
62
1
39
211
10
147.742095
20
178.206591
11
147.755400
21
178.354765
0
LINE
8
annotation
62
1
39
211
10
147.755400
20
178.354765
11
147.755400
21
178.765295
0
LINE
8
annotation
62
1
39
211
10
147.755400
20
178.765295
11
147.755400
21
178.765295
0
LINE
8
annotation
62
1
39
211
10
147.755400
20
178.765295
11
147.742103
21
178.913541
0
LINE
8
annotation
62
1
39
211
10
147.742103
20
178.913541
11
147.703772
21
179.053091
0
LINE
8
annotation
62
1
39
211
10
147.703772
20
179.053091
11
147.642751
21
179.181610
0
LINE
8
annotation
62
1
39
211
10
147.642751
20
179.181610
11
147.561383
21
179.296762
0
LINE
8
annotation
62
1
39
211
10
147.561383
20
179.296762
11
147.462009
21
179.396214
0
LINE
8
annotation
62
1
39
211
10
147.462009
20
179.396214
11
147.346973
21
179.477630
0
LINE
8
annotation
62
1
39
211
10
147.346973
20
179.477630
11
147.218616
21
179.538675
0
LINE
8
annotation
62
1
39
211
10
147.218616
20
179.538675
11
147.079282
21
179.577014
0
LINE
8
annotation
62
1
39
211
10
147.079282
20
179.577014
11
146.931313
21
179.590313
0
LINE
8
annotation
62
1
39
211
10
146.931313
20
179.590313
11
146.931313
21
179.590313
0
LINE
8
annotation
62
1
39
211
10
146.931313
20
179.590313
11
146.783345
21
179.577006
0
LINE
8
annotation
62
1
39
211
10
146.783345
20
179.577006
11
146.644011
21
179.538648
0
LINE
8
annotation
62
1
39
211
10
146.644011
20
179.538648
11
146.515654
21
179.477578
0
LINE
8
annotation
62
1
39
211
10
146.515654
20
179.477578
11
146.400618
21
179.396137
0
LINE
8
annotation
62
1
39
211
10
146.400618
20
179.396137
11
146.301244
21
179.296666
0
LINE
8
annotation
62
1
39
211
10
146.301244
20
179.296666
11
146.219876
21
179.181506
0
LINE
8
annotation
62
1
39
211
10
146.219876
20
179.181506
11
146.158855
21
179.052997
0
LINE
8
annotation
62
1
39
211
10
146.158855
20
179.052997
11
146.120524
21
178.913480
0
LINE
8
annotation
62
1
39
211
10
146.120524
20
178.913480
11
146.107227
21
178.765295
0
LINE
8
annotation
62
1
39
211
10
146.107227
20
178.765295
11
146.107227
21
178.354765
0
LINE
8
annotation
62
1
39
211
10
147.755400
20
180.415563
11
147.755400
21
180.415563
0
LINE
8
annotation
62
1
39
211
10
147.755400
20
180.415563
11
147.742103
21
180.563124
0
LINE
8
annotation
62
1
39
211
10
147.742103
20
180.563124
11
147.703772
21
180.702155
0
LINE
8
annotation
62
1
39
211
10
147.703772
20
180.702155
11
147.642751
21
180.830300
0
LINE
8
annotation
62
1
39
211
10
147.642751
20
180.830300
11
147.561383
21
180.945198
0
LINE
8
annotation
62
1
39
211
10
147.561383
20
180.945198
11
147.462009
21
181.044494
0
LINE
8
annotation
62
1
39
211
10
147.462009
20
181.044494
11
147.346973
21
181.125828
0
LINE
8
annotation
62
1
39
211
10
147.346973
20
181.125828
11
147.218616
21
181.186844
0
LINE
8
annotation
62
1
39
211
10
147.218616
20
181.186844
11
147.079282
21
181.225182
0
LINE
8
annotation
62
1
39
211
10
147.079282
20
181.225182
11
146.931313
21
181.238486
0
LINE
8
annotation
62
1
39
211
10
146.931313
20
181.238486
11
146.931313
21
181.238486
0
LINE
8
annotation
62
1
39
211
10
146.931313
20
181.238486
11
146.783345
21
181.225182
0
LINE
8
annotation
62
1
39
211
10
146.783345
20
181.225182
11
146.644011
21
181.186844
0
LINE
8
annotation
62
1
39
211
10
146.644011
20
181.186844
11
146.515654
21
181.125828
0
LINE
8
annotation
62
1
39
211
10
146.515654
20
181.125828
11
146.400618
21
181.044494
0
LINE
8
annotation
62
1
39
211
10
146.400618
20
181.044494
11
146.301244
21
180.945198
0
LINE
8
annotation
62
1
39
211
10
146.301244
20
180.945198
11
146.219876
21
180.830300
0
LINE
8
annotation
62
1
39
211
10
146.219876
20
180.830300
11
146.158855
21
180.702155
0
LINE
8
annotation
62
1
39
211
10
146.158855
20
180.702155
11
146.120524
21
180.563124
0
LINE
8
annotation
62
1
39
211
10
146.120524
20
180.563124
11
146.107227
21
180.415563
0
LINE
8
annotation
62
1
39
211
10
146.107227
20
180.415563
11
146.107227
21
180.415563
0
LINE
8
annotation
62
1
39
211
10
146.107227
20
180.415563
11
146.120532
21
180.267309
0
LINE
8
annotation
62
1
39
211
10
146.120532
20
180.267309
11
146.158882
21
180.127738
0
LINE
8
annotation
62
1
39
211
10
146.158882
20
180.127738
11
146.219927
21
179.999188
0
LINE
8
annotation
62
1
39
211
10
146.219927
20
179.999188
11
146.301321
21
179.883999
0
LINE
8
annotation
62
1
39
211
10
146.301321
20
179.883999
11
146.400714
21
179.784509
0
LINE
8
annotation
62
1
39
211
10
146.400714
20
179.784509
11
146.515758
21
179.703056
0
LINE
8
annotation
62
1
39
211
10
146.515758
20
179.703056
11
146.644105
21
179.641980
0
LINE
8
annotation
62
1
39
211
10
146.644105
20
179.641980
11
146.783406
21
179.603619
0
LINE
8
annotation
62
1
39
211
10
146.783406
20
179.603619
11
146.931313
21
179.590313
0
LINE
8
annotation
62
1
39
211
10
146.931313
20
179.590313
11
146.931313
21
179.590313
0
LINE
8
annotation
62
1
39
211
10
146.931313
20
179.590313
11
147.079221
21
179.603619
0
LINE
8
annotation
62
1
39
211
10
147.079221
20
179.603619
11
147.218522
21
179.641980
0
LINE
8
annotation
62
1
39
211
10
147.218522
20
179.641980
11
147.346869
21
179.703056
0
LINE
8
annotation
62
1
39
211
10
147.346869
20
179.703056
11
147.461913
21
179.784509
0
LINE
8
annotation
62
1
39
211
10
147.461913
20
179.784509
11
147.561306
21
179.883999
0
LINE
8
annotation
62
1
39
211
10
147.561306
20
179.883999
11
147.642700
21
179.999188
0
LINE
8
annotation
62
1
39
211
10
147.642700
20
179.999188
11
147.703745
21
180.127738
0
LINE
8
annotation
62
1
39
211
10
147.703745
20
180.127738
11
147.742095
21
180.267309
0
LINE
8
annotation
62
1
39
211
10
147.742095
20
180.267309
11
147.755400
21
180.415563
0
LINE
8
annotation
62
1
39
211
10
121.636012
20
46.510477
11
119.196350
21
42.981730
0
LINE
8
annotation
62
1
39
211
10
119.196350
20
42.981730
11
116.756230
21
46.510477
0
LINE
8
annotation
62
1
39
211
10
119.196350
20
43.265699
11
119.196350
21
39.194703
0
LINE
8
annotation
62
1
39
211
10
128.380061
20
42.852590
11
124.380172
21
42.852590
0
LINE
8
annotation
62
1
39
211
10
133.562737
20
46.510248
11
133.562737
21
46.510248
0
LINE
8
annotation
62
1
39
211
10
133.562737
20
46.510248
11
133.097372
21
46.335764
0
LINE
8
annotation
62
1
39
211
10
133.097372
20
46.335764
11
132.670338
21
46.100668
0
LINE
8
annotation
62
1
39
211
10
132.670338
20
46.100668
11
132.286020
21
45.810849
0
LINE
8
annotation
62
1
39
211
10
132.286020
20
45.810849
11
131.948801
21
45.472199
0
LINE
8
annotation
62
1
39
211
10
131.948801
20
45.472199
11
131.663064
21
45.090607
0
LINE
8
annotation
62
1
39
211
10
131.663064
20
45.090607
11
131.433194
21
44.671963
0
LINE
8
annotation
62
1
39
211
10
131.433194
20
44.671963
11
131.263573
21
44.222158
0
LINE
8
annotation
62
1
39
211
10
131.263573
20
44.222158
11
131.158586
21
43.747082
0
LINE
8
annotation
62
1
39
211
10
131.158586
20
43.747082
11
131.122616
21
43.252625
0
LINE
8
annotation
62
1
39
211
10
131.122616
20
43.252625
11
131.122616
21
40.821221
0
LINE
8
annotation
62
1
39
211
10
131.122616
20
40.821221
11
131.122616
21
40.821221
0
LINE
8
annotation
62
1
39
211
10
131.122616
20
40.821221
11
131.148843
21
40.528996
0
LINE
8
annotation
62
1
39
211
10
131.148843
20
40.528996
11
131.224439
21
40.253913
0
LINE
8
annotation
62
1
39
211
10
131.224439
20
40.253913
11
131.344773
21
40.000575
0
LINE
8
annotation
62
1
39
211
10
131.344773
20
40.000575
11
131.505217
21
39.773584
0
LINE
8
annotation
62
1
39
211
10
131.505217
20
39.773584
11
131.701142
21
39.577544
0
LINE
8
annotation
62
1
39
211
10
131.701142
20
39.577544
11
131.927919
21
39.417055
0
LINE
8
annotation
62
1
39
211
10
131.927919
20
39.417055
11
132.180919
21
39.296722
0
LINE
8
annotation
62
1
39
211
10
132.180919
20
39.296722
11
132.455512
21
39.221147
0
LINE
8
annotation
62
1
39
211
10
132.455512
20
39.221147
11
132.747069
21
39.194933
0
LINE
8
annotation
62
1
39
211
10
132.747069
20
39.194933
11
132.747069
21
39.194933
0
LINE
8
annotation
62
1
39
211
10
132.747069
20
39.194933
11
133.039231
21
39.221147
0
LINE
8
annotation
62
1
39
211
10
133.039231
20
39.221147
11
133.314145
21
39.296722
0
LINE
8
annotation
62
1
39
211
10
133.314145
20
39.296722
11
133.567239
21
39.417055
0
LINE
8
annotation
62
1
39
211
10
133.567239
20
39.417055
11
133.793941
21
39.577544
0
LINE
8
annotation
62
1
39
211
10
133.793941
20
39.577544
11
133.989677
21
39.773584
0
LINE
8
annotation
62
1
39
211
10
133.989677
20
39.773584
11
134.149876
21
40.000575
0
LINE
8
annotation
62
1
39
211
10
134.149876
20
40.000575
11
134.269965
21
40.253913
0
LINE
8
annotation
62
1
39
211
10
134.269965
20
40.253913
11
134.345371
21
40.528996
0
LINE
8
annotation
62
1
39
211
10
134.345371
20
40.528996
11
134.371523
21
40.821221
0
LINE
8
annotation
62
1
39
211
10
134.371523
20
40.821221
11
134.371523
21
41.630466
0
LINE
8
annotation
62
1
39
211
10
134.371523
20
41.630466
11
134.371523
21
41.630466
0
LINE
8
annotation
62
1
39
211
10
134.371523
20
41.630466
11
134.345371
21
41.922549
0
LINE
8
annotation
62
1
39
211
10
134.345371
20
41.922549
11
134.269965
21
42.197252
0
LINE
8
annotation
62
1
39
211
10
134.269965
20
42.197252
11
134.149876
21
42.450041
0
LINE
8
annotation
62
1
39
211
10
134.149876
20
42.450041
11
133.989677
21
42.676380
0
LINE
8
annotation
62
1
39
211
10
133.989677
20
42.676380
11
133.793941
21
42.871736
0
LINE
8
annotation
62
1
39
211
10
133.793941
20
42.871736
11
133.567239
21
43.031573
0
LINE
8
annotation
62
1
39
211
10
133.567239
20
43.031573
11
133.314145
21
43.151356
0
LINE
8
annotation
62
1
39
211
10
133.314145
20
43.151356
11
133.039231
21
43.226552
0
LINE
8
annotation
62
1
39
211
10
133.039231
20
43.226552
11
132.747069
21
43.252625
0
LINE
8
annotation
62
1
39
211
10
132.747069
20
43.252625
11
131.122616
21
43.252625
0
LINE
8
annotation
62
1
39
211
10
130.919158
20
38.280518
11
134.576816
21
38.280518
0
LINE
8
boundary
62
5
39
2
10
160.086112
20
32.923443
11
160.251651
21
31.924696
0
LINE
8
boundary
62
5
39
2
10
160.251651
20
31.924696
11
161.935901
21
30.049610
0
LINE
8
boundary
62
5
39
2
10
161.935901
20
30.049610
11
163.349453
21
30.069237
0
LINE
8
boundary
62
5
39
2
10
163.349453
20
30.069237
11
163.554252
21
28.833604
0
LINE
8
boundary
62
5
39
2
10
163.554252
20
28.833604
11
165.067319
21
27.234279
0
LINE
8
boundary
62
5
39
2
10
165.067319
20
27.234279
11
168.008526
21
29.658298
0
LINE
8
boundary
62
5
39
2
10
168.008526
20
29.658298
11
171.541858
21
31.795580
0
LINE
8
boundary
62
5
39
2
10
171.541858
20
31.795580
11
177.679330
21
37.004745
0
LINE
8
boundary
62
5
39
2
10
177.679330
20
37.004745
11
178.151887
21
37.405827
0
LINE
8
boundary
62
5
39
2
10
178.151887
20
37.405827
11
183.766342
21
53.838300
0
LINE
8
boundary
62
5
39
2
10
183.766342
20
53.838300
11
189.534929
21
51.867357
0
LINE
8
boundary
62
5
39
2
10
189.534929
20
51.867357
11
185.136679
21
38.994490
0
LINE
8
boundary
62
5
39
2
10
185.136679
20
38.994490
11
188.081608
21
38.252829
0
LINE
8
boundary
62
5
39
2
10
188.081608
20
38.252829
11
194.453462
21
39.180194
0
LINE
8
boundary
62
5
39
2
10
194.453462
20
39.180194
11
195.063681
21
53.561744
0
LINE
8
boundary
62
5
39
2
10
195.063681
20
53.561744
11
201.158419
21
53.437721
0
LINE
8
boundary
62
5
39
2
10
201.158419
20
53.437721
11
200.878337
21
39.673916
0
LINE
8
boundary
62
5
39
2
10
200.878337
20
39.673916
11
209.785709
21
38.179070
0
LINE
8
boundary
62
5
39
2
10
209.785709
20
38.179070
11
212.136894
21
38.571320
0
LINE
8
boundary
62
5
39
2
10
212.136894
20
38.571320
11
207.628788
21
52.902258
0
LINE
8
boundary
62
5
39
2
10
207.628788
20
52.902258
11
213.403900
21
54.854001
0
LINE
8
boundary
62
5
39
2
10
213.403900
20
54.854001
11
219.203240
21
37.694030
0
LINE
8
boundary
62
5
39
2
10
219.203240
20
37.694030
11
226.278257
21
31.595901
0
LINE
8
boundary
62
5
39
2
10
226.278257
20
31.595901
11
229.795829
21
29.432742
0
LINE
8
boundary
62
5
39
2
10
229.795829
20
29.432742
11
232.719044
21
26.987500
0
LINE
8
boundary
62
5
39
2
10
232.719044
20
26.987500
11
234.243902
21
28.575602
0
LINE
8
boundary
62
5
39
2
10
234.243902
20
28.575602
11
234.457717
21
29.809701
0
LINE
8
boundary
62
5
39
2
10
234.457717
20
29.809701
11
235.871081
21
29.779757
0
LINE
8
boundary
62
5
39
2
10
235.871081
20
29.779757
11
237.569137
21
31.642235
0
LINE
8
boundary
62
5
39
2
10
237.569137
20
31.642235
11
237.741987
21
32.639893
0
LINE
8
boundary
62
5
39
2
10
237.741987
20
32.639893
11
238.986597
21
32.675037
0
LINE
8
boundary
62
5
39
2
10
238.986597
20
32.675037
11
240.745360
21
34.764116
0
LINE
8
boundary
62
5
39
2
10
240.745360
20
34.764116
11
239.704699
21
36.565004
0
LINE
8
boundary
62
5
39
2
10
239.704699
20
36.565004
11
237.037767
21
41.962999
0
LINE
8
boundary
62
5
39
2
10
237.037767
20
41.962999
11
229.675696
21
54.622559
0
LINE
8
boundary
62
5
39
2
10
229.675696
20
54.622559
11
229.109590
21
55.596015
0
LINE
8
boundary
62
5
39
2
10
229.109590
20
55.596015
11
216.301644
21
67.726417
0
LINE
8
boundary
62
5
39
2
10
216.301644
20
67.726417
11
219.213561
21
70.800979
0
LINE
8
boundary
62
5
39
2
10
219.213561
20
70.800979
11
210.869805
21
75.585743
0
LINE
8
boundary
62
5
39
2
10
210.869805
20
75.585743
11
206.187396
21
78.198964
0
LINE
8
boundary
62
5
39
2
10
206.187396
20
78.198964
11
205.140281
21
78.779330
0
LINE
8
boundary
62
5
39
2
10
205.140281
20
78.779330
11
207.817356
21
81.366206
0
LINE
8
boundary
62
5
39
2
10
207.817356
20
81.366206
11
207.015795
21
90.113469
0
LINE
8
boundary
62
5
39
2
10
207.015795
20
90.113469
11
203.193692
21
132.203818
0
LINE
8
boundary
62
5
39
2
10
203.193692
20
132.203818
11
202.580990
21
132.038156
0
LINE
8
boundary
62
5
39
2
10
202.580990
20
132.038156
11
202.240062
21
111.114121
0
LINE
8
boundary
62
5
39
2
10
202.240062
20
111.114121
11
196.144871
21
111.213433
0
LINE
8
boundary
62
5
39
2
10
196.144871
20
111.213433
11
196.484582
21
132.062772
0
LINE
8
boundary
62
5
39
2
10
196.484582
20
132.062772
11
195.360106
21
132.232402
0
LINE
8
boundary
62
5
39
2
10
195.360106
20
132.232402
11
191.230847
21
90.171083
0
LINE
8
boundary
62
5
39
2
10
191.230847
20
90.171083
11
190.365453
21
81.429904
0
LINE
8
boundary
62
5
39
2
10
190.365453
20
81.429904
11
193.023575
21
78.823555
0
LINE
8
boundary
62
5
39
2
10
193.023575
20
78.823555
11
191.972249
21
78.250848
0
LINE
8
boundary
62
5
39
2
10
191.972249
20
78.250848
11
187.270889
21
75.671877
0
LINE
8
boundary
62
5
39
2
10
187.270889
20
75.671877
11
178.398225
21
70.669518
0
LINE
8
boundary
62
5
39
2
10
178.398225
20
70.669518
11
181.486845
21
67.475384
0
LINE
8
boundary
62
5
39
2
10
181.486845
20
67.475384
11
168.160020
21
54.588792
0
LINE
8
boundary
62
5
39
2
10
168.160020
20
54.588792
11
160.858630
21
42.241871
0
LINE
8
boundary
62
5
39
2
10
160.858630
20
42.241871
11
158.151948
21
36.862192
0
LINE
8
boundary
62
5
39
2
10
158.151948
20
36.862192
11
157.098772
21
35.069974
0
LINE
8
boundary
62
5
39
2
10
157.098772
20
35.069974
11
158.841973
21
32.967663
0
LINE
8
boundary
62
5
39
2
10
158.841973
20
32.967663
11
160.086112
21
32.923443
0
LINE
8
annotation
62
1
39
211
10
203.520024
20
100.721032
11
194.526997
21
100.867561
0
LINE
8
annotation
62
1
39
211
10
194.526997
20
100.867561
11
196.494251
21
98.835711
0
LINE
8
annotation
62
1
39
211
10
182.646312
20
71.828387
11
183.805445
21
72.949230
0
LINE
8
annotation
62
1
39
211
10
183.805445
20
72.949230
11
184.401705
21
70.189237
0
LINE
8
annotation
62
1
39
211
10
184.401705
20
70.189237
11
184.401705
21
70.189237
0
LINE
8
annotation
62
1
39
211
10
184.401705
20
70.189237
11
184.401957
21
70.186415
0
LINE
8
annotation
62
1
39
211
10
184.401957
20
70.186415
11
184.402274
21
70.183629
0
LINE
8
annotation
62
1
39
211
10
184.402274
20
70.183629
11
184.402662
21
70.180860
0
LINE
8
annotation
62
1
39
211
10
184.402662
20
70.180860
11
184.403125
21
70.178086
0
LINE
8
annotation
62
1
39
211
10
184.403125
20
70.178086
11
184.403669
21
70.175285
0
LINE
8
annotation
62
1
39
211
10
184.403669
20
70.175285
11
184.404298
21
70.172436
0
LINE
8
annotation
62
1
39
211
10
184.404298
20
70.172436
11
184.405017
21
70.169518
0
LINE
8
annotation
62
1
39
211
10
184.405017
20
70.169518
11
184.405831
21
70.166510
0
LINE
8
annotation
62
1
39
211
10
184.405831
20
70.166510
11
184.406746
21
70.163390
0
LINE
8
annotation
62
1
39
211
10
184.406746
20
70.163390
11
184.406746
21
70.163390
0
LINE
8
annotation
62
1
39
211
10
184.406746
20
70.163390
11
184.454338
21
70.025673
0
LINE
8
annotation
62
1
39
211
10
184.454338
20
70.025673
11
184.523680
21
69.902263
0
LINE
8
annotation
62
1
39
211
10
184.523680
20
69.902263
11
184.611986
21
69.794773
0
LINE
8
annotation
62
1
39
211
10
184.611986
20
69.794773
11
184.716474
21
69.704814
0
LINE
8
annotation
62
1
39
211
10
184.716474
20
69.704814
11
184.834359
21
69.633998
0
LINE
8
annotation
62
1
39
211
10
184.834359
20
69.633998
11
184.962858
21
69.583937
0
LINE
8
annotation
62
1
39
211
10
184.962858
20
69.583937
11
185.099187
21
69.556244
0
LINE
8
annotation
62
1
39
211
10
185.099187
20
69.556244
11
185.240562
21
69.552529
0
LINE
8
annotation
62
1
39
211
10
185.240562
20
69.552529
11
185.384200
21
69.574404
0
LINE
8
annotation
62
1
39
211
10
185.384200
20
69.574404
11
185.384200
21
69.574404
0
LINE
8
annotation
62
1
39
211
10
185.384200
20
69.574404
11
185.521574
21
69.622881
0
LINE
8
annotation
62
1
39
211
10
185.521574
20
69.622881
11
185.644749
21
69.692766
0
LINE
8
annotation
62
1
39
211
10
185.644749
20
69.692766
11
185.752077
21
69.781357
0
LINE
8
annotation
62
1
39
211
10
185.752077
20
69.781357
11
185.841905
21
69.885949
0
LINE
8
annotation
62
1
39
211
10
185.841905
20
69.885949
11
185.912585
21
70.003840
0
LINE
8
annotation
62
1
39
211
10
185.912585
20
70.003840
11
185.962466
21
70.132325
0
LINE
8
annotation
62
1
39
211
10
185.962466
20
70.132325
11
185.989898
21
70.268702
0
LINE
8
annotation
62
1
39
211
10
185.989898
20
70.268702
11
185.993229
21
70.410266
0
LINE
8
annotation
62
1
39
211
10
185.993229
20
70.410266
11
185.970811
21
70.554313
0
LINE
8
annotation
62
1
39
211
10
185.970811
20
70.554313
11
185.905746
21
70.773904
0
LINE
8
annotation
62
1
39
211
10
186.720838
20
68.769426
11
185.991386
21
66.634453
0
LINE
8
annotation
62
1
39
211
10
185.991386
20
66.634453
11
185.991386
21
66.634453
0
LINE
8
annotation
62
1
39
211
10
185.991386
20
66.634453
11
185.894638
21
66.238704
0
LINE
8
annotation
62
1
39
211
10
185.894638
20
66.238704
11
185.870463
21
65.843474
0
LINE
8
annotation
62
1
39
211
10
185.870463
20
65.843474
11
185.914821
21
65.456853
0
LINE
8
annotation
62
1
39
211
10
185.914821
20
65.456853
11
186.023672
21
65.086933
0
LINE
8
annotation
62
1
39
211
10
186.023672
20
65.086933
11
186.192975
21
64.741806
0
LINE
8
annotation
62
1
39
211
10
186.192975
20
64.741806
11
186.418688
21
64.429564
0
LINE
8
annotation
62
1
39
211
10
186.418688
20
64.429564
11
186.696773
21
64.158297
0
LINE
8
annotation
62
1
39
211
10
186.696773
20
64.158297
11
187.023188
21
63.936098
0
LINE
8
annotation
62
1
39
211
10
187.023188
20
63.936098
11
187.393892
21
63.771058
0
LINE
8
annotation
62
1
39
211
10
187.393892
20
63.771058
11
188.462886
21
63.405816
0
LINE
8
annotation
62
1
39
211
10
188.462886
20
63.405816
11
188.462886
21
63.405816
0
LINE
8
annotation
62
1
39
211
10
188.462886
20
63.405816
11
188.856917
21
63.309571
0
LINE
8
annotation
62
1
39
211
10
188.856917
20
63.309571
11
189.250970
21
63.285609
0
LINE
8
annotation
62
1
39
211
10
189.250970
20
63.285609
11
189.636880
21
63.330010
0
LINE
8
annotation
62
1
39
211
10
189.636880
20
63.330010
11
190.006486
21
63.438850
0
LINE
8
annotation
62
1
39
211
10
190.006486
20
63.438850
11
190.351627
21
63.608208
0
LINE
8
annotation
62
1
39
211
10
190.351627
20
63.608208
11
190.664141
21
63.834161
0
LINE
8
annotation
62
1
39
211
10
190.664141
20
63.834161
11
190.935865
21
64.112787
0
LINE
8
annotation
62
1
39
211
10
190.935865
20
64.112787
11
191.158637
21
64.440163
0
LINE
8
annotation
62
1
39
211
10
191.158637
20
64.440163
11
191.324296
21
64.812367
0
LINE
8
annotation
62
1
39
211
10
191.324296
20
64.812367
11
191.689538
21
65.881361
0
LINE
8
annotation
62
1
39
211
10
191.689538
20
65.881361
11
191.324296
21
64.812367
0
LINE
8
annotation
62
1
39
211
10
191.324296
20
64.812367
11
191.324296
21
64.812367
0
LINE
8
annotation
62
1
39
211
10
191.324296
20
64.812367
11
191.227576
21
64.416608
0
LINE
8
annotation
62
1
39
211
10
191.227576
20
64.416608
11
191.203509
21
64.021341
0
LINE
8
annotation
62
1
39
211
10
191.203509
20
64.021341
11
191.248089
21
63.634644
0
LINE
8
annotation
62
1
39
211
10
191.248089
20
63.634644
11
191.357310
21
63.264598
0
LINE
8
annotation
62
1
39
211
10
191.357310
20
63.264598
11
191.527167
21
62.919282
0
LINE
8
annotation
62
1
39
211
10
191.527167
20
62.919282
11
191.753653
21
62.606776
0
LINE
8
annotation
62
1
39
211
10
191.753653
20
62.606776
11
192.032763
21
62.335159
0
LINE
8
annotation
62
1
39
211
10
192.032763
20
62.335159
11
192.360491
21
62.112511
0
LINE
8
annotation
62
1
39
211
10
192.360491
20
62.112511
11
192.732832
21
61.946911
0
LINE
8
annotation
62
1
39
211
10
192.732832
20
61.946911
11
192.732832
21
61.946911
0
LINE
8
annotation
62
1
39
211
10
192.732832
20
61.946911
11
193.126863
21
61.850666
0
LINE
8
annotation
62
1
39
211
10
193.126863
20
61.850666
11
193.520915
21
61.826704
0
LINE
8
annotation
62
1
39
211
10
193.520915
20
61.826704
11
193.906826
21
61.871105
0
LINE
8
annotation
62
1
39
211
10
193.906826
20
61.871105
11
194.276432
21
61.979945
0
LINE
8
annotation
62
1
39
211
10
194.276432
20
61.979945
11
194.621573
21
62.149303
0
LINE
8
annotation
62
1
39
211
10
194.621573
20
62.149303
11
194.934087
21
62.375256
0
LINE
8
annotation
62
1
39
211
10
194.934087
20
62.375256
11
195.205811
21
62.653882
0
LINE
8
annotation
62
1
39
211
10
195.205811
20
62.653882
11
195.428583
21
62.981258
0
LINE
8
annotation
62
1
39
211
10
195.428583
20
62.981258
11
195.594242
21
63.353462
0
LINE
8
annotation
62
1
39
211
10
195.594242
20
63.353462
11
196.323695
21
65.488435
0
LINE
8
annotation
62
1
39
211
10
195.493937
20
63.562670
11
195.608710
21
69.202832
0
LINE
8
annotation
62
1
39
211
10
195.608710
20
69.202832
11
203.462540
21
66.789582
0
LINE
8
annotation
62
1
39
211
10
193.270110
20
65.299271
11
197.781475
21
65.207468
0
LINE
8
annotation
62
1
39
211
10
200.874206
20
66.542071
11
201.596552
21
64.404683
0
LINE
8
annotation
62
1
39
211
10
201.596552
20
64.404683
11
201.596552
21
64.404683
0
LINE
8
annotation
62
1
39
211
10
201.596552
20
64.404683
11
201.760691
21
64.032721
0
LINE
8
annotation
62
1
39
211
10
201.760691
20
64.032721
11
201.982233
21
63.705028
0
LINE
8
annotation
62
1
39
211
10
201.982233
20
63.705028
11
202.253064
21
63.425651
0
LINE
8
annotation
62
1
39
211
10
202.253064
20
63.425651
11
202.565068
21
63.198631
0
LINE
8
annotation
62
1
39
211
10
202.565068
20
63.198631
11
202.910133
21
63.028015
0
LINE
8
annotation
62
1
39
211
10
202.910133
20
63.028015
11
203.280143
21
62.917845
0
LINE
8
annotation
62
1
39
211
10
203.280143
20
62.917845
11
203.666984
21
62.872166
0
LINE
8
annotation
62
1
39
211
10
203.666984
20
62.872166
11
204.062541
21
62.895022
0
LINE
8
annotation
62
1
39
211
10
204.062541
20
62.895022
11
204.458701
21
62.990457
0
LINE
8
annotation
62
1
39
211
10
204.458701
20
62.990457
11
205.523471
21
63.350305
0
LINE
8
annotation
62
1
39
211
10
205.523471
20
63.350305
11
205.523471
21
63.350305
0
LINE
8
annotation
62
1
39
211
10
205.523471
20
63.350305
11
205.896126
21
63.514674
0
LINE
8
annotation
62
1
39
211
10
205.896126
20
63.514674
11
206.223971
21
63.736242
0
LINE
8
annotation
62
1
39
211
10
206.223971
20
63.736242
11
206.503093
21
64.006916
0
LINE
8
annotation
62
1
39
211
10
206.503093
20
64.006916
11
206.729578
21
64.318603
0
LINE
8
annotation
62
1
39
211
10
206.729578
20
64.318603
11
206.899513
21
64.663213
0
LINE
8
annotation
62
1
39
211
10
206.899513
20
64.663213
11
207.008986
21
65.032651
0
LINE
8
annotation
62
1
39
211
10
207.008986
20
65.032651
11
207.054082
21
65.418826
0
LINE
8
annotation
62
1
39
211
10
207.054082
20
65.418826
11
207.030890
21
65.813646
0
LINE
8
annotation
62
1
39
211
10
207.030890
20
65.813646
11
206.935495
21
66.209019
0
LINE
8
annotation
62
1
39
211
10
206.935495
20
66.209019
11
206.213148
21
68.346406
0
LINE
8
annotation
62
1
39
211
10
206.213148
20
68.346406
11
210.499393
21
69.794975
0
LINE
8
annotation
62
1
39
211
10
210.499393
20
69.794975
11
211.944085
21
65.520199
0
LINE
8
annotation
62
1
39
211
10
217.771059
20
71.294800
11
217.771059
21
71.294800
0
LINE
8
annotation
62
1
39
211
10
217.771059
20
71.294800
11
217.701803
21
71.324041
0
LINE
8
annotation
62
1
39
211
10
217.701803
20
71.324041
11
217.630452
21
71.342639
0
LINE
8
annotation
62
1
39
211
10
217.630452
20
71.342639
11
217.558101
21
71.350785
0
LINE
8
annotation
62
1
39
211
10
217.558101
20
71.350785
11
217.485843
21
71.348668
0
LINE
8
annotation
62
1
39
211
10
217.485843
20
71.348668
11
217.414772
21
71.336481
0
LINE
8
annotation
62
1
39
211
10
217.414772
20
71.336481
11
217.345983
21
71.314414
0
LINE
8
annotation
62
1
39
211
10
217.345983
20
71.314414
11
217.280570
21
71.282659
0
LINE
8
annotation
62
1
39
211
10
217.280570
20
71.282659
11
217.219626
21
71.241405
0
LINE
8
annotation
62
1
39
211
10
217.219626
20
71.241405
11
217.164246
21
71.190844
0
LINE
8
annotation
62
1
39
211
10
217.164246
20
71.190844
11
216.911350
21
70.923822
0
LINE
8
annotation
62
1
39
211
10
216.911350
20
70.923822
11
216.911350
21
70.923822
0
LINE
8
annotation
62
1
39
211
10
216.911350
20
70.923822
11
216.883835
21
70.889001
0
LINE
8
annotation
62
1
39
211
10
216.883835
20
70.889001
11
216.863525
21
70.850928
0
LINE
8
annotation
62
1
39
211
10
216.863525
20
70.850928
11
216.850390
21
70.810590
0
LINE
8
annotation
62
1
39
211
10
216.850390
20
70.810590
11
216.844401
21
70.768973
0
LINE
8
annotation
62
1
39
211
10
216.844401
20
70.768973
11
216.845527
21
70.727065
0
LINE
8
annotation
62
1
39
211
10
216.845527
20
70.727065
11
216.853739
21
70.685852
0
LINE
8
annotation
62
1
39
211
10
216.853739
20
70.685852
11
216.869008
21
70.646322
0
LINE
8
annotation
62
1
39
211
10
216.869008
20
70.646322
11
216.891304
21
70.609461
0
LINE
8
annotation
62
1
39
211
10
216.891304
20
70.609461
11
216.920597
21
70.576256
0
LINE
8
annotation
62
1
39
211
10
216.920597
20
70.576256
11
216.920597
21
70.576256
0
LINE
8
annotation
62
1
39
211
10
216.920597
20
70.576256
11
216.955409
21
70.548747
0
LINE
8
annotation
62
1
39
211
10
216.955409
20
70.548747
11
216.993461
21
70.528452
0
LINE
8
annotation
62
1
39
211
10
216.993461
20
70.528452
11
217.033773
21
70.515342
0
LINE
8
annotation
62
1
39
211
10
217.033773
20
70.515342
11
217.075362
21
70.509388
0
LINE
8
annotation
62
1
39
211
10
217.075362
20
70.509388
11
217.117249
21
70.510558
0
LINE
8
annotation
62
1
39
211
10
217.117249
20
70.510558
11
217.158453
21
70.518824
0
LINE
8
annotation
62
1
39
211
10
217.158453
20
70.518824
11
217.197991
21
70.534156
0
LINE
8
annotation
62
1
39
211
10
217.197991
20
70.534156
11
217.234885
21
70.556523
0
LINE
8
annotation
62
1
39
211
10
217.234885
20
70.556523
11
217.268152
21
70.585895
0
LINE
8
annotation
62
1
39
211
10
217.268152
20
70.585895
11
217.352323
21
70.674768
0
LINE
8
annotation
62
1
39
211
10
217.352323
20
70.674768
11
217.352323
21
70.674768
0
LINE
8
annotation
62
1
39
211
10
217.352323
20
70.674768
11
217.379831
21
70.709565
0
LINE
8
annotation
62
1
39
211
10
217.379831
20
70.709565
11
217.400123
21
70.747577
0
LINE
8
annotation
62
1
39
211
10
217.400123
20
70.747577
11
217.413227
21
70.787830
0
LINE
8
annotation
62
1
39
211
10
217.413227
20
70.787830
11
217.419176
21
70.829349
0
LINE
8
annotation
62
1
39
211
10
217.419176
20
70.829349
11
217.417999
21
70.871163
0
LINE
8
annotation
62
1
39
211
10
217.417999
20
70.871163
11
217.409728
21
70.912296
0
LINE
8
annotation
62
1
39
211
10
217.409728
20
70.912296
11
217.394391
21
70.951776
0
LINE
8
annotation
62
1
39
211
10
217.394391
20
70.951776
11
217.372021
21
70.988629
0
LINE
8
annotation
62
1
39
211
10
217.372021
20
70.988629
11
217.342647
21
71.021880
0
LINE
8
annotation
62
1
39
211
10
217.342647
20
71.021880
11
217.164246
21
71.190844
0
LINE
8
annotation
62
1
39
211
10
216.624741
20
70.665959
11
217.026433
21
70.285517
0
LINE
8
annotation
62
1
39
211
10
193.621749
20
57.744755
11
189.411833
21
57.744755
0
LINE
8
annotation
62
1
39
211
10
189.411833
20
57.744755
11
193.621749
21
65.326788
0
LINE
8
annotation
62
1
39
211
10
193.621749
20
65.326788
11
189.411833
21
65.326788
0
LINE
8
annotation
62
1
39
211
10
200.611451
20
61.535772
11
196.465725
21
61.535772
0
LINE
8
annotation
62
1
39
211
10
205.139821
20
57.744755
11
205.139821
21
65.326788
0
LINE
8
annotation
62
1
39
211
10
205.139821
20
65.326788
11
203.454238
21
63.640730
0
LINE
8
boundary
62
5
39
2
10
245.497879
20
48.473327
11
254.346646
21
37.916612
0
LINE
8
boundary
62
5
39
2
10
254.346646
20
37.916612
11
257.223496
21
34.409661
0
LINE
8
boundary
62
5
39
2
10
257.223496
20
34.409661
11
259.752177
21
33.728065
0
LINE
8
boundary
62
5
39
2
10
259.752177
20
33.728065
11
267.825884
21
56.376309
0
LINE
8
boundary
62
5
39
2
10
267.825884
20
56.376309
11
273.594471
21
54.405365
0
LINE
8
boundary
62
5
39
2
10
273.594471
20
54.405365
11
266.031228
21
32.269149
0
LINE
8
boundary
62
5
39
2
10
266.031228
20
32.269149
11
280.375267
21
28.319295
0
LINE
8
boundary
62
5
39
2
10
280.375267
20
28.319295
11
281.180198
21
52.269353
0
LINE
8
boundary
62
5
39
2
10
281.180198
20
52.269353
11
287.274936
21
52.145329
0
LINE
8
boundary
62
5
39
2
10
287.274936
20
52.145329
11
286.777275
21
27.689316
0
LINE
8
boundary
62
5
39
2
10
286.777275
20
27.689316
11
289.221750
21
28.084567
0
LINE
8
boundary
62
5
39
2
10
289.221750
20
28.084567
11
303.862456
21
31.787374
0
LINE
8
boundary
62
5
39
2
10
303.862456
20
31.787374
11
296.237924
21
55.339667
0
LINE
8
boundary
62
5
39
2
10
296.237924
20
55.339667
11
302.013036
21
57.291409
0
LINE
8
boundary
62
5
39
2
10
302.013036
20
57.291409
11
310.042038
21
33.533976
0
LINE
8
boundary
62
5
39
2
10
310.042038
20
33.533976
11
313.208091
21
34.202224
0
LINE
8
boundary
62
5
39
2
10
313.208091
20
34.202224
11
316.111717
21
37.689250
0
LINE
8
boundary
62
5
39
2
10
316.111717
20
37.689250
11
325.035834
21
48.183015
0
LINE
8
boundary
62
5
39
2
10
325.035834
20
48.183015
11
326.627258
21
50.082134
0
LINE
8
boundary
62
5
39
2
10
326.627258
20
50.082134
11
326.186237
21
52.384632
0
LINE
8
boundary
62
5
39
2
10
326.186237
20
52.384632
11
325.795120
21
54.532932
0
LINE
8
boundary
62
5
39
2
10
325.795120
20
54.532932
11
325.698918
21
55.061342
0
LINE
8
boundary
62
5
39
2
10
325.698918
20
55.061342
11
307.818103
21
71.996256
0
LINE
8
boundary
62
5
39
2
10
307.818103
20
71.996256
11
312.009968
21
76.422257
0
LINE
8
boundary
62
5
39
2
10
312.009968
20
76.422257
11
323.408225
21
65.626972
0
LINE
8
boundary
62
5
39
2
10
323.408225
20
65.626972
11
319.949689
21
86.640314
0
LINE
8
boundary
62
5
39
2
10
319.949689
20
86.640314
11
316.858360
21
88.307738
0
LINE
8
boundary
62
5
39
2
10
316.858360
20
88.307738
11
288.614338
21
103.545366
0
LINE
8
boundary
62
5
39
2
10
288.614338
20
103.545366
11
288.273771
21
102.132247
0
LINE
8
boundary
62
5
39
2
10
288.273771
20
102.132247
11
282.178580
21
102.231559
0
LINE
8
boundary
62
5
39
2
10
282.178580
20
102.231559
11
282.193548
21
103.150246
0
LINE
8
boundary
62
5
39
2
10
282.193548
20
103.150246
11
253.968045
21
88.537284
0
LINE
8
boundary
62
5
39
2
10
253.968045
20
88.537284
11
250.876142
21
86.890246
0
LINE
8
boundary
62
5
39
2
10
250.876142
20
86.890246
11
246.768821
21
65.226729
0
LINE
8
boundary
62
5
39
2
10
246.768821
20
65.226729
11
258.250172
21
75.887153
0
LINE
8
boundary
62
5
39
2
10
258.250172
20
75.887153
11
262.487706
21
71.504856
0
LINE
8
boundary
62
5
39
2
10
262.487706
20
71.504856
11
244.697616
21
54.302435
0
LINE
8
boundary
62
5
39
2
10
244.697616
20
54.302435
11
244.389766
21
52.678722
0
LINE
8
boundary
62
5
39
2
10
244.389766
20
52.678722
11
243.920360
21
50.384013
0
LINE
8
boundary
62
5
39
2
10
243.920360
20
50.384013
11
245.497879
21
48.473327
0
LINE
8
annotation
62
1
39
211
10
289.321263
20
92.293040
11
280.811096
21
92.431701
0
LINE
8
annotation
62
1
39
211
10
280.811096
20
92.431701
11
282.672723
21
90.508947
0
LINE
8
annotation
62
1
39
211
10
264.437700
20
84.697016
11
267.681505
21
87.833666
0
LINE
8
annotation
62
1
39
211
10
267.681505
20
87.833666
11
269.350123
21
80.109898
0
LINE
8
annotation
62
1
39
211
10
269.350123
20
80.109898
11
269.350123
21
80.109898
0
LINE
8
annotation
62
1
39
211
10
269.350123
20
80.109898
11
269.350827
21
80.102000
0
LINE
8
annotation
62
1
39
211
10
269.350827
20
80.102000
11
269.351715
21
80.094205
0
LINE
8
annotation
62
1
39
211
10
269.351715
20
80.094205
11
269.352800
21
80.086456
0
LINE
8
annotation
62
1
39
211
10
269.352800
20
80.086456
11
269.354096
21
80.078692
0
LINE
8
annotation
62
1
39
211
10
269.354096
20
80.078692
11
269.355617
21
80.070853
0
LINE
8
annotation
62
1
39
211
10
269.355617
20
80.070853
11
269.357377
21
80.062881
0
LINE
8
annotation
62
1
39
211
10
269.357377
20
80.062881
11
269.359390
21
80.054716
0
LINE
8
annotation
62
1
39
211
10
269.359390
20
80.054716
11
269.361669
21
80.046297
0
LINE
8
annotation
62
1
39
211
10
269.361669
20
80.046297
11
269.364228
21
80.037566
0
LINE
8
annotation
62
1
39
211
10
269.364228
20
80.037566
11
269.364228
21
80.037566
0
LINE
8
annotation
62
1
39
211
10
269.364228
20
80.037566
11
269.497415
21
79.652167
0
LINE
8
annotation
62
1
39
211
10
269.497415
20
79.652167
11
269.691465
21
79.306808
0
LINE
8
annotation
62
1
39
211
10
269.691465
20
79.306808
11
269.938588
21
79.006000
0
LINE
8
annotation
62
1
39
211
10
269.938588
20
79.006000
11
270.230993
21
78.754252
0
LINE
8
annotation
62
1
39
211
10
270.230993
20
78.754252
11
270.560892
21
78.556076
0
LINE
8
annotation
62
1
39
211
10
270.560892
20
78.556076
11
270.920493
21
78.415983
0
LINE
8
annotation
62
1
39
211
10
270.920493
20
78.415983
11
271.302006
21
78.338483
0
LINE
8
annotation
62
1
39
211
10
271.302006
20
78.338483
11
271.697640
21
78.328087
0
LINE
8
annotation
62
1
39
211
10
271.697640
20
78.328087
11
272.099607
21
78.389305
0
LINE
8
annotation
62
1
39
211
10
272.099607
20
78.389305
11
272.099607
21
78.389305
0
LINE
8
annotation
62
1
39
211
10
272.099607
20
78.389305
11
272.484044
21
78.524965
0
LINE
8
annotation
62
1
39
211
10
272.484044
20
78.524965
11
272.828748
21
78.720537
0
LINE
8
annotation
62
1
39
211
10
272.828748
20
78.720537
11
273.129101
21
78.968456
0
LINE
8
annotation
62
1
39
211
10
273.129101
20
78.968456
11
273.380484
21
79.261155
0
LINE
8
annotation
62
1
39
211
10
273.380484
20
79.261155
11
273.578280
21
79.591069
0
LINE
8
annotation
62
1
39
211
10
273.578280
20
79.591069
11
273.717870
21
79.950632
0
LINE
8
annotation
62
1
39
211
10
273.717870
20
79.950632
11
273.794637
21
80.332278
0
LINE
8
annotation
62
1
39
211
10
273.794637
20
80.332278
11
273.803961
21
80.728441
0
LINE
8
annotation
62
1
39
211
10
273.803961
20
80.728441
11
273.741224
21
81.131555
0
LINE
8
annotation
62
1
39
211
10
273.741224
20
81.131555
11
273.559140
21
81.746073
0
LINE
8
annotation
62
1
39
211
10
270.780380
20
71.307435
11
270.050928
21
69.172462
0
LINE
8
annotation
62
1
39
211
10
270.050928
20
69.172462
11
270.050928
21
69.172462
0
LINE
8
annotation
62
1
39
211
10
270.050928
20
69.172462
11
269.954179
21
68.776713
0
LINE
8
annotation
62
1
39
211
10
269.954179
20
68.776713
11
269.930005
21
68.381482
0
LINE
8
annotation
62
1
39
211
10
269.930005
20
68.381482
11
269.974363
21
67.994861
0
LINE
8
annotation
62
1
39
211
10
269.974363
20
67.994861
11
270.083214
21
67.624942
0
LINE
8
annotation
62
1
39
211
10
270.083214
20
67.624942
11
270.252516
21
67.279815
0
LINE
8
annotation
62
1
39
211
10
270.252516
20
67.279815
11
270.478230
21
66.967572
0
LINE
8
annotation
62
1
39
211
10
270.478230
20
66.967572
11
270.756315
21
66.696306
0
LINE
8
annotation
62
1
39
211
10
270.756315
20
66.696306
11
271.082729
21
66.474107
0
LINE
8
annotation
62
1
39
211
10
271.082729
20
66.474107
11
271.453433
21
66.309066
0
LINE
8
annotation
62
1
39
211
10
271.453433
20
66.309066
11
272.522427
21
65.943825
0
LINE
8
annotation
62
1
39
211
10
272.522427
20
65.943825
11
272.522427
21
65.943825
0
LINE
8
annotation
62
1
39
211
10
272.522427
20
65.943825
11
272.916459
21
65.847579
0
LINE
8
annotation
62
1
39
211
10
272.916459
20
65.847579
11
273.310511
21
65.823618
0
LINE
8
annotation
62
1
39
211
10
273.310511
20
65.823618
11
273.696421
21
65.868019
0
LINE
8
annotation
62
1
39
211
10
273.696421
20
65.868019
11
274.066028
21
65.976859
0
LINE
8
annotation
62
1
39
211
10
274.066028
20
65.976859
11
274.411169
21
66.146217
0
LINE
8
annotation
62
1
39
211
10
274.411169
20
66.146217
11
274.723682
21
66.372169
0
LINE
8
annotation
62
1
39
211
10
274.723682
20
66.372169
11
274.995406
21
66.650795
0
LINE
8
annotation
62
1
39
211
10
274.995406
20
66.650795
11
275.218179
21
66.978171
0
LINE
8
annotation
62
1
39
211
10
275.218179
20
66.978171
11
275.383838
21
67.350375
0
LINE
8
annotation
62
1
39
211
10
275.383838
20
67.350375
11
275.749079
21
68.419369
0
LINE
8
annotation
62
1
39
211
10
275.749079
20
68.419369
11
275.383838
21
67.350375
0
LINE
8
annotation
62
1
39
211
10
275.383838
20
67.350375
11
275.383838
21
67.350375
0
LINE
8
annotation
62
1
39
211
10
275.383838
20
67.350375
11
275.287118
21
66.954617
0
LINE
8
annotation
62
1
39
211
10
275.287118
20
66.954617
11
275.263051
21
66.559349
0
LINE
8
annotation
62
1
39
211
10
275.263051
20
66.559349
11
275.307631
21
66.172653
0
LINE
8
annotation
62
1
39
211
10
275.307631
20
66.172653
11
275.416852
21
65.802607
0
LINE
8
annotation
62
1
39
211
10
275.416852
20
65.802607
11
275.586709
21
65.457291
0
LINE
8
annotation
62
1
39
211
10
275.586709
20
65.457291
11
275.813195
21
65.144784
0
LINE
8
annotation
62
1
39
211
10
275.813195
20
65.144784
11
276.092305
21
64.873167
0
LINE
8
annotation
62
1
39
211
10
276.092305
20
64.873167
11
276.420033
21
64.650519
0
LINE
8
annotation
62
1
39
211
10
276.420033
20
64.650519
11
276.792373
21
64.484920
0
LINE
8
annotation
62
1
39
211
10
276.792373
20
64.484920
11
276.792373
21
64.484920
0
LINE
8
annotation
62
1
39
211
10
276.792373
20
64.484920
11
277.186405
21
64.388674
0
LINE
8
annotation
62
1
39
211
10
277.186405
20
64.388674
11
277.580457
21
64.364713
0
LINE
8
annotation
62
1
39
211
10
277.580457
20
64.364713
11
277.966367
21
64.409114
0
LINE
8
annotation
62
1
39
211
10
277.966367
20
64.409114
11
278.335974
21
64.517954
0
LINE
8
annotation
62
1
39
211
10
278.335974
20
64.517954
11
278.681115
21
64.687312
0
LINE
8
annotation
62
1
39
211
10
278.681115
20
64.687312
11
278.993628
21
64.913264
0
LINE
8
annotation
62
1
39
211
10
278.993628
20
64.913264
11
279.265352
21
65.191890
0
LINE
8
annotation
62
1
39
211
10
279.265352
20
65.191890
11
279.488125
21
65.519266
0
LINE
8
annotation
62
1
39
211
10
279.488125
20
65.519266
11
279.653784
21
65.891470
0
LINE
8
annotation
62
1
39
211
10
279.653784
20
65.891470
11
280.383237
21
68.026443
0
LINE
8
annotation
62
1
39
211
10
281.610454
20
62.270278
11
281.725227
21
67.910440
0
LINE
8
annotation
62
1
39
211
10
281.725227
20
67.910440
11
289.579057
21
65.497191
0
LINE
8
annotation
62
1
39
211
10
279.386627
20
64.006879
11
283.897992
21
63.915076
0
LINE
8
annotation
62
1
39
211
10
289.483342
20
68.979480
11
290.205688
21
66.842092
0
LINE
8
annotation
62
1
39
211
10
290.205688
20
66.842092
11
290.205688
21
66.842092
0
LINE
8
annotation
62
1
39
211
10
290.205688
20
66.842092
11
290.369827
21
66.470129
0
LINE
8
annotation
62
1
39
211
10
290.369827
20
66.470129
11
290.591369
21
66.142437
0
LINE
8
annotation
62
1
39
211
10
290.591369
20
66.142437
11
290.862200
21
65.863059
0
LINE
8
annotation
62
1
39
211
10
290.862200
20
65.863059
11
291.174205
21
65.636040
0
LINE
8
annotation
62
1
39
211
10
291.174205
20
65.636040
11
291.519269
21
65.465423
0
LINE
8
annotation
62
1
39
211
10
291.519269
20
65.465423
11
291.889279
21
65.355254
0
LINE
8
annotation
62
1
39
211
10
291.889279
20
65.355254
11
292.276120
21
65.309575
0
LINE
8
annotation
62
1
39
211
10
292.276120
20
65.309575
11
292.671677
21
65.332431
0
LINE
8
annotation
62
1
39
211
10
292.671677
20
65.332431
11
293.067837
21
65.427866
0
LINE
8
annotation
62
1
39
211
10
293.067837
20
65.427866
11
294.132607
21
65.787713
0
LINE
8
annotation
62
1
39
211
10
294.132607
20
65.787713
11
294.132607
21
65.787713
0
LINE
8
annotation
62
1
39
211
10
294.132607
20
65.787713
11
294.505262
21
65.952082
0
LINE
8
annotation
62
1
39
211
10
294.505262
20
65.952082
11
294.833107
21
66.173650
0
LINE
8
annotation
62
1
39
211
10
294.833107
20
66.173650
11
295.112229
21
66.444324
0
LINE
8
annotation
62
1
39
211
10
295.112229
20
66.444324
11
295.338714
21
66.756012
0
LINE
8
annotation
62
1
39
211
10
295.338714
20
66.756012
11
295.508649
21
67.100621
0
LINE
8
annotation
62
1
39
211
10
295.508649
20
67.100621
11
295.618122
21
67.470060
0
LINE
8
annotation
62
1
39
211
10
295.618122
20
67.470060
11
295.663219
21
67.856235
0
LINE
8
annotation
62
1
39
211
10
295.663219
20
67.856235
11
295.640026
21
68.251055
0
LINE
8
annotation
62
1
39
211
10
295.640026
20
68.251055
11
295.544631
21
68.646427
0
LINE
8
annotation
62
1
39
211
10
295.544631
20
68.646427
11
294.822285
21
70.783815
0
LINE
8
annotation
62
1
39
211
10
294.822285
20
70.783815
11
299.108529
21
72.232383
0
LINE
8
annotation
62
1
39
211
10
299.108529
20
72.232383
11
300.553221
21
67.957607
0
LINE
8
annotation
62
1
39
211
10
304.915794
20
85.939851
11
304.915794
21
85.939851
0
LINE
8
annotation
62
1
39
211
10
304.915794
20
85.939851
11
304.279887
21
86.208348
0
LINE
8
annotation
62
1
39
211
10
304.279887
20
86.208348
11
303.624745
21
86.379115
0
LINE
8
annotation
62
1
39
211
10
303.624745
20
86.379115
11
302.960414
21
86.453906
0
LINE
8
annotation
62
1
39
211
10
302.960414
20
86.453906
11
302.296941
21
86.434475
0
LINE
8
annotation
62
1
39
211
10
302.296941
20
86.434475
11
301.644371
21
86.322573
0
LINE
8
annotation
62
1
39
211
10
301.644371
20
86.322573
11
301.012750
21
86.119954
0
LINE
8
annotation
62
1
39
211
10
301.012750
20
86.119954
11
300.412124
21
85.828372
0
LINE
8
annotation
62
1
39
211
10
300.412124
20
85.828372
11
299.852538
21
85.449578
0
LINE
8
annotation
62
1
39
211
10
299.852538
20
85.449578
11
299.344038
21
84.985327
0
LINE
8
annotation
62
1
39
211
10
299.344038
20
84.985327
11
297.021943
21
82.533530
0
LINE
8
annotation
62
1
39
211
10
297.021943
20
82.533530
11
297.021943
21
82.533530
0
LINE
8
annotation
62
1
39
211
10
297.021943
20
82.533530
11
296.769303
21
82.213807
0
LINE
8
annotation
62
1
39
211
10
296.769303
20
82.213807
11
296.582816
21
81.864220
0
LINE
8
annotation
62
1
39
211
10
296.582816
20
81.864220
11
296.462211
21
81.493833
0
LINE
8
annotation
62
1
39
211
10
296.462211
20
81.493833
11
296.407215
21
81.111707
0
LINE
8
annotation
62
1
39
211
10
296.407215
20
81.111707
11
296.417556
21
80.726905
0
LINE
8
annotation
62
1
39
211
10
296.417556
20
80.726905
11
296.492961
21
80.348489
0
LINE
8
annotation
62
1
39
211
10
296.492961
20
80.348489
11
296.633159
21
79.985521
0
LINE
8
annotation
62
1
39
211
10
296.633159
20
79.985521
11
296.837878
21
79.647064
0
LINE
8
annotation
62
1
39
211
10
296.837878
20
79.647064
11
297.106845
21
79.342180
0
LINE
8
annotation
62
1
39
211
10
297.106845
20
79.342180
11
297.106845
21
79.342180
0
LINE
8
annotation
62
1
39
211
10
297.106845
20
79.342180
11
297.426493
21
79.089587
0
LINE
8
annotation
62
1
39
211
10
297.426493
20
79.089587
11
297.775891
21
78.903241
0
LINE
8
annotation
62
1
39
211
10
297.775891
20
78.903241
11
298.146031
21
78.782868
0
LINE
8
annotation
62
1
39
211
10
298.146031
20
78.782868
11
298.527906
21
78.728192
0
LINE
8
annotation
62
1
39
211
10
298.527906
20
78.728192
11
298.912512
21
78.738941
0
LINE
8
annotation
62
1
39
211
10
298.912512
20
78.738941
11
299.290840
21
78.814839
0
LINE
8
annotation
62
1
39
211
10
299.290840
20
78.814839
11
299.653885
21
78.955612
0
LINE
8
annotation
62
1
39
211
10
299.653885
20
78.955612
11
299.992640
21
79.160985
0
LINE
8
annotation
62
1
39
211
10
299.992640
20
79.160985
11
300.298098
21
79.430685
0
LINE
8
annotation
62
1
39
211
10
300.298098
20
79.430685
11
301.070962
21
80.246717
0
LINE
8
annotation
62
1
39
211
10
301.070962
20
80.246717
11
301.070962
21
80.246717
0
LINE
8
annotation
62
1
39
211
10
301.070962
20
80.246717
11
301.323543
21
80.566225
0
LINE
8
annotation
62
1
39
211
10
301.323543
20
80.566225
11
301.509857
21
80.915249
0
LINE
8
annotation
62
1
39
211
10
301.509857
20
80.915249
11
301.630185
21
81.284848
0
LINE
8
annotation
62
1
39
211
10
301.630185
20
81.284848
11
301.684807
21
81.666083
0
LINE
8
annotation
62
1
39
211
10
301.684807
20
81.666083
11
301.674002
21
82.050013
0
LINE
8
annotation
62
1
39
211
10
301.674002
20
82.050013
11
301.598050
21
82.427700
0
LINE
8
annotation
62
1
39
211
10
301.598050
20
82.427700
11
301.457232
21
82.790204
0
LINE
8
annotation
62
1
39
211
10
301.457232
20
82.790204
11
301.251827
21
83.128585
0
LINE
8
annotation
62
1
39
211
10
301.251827
20
83.128585
11
300.982116
21
83.433904
0
LINE
8
annotation
62
1
39
211
10
300.982116
20
83.433904
11
299.344038
21
84.985327
0
LINE
8
annotation
62
1
39
211
10
294.390298
20
80.165830
11
298.078633
21
76.672609
0
LINE
8
annotation
62
1
39
211
10
271.898486
20
77.155856
11
266.938314
21
77.155856
0
LINE
8
annotation
62
1
39
211
10
266.938314
20
77.155856
11
271.898486
21
86.089094
0
LINE
8
annotation
62
1
39
211
10
271.898486
20
86.089094
11
266.938314
21
86.089094
0
LINE
8
annotation
62
1
39
211
10
280.133832
20
81.622475
11
275.249290
21
81.622475
0
LINE
8
annotation
62
1
39
211
10
287.451095
20
77.155783
11
283.483630
21
77.155783
0
LINE
8
annotation
62
1
39
211
10
283.483630
20
77.155783
11
287.149698
21
83.057681
0
LINE
8
annotation
62
1
39
211
10
287.149698
20
83.057681
11
287.149698
21
83.057681
0
LINE
8
annotation
62
1
39
211
10
287.149698
20
83.057681
11
287.154080
21
83.063104
0
LINE
8
annotation
62
1
39
211
10
287.154080
20
83.063104
11
287.158283
21
83.068573
0
LINE
8
annotation
62
1
39
211
10
287.158283
20
83.068573
11
287.162334
21
83.074135
0
LINE
8
annotation
62
1
39
211
10
287.162334
20
83.074135
11
287.166260
21
83.079835
0
LINE
8
annotation
62
1
39
211
10
287.166260
20
83.079835
11
287.170089
21
83.085719
0
LINE
8
annotation
62
1
39
211
10
287.170089
20
83.085719
11
287.173849
21
83.091834
0
LINE
8
annotation
62
1
39
211
10
287.173849
20
83.091834
11
287.177568
21
83.098225
0
LINE
8
annotation
62
1
39
211
10
287.177568
20
83.098225
11
287.181273
21
83.104939
0
LINE
8
annotation
62
1
39
211
10
287.181273
20
83.104939
11
287.184992
21
83.112022
0
LINE
8
annotation
62
1
39
211
10
287.184992
20
83.112022
11
287.184992
21
83.112022
0
LINE
8
annotation
62
1
39
211
10
287.184992
20
83.112022
11
287.336363
21
83.437029
0
LINE
8
annotation
62
1
39
211
10
287.336363
20
83.437029
11
287.424791
21
83.773926
0
LINE
8
annotation
62
1
39
211
10
287.424791
20
83.773926
11
287.452444
21
84.115103
0
LINE
8
annotation
62
1
39
211
10
287.452444
20
84.115103
11
287.421488
21
84.452946
0
LINE
8
annotation
62
1
39
211
10
287.421488
20
84.452946
11
287.334091
21
84.779843
0
LINE
8
annotation
62
1
39
211
10
287.334091
20
84.779843
11
287.192420
21
85.088181
0
LINE
8
annotation
62
1
39
211
10
287.192420
20
85.088181
11
286.998641
21
85.370348
0
LINE
8
annotation
62
1
39
211
10
286.998641
20
85.370348
11
286.754922
21
85.618732
0
LINE
8
annotation
62
1
39
211
10
286.754922
20
85.618732
11
286.463431
21
85.825719
0
LINE
8
annotation
62
1
39
211
10
286.463431
20
85.825719
11
286.463431
21
85.825719
0
LINE
8
annotation
62
1
39
211
10
286.463431
20
85.825719
11
286.137520
21
85.974939
0
LINE
8
annotation
62
1
39
211
10
286.137520
20
85.974939
11
285.800106
21
86.062005
0
LINE
8
annotation
62
1
39
211
10
285.800106
20
86.062005
11
285.458731
21
86.088876
0
LINE
8
annotation
62
1
39
211
10
285.458731
20
86.088876
11
285.120939
21
86.057512
0
LINE
8
annotation
62
1
39
211
10
285.120939
20
86.057512
11
284.794273
21
85.969873
0
LINE
8
annotation
62
1
39
211
10
284.794273
20
85.969873
11
284.486276
21
85.827918
0
LINE
8
annotation
62
1
39
211
10
284.486276
20
85.827918
11
284.204491
21
85.633607
0
LINE
8
annotation
62
1
39
211
10
284.204491
20
85.633607
11
283.956463
21
85.388899
0
LINE
8
annotation
62
1
39
211
10
283.956463
20
85.388899
11
283.749734
21
85.095755
0
LINE
8
annotation
62
1
39
211
10
283.749734
20
85.095755
11
283.489233
21
84.596040
0
LINE
8
annotation
62
1
39
211
10
295.687116
20
81.622475
11
290.802574
21
81.622475
0
LINE
8
annotation
62
1
39
211
10
301.022493
20
77.155856
11
301.022493
21
86.089094
0
LINE
8
annotation
62
1
39
211
10
301.022493
20
86.089094
11
299.036520
21
84.102560
0
LINE
8
boundary
62
5
39
2
10
347.165888
20
38.019848
11
351.748440
21
34.973923
0
LINE
8
boundary
62
5
39
2
10
351.748440
20
34.973923
11
359.794222
21
30.008893
0
LINE
8
boundary
62
5
39
2
10
359.794222
20
30.008893
11
362.665786
21
28.903988
0
LINE
8
boundary
62
5
39
2
10
362.665786
20
28.903988
11
363.570135
21
57.739657
0
LINE
8
boundary
62
5
39
2
10
363.570135
20
57.739657
11
369.664874
21
57.615634
0
LINE
8
boundary
62
5
39
2
10
369.664874
20
57.615634
11
369.058705
21
27.827360
0
LINE
8
boundary
62
5
39
2
10
369.058705
20
27.827360
11
375.463056
21
29.956775
0
LINE
8
boundary
62
5
39
2
10
375.463056
20
29.956775
11
383.524008
21
34.891844
0
LINE
8
boundary
62
5
39
2
10
383.524008
20
34.891844
11
387.955814
21
37.782382
0
LINE
8
boundary
62
5
39
2
10
387.955814
20
37.782382
11
379.443145
21
63.962630
0
LINE
8
boundary
62
5
39
2
10
379.443145
20
63.962630
11
385.218258
21
65.914372
0
LINE
8
boundary
62
5
39
2
10
385.218258
20
65.914372
11
393.235456
21
42.191865
0
LINE
8
boundary
62
5
39
2
10
393.235456
20
42.191865
11
394.175576
21
42.936383
0
LINE
8
boundary
62
5
39
2
10
394.175576
20
42.936383
11
406.078645
21
59.517611
0
LINE
8
boundary
62
5
39
2
10
406.078645
20
59.517611
11
405.828563
21
60.841420
0
LINE
8
boundary
62
5
39
2
10
405.828563
20
60.841420
11
404.324001
21
69.010193
0
LINE
8
boundary
62
5
39
2
10
404.324001
20
69.010193
11
404.226439
21
69.539892
0
LINE
8
boundary
62
5
39
2
10
404.226439
20
69.539892
11
388.353467
21
84.573178
0
LINE
8
boundary
62
5
39
2
10
388.353467
20
84.573178
11
392.545331
21
88.999179
0
LINE
8
boundary
62
5
39
2
10
392.545331
20
88.999179
11
401.908261
21
80.131552
0
LINE
8
boundary
62
5
39
2
10
401.908261
20
80.131552
11
400.780752
21
88.247686
0
LINE
8
boundary
62
5
39
2
10
400.780752
20
88.247686
11
400.549142
21
89.843474
0
LINE
8
boundary
62
5
39
2
10
400.549142
20
89.843474
11
395.419065
21
92.827726
0
LINE
8
boundary
62
5
39
2
10
395.419065
20
92.827726
11
367.936401
21
108.594086
0
LINE
8
boundary
62
5
39
2
10
367.936401
20
108.594086
11
340.249337
21
93.042595
0
LINE
8
boundary
62
5
39
2
10
340.249337
20
93.042595
11
335.009260
21
90.099308
0
LINE
8
boundary
62
5
39
2
10
335.009260
20
90.099308
11
334.753195
21
88.598373
0
LINE
8
boundary
62
5
39
2
10
334.753195
20
88.598373
11
333.238004
21
79.787232
0
LINE
8
boundary
62
5
39
2
10
333.238004
20
79.787232
11
342.800700
21
88.592379
0
LINE
8
boundary
62
5
39
2
10
342.800700
20
88.592379
11
347.038234
21
84.210083
0
LINE
8
boundary
62
5
39
2
10
347.038234
20
84.210083
11
331.397848
21
69.086355
0
LINE
8
boundary
62
5
39
2
10
331.397848
20
69.086355
11
330.031457
21
61.140510
0
LINE
8
boundary
62
5
39
2
10
330.031457
20
61.140510
11
329.802258
21
59.804492
0
LINE
8
boundary
62
5
39
2
10
329.802258
20
59.804492
11
341.220830
21
43.116713
0
LINE
8
boundary
62
5
39
2
10
341.220830
20
43.116713
11
341.603069
21
42.557050
0
LINE
8
boundary
62
5
39
2
10
341.603069
20
42.557050
11
349.606495
21
64.999594
0
LINE
8
boundary
62
5
39
2
10
349.606495
20
64.999594
11
355.375082
21
63.028651
0
LINE
8
boundary
62
5
39
2
10
355.375082
20
63.028651
11
346.922927
21
38.290751
0
LINE
8
boundary
62
5
39
2
10
346.922927
20
38.290751
11
347.165888
21
38.019848
0
LINE
8
annotation
62
1
39
211
10
348.032861
20
94.781059
11
350.497520
21
97.164302
0
LINE
8
annotation
62
1
39
211
10
350.497520
20
97.164302
11
351.765344
21
91.295745
0
LINE
8
annotation
62
1
39
211
10
351.765344
20
91.295745
11
351.765344
21
91.295745
0
LINE
8
annotation
62
1
39
211
10
351.765344
20
91.295745
11
351.765879
21
91.289743
0
LINE
8
annotation
62
1
39
211
10
351.765879
20
91.289743
11
351.766554
21
91.283821
0
LINE
8
annotation
62
1
39
211
10
351.766554
20
91.283821
11
351.767378
21
91.277933
0
LINE
8
annotation
62
1
39
211
10
351.767378
20
91.277933
11
351.768363
21
91.272034
0
LINE
8
annotation
62
1
39
211
10
351.768363
20
91.272034
11
351.769519
21
91.266078
0
LINE
8
annotation
62
1
39
211
10
351.769519
20
91.266078
11
351.770856
21
91.260021
0
LINE
8
annotation
62
1
39
211
10
351.770856
20
91.260021
11
351.772385
21
91.253816
0
LINE
8
annotation
62
1
39
211
10
351.772385
20
91.253816
11
351.774117
21
91.247420
0
LINE
8
annotation
62
1
39
211
10
351.774117
20
91.247420
11
351.776061
21
91.240786
0
LINE
8
annotation
62
1
39
211
10
351.776061
20
91.240786
11
351.776061
21
91.240786
0
LINE
8
annotation
62
1
39
211
10
351.776061
20
91.240786
11
351.877257
21
90.947958
0
LINE
8
annotation
62
1
39
211
10
351.877257
20
90.947958
11
352.024697
21
90.685553
0
LINE
8
annotation
62
1
39
211
10
352.024697
20
90.685553
11
352.212463
21
90.456997
0
LINE
8
annotation
62
1
39
211
10
352.212463
20
90.456997
11
352.434634
21
90.265718
0
LINE
8
annotation
62
1
39
211
10
352.434634
20
90.265718
11
352.685292
21
90.115143
0
LINE
8
annotation
62
1
39
211
10
352.685292
20
90.115143
11
352.958519
21
90.008699
0
LINE
8
annotation
62
1
39
211
10
352.958519
20
90.008699
11
353.248394
21
89.949814
0
LINE
8
annotation
62
1
39
211
10
353.248394
20
89.949814
11
353.549000
21
89.941915
0
LINE
8
annotation
62
1
39
211
10
353.549000
20
89.941915
11
353.854416
21
89.988429
0
LINE
8
annotation
62
1
39
211
10
353.854416
20
89.988429
11
353.854416
21
89.988429
0
LINE
8
annotation
62
1
39
211
10
353.854416
20
89.988429
11
354.146513
21
90.091504
0
LINE
8
annotation
62
1
39
211
10
354.146513
20
90.091504
11
354.408421
21
90.240101
0
LINE
8
annotation
62
1
39
211
10
354.408421
20
90.240101
11
354.636631
21
90.428471
0
LINE
8
annotation
62
1
39
211
10
354.636631
20
90.428471
11
354.827633
21
90.650865
0
LINE
8
annotation
62
1
39
211
10
354.827633
20
90.650865
11
354.977919
21
90.901536
0
LINE
8
annotation
62
1
39
211
10
354.977919
20
90.901536
11
355.083981
21
91.174733
0
LINE
8
annotation
62
1
39
211
10
355.083981
20
91.174733
11
355.142308
21
91.464710
0
LINE
8
annotation
62
1
39
211
10
355.142308
20
91.464710
11
355.149392
21
91.765716
0
LINE
8
annotation
62
1
39
211
10
355.149392
20
91.765716
11
355.101725
21
92.072004
0
LINE
8
annotation
62
1
39
211
10
355.101725
20
92.072004
11
354.963376
21
92.538918
0
LINE
8
annotation
62
1
39
211
10
352.560991
20
79.930720
11
351.831539
21
77.795747
0
LINE
8
annotation
62
1
39
211
10
351.831539
20
77.795747
11
351.831539
21
77.795747
0
LINE
8
annotation
62
1
39
211
10
351.831539
20
77.795747
11
351.734791
21
77.399998
0
LINE
8
annotation
62
1
39
211
10
351.734791
20
77.399998
11
351.710616
21
77.004768
0
LINE
8
annotation
62
1
39
211
10
351.710616
20
77.004768
11
351.754974
21
76.618147
0
LINE
8
annotation
62
1
39
211
10
351.754974
20
76.618147
11
351.863825
21
76.248227
0
LINE
8
annotation
62
1
39
211
10
351.863825
20
76.248227
11
352.033128
21
75.903101
0
LINE
8
annotation
62
1
39
211
10
352.033128
20
75.903101
11
352.258841
21
75.590858
0
LINE
8
annotation
62
1
39
211
10
352.258841
20
75.590858
11
352.536926
21
75.319592
0
LINE
8
annotation
62
1
39
211
10
352.536926
20
75.319592
11
352.863341
21
75.097392
0
LINE
8
annotation
62
1
39
211
10
352.863341
20
75.097392
11
353.234045
21
74.932352
0
LINE
8
annotation
62
1
39
211
10
353.234045
20
74.932352
11
354.303039
21
74.567111
0
LINE
8
annotation
62
1
39
211
10
354.303039
20
74.567111
11
354.303039
21
74.567111
0
LINE
8
annotation
62
1
39
211
10
354.303039
20
74.567111
11
354.697070
21
74.470865
0
LINE
8
annotation
62
1
39
211
10
354.697070
20
74.470865
11
355.091123
21
74.446904
0
LINE
8
annotation
62
1
39
211
10
355.091123
20
74.446904
11
355.477033
21
74.491304
0
LINE
8
annotation
62
1
39
211
10
355.477033
20
74.491304
11
355.846639
21
74.600145
0
LINE
8
annotation
62
1
39
211
10
355.846639
20
74.600145
11
356.191780
21
74.769502
0
LINE
8
annotation
62
1
39
211
10
356.191780
20
74.769502
11
356.504294
21
74.995455
0
LINE
8
annotation
62
1
39
211
10
356.504294
20
74.995455
11
356.776018
21
75.274081
0
LINE
8
annotation
62
1
39
211
10
356.776018
20
75.274081
11
356.998790
21
75.601457
0
LINE
8
annotation
62
1
39
211
10
356.998790
20
75.601457
11
357.164449
21
75.973661
0
LINE
8
annotation
62
1
39
211
10
357.164449
20
75.973661
11
357.529691
21
77.042655
0
LINE
8
annotation
62
1
39
211
10
357.529691
20
77.042655
11
357.164449
21
75.973661
0
LINE
8
annotation
62
1
39
211
10
357.164449
20
75.973661
11
357.164449
21
75.973661
0
LINE
8
annotation
62
1
39
211
10
357.164449
20
75.973661
11
357.067729
21
75.577903
0
LINE
8
annotation
62
1
39
211
10
357.067729
20
75.577903
11
357.043662
21
75.182635
0
LINE
8
annotation
62
1
39
211
10
357.043662
20
75.182635
11
357.088242
21
74.795939
0
LINE
8
annotation
62
1
39
211
10
357.088242
20
74.795939
11
357.197463
21
74.425892
0
LINE
8
annotation
62
1
39
211
10
357.197463
20
74.425892
11
357.367320
21
74.080576
0
LINE
8
annotation
62
1
39
211
10
357.367320
20
74.080576
11
357.593806
21
73.768070
0
LINE
8
annotation
62
1
39
211
10
357.593806
20
73.768070
11
357.872916
21
73.496453
0
LINE
8
annotation
62
1
39
211
10
357.872916
20
73.496453
11
358.200644
21
73.273805
0
LINE
8
annotation
62
1
39
211
10
358.200644
20
73.273805
11
358.572985
21
73.108206
0
LINE
8
annotation
62
1
39
211
10
358.572985
20
73.108206
11
358.572985
21
73.108206
0
LINE
8
annotation
62
1
39
211
10
358.572985
20
73.108206
11
358.967016
21
73.011960
0
LINE
8
annotation
62
1
39
211
10
358.967016
20
73.011960
11
359.361069
21
72.987999
0
LINE
8
annotation
62
1
39
211
10
359.361069
20
72.987999
11
359.746979
21
73.032399
0
LINE
8
annotation
62
1
39
211
10
359.746979
20
73.032399
11
360.116585
21
73.141240
0
LINE
8
annotation
62
1
39
211
10
360.116585
20
73.141240
11
360.461726
21
73.310597
0
LINE
8
annotation
62
1
39
211
10
360.461726
20
73.310597
11
360.774240
21
73.536550
0
LINE
8
annotation
62
1
39
211
10
360.774240
20
73.536550
11
361.045964
21
73.815176
0
LINE
8
annotation
62
1
39
211
10
361.045964
20
73.815176
11
361.268736
21
74.142552
0
LINE
8
annotation
62
1
39
211
10
361.268736
20
74.142552
11
361.434395
21
74.514756
0
LINE
8
annotation
62
1
39
211
10
361.434395
20
74.514756
11
362.163848
21
76.649729
0
LINE
8
annotation
62
1
39
211
10
364.000392
20
67.740583
11
364.115165
21
73.380745
0
LINE
8
annotation
62
1
39
211
10
364.115165
20
73.380745
11
371.968994
21
70.967496
0
LINE
8
annotation
62
1
39
211
10
361.776564
20
69.477184
11
366.287929
21
69.385381
0
LINE
8
annotation
62
1
39
211
10
372.688563
20
77.602443
11
373.410909
21
75.465055
0
LINE
8
annotation
62
1
39
211
10
373.410909
20
75.465055
11
373.410909
21
75.465055
0
LINE
8
annotation
62
1
39
211
10
373.410909
20
75.465055
11
373.575048
21
75.093092
0
LINE
8
annotation
62
1
39
211
10
373.575048
20
75.093092
11
373.796590
21
74.765400
0
LINE
8
annotation
62
1
39
211
10
373.796590
20
74.765400
11
374.067421
21
74.486022
0
LINE
8
annotation
62
1
39
211
10
374.067421
20
74.486022
11
374.379426
21
74.259003
0
LINE
8
annotation
62
1
39
211
10
374.379426
20
74.259003
11
374.724490
21
74.088386
0
LINE
8
annotation
62
1
39
211
10
374.724490
20
74.088386
11
375.094500
21
73.978217
0
LINE
8
annotation
62
1
39
211
10
375.094500
20
73.978217
11
375.481341
21
73.932538
0
LINE
8
annotation
62
1
39
211
10
375.481341
20
73.932538
11
375.876898
21
73.955394
0
LINE
8
annotation
62
1
39
211
10
375.876898
20
73.955394
11
376.273058
21
74.050829
0
LINE
8
annotation
62
1
39
211
10
376.273058
20
74.050829
11
377.337828
21
74.410676
0
LINE
8
annotation
62
1
39
211
10
377.337828
20
74.410676
11
377.337828
21
74.410676
0
LINE
8
annotation
62
1
39
211
10
377.337828
20
74.410676
11
377.710483
21
74.575045
0
LINE
8
annotation
62
1
39
211
10
377.710483
20
74.575045
11
378.038328
21
74.796613
0
LINE
8
annotation
62
1
39
211
10
378.038328
20
74.796613
11
378.317450
21
75.067287
0
LINE
8
annotation
62
1
39
211
10
378.317450
20
75.067287
11
378.543935
21
75.378975
0
LINE
8
annotation
62
1
39
211
10
378.543935
20
75.378975
11
378.713871
21
75.723584
0
LINE
8
annotation
62
1
39
211
10
378.713871
20
75.723584
11
378.823343
21
76.093023
0
LINE
8
annotation
62
1
39
211
10
378.823343
20
76.093023
11
378.868440
21
76.479198
0
LINE
8
annotation
62
1
39
211
10
378.868440
20
76.479198
11
378.845247
21
76.874018
0
LINE
8
annotation
62
1
39
211
10
378.845247
20
76.874018
11
378.749852
21
77.269390
0
LINE
8
annotation
62
1
39
211
10
378.749852
20
77.269390
11
378.027506
21
79.406778
0
LINE
8
annotation
62
1
39
211
10
378.027506
20
79.406778
11
382.313750
21
80.855346
0
LINE
8
annotation
62
1
39
211
10
382.313750
20
80.855346
11
383.758442
21
76.580570
0
LINE
8
annotation
62
1
39
211
10
386.701977
20
95.548262
11
386.701977
21
95.548262
0
LINE
8
annotation
62
1
39
211
10
386.701977
20
95.548262
11
386.228197
21
95.748304
0
LINE
8
annotation
62
1
39
211
10
386.228197
20
95.748304
11
385.740087
21
95.875533
0
LINE
8
annotation
62
1
39
211
10
385.740087
20
95.875533
11
385.245131
21
95.931256
0
LINE
8
annotation
62
1
39
211
10
385.245131
20
95.931256
11
384.750814
21
95.916779
0
LINE
8
annotation
62
1
39
211
10
384.750814
20
95.916779
11
384.264620
21
95.833407
0
LINE
8
annotation
62
1
39
211
10
384.264620
20
95.833407
11
383.794034
21
95.682447
0
LINE
8
annotation
62
1
39
211
10
383.794034
20
95.682447
11
383.346541
21
95.465205
0
LINE
8
annotation
62
1
39
211
10
383.346541
20
95.465205
11
382.929624
21
95.182987
0
LINE
8
annotation
62
1
39
211
10
382.929624
20
95.182987
11
382.550769
21
94.837099
0
LINE
8
annotation
62
1
39
211
10
382.550769
20
94.837099
11
380.820704
21
93.010401
0
LINE
8
annotation
62
1
39
211
10
380.820704
20
93.010401
11
380.820704
21
93.010401
0
LINE
8
annotation
62
1
39
211
10
380.820704
20
93.010401
11
380.632476
21
92.772192
0
LINE
8
annotation
62
1
39
211
10
380.632476
20
92.772192
11
380.493535
21
92.511735
0
LINE
8
annotation
62
1
39
211
10
380.493535
20
92.511735
11
380.403679
21
92.235779
0
LINE
8
annotation
62
1
39
211
10
380.403679
20
92.235779
11
380.362704
21
91.951079
0
LINE
8
annotation
62
1
39
211
10
380.362704
20
91.951079
11
380.370408
21
91.664384
0
LINE
8
annotation
62
1
39
211
10
380.370408
20
91.664384
11
380.426589
21
91.382447
0
LINE
8
annotation
62
1
39
211
10
380.426589
20
91.382447
11
380.531043
21
91.112020
0
LINE
8
annotation
62
1
39
211
10
380.531043
20
91.112020
11
380.683568
21
90.859854
0
LINE
8
annotation
62
1
39
211
10
380.683568
20
90.859854
11
380.883960
21
90.632702
0
LINE
8
annotation
62
1
39
211
10
380.883960
20
90.632702
11
380.883960
21
90.632702
0
LINE
8
annotation
62
1
39
211
10
380.883960
20
90.632702
11
381.122112
21
90.444509
0
LINE
8
annotation
62
1
39
211
10
381.122112
20
90.444509
11
381.382429
21
90.305673
0
LINE
8
annotation
62
1
39
211
10
381.382429
20
90.305673
11
381.658200
21
90.215989
0
LINE
8
annotation
62
1
39
211
10
381.658200
20
90.215989
11
381.942714
21
90.175254
0
LINE
8
annotation
62
1
39
211
10
381.942714
20
90.175254
11
382.229263
21
90.183262
0
LINE
8
annotation
62
1
39
211
10
382.229263
20
90.183262
11
382.511134
21
90.239809
0
LINE
8
annotation
62
1
39
211
10
382.511134
20
90.239809
11
382.781619
21
90.344691
0
LINE
8
annotation
62
1
39
211
10
382.781619
20
90.344691
11
383.034006
21
90.497704
0
LINE
8
annotation
62
1
39
211
10
383.034006
20
90.497704
11
383.261586
21
90.698642
0
LINE
8
annotation
62
1
39
211
10
383.261586
20
90.698642
11
383.837404
21
91.306622
0
LINE
8
annotation
62
1
39
211
10
383.837404
20
91.306622
11
383.837404
21
91.306622
0
LINE
8
annotation
62
1
39
211
10
383.837404
20
91.306622
11
384.025588
21
91.544671
0
LINE
8
annotation
62
1
39
211
10
384.025588
20
91.544671
11
384.164401
21
91.804709
0
LINE
8
annotation
62
1
39
211
10
384.164401
20
91.804709
11
384.254051
21
92.080076
0
LINE
8
annotation
62
1
39
211
10
384.254051
20
92.080076
11
384.294747
21
92.364113
0
LINE
8
annotation
62
1
39
211
10
384.294747
20
92.364113
11
384.286696
21
92.650159
0
LINE
8
annotation
62
1
39
211
10
384.286696
20
92.650159
11
384.230109
21
92.931553
0
LINE
8
annotation
62
1
39
211
10
384.230109
20
92.931553
11
384.125193
21
93.201634
0
LINE
8
annotation
62
1
39
211
10
384.125193
20
93.201634
11
383.972157
21
93.453743
0
LINE
8
annotation
62
1
39
211
10
383.972157
20
93.453743
11
383.771210
21
93.681219
0
LINE
8
annotation
62
1
39
211
10
383.771210
20
93.681219
11
382.550769
21
94.837099
0
LINE
8
annotation
62
1
39
211
10
378.860011
20
91.246358
11
381.607985
21
88.643752
0
LINE
8
annotation
62
1
39
211
10
358.065410
20
78.880197
11
354.802622
21
78.880197
0
LINE
8
annotation
62
1
39
211
10
354.802622
20
78.880197
11
358.065410
21
84.756459
0
LINE
8
annotation
62
1
39
211
10
358.065410
20
84.756459
11
354.802622
21
84.756459
0
LINE
8
annotation
62
1
39
211
10
363.482601
20
81.818328
11
360.269561
21
81.818328
0
LINE
8
annotation
62
1
39
211
10
367.645751
20
84.756459
11
367.645751
21
84.756459
0
LINE
8
annotation
62
1
39
211
10
367.645751
20
84.756459
11
367.271932
21
84.616299
0
LINE
8
annotation
62
1
39
211
10
367.271932
20
84.616299
11
366.928904
21
84.427451
0
LINE
8
annotation
62
1
39
211
10
366.928904
20
84.427451
11
366.620188
21
84.194645
0
LINE
8
annotation
62
1
39
211
10
366.620188
20
84.194645
11
366.349305
21
83.922613
0
LINE
8
annotation
62
1
39
211
10
366.349305
20
83.922613
11
366.119778
21
83.616087
0
LINE
8
annotation
62
1
39
211
10
366.119778
20
83.616087
11
365.935127
21
83.279798
0
LINE
8
annotation
62
1
39
211
10
365.935127
20
83.279798
11
365.798874
21
82.918478
0
LINE
8
annotation
62
1
39
211
10
365.798874
20
82.918478
11
365.714540
21
82.536857
0
LINE
8
annotation
62
1
39
211
10
365.714540
20
82.536857
11
365.685646
21
82.139669
0
LINE
8
annotation
62
1
39
211
10
365.685646
20
82.139669
11
365.685646
21
80.186565
0
LINE
8
annotation
62
1
39
211
10
365.685646
20
80.186565
11
365.685646
21
80.186565
0
LINE
8
annotation
62
1
39
211
10
365.685646
20
80.186565
11
365.706714
21
79.951826
0
LINE
8
annotation
62
1
39
211
10
365.706714
20
79.951826
11
365.767438
21
79.730857
0
LINE
8
annotation
62
1
39
211
10
365.767438
20
79.730857
11
365.864100
21
79.527355
0
LINE
8
annotation
62
1
39
211
10
365.864100
20
79.527355
11
365.992982
21
79.345018
0
LINE
8
annotation
62
1
39
211
10
365.992982
20
79.345018
11
366.150366
21
79.187542
0
LINE
8
annotation
62
1
39
211
10
366.150366
20
79.187542
11
366.332531
21
79.058624
0
LINE
8
annotation
62
1
39
211
10
366.332531
20
79.058624
11
366.535761
21
78.961963
0
LINE
8
annotation
62
1
39
211
10
366.535761
20
78.961963
11
366.756337
21
78.901255
0
LINE
8
annotation
62
1
39
211
10
366.756337
20
78.901255
11
366.990540
21
78.880197
0
LINE
8
annotation
62
1
39
211
10
366.990540
20
78.880197
11
366.990540
21
78.880197
0
LINE
8
annotation
62
1
39
211
10
366.990540
20
78.880197
11
367.225229
21
78.901255
0
LINE
8
annotation
62
1
39
211
10
367.225229
20
78.901255
11
367.446062
21
78.961963
0
LINE
8
annotation
62
1
39
211
10
367.446062
20
78.961963
11
367.649368
21
79.058624
0
LINE
8
annotation
62
1
39
211
10
367.649368
20
79.058624
11
367.831473
21
79.187542
0
LINE
8
annotation
62
1
39
211
10
367.831473
20
79.187542
11
367.988705
21
79.345018
0
LINE
8
annotation
62
1
39
211
10
367.988705
20
79.345018
11
368.117389
21
79.527355
0
LINE
8
annotation
62
1
39
211
10
368.117389
20
79.527355
11
368.213855
21
79.730857
0
LINE
8
annotation
62
1
39
211
10
368.213855
20
79.730857
11
368.274427
21
79.951826
0
LINE
8
annotation
62
1
39
211
10
368.274427
20
79.951826
11
368.295434
21
80.186565
0
LINE
8
annotation
62
1
39
211
10
368.295434
20
80.186565
11
368.295434
21
80.836617
0
LINE
8
annotation
62
1
39
211
10
368.295434
20
80.836617
11
368.295434
21
80.836617
0
LINE
8
annotation
62
1
39
211
10
368.295434
20
80.836617
11
368.274427
21
81.071242
0
LINE
8
annotation
62
1
39
211
10
368.274427
20
81.071242
11
368.213855
21
81.291906
0
LINE
8
annotation
62
1
39
211
10
368.213855
20
81.291906
11
368.117389
21
81.494967
0
LINE
8
annotation
62
1
39
211
10
368.117389
20
81.494967
11
367.988705
21
81.676782
0
LINE
8
annotation
62
1
39
211
10
367.988705
20
81.676782
11
367.831473
21
81.833707
0
LINE
8
annotation
62
1
39
211
10
367.831473
20
81.833707
11
367.649368
21
81.962101
0
LINE
8
annotation
62
1
39
211
10
367.649368
20
81.962101
11
367.446062
21
82.058322
0
LINE
8
annotation
62
1
39
211
10
367.446062
20
82.058322
11
367.225229
21
82.118725
0
LINE
8
annotation
62
1
39
211
10
367.225229
20
82.118725
11
366.990540
21
82.139669
0
LINE
8
annotation
62
1
39
211
10
366.990540
20
82.139669
11
365.685646
21
82.139669
0
LINE
8
annotation
62
1
39
211
10
365.522212
20
78.145664
11
368.460343
21
78.145664
0
LINE
8
annotation
62
1
39
211
10
373.712625
20
81.818328
11
370.499585
21
81.818328
0
LINE
8
annotation
62
1
39
211
10
378.525902
20
78.880149
11
375.916114
21
78.880149
0
LINE
8
annotation
62
1
39
211
10
375.916114
20
78.880149
11
378.327644
21
82.762403
0
LINE
8
annotation
62
1
39
211
10
378.327644
20
82.762403
11
378.327644
21
82.762403
0
LINE
8
annotation
62
1
39
211
10
378.327644
20
82.762403
11
378.330527
21
82.765970
0
LINE
8
annotation
62
1
39
211
10
378.330527
20
82.765970
11
378.333291
21
82.769568
0
LINE
8
annotation
62
1
39
211
10
378.333291
20
82.769568
11
378.335956
21
82.773226
0
LINE
8
annotation
62
1
39
211
10
378.335956
20
82.773226
11
378.338538
21
82.776976
0
LINE
8
annotation
62
1
39
211
10
378.338538
20
82.776976
11
378.341057
21
82.780846
0
LINE
8
annotation
62
1
39
211
10
378.341057
20
82.780846
11
378.343531
21
82.784868
0
LINE
8
annotation
62
1
39
211
10
378.343531
20
82.784868
11
378.345977
21
82.789073
0
LINE
8
annotation
62
1
39
211
10
378.345977
20
82.789073
11
378.348414
21
82.793489
0
LINE
8
annotation
62
1
39
211
10
378.348414
20
82.793489
11
378.350860
21
82.798148
0
LINE
8
annotation
62
1
39
211
10
378.350860
20
82.798148
11
378.350860
21
82.798148
0
LINE
8
annotation
62
1
39
211
10
378.350860
20
82.798148
11
378.450431
21
83.011937
0
LINE
8
annotation
62
1
39
211
10
378.450431
20
83.011937
11
378.508599
21
83.233547
0
LINE
8
annotation
62
1
39
211
10
378.508599
20
83.233547
11
378.526789
21
83.457973
0
LINE
8
annotation
62
1
39
211
10
378.526789
20
83.457973
11
378.506427
21
83.680205
0
LINE
8
annotation
62
1
39
211
10
378.506427
20
83.680205
11
378.448937
21
83.895237
0
LINE
8
annotation
62
1
39
211
10
378.448937
20
83.895237
11
378.355746
21
84.098061
0
LINE
8
annotation
62
1
39
211
10
378.355746
20
84.098061
11
378.228279
21
84.283670
0
LINE
8
annotation
62
1
39
211
10
378.228279
20
84.283670
11
378.067961
21
84.447056
0
LINE
8
annotation
62
1
39
211
10
378.067961
20
84.447056
11
377.876219
21
84.583211
0
LINE
8
annotation
62
1
39
211
10
377.876219
20
84.583211
11
377.876219
21
84.583211
0
LINE
8
annotation
62
1
39
211
10
377.876219
20
84.583211
11
377.661836
21
84.681368
0
LINE
8
annotation
62
1
39
211
10
377.661836
20
84.681368
11
377.439886
21
84.738640
0
LINE
8
annotation
62
1
39
211
10
377.439886
20
84.738640
11
377.215330
21
84.756316
0
LINE
8
annotation
62
1
39
211
10
377.215330
20
84.756316
11
376.993131
21
84.735685
0
LINE
8
annotation
62
1
39
211
10
376.993131
20
84.735685
11
376.778251
21
84.678036
0
LINE
8
annotation
62
1
39
211
10
376.778251
20
84.678036
11
376.575651
21
84.584658
0
LINE
8
annotation
62
1
39
211
10
376.575651
20
84.584658
11
376.390294
21
84.456841
0
LINE
8
annotation
62
1
39
211
10
376.390294
20
84.456841
11
376.227142
21
84.295873
0
LINE
8
annotation
62
1
39
211
10
376.227142
20
84.295873
11
376.091156
21
84.103043
0
LINE
8
annotation
62
1
39
211
10
376.091156
20
84.103043
11
375.919799
21
83.774332
0
LINE
8
boundary
62
5
39
2
10
410.640068
20
39.475236
11
413.398028
21
36.078134
0
LINE
8
boundary
62
5
39
2
10
413.398028
20
36.078134
11
421.519655
21
30.151792
0
LINE
8
boundary
62
5
39
2
10
421.519655
20
30.151792
11
430.167442
21
54.480264
0
LINE
8
boundary
62
5
39
2
10
430.167442
20
54.480264
11
435.936029
21
52.509321
0
LINE
8
boundary
62
5
39
2
10
435.936029
20
52.509321
11
427.755375
21
28.566054
0
LINE
8
boundary
62
5
39
2
10
427.755375
20
28.566054
11
433.185411
21
27.725545
0
LINE
8
boundary
62
5
39
2
10
433.185411
20
27.725545
11
437.839941
21
27.221930
0
LINE
8
boundary
62
5
39
2
10
437.839941
20
27.221930
11
439.410364
21
27.052010
0
LINE
8
boundary
62
5
39
2
10
439.410364
20
27.052010
11
440.254321
21
28.465467
0
LINE
8
boundary
62
5
39
2
10
440.254321
20
28.465467
11
443.201964
21
31.292413
0
LINE
8
boundary
62
5
39
2
10
443.201964
20
31.292413
11
443.810365
21
31.383495
0
LINE
8
boundary
62
5
39
2
10
443.810365
20
31.383495
11
444.266771
21
53.812195
0
LINE
8
boundary
62
5
39
2
10
444.266771
20
53.812195
11
450.361510
21
53.688172
0
LINE
8
boundary
62
5
39
2
10
450.361510
20
53.688172
11
449.891560
21
30.593968
0
LINE
8
boundary
62
5
39
2
10
449.891560
20
30.593968
11
452.777253
21
31.106996
0
LINE
8
boundary
62
5
39
2
10
452.777253
20
31.106996
11
453.324454
21
31.255466
0
LINE
8
boundary
62
5
39
2
10
453.324454
20
31.255466
11
456.251380
21
28.407081
0
LINE
8
boundary
62
5
39
2
10
456.251380
20
28.407081
11
457.084995
21
26.987500
0
LINE
8
boundary
62
5
39
2
10
457.084995
20
26.987500
11
458.656619
21
27.145950
0
LINE
8
boundary
62
5
39
2
10
458.656619
20
27.145950
11
463.314700
21
27.615577
0
LINE
8
boundary
62
5
39
2
10
463.314700
20
27.615577
11
468.230722
21
28.119126
0
LINE
8
boundary
62
5
39
2
10
468.230722
20
28.119126
11
459.998954
21
53.468203
0
LINE
8
boundary
62
5
39
2
10
459.998954
20
53.468203
11
465.774066
21
55.419945
0
LINE
8
boundary
62
5
39
2
10
465.774066
20
55.419945
11
474.412342
21
29.859698
0
LINE
8
boundary
62
5
39
2
10
474.412342
20
29.859698
11
483.162526
21
35.823495
0
LINE
8
boundary
62
5
39
2
10
483.162526
20
35.823495
11
485.945212
21
39.200371
0
LINE
8
boundary
62
5
39
2
10
485.945212
20
39.200371
11
487.355557
21
42.472338
0
LINE
8
boundary
62
5
39
2
10
487.355557
20
42.472338
11
483.363242
21
48.213655
0
LINE
8
boundary
62
5
39
2
10
483.363242
20
48.213655
11
486.972467
21
52.520704
0
LINE
8
boundary
62
5
39
2
10
486.972467
20
52.520704
11
486.036645
21
57.406474
0
LINE
8
boundary
62
5
39
2
10
486.036645
20
57.406474
11
485.934323
21
57.940681
0
LINE
8
boundary
62
5
39
2
10
485.934323
20
57.940681
11
469.444901
21
73.557806
0
LINE
8
boundary
62
5
39
2
10
469.444901
20
73.557806
11
473.636766
21
77.983808
0
LINE
8
boundary
62
5
39
2
10
473.636766
20
77.983808
11
483.602476
21
68.545287
0
LINE
8
boundary
62
5
39
2
10
483.602476
20
68.545287
11
481.217773
21
83.660351
0
LINE
8
boundary
62
5
39
2
10
481.217773
20
83.660351
11
468.689994
21
90.417679
0
LINE
8
boundary
62
5
39
2
10
468.689994
20
90.417679
11
450.437185
21
100.265055
0
LINE
8
boundary
62
5
39
2
10
450.437185
20
100.265055
11
446.681871
21
100.326242
0
LINE
8
boundary
62
5
39
2
10
446.681871
20
100.326242
11
428.268711
21
90.565214
0
LINE
8
boundary
62
5
39
2
10
428.268711
20
90.565214
11
415.738604
21
83.890500
0
LINE
8
boundary
62
5
39
2
10
415.738604
20
83.890500
11
412.780023
21
68.285862
0
LINE
8
boundary
62
5
39
2
10
412.780023
20
68.285862
11
422.785446
21
77.519112
0
LINE
8
boundary
62
5
39
2
10
422.785446
20
77.519112
11
427.022980
21
73.136815
0
LINE
8
boundary
62
5
39
2
10
427.022980
20
73.136815
11
410.626319
21
57.281794
0
LINE
8
boundary
62
5
39
2
10
410.626319
20
57.281794
11
410.513696
21
56.731233
0
LINE
8
boundary
62
5
39
2
10
410.513696
20
56.731233
11
409.710077
21
52.802710
0
LINE
8
boundary
62
5
39
2
10
409.710077
20
52.802710
11
413.287766
21
48.469427
0
LINE
8
boundary
62
5
39
2
10
413.287766
20
48.469427
11
409.253645
21
42.757410
0
LINE
8
boundary
62
5
39
2
10
409.253645
20
42.757410
11
410.640068
21
39.475236
0
LINE
8
annotation
62
1
39
211
10
449.570028
20
97.027306
11
446.827094
21
97.071998
0
LINE
8
annotation
62
1
39
211
10
446.827094
20
97.071998
11
447.427120
21
96.452270
0
LINE
8
annotation
62
1
39
211
10
428.972974
20
86.328975
11
432.216778
21
89.465625
0
LINE
8
annotation
62
1
39
211
10
432.216778
20
89.465625
11
433.885396
21
81.741858
0
LINE
8
annotation
62
1
39
211
10
433.885396
20
81.741858
11
433.885396
21
81.741858
0
LINE
8
annotation
62
1
39
211
10
433.885396
20
81.741858
11
433.886101
21
81.733959
0
LINE
8
annotation
62
1
39
211
10
433.886101
20
81.733959
11
433.886988
21
81.726165
0
LINE
8
annotation
62
1
39
211
10
433.886988
20
81.726165
11
433.888073
21
81.718415
0
LINE
8
annotation
62
1
39
211
10
433.888073
20
81.718415
11
433.889370
21
81.710651
0
LINE
8
annotation
62
1
39
211
10
433.889370
20
81.710651
11
433.890891
21
81.702813
0
LINE
8
annotation
62
1
39
211
10
433.890891
20
81.702813
11
433.892651
21
81.694840
0
LINE
8
annotation
62
1
39
211
10
433.892651
20
81.694840
11
433.894663
21
81.686675
0
LINE
8
annotation
62
1
39
211
10
433.894663
20
81.686675
11
433.896943
21
81.678256
0
LINE
8
annotation
62
1
39
211
10
433.896943
20
81.678256
11
433.899502
21
81.669525
0
LINE
8
annotation
62
1
39
211
10
433.899502
20
81.669525
11
433.899502
21
81.669525
0
LINE
8
annotation
62
1
39
211
10
433.899502
20
81.669525
11
434.032689
21
81.284127
0
LINE
8
annotation
62
1
39
211
10
434.032689
20
81.284127
11
434.226738
21
80.938768
0
LINE
8
annotation
62
1
39
211
10
434.226738
20
80.938768
11
434.473861
21
80.637959
0
LINE
8
annotation
62
1
39
211
10
434.473861
20
80.637959
11
434.766267
21
80.386212
0
LINE
8
annotation
62
1
39
211
10
434.766267
20
80.386212
11
435.096166
21
80.188036
0
LINE
8
annotation
62
1
39
211
10
435.096166
20
80.188036
11
435.455766
21
80.047942
0
LINE
8
annotation
62
1
39
211
10
435.455766
20
80.047942
11
435.837279
21
79.970442
0
LINE
8
annotation
62
1
39
211
10
435.837279
20
79.970442
11
436.232914
21
79.960046
0
LINE
8
annotation
62
1
39
211
10
436.232914
20
79.960046
11
436.634881
21
80.021264
0
LINE
8
annotation
62
1
39
211
10
436.634881
20
80.021264
11
436.634881
21
80.021264
0
LINE
8
annotation
62
1
39
211
10
436.634881
20
80.021264
11
437.019318
21
80.156924
0
LINE
8
annotation
62
1
39
211
10
437.019318
20
80.156924
11
437.364022
21
80.352496
0
LINE
8
annotation
62
1
39
211
10
437.364022
20
80.352496
11
437.664375
21
80.600415
0
LINE
8
annotation
62
1
39
211
10
437.664375
20
80.600415
11
437.915758
21
80.893114
0
LINE
8
annotation
62
1
39
211
10
437.915758
20
80.893114
11
438.113554
21
81.223028
0
LINE
8
annotation
62
1
39
211
10
438.113554
20
81.223028
11
438.253144
21
81.582591
0
LINE
8
annotation
62
1
39
211
10
438.253144
20
81.582591
11
438.329911
21
81.964237
0
LINE
8
annotation
62
1
39
211
10
438.329911
20
81.964237
11
438.339235
21
82.360400
0
LINE
8
annotation
62
1
39
211
10
438.339235
20
82.360400
11
438.276498
21
82.763514
0
LINE
8
annotation
62
1
39
211
10
438.276498
20
82.763514
11
438.094414
21
83.378032
0
LINE
8
annotation
62
1
39
211
10
433.121938
20
69.411390
11
432.392486
21
67.276417
0
LINE
8
annotation
62
1
39
211
10
432.392486
20
67.276417
11
432.392486
21
67.276417
0
LINE
8
annotation
62
1
39
211
10
432.392486
20
67.276417
11
432.295738
21
66.880668
0
LINE
8
annotation
62
1
39
211
10
432.295738
20
66.880668
11
432.271563
21
66.485437
0
LINE
8
annotation
62
1
39
211
10
432.271563
20
66.485437
11
432.315921
21
66.098816
0
LINE
8
annotation
62
1
39
211
10
432.315921
20
66.098816
11
432.424772
21
65.728897
0
LINE
8
annotation
62
1
39
211
10
432.424772
20
65.728897
11
432.594074
21
65.383770
0
LINE
8
annotation
62
1
39
211
10
432.594074
20
65.383770
11
432.819788
21
65.071528
0
LINE
8
annotation
62
1
39
211
10
432.819788
20
65.071528
11
433.097873
21
64.800261
0
LINE
8
annotation
62
1
39
211
10
433.097873
20
64.800261
11
433.424287
21
64.578062
0
LINE
8
annotation
62
1
39
211
10
433.424287
20
64.578062
11
433.794992
21
64.413021
0
LINE
8
annotation
62
1
39
211
10
433.794992
20
64.413021
11
434.863985
21
64.047780
0
LINE
8
annotation
62
1
39
211
10
434.863985
20
64.047780
11
434.863985
21
64.047780
0
LINE
8
annotation
62
1
39
211
10
434.863985
20
64.047780
11
435.258017
21
63.951534
0
LINE
8
annotation
62
1
39
211
10
435.258017
20
63.951534
11
435.652069
21
63.927573
0
LINE
8
annotation
62
1
39
211
10
435.652069
20
63.927573
11
436.037980
21
63.971974
0
LINE
8
annotation
62
1
39
211
10
436.037980
20
63.971974
11
436.407586
21
64.080814
0
LINE
8
annotation
62
1
39
211
10
436.407586
20
64.080814
11
436.752727
21
64.250172
0
LINE
8
annotation
62
1
39
211
10
436.752727
20
64.250172
11
437.065241
21
64.476125
0
LINE
8
annotation
62
1
39
211
10
437.065241
20
64.476125
11
437.336965
21
64.754750
0
LINE
8
annotation
62
1
39
211
10
437.336965
20
64.754750
11
437.559737
21
65.082126
0
LINE
8
annotation
62
1
39
211
10
437.559737
20
65.082126
11
437.725396
21
65.454331
0
LINE
8
annotation
62
1
39
211
10
437.725396
20
65.454331
11
438.090637
21
66.523324
0
LINE
8
annotation
62
1
39
211
10
438.090637
20
66.523324
11
437.725396
21
65.454331
0
LINE
8
annotation
62
1
39
211
10
437.725396
20
65.454331
11
437.725396
21
65.454331
0
LINE
8
annotation
62
1
39
211
10
437.725396
20
65.454331
11
437.628676
21
65.058572
0
LINE
8
annotation
62
1
39
211
10
437.628676
20
65.058572
11
437.604609
21
64.663305
0
LINE
8
annotation
62
1
39
211
10
437.604609
20
64.663305
11
437.649189
21
64.276608
0
LINE
8
annotation
62
1
39
211
10
437.649189
20
64.276608
11
437.758410
21
63.906562
0
LINE
8
annotation
62
1
39
211
10
437.758410
20
63.906562
11
437.928267
21
63.561246
0
LINE
8
annotation
62
1
39
211
10
437.928267
20
63.561246
11
438.154753
21
63.248739
0
LINE
8
annotation
62
1
39
211
10
438.154753
20
63.248739
11
438.433863
21
62.977122
0
LINE
8
annotation
62
1
39
211
10
438.433863
20
62.977122
11
438.761591
21
62.754474
0
LINE
8
annotation
62
1
39
211
10
438.761591
20
62.754474
11
439.133931
21
62.588875
0
LINE
8
annotation
62
1
39
211
10
439.133931
20
62.588875
11
439.133931
21
62.588875
0
LINE
8
annotation
62
1
39
211
10
439.133931
20
62.588875
11
439.527963
21
62.492629
0
LINE
8
annotation
62
1
39
211
10
439.527963
20
62.492629
11
439.922015
21
62.468668
0
LINE
8
annotation
62
1
39
211
10
439.922015
20
62.468668
11
440.307926
21
62.513069
0
LINE
8
annotation
62
1
39
211
10
440.307926
20
62.513069
11
440.677532
21
62.621909
0
LINE
8
annotation
62
1
39
211
10
440.677532
20
62.621909
11
441.022673
21
62.791267
0
LINE
8
annotation
62
1
39
211
10
441.022673
20
62.791267
11
441.335187
21
63.017220
0
LINE
8
annotation
62
1
39
211
10
441.335187
20
63.017220
11
441.606911
21
63.295845
0
LINE
8
annotation
62
1
39
211
10
441.606911
20
63.295845
11
441.829683
21
63.623221
0
LINE
8
annotation
62
1
39
211
10
441.829683
20
63.623221
11
441.995342
21
63.995426
0
LINE
8
annotation
62
1
39
211
10
441.995342
20
63.995426
11
442.724795
21
66.130399
0
LINE
8
annotation
62
1
39
211
10
444.697028
20
63.813121
11
444.811801
21
69.453283
0
LINE
8
annotation
62
1
39
211
10
444.811801
20
69.453283
11
452.665630
21
67.040034
0
LINE
8
annotation
62
1
39
211
10
442.473200
20
65.549722
11
446.984565
21
65.457919
0
LINE
8
annotation
62
1
39
211
10
453.244372
20
67.108015
11
453.966718
21
64.970628
0
LINE
8
annotation
62
1
39
211
10
453.966718
20
64.970628
11
453.966718
21
64.970628
0
LINE
8
annotation
62
1
39
211
10
453.966718
20
64.970628
11
454.130857
21
64.598665
0
LINE
8
annotation
62
1
39
211
10
454.130857
20
64.598665
11
454.352399
21
64.270973
0
LINE
8
annotation
62
1
39
211
10
454.352399
20
64.270973
11
454.623229
21
63.991595
0
LINE
8
annotation
62
1
39
211
10
454.623229
20
63.991595
11
454.935234
21
63.764576
0
LINE
8
annotation
62
1
39
211
10
454.935234
20
63.764576
11
455.280299
21
63.593959
0
LINE
8
annotation
62
1
39
211
10
455.280299
20
63.593959
11
455.650309
21
63.483790
0
LINE
8
annotation
62
1
39
211
10
455.650309
20
63.483790
11
456.037149
21
63.438111
0
LINE
8
annotation
62
1
39
211
10
456.037149
20
63.438111
11
456.432707
21
63.460967
0
LINE
8
annotation
62
1
39
211
10
456.432707
20
63.460967
11
456.828866
21
63.556402
0
LINE
8
annotation
62
1
39
211
10
456.828866
20
63.556402
11
457.893637
21
63.916249
0
LINE
8
annotation
62
1
39
211
10
457.893637
20
63.916249
11
457.893637
21
63.916249
0
LINE
8
annotation
62
1
39
211
10
457.893637
20
63.916249
11
458.266292
21
64.080618
0
LINE
8
annotation
62
1
39
211
10
458.266292
20
64.080618
11
458.594137
21
64.302186
0
LINE
8
annotation
62
1
39
211
10
458.594137
20
64.302186
11
458.873258
21
64.572860
0
LINE
8
annotation
62
1
39
211
10
458.873258
20
64.572860
11
459.099744
21
64.884548
0
LINE
8
annotation
62
1
39
211
10
459.099744
20
64.884548
11
459.269679
21
65.229157
0
LINE
8
annotation
62
1
39
211
10
459.269679
20
65.229157
11
459.379152
21
65.598595
0
LINE
8
annotation
62
1
39
211
10
459.379152
20
65.598595
11
459.424248
21
65.984771
0
LINE
8
annotation
62
1
39
211
10
459.424248
20
65.984771
11
459.401055
21
66.379591
0
LINE
8
annotation
62
1
39
211
10
459.401055
20
66.379591
11
459.305660
21
66.774963
0
LINE
8
annotation
62
1
39
211
10
459.305660
20
66.774963
11
458.583314
21
68.912351
0
LINE
8
annotation
62
1
39
211
10
458.583314
20
68.912351
11
462.869558
21
70.360919
0
LINE
8
annotation
62
1
39
211
10
462.869558
20
70.360919
11
464.314251
21
66.086143
0
LINE
8
annotation
62
1
39
211
10
466.542592
20
87.501402
11
466.542592
21
87.501402
0
LINE
8
annotation
62
1
39
211
10
466.542592
20
87.501402
11
465.906685
21
87.769898
0
LINE
8
annotation
62
1
39
211
10
465.906685
20
87.769898
11
465.251543
21
87.940666
0
LINE
8
annotation
62
1
39
211
10
465.251543
20
87.940666
11
464.587213
21
88.015457
0
LINE
8
annotation
62
1
39
211
10
464.587213
20
88.015457
11
463.923740
21
87.996026
0
LINE
8
annotation
62
1
39
211
10
463.923740
20
87.996026
11
463.271169
21
87.884124
0
LINE
8
annotation
62
1
39
211
10
463.271169
20
87.884124
11
462.639548
21
87.681505
0
LINE
8
annotation
62
1
39
211
10
462.639548
20
87.681505
11
462.038922
21
87.389923
0
LINE
8
annotation
62
1
39
211
10
462.038922
20
87.389923
11
461.479336
21
87.011129
0
LINE
8
annotation
62
1
39
211
10
461.479336
20
87.011129
11
460.970837
21
86.546878
0
LINE
8
annotation
62
1
39
211
10
460.970837
20
86.546878
11
458.648741
21
84.095081
0
LINE
8
annotation
62
1
39
211
10
458.648741
20
84.095081
11
458.648741
21
84.095081
0
LINE
8
annotation
62
1
39
211
10
458.648741
20
84.095081
11
458.396101
21
83.775357
0
LINE
8
annotation
62
1
39
211
10
458.396101
20
83.775357
11
458.209614
21
83.425771
0
LINE
8
annotation
62
1
39
211
10
458.209614
20
83.425771
11
458.089009
21
83.055384
0
LINE
8
annotation
62
1
39
211
10
458.089009
20
83.055384
11
458.034013
21
82.673258
0
LINE
8
annotation
62
1
39
211
10
458.034013
20
82.673258
11
458.044354
21
82.288456
0
LINE
8
annotation
62
1
39
211
10
458.044354
20
82.288456
11
458.119759
21
81.910040
0
LINE
8
annotation
62
1
39
211
10
458.119759
20
81.910040
11
458.259958
21
81.547072
0
LINE
8
annotation
62
1
39
211
10
458.259958
20
81.547072
11
458.464676
21
81.208615
0
LINE
8
annotation
62
1
39
211
10
458.464676
20
81.208615
11
458.733643
21
80.903730
0
LINE
8
annotation
62
1
39
211
10
458.733643
20
80.903730
11
458.733643
21
80.903730
0
LINE
8
annotation
62
1
39
211
10
458.733643
20
80.903730
11
459.053292
21
80.651138
0
LINE
8
annotation
62
1
39
211
10
459.053292
20
80.651138
11
459.402689
21
80.464792
0
LINE
8
annotation
62
1
39
211
10
459.402689
20
80.464792
11
459.772829
21
80.344418
0
LINE
8
annotation
62
1
39
211
10
459.772829
20
80.344418
11
460.154705
21
80.289743
0
LINE
8
annotation
62
1
39
211
10
460.154705
20
80.289743
11
460.539310
21
80.300492
0
LINE
8
annotation
62
1
39
211
10
460.539310
20
80.300492
11
460.917639
21
80.376390
0
LINE
8
annotation
62
1
39
211
10
460.917639
20
80.376390
11
461.280683
21
80.517162
0
LINE
8
annotation
62
1
39
211
10
461.280683
20
80.517162
11
461.619438
21
80.722536
0
LINE
8
annotation
62
1
39
211
10
461.619438
20
80.722536
11
461.924896
21
80.992236
0
LINE
8
annotation
62
1
39
211
10
461.924896
20
80.992236
11
462.697760
21
81.808268
0
LINE
8
annotation
62
1
39
211
10
462.697760
20
81.808268
11
462.697760
21
81.808268
0
LINE
8
annotation
62
1
39
211
10
462.697760
20
81.808268
11
462.950341
21
82.127776
0
LINE
8
annotation
62
1
39
211
10
462.950341
20
82.127776
11
463.136655
21
82.476800
0
LINE
8
annotation
62
1
39
211
10
463.136655
20
82.476800
11
463.256984
21
82.846399
0
LINE
8
annotation
62
1
39
211
10
463.256984
20
82.846399
11
463.311605
21
83.227633
0
LINE
8
annotation
62
1
39
211
10
463.311605
20
83.227633
11
463.300800
21
83.611564
0
LINE
8
annotation
62
1
39
211
10
463.300800
20
83.611564
11
463.224849
21
83.989251
0
LINE
8
annotation
62
1
39
211
10
463.224849
20
83.989251
11
463.084030
21
84.351755
0
LINE
8
annotation
62
1
39
211
10
463.084030
20
84.351755
11
462.878626
21
84.690136
0
LINE
8
annotation
62
1
39
211
10
462.878626
20
84.690136
11
462.608914
21
84.995455
0
LINE
8
annotation
62
1
39
211
10
462.608914
20
84.995455
11
460.970837
21
86.546878
0
LINE
8
annotation
62
1
39
211
10
456.017096
20
81.727381
11
459.705431
21
78.234160
0
LINE
8
annotation
62
1
39
211
10
439.477799
20
71.095526
11
436.355135
21
71.095526
0
LINE
8
annotation
62
1
39
211
10
436.355135
20
71.095526
11
439.477799
21
76.719426
0
LINE
8
annotation
62
1
39
211
10
439.477799
20
76.719426
11
436.355135
21
76.719426
0
LINE
8
annotation
62
1
39
211
10
444.662343
20
73.907476
11
441.587291
21
73.907476
0
LINE
8
annotation
62
1
39
211
10
446.770777
20
71.095702
11
448.019631
21
71.095702
0
LINE
8
annotation
62
1
39
211
10
448.019631
20
71.095702
11
448.019631
21
71.095702
0
LINE
8
annotation
62
1
39
211
10
448.019631
20
71.095702
11
448.244240
21
71.115851
0
LINE
8
annotation
62
1
39
211
10
448.244240
20
71.115851
11
448.455590
21
71.173921
0
LINE
8
annotation
62
1
39
211
10
448.455590
20
71.173921
11
448.650165
21
71.266349
0
LINE
8
annotation
62
1
39
211
10
448.650165
20
71.266349
11
448.824449
21
71.389569
0
LINE
8
annotation
62
1
39
211
10
448.824449
20
71.389569
11
448.974928
21
71.540016
0
LINE
8
annotation
62
1
39
211
10
448.974928
20
71.540016
11
449.098087
21
71.714127
0
LINE
8
annotation
62
1
39
211
10
449.098087
20
71.714127
11
449.190409
21
71.908336
0
LINE
8
annotation
62
1
39
211
10
449.190409
20
71.908336
11
449.248380
21
72.119080
0
LINE
8
annotation
62
1
39
211
10
449.248380
20
72.119080
11
449.268485
21
72.342793
0
LINE
8
annotation
62
1
39
211
10
449.268485
20
72.342793
11
449.268485
21
72.968102
0
LINE
8
annotation
62
1
39
211
10
449.268485
20
72.968102
11
449.268485
21
72.968102
0
LINE
8
annotation
62
1
39
211
10
449.268485
20
72.968102
11
449.248380
21
73.191722
0
LINE
8
annotation
62
1
39
211
10
449.248380
20
73.191722
11
449.190409
21
73.402416
0
LINE
8
annotation
62
1
39
211
10
449.190409
20
73.402416
11
449.098087
21
73.596611
0
LINE
8
annotation
62
1
39
211
10
449.098087
20
73.596611
11
448.974928
21
73.770733
0
LINE
8
annotation
62
1
39
211
10
448.974928
20
73.770733
11
448.824449
21
73.921210
0
LINE
8
annotation
62
1
39
211
10
448.824449
20
73.921210
11
448.650165
21
74.044467
0
LINE
8
annotation
62
1
39
211
10
448.650165
20
74.044467
11
448.455590
21
74.136932
0
LINE
8
annotation
62
1
39
211
10
448.455590
20
74.136932
11
448.244240
21
74.195032
0
LINE
8
annotation
62
1
39
211
10
448.244240
20
74.195032
11
448.019631
21
74.215192
0
LINE
8
annotation
62
1
39
211
10
448.019631
20
74.215192
11
447.394322
21
74.215192
0
LINE
8
annotation
62
1
39
211
10
447.394322
20
74.215192
11
448.019631
21
74.215192
0
LINE
8
annotation
62
1
39
211
10
448.019631
20
74.215192
11
448.019631
21
74.215192
0
LINE
8
annotation
62
1
39
211
10
448.019631
20
74.215192
11
448.244240
21
74.235358
0
LINE
8
annotation
62
1
39
211
10
448.244240
20
74.235358
11
448.455590
21
74.293491
0
LINE
8
annotation
62
1
39
211
10
448.455590
20
74.293491
11
448.650165
21
74.386048
0
LINE
8
annotation
62
1
39
211
10
448.650165
20
74.386048
11
448.824449
21
74.509485
0
LINE
8
annotation
62
1
39
211
10
448.824449
20
74.509485
11
448.974928
21
74.660257
0
LINE
8
annotation
62
1
39
211
10
448.974928
20
74.660257
11
449.098087
21
74.834819
0
LINE
8
annotation
62
1
39
211
10
449.098087
20
74.834819
11
449.190409
21
75.029629
0
LINE
8
annotation
62
1
39
211
10
449.190409
20
75.029629
11
449.248380
21
75.241140
0
LINE
8
annotation
62
1
39
211
10
449.248380
20
75.241140
11
449.268485
21
75.465810
0
LINE
8
annotation
62
1
39
211
10
449.268485
20
75.465810
11
449.268485
21
75.465810
0
LINE
8
annotation
62
1
39
211
10
449.268485
20
75.465810
11
449.248380
21
75.689430
0
LINE
8
annotation
62
1
39
211
10
449.248380
20
75.689430
11
449.190409
21
75.900124
0
LINE
8
annotation
62
1
39
211
10
449.190409
20
75.900124
11
449.098087
21
76.094319
0
LINE
8
annotation
62
1
39
211
10
449.098087
20
76.094319
11
448.974928
21
76.268442
0
LINE
8
annotation
62
1
39
211
10
448.974928
20
76.268442
11
448.824449
21
76.418918
0
LINE
8
annotation
62
1
39
211
10
448.824449
20
76.418918
11
448.650165
21
76.542176
0
LINE
8
annotation
62
1
39
211
10
448.650165
20
76.542176
11
448.455590
21
76.634641
0
LINE
8
annotation
62
1
39
211
10
448.455590
20
76.634641
11
448.244240
21
76.692740
0
LINE
8
annotation
62
1
39
211
10
448.244240
20
76.692740
11
448.019631
21
76.712901
0
LINE
8
annotation
62
1
39
211
10
448.019631
20
76.712901
11
446.770777
21
76.712901
0
LINE
8
annotation
62
1
39
211
10
454.453029
20
73.907476
11
451.377977
21
73.907476
0
LINE
8
annotation
62
1
39
211
10
457.811904
20
71.095526
11
457.811904
21
76.719426
0
LINE
8
annotation
62
1
39
211
10
457.811904
20
76.719426
11
456.561639
21
75.468808
0
LINE
8
boundary
62
5
39
2
10
492.344782
20
38.728149
11
490.530557
21
33.579697
0
LINE
8
boundary
62
5
39
2
10
490.530557
20
33.579697
11
494.706705
21
30.562040
0
LINE
8
boundary
62
5
39
2
10
494.706705
20
30.562040
11
505.742623
21
33.416323
0
LINE
8
boundary
62
5
39
2
10
505.742623
20
33.416323
11
508.533577
21
34.263483
0
LINE
8
boundary
62
5
39
2
10
508.533577
20
34.263483
11
509.152333
21
34.195447
0
LINE
8
boundary
62
5
39
2
10
509.152333
20
34.195447
11
515.821747
21
53.715592
0
LINE
8
boundary
62
5
39
2
10
515.821747
20
53.715592
11
521.590334
21
51.744649
0
LINE
8
boundary
62
5
39
2
10
521.590334
20
51.744649
11
514.892882
21
32.142440
0
LINE
8
boundary
62
5
39
2
10
514.892882
20
32.142440
11
521.124026
21
30.215027
0
LINE
8
boundary
62
5
39
2
10
521.124026
20
30.215027
11
526.082454
21
28.832664
0
LINE
8
boundary
62
5
39
2
10
526.082454
20
28.832664
11
527.536391
21
28.398232
0
LINE
8
boundary
62
5
39
2
10
527.536391
20
28.398232
11
528.284457
21
49.553815
0
LINE
8
boundary
62
5
39
2
10
528.284457
20
49.553815
11
534.379195
21
49.429792
0
LINE
8
boundary
62
5
39
2
10
534.379195
20
49.429792
11
533.938063
21
27.751733
0
LINE
8
boundary
62
5
39
2
10
533.938063
20
27.751733
11
538.446391
21
28.787535
0
LINE
8
boundary
62
5
39
2
10
538.446391
20
28.787535
11
543.414778
21
30.133665
0
LINE
8
boundary
62
5
39
2
10
543.414778
20
30.133665
11
549.116568
21
31.666232
0
LINE
8
boundary
62
5
39
2
10
549.116568
20
31.666232
11
542.346888
21
52.689060
0
LINE
8
boundary
62
5
39
2
10
542.346888
20
52.689060
11
548.122000
21
54.640802
0
LINE
8
boundary
62
5
39
2
10
548.122000
20
54.640802
11
555.136548
21
33.885090
0
LINE
8
boundary
62
5
39
2
10
555.136548
20
33.885090
11
556.034448
21
34.090108
0
LINE
8
boundary
62
5
39
2
10
556.034448
20
34.090108
11
558.819141
21
33.222597
0
LINE
8
boundary
62
5
39
2
10
558.819141
20
33.222597
11
569.833925
21
30.287831
0
LINE
8
boundary
62
5
39
2
10
569.833925
20
30.287831
11
574.031991
21
33.274922
0
LINE
8
boundary
62
5
39
2
10
574.031991
20
33.274922
11
572.255399
21
38.436480
0
LINE
8
boundary
62
5
39
2
10
572.255399
20
38.436480
11
568.008862
21
50.398109
0
LINE
8
boundary
62
5
39
2
10
568.008862
20
50.398109
11
567.356146
21
53.773674
0
LINE
8
boundary
62
5
39
2
10
567.356146
20
53.773674
11
567.233343
21
54.414808
0
LINE
8
boundary
62
5
39
2
10
567.233343
20
54.414808
11
567.131021
21
54.949015
0
LINE
8
boundary
62
5
39
2
10
567.131021
20
54.949015
11
552.023855
21
69.257006
0
LINE
8
boundary
62
5
39
2
10
552.023855
20
69.257006
11
556.215719
21
73.683008
0
LINE
8
boundary
62
5
39
2
10
556.215719
20
73.683008
11
564.727016
21
65.621962
0
LINE
8
boundary
62
5
39
2
10
564.727016
20
65.621962
11
563.416146
21
74.838747
0
LINE
8
boundary
62
5
39
2
10
563.416146
20
74.838747
11
541.451916
21
86.685978
0
LINE
8
boundary
62
5
39
2
10
541.451916
20
86.685978
11
532.493311
21
91.519138
0
LINE
8
boundary
62
5
39
2
10
532.493311
20
91.519138
11
523.499665
21
86.751502
0
LINE
8
boundary
62
5
39
2
10
523.499665
20
86.751502
11
501.531354
21
75.049113
0
LINE
8
boundary
62
5
39
2
10
501.531354
20
75.049113
11
499.721514
21
65.503353
0
LINE
8
boundary
62
5
39
2
10
499.721514
20
65.503353
11
508.210247
21
73.270014
0
LINE
8
boundary
62
5
39
2
10
508.210247
20
73.270014
11
512.447781
21
68.887718
0
LINE
8
boundary
62
5
39
2
10
512.447781
20
68.887718
11
497.455024
21
54.390224
0
LINE
8
boundary
62
5
39
2
10
497.455024
20
54.390224
11
496.654185
21
50.667451
0
LINE
8
boundary
62
5
39
2
10
496.654185
20
50.667451
11
492.344782
21
38.728149
0
LINE
8
annotation
62
1
39
211
10
513.195562
20
78.781437
11
515.458906
21
80.970015
0
LINE
8
annotation
62
1
39
211
10
515.458906
20
80.970015
11
516.623174
21
75.580804
0
LINE
8
annotation
62
1
39
211
10
516.623174
20
75.580804
11
516.623174
21
75.580804
0
LINE
8
annotation
62
1
39
211
10
516.623174
20
75.580804
11
516.623666
21
75.575293
0
LINE
8
annotation
62
1
39
211
10
516.623666
20
75.575293
11
516.624285
21
75.569854
0
LINE
8
annotation
62
1
39
211
10
516.624285
20
75.569854
11
516.625042
21
75.564447
0
LINE
8
annotation
62
1
39
211
10
516.625042
20
75.564447
11
516.625947
21
75.559030
0
LINE
8
annotation
62
1
39
211
10
516.625947
20
75.559030
11
516.627008
21
75.553561
0
LINE
8
annotation
62
1
39
211
10
516.627008
20
75.553561
11
516.628236
21
75.547998
0
LINE
8
annotation
62
1
39
211
10
516.628236
20
75.547998
11
516.629640
21
75.542301
0
LINE
8
annotation
62
1
39
211
10
516.629640
20
75.542301
11
516.631230
21
75.536427
0
LINE
8
annotation
62
1
39
211
10
516.631230
20
75.536427
11
516.633016
21
75.530335
0
LINE
8
annotation
62
1
39
211
10
516.633016
20
75.530335
11
516.633016
21
75.530335
0
LINE
8
annotation
62
1
39
211
10
516.633016
20
75.530335
11
516.725946
21
75.261425
0
LINE
8
annotation
62
1
39
211
10
516.725946
20
75.261425
11
516.861344
21
75.020453
0
LINE
8
annotation
62
1
39
211
10
516.861344
20
75.020453
11
517.033772
21
74.810566
0
LINE
8
annotation
62
1
39
211
10
517.033772
20
74.810566
11
517.237796
21
74.634911
0
LINE
8
annotation
62
1
39
211
10
517.237796
20
74.634911
11
517.467981
21
74.496635
0
LINE
8
annotation
62
1
39
211
10
517.467981
20
74.496635
11
517.718890
21
74.398885
0
LINE
8
annotation
62
1
39
211
10
517.718890
20
74.398885
11
517.985088
21
74.344810
0
LINE
8
annotation
62
1
39
211
10
517.985088
20
74.344810
11
518.261140
21
74.337556
0
LINE
8
annotation
62
1
39
211
10
518.261140
20
74.337556
11
518.541610
21
74.380271
0
LINE
8
annotation
62
1
39
211
10
518.541610
20
74.380271
11
518.541610
21
74.380271
0
LINE
8
annotation
62
1
39
211
10
518.541610
20
74.380271
11
518.809848
21
74.474927
0
LINE
8
annotation
62
1
39
211
10
518.809848
20
74.474927
11
519.050364
21
74.611386
0
LINE
8
annotation
62
1
39
211
10
519.050364
20
74.611386
11
519.259933
21
74.784370
0
LINE
8
annotation
62
1
39
211
10
519.259933
20
74.784370
11
519.435334
21
74.988599
0
LINE
8
annotation
62
1
39
211
10
519.435334
20
74.988599
11
519.573345
21
75.218794
0
LINE
8
annotation
62
1
39
211
10
519.573345
20
75.218794
11
519.670743
21
75.469677
0
LINE
8
annotation
62
1
39
211
10
519.670743
20
75.469677
11
519.724306
21
75.735968
0
LINE
8
annotation
62
1
39
211
10
519.724306
20
75.735968
11
519.730812
21
76.012388
0
LINE
8
annotation
62
1
39
211
10
519.730812
20
76.012388
11
519.687038
21
76.293658
0
LINE
8
annotation
62
1
39
211
10
519.687038
20
76.293658
11
519.559990
21
76.722434
0
LINE
8
annotation
62
1
39
211
10
518.776243
20
68.646718
11
518.046791
21
66.511745
0
LINE
8
annotation
62
1
39
211
10
518.046791
20
66.511745
11
518.046791
21
66.511745
0
LINE
8
annotation
62
1
39
211
10
518.046791
20
66.511745
11
517.950042
21
66.115996
0
LINE
8
annotation
62
1
39
211
10
517.950042
20
66.115996
11
517.925868
21
65.720765
0
LINE
8
annotation
62
1
39
211
10
517.925868
20
65.720765
11
517.970226
21
65.334144
0
LINE
8
annotation
62
1
39
211
10
517.970226
20
65.334144
11
518.079077
21
64.964225
0
LINE
8
annotation
62
1
39
211
10
518.079077
20
64.964225
11
518.248379
21
64.619098
0
LINE
8
annotation
62
1
39
211
10
518.248379
20
64.619098
11
518.474093
21
64.306856
0
LINE
8
annotation
62
1
39
211
10
518.474093
20
64.306856
11
518.752178
21
64.035589
0
LINE
8
annotation
62
1
39
211
10
518.752178
20
64.035589
11
519.078592
21
63.813390
0
LINE
8
annotation
62
1
39
211
10
519.078592
20
63.813390
11
519.449296
21
63.648349
0
LINE
8
annotation
62
1
39
211
10
519.449296
20
63.648349
11
520.518290
21
63.283108
0
LINE
8
annotation
62
1
39
211
10
520.518290
20
63.283108
11
520.518290
21
63.283108
0
LINE
8
annotation
62
1
39
211
10
520.518290
20
63.283108
11
520.912322
21
63.186862
0
LINE
8
annotation
62
1
39
211
10
520.912322
20
63.186862
11
521.306374
21
63.162901
0
LINE
8
annotation
62
1
39
211
10
521.306374
20
63.162901
11
521.692284
21
63.207302
0
LINE
8
annotation
62
1
39
211
10
521.692284
20
63.207302
11
522.061891
21
63.316142
0
LINE
8
annotation
62
1
39
211
10
522.061891
20
63.316142
11
522.407032
21
63.485500
0
LINE
8
annotation
62
1
39
211
10
522.407032
20
63.485500
11
522.719545
21
63.711453
0
LINE
8
annotation
62
1
39
211
10
522.719545
20
63.711453
11
522.991269
21
63.990078
0
LINE
8
annotation
62
1
39
211
10
522.991269
20
63.990078
11
523.214042
21
64.317454
0
LINE
8
annotation
62
1
39
211
10
523.214042
20
64.317454
11
523.379701
21
64.689658
0
LINE
8
annotation
62
1
39
211
10
523.379701
20
64.689658
11
523.744942
21
65.758652
0
LINE
8
annotation
62
1
39
211
10
523.744942
20
65.758652
11
523.379701
21
64.689658
0
LINE
8
annotation
62
1
39
211
10
523.379701
20
64.689658
11
523.379701
21
64.689658
0
LINE
8
annotation
62
1
39
211
10
523.379701
20
64.689658
11
523.282981
21
64.293900
0
LINE
8
annotation
62
1
39
211
10
523.282981
20
64.293900
11
523.258914
21
63.898633
0
LINE
8
annotation
62
1
39
211
10
523.258914
20
63.898633
11
523.303494
21
63.511936
0
LINE
8
annotation
62
1
39
211
10
523.303494
20
63.511936
11
523.412715
21
63.141890
0
LINE
8
annotation
62
1
39
211
10
523.412715
20
63.141890
11
523.582572
21
62.796574
0
LINE
8
annotation
62
1
39
211
10
523.582572
20
62.796574
11
523.809058
21
62.484067
0
LINE
8
annotation
62
1
39
211
10
523.809058
20
62.484067
11
524.088168
21
62.212450
0
LINE
8
annotation
62
1
39
211
10
524.088168
20
62.212450
11
524.415896
21
61.989802
0
LINE
8
annotation
62
1
39
211
10
524.415896
20
61.989802
11
524.788236
21
61.824203
0
LINE
8
annotation
62
1
39
211
10
524.788236
20
61.824203
11
524.788236
21
61.824203
0
LINE
8
annotation
62
1
39
211
10
524.788236
20
61.824203
11
525.182268
21
61.727957
0
LINE
8
annotation
62
1
39
211
10
525.182268
20
61.727957
11
525.576320
21
61.703996
0
LINE
8
annotation
62
1
39
211
10
525.576320
20
61.703996
11
525.962230
21
61.748397
0
LINE
8
annotation
62
1
39
211
10
525.962230
20
61.748397
11
526.331837
21
61.857237
0
LINE
8
annotation
62
1
39
211
10
526.331837
20
61.857237
11
526.676978
21
62.026595
0
LINE
8
annotation
62
1
39
211
10
526.676978
20
62.026595
11
526.989491
21
62.252548
0
LINE
8
annotation
62
1
39
211
10
526.989491
20
62.252548
11
527.261215
21
62.531173
0
LINE
8
annotation
62
1
39
211
10
527.261215
20
62.531173
11
527.483988
21
62.858549
0
LINE
8
annotation
62
1
39
211
10
527.483988
20
62.858549
11
527.649647
21
63.230753
0
LINE
8
annotation
62
1
39
211
10
527.649647
20
63.230753
11
528.379100
21
65.365726
0
LINE
8
annotation
62
1
39
211
10
528.714713
20
59.554741
11
528.829486
21
65.194903
0
LINE
8
annotation
62
1
39
211
10
528.829486
20
65.194903
11
536.683316
21
62.781654
0
LINE
8
annotation
62
1
39
211
10
526.490886
20
61.291342
11
531.002251
21
61.199539
0
LINE
8
annotation
62
1
39
211
10
535.592306
20
66.328872
11
536.314652
21
64.191484
0
LINE
8
annotation
62
1
39
211
10
536.314652
20
64.191484
11
536.314652
21
64.191484
0
LINE
8
annotation
62
1
39
211
10
536.314652
20
64.191484
11
536.478791
21
63.819522
0
LINE
8
annotation
62
1
39
211
10
536.478791
20
63.819522
11
536.700333
21
63.491829
0
LINE
8
annotation
62
1
39
211
10
536.700333
20
63.491829
11
536.971163
21
63.212452
0
LINE
8
annotation
62
1
39
211
10
536.971163
20
63.212452
11
537.283168
21
62.985432
0
LINE
8
annotation
62
1
39
211
10
537.283168
20
62.985432
11
537.628233
21
62.814816
0
LINE
8
annotation
62
1
39
211
10
537.628233
20
62.814816
11
537.998243
21
62.704646
0
LINE
8
annotation
62
1
39
211
10
537.998243
20
62.704646
11
538.385083
21
62.658967
0
LINE
8
annotation
62
1
39
211
10
538.385083
20
62.658967
11
538.780641
21
62.681823
0
LINE
8
annotation
62
1
39
211
10
538.780641
20
62.681823
11
539.176800
21
62.777258
0
LINE
8
annotation
62
1
39
211
10
539.176800
20
62.777258
11
540.241571
21
63.137106
0
LINE
8
annotation
62
1
39
211
10
540.241571
20
63.137106
11
540.241571
21
63.137106
0
LINE
8
annotation
62
1
39
211
10
540.241571
20
63.137106
11
540.614226
21
63.301475
0
LINE
8
annotation
62
1
39
211
10
540.614226
20
63.301475
11
540.942071
21
63.523043
0
LINE
8
annotation
62
1
39
211
10
540.942071
20
63.523043
11
541.221193
21
63.793717
0
LINE
8
annotation
62
1
39
211
10
541.221193
20
63.793717
11
541.447678
21
64.105404
0
LINE
8
annotation
62
1
39
211
10
541.447678
20
64.105404
11
541.617613
21
64.450014
0
LINE
8
annotation
62
1
39
211
10
541.617613
20
64.450014
11
541.727086
21
64.819452
0
LINE
8
annotation
62
1
39
211
10
541.727086
20
64.819452
11
541.772182
21
65.205627
0
LINE
8
annotation
62
1
39
211
10
541.772182
20
65.205627
11
541.748989
21
65.600447
0
LINE
8
annotation
62
1
39
211
10
541.748989
20
65.600447
11
541.653594
21
65.995820
0
LINE
8
annotation
62
1
39
211
10
541.653594
20
65.995820
11
540.931248
21
68.133207
0
LINE
8
annotation
62
1
39
211
10
540.931248
20
68.133207
11
545.217492
21
69.581776
0
LINE
8
annotation
62
1
39
211
10
545.217492
20
69.581776
11
546.662185
21
65.307000
0
LINE
8
annotation
62
1
39
211
10
550.654418
20
79.562705
11
550.654418
21
79.562705
0
LINE
8
annotation
62
1
39
211
10
550.654418
20
79.562705
11
550.217198
21
79.747311
0
LINE
8
annotation
62
1
39
211
10
550.217198
20
79.747311
11
549.766752
21
79.864723
0
LINE
8
annotation
62
1
39
211
10
549.766752
20
79.864723
11
549.309990
21
79.916146
0
LINE
8
annotation
62
1
39
211
10
549.309990
20
79.916146
11
548.853816
21
79.902785
0
LINE
8
annotation
62
1
39
211
10
548.853816
20
79.902785
11
548.405139
21
79.825847
0
LINE
8
annotation
62
1
39
211
10
548.405139
20
79.825847
11
547.970866
21
79.686536
0
LINE
8
annotation
62
1
39
211
10
547.970866
20
79.686536
11
547.557903
21
79.486057
0
LINE
8
annotation
62
1
39
211
10
547.557903
20
79.486057
11
547.173158
21
79.225616
0
LINE
8
annotation
62
1
39
211
10
547.173158
20
79.225616
11
546.823537
21
78.906419
0
LINE
8
annotation
62
1
39
211
10
546.823537
20
78.906419
11
545.226972
21
77.220677
0
LINE
8
annotation
62
1
39
211
10
545.226972
20
77.220677
11
545.226972
21
77.220677
0
LINE
8
annotation
62
1
39
211
10
545.226972
20
77.220677
11
545.053269
21
77.000850
0
LINE
8
annotation
62
1
39
211
10
545.053269
20
77.000850
11
544.925049
21
76.760490
0
LINE
8
annotation
62
1
39
211
10
544.925049
20
76.760490
11
544.842127
21
76.505829
0
LINE
8
annotation
62
1
39
211
10
544.842127
20
76.505829
11
544.804314
21
76.243097
0
LINE
8
annotation
62
1
39
211
10
544.804314
20
76.243097
11
544.811424
21
75.978525
0
LINE
8
annotation
62
1
39
211
10
544.811424
20
75.978525
11
544.863269
21
75.718344
0
LINE
8
annotation
62
1
39
211
10
544.863269
20
75.718344
11
544.959663
21
75.468784
0
LINE
8
annotation
62
1
39
211
10
544.959663
20
75.468784
11
545.100418
21
75.236077
0
LINE
8
annotation
62
1
39
211
10
545.100418
20
75.236077
11
545.285347
21
75.026453
0
LINE
8
annotation
62
1
39
211
10
545.285347
20
75.026453
11
545.285347
21
75.026453
0
LINE
8
annotation
62
1
39
211
10
545.285347
20
75.026453
11
545.505122
21
74.852782
0
LINE
8
annotation
62
1
39
211
10
545.505122
20
74.852782
11
545.745352
21
74.724659
0
LINE
8
annotation
62
1
39
211
10
545.745352
20
74.724659
11
545.999843
21
74.641896
0
LINE
8
annotation
62
1
39
211
10
545.999843
20
74.641896
11
546.262403
21
74.604303
0
LINE
8
annotation
62
1
39
211
10
546.262403
20
74.604303
11
546.526840
21
74.611694
0
LINE
8
annotation
62
1
39
211
10
546.526840
20
74.611694
11
546.786961
21
74.663877
0
LINE
8
annotation
62
1
39
211
10
546.786961
20
74.663877
11
547.036574
21
74.760666
0
LINE
8
annotation
62
1
39
211
10
547.036574
20
74.760666
11
547.269486
21
74.901872
0
LINE
8
annotation
62
1
39
211
10
547.269486
20
74.901872
11
547.479505
21
75.087305
0
LINE
8
annotation
62
1
39
211
10
547.479505
20
75.087305
11
548.010890
21
75.648370
0
LINE
8
annotation
62
1
39
211
10
548.010890
20
75.648370
11
548.010890
21
75.648370
0
LINE
8
annotation
62
1
39
211
10
548.010890
20
75.648370
11
548.184553
21
75.868050
0
LINE
8
annotation
62
1
39
211
10
548.184553
20
75.868050
11
548.312654
21
76.108022
0
LINE
8
annotation
62
1
39
211
10
548.312654
20
76.108022
11
548.395386
21
76.362141
0
LINE
8
annotation
62
1
39
211
10
548.395386
20
76.362141
11
548.432941
21
76.624260
0
LINE
8
annotation
62
1
39
211
10
548.432941
20
76.624260
11
548.425512
21
76.888233
0
LINE
8
annotation
62
1
39
211
10
548.425512
20
76.888233
11
548.373291
21
77.147913
0
LINE
8
annotation
62
1
39
211
10
548.373291
20
77.147913
11
548.276471
21
77.397154
0
LINE
8
annotation
62
1
39
211
10
548.276471
20
77.397154
11
548.135245
21
77.629809
0
LINE
8
annotation
62
1
39
211
10
548.135245
20
77.629809
11
547.949804
21
77.839732
0
LINE
8
annotation
62
1
39
211
10
547.949804
20
77.839732
11
546.823537
21
78.906419
0
LINE
8
annotation
62
1
39
211
10
543.417576
20
75.592756
11
545.953503
21
73.190980
0
LINE
8
annotation
62
1
39
211
10
522.510157
20
64.076009
11
519.171609
21
64.076009
0
LINE
8
annotation
62
1
39
211
10
519.171609
20
64.076009
11
522.510157
21
70.088713
0
LINE
8
annotation
62
1
39
211
10
522.510157
20
70.088713
11
519.171609
21
70.088713
0
LINE
8
annotation
62
1
39
211
10
528.053130
20
67.082361
11
524.765486
21
67.082361
0
LINE
8
annotation
62
1
39
211
10
533.645877
20
65.412710
11
530.307329
21
65.412710
0
LINE
8
annotation
62
1
39
211
10
530.307329
20
65.412710
11
531.640636
21
70.088713
0
LINE
8
annotation
62
1
39
211
10
532.645142
20
64.076009
11
532.645142
21
66.746395
0
LINE
8
annotation
62
1
39
211
10
539.188850
20
67.082361
11
535.901206
21
67.082361
0
LINE
8
annotation
62
1
39
211
10
542.779939
20
64.076009
11
542.779939
21
70.088713
0
LINE
8
annotation
62
1
39
211
10
542.779939
20
70.088713
11
541.443237
21
68.751635
0
LINE
8
boundary
62
5
39
2
10
157.098772
20
159.728963
11
160.696279
21
154.471354
0
LINE
8
boundary
62
5
39
2
10
160.696279
20
154.471354
11
167.400519
21
144.783068
0
LINE
8
boundary
62
5
39
2
10
167.400519
20
144.783068
11
175.370226
21
167.126925
0
LINE
8
boundary
62
5
39
2
10
175.370226
20
167.126925
11
181.138814
21
165.155982
0
LINE
8
boundary
62
5
39
2
10
181.138814
20
165.155982
11
173.872501
21
143.888825
0
LINE
8
boundary
62
5
39
2
10
173.872501
20
143.888825
11
180.351709
21
141.249715
0
LINE
8
boundary
62
5
39
2
10
180.351709
20
141.249715
11
180.755266
21
139.896180
0
LINE
8
boundary
62
5
39
2
10
180.755266
20
139.896180
11
182.205168
21
139.356390
0
LINE
8
boundary
62
5
39
2
10
182.205168
20
139.356390
11
187.651364
21
137.290214
0
LINE
8
boundary
62
5
39
2
10
187.651364
20
137.290214
11
188.463540
21
161.596314
0
LINE
8
boundary
62
5
39
2
10
188.463540
20
161.596314
11
194.558279
21
161.472291
0
LINE
8
boundary
62
5
39
2
10
194.558279
20
161.472291
11
194.046850
21
136.339701
0
LINE
8
boundary
62
5
39
2
10
194.046850
20
136.339701
11
202.784809
21
139.281276
0
LINE
8
boundary
62
5
39
2
10
202.784809
20
139.281276
11
204.238613
21
139.810467
0
LINE
8
boundary
62
5
39
2
10
204.238613
20
139.810467
11
204.455520
21
141.101196
0
LINE
8
boundary
62
5
39
2
10
204.455520
20
141.101196
11
210.630898
21
143.381681
0
LINE
8
boundary
62
5
39
2
10
210.630898
20
143.381681
11
203.293512
21
166.084323
0
LINE
8
boundary
62
5
39
2
10
203.293512
20
166.084323
11
209.068624
21
168.036065
0
LINE
8
boundary
62
5
39
2
10
209.068624
20
168.036065
11
217.047374
21
144.427326
0
LINE
8
boundary
62
5
39
2
10
217.047374
20
144.427326
11
217.602023
21
144.449655
0
LINE
8
boundary
62
5
39
2
10
217.602023
20
144.449655
11
224.310455
21
153.794633
0
LINE
8
boundary
62
5
39
2
10
224.310455
20
153.794633
11
228.188302
21
159.196557
0
LINE
8
boundary
62
5
39
2
10
228.188302
20
159.196557
11
225.885278
21
171.387615
0
LINE
8
boundary
62
5
39
2
10
225.885278
20
171.387615
11
225.784667
21
171.920201
0
LINE
8
boundary
62
5
39
2
10
225.784667
20
171.920201
11
211.523393
21
185.427049
0
LINE
8
boundary
62
5
39
2
10
211.523393
20
185.427049
11
215.715257
21
189.853050
0
LINE
8
boundary
62
5
39
2
10
215.715257
20
189.853050
11
223.548635
21
182.434061
0
LINE
8
boundary
62
5
39
2
10
223.548635
20
182.434061
11
223.412719
21
185.872478
0
LINE
8
boundary
62
5
39
2
10
223.412719
20
185.872478
11
205.815541
21
196.109053
0
LINE
8
boundary
62
5
39
2
10
205.815541
20
196.109053
11
192.731688
21
203.615048
0
LINE
8
boundary
62
5
39
2
10
192.731688
20
203.615048
11
179.550525
21
196.211347
0
LINE
8
boundary
62
5
39
2
10
179.550525
20
196.211347
11
161.627758
21
186.144346
0
LINE
8
boundary
62
5
39
2
10
161.627758
20
186.144346
11
160.896828
21
181.859986
0
LINE
8
boundary
62
5
39
2
10
160.896828
20
181.859986
11
169.031238
21
189.284029
0
LINE
8
boundary
62
5
39
2
10
169.031238
20
189.284029
11
173.268772
21
184.901732
0
LINE
8
boundary
62
5
39
2
10
173.268772
20
184.901732
11
159.060245
21
171.162564
0
LINE
8
boundary
62
5
39
2
10
159.060245
20
171.162564
11
157.098772
21
159.728963
0
LINE
8
annotation
62
1
39
211
10
175.358683
20
191.807538
11
177.276636
21
193.662134
0
LINE
8
annotation
62
1
39
211
10
177.276636
20
193.662134
11
178.263234
21
189.095329
0
LINE
8
annotation
62
1
39
211
10
178.263234
20
189.095329
11
178.263234
21
189.095329
0
LINE
8
annotation
62
1
39
211
10
178.263234
20
189.095329
11
178.263651
21
189.090659
0
LINE
8
annotation
62
1
39
211
10
178.263651
20
189.090659
11
178.264176
21
189.086050
0
LINE
8
annotation
62
1
39
211
10
178.264176
20
189.086050
11
178.264817
21
189.081468
0
LINE
8
annotation
62
1
39
211
10
178.264817
20
189.081468
11
178.265584
21
189.076877
0
LINE
8
annotation
62
1
39
211
10
178.265584
20
189.076877
11
178.266483
21
189.072243
0
LINE
8
annotation
62
1
39
211
10
178.266483
20
189.072243
11
178.267524
21
189.067529
0
LINE
8
annotation
62
1
39
211
10
178.267524
20
189.067529
11
178.268714
21
189.062701
0
LINE
8
annotation
62
1
39
211
10
178.268714
20
189.062701
11
178.270061
21
189.057724
0
LINE
8
annotation
62
1
39
211
10
178.270061
20
189.057724
11
178.271574
21
189.052561
0
LINE
8
annotation
62
1
39
211
10
178.271574
20
189.052561
11
178.271574
21
189.052561
0
LINE
8
annotation
62
1
39
211
10
178.271574
20
189.052561
11
178.350323
21
188.824688
0
LINE
8
annotation
62
1
39
211
10
178.350323
20
188.824688
11
178.465058
21
188.620489
0
LINE
8
annotation
62
1
39
211
10
178.465058
20
188.620489
11
178.611174
21
188.442631
0
LINE
8
annotation
62
1
39
211
10
178.611174
20
188.442631
11
178.784064
21
188.293781
0
LINE
8
annotation
62
1
39
211
10
178.784064
20
188.293781
11
178.979122
21
188.176606
0
LINE
8
annotation
62
1
39
211
10
178.979122
20
188.176606
11
179.191742
21
188.093773
0
LINE
8
annotation
62
1
39
211
10
179.191742
20
188.093773
11
179.417318
21
188.047950
0
LINE
8
annotation
62
1
39
211
10
179.417318
20
188.047950
11
179.651243
21
188.041803
0
LINE
8
annotation
62
1
39
211
10
179.651243
20
188.041803
11
179.888913
21
188.078000
0
LINE
8
annotation
62
1
39
211
10
179.888913
20
188.078000
11
179.888913
21
188.078000
0
LINE
8
annotation
62
1
39
211
10
179.888913
20
188.078000
11
180.116217
21
188.158211
0
LINE
8
annotation
62
1
39
211
10
180.116217
20
188.158211
11
180.320029
21
188.273846
0
LINE
8
annotation
62
1
39
211
10
180.320029
20
188.273846
11
180.497618
21
188.420432
0
LINE
8
annotation
62
1
39
211
10
180.497618
20
188.420432
11
180.646253
21
188.593495
0
LINE
8
annotation
62
1
39
211
10
180.646253
20
188.593495
11
180.763203
21
188.788562
0
LINE
8
annotation
62
1
39
211
10
180.763203
20
188.788562
11
180.845738
21
189.001160
0
LINE
8
annotation
62
1
39
211
10
180.845738
20
189.001160
11
180.891127
21
189.226814
0
LINE
8
annotation
62
1
39
211
10
180.891127
20
189.226814
11
180.896640
21
189.461052
0
LINE
8
annotation
62
1
39
211
10
180.896640
20
189.461052
11
180.859546
21
189.699400
0
LINE
8
annotation
62
1
39
211
10
180.859546
20
189.699400
11
180.751886
21
190.062744
0
LINE
8
annotation
62
1
39
211
10
178.324723
20
182.058051
11
177.595270
21
179.923078
0
LINE
8
annotation
62
1
39
211
10
177.595270
20
179.923078
11
177.595270
21
179.923078
0
LINE
8
annotation
62
1
39
211
10
177.595270
20
179.923078
11
177.498522
21
179.527329
0
LINE
8
annotation
62
1
39
211
10
177.498522
20
179.527329
11
177.474347
21
179.132098
0
LINE
8
annotation
62
1
39
211
10
177.474347
20
179.132098
11
177.518706
21
178.745477
0
LINE
8
annotation
62
1
39
211
10
177.518706
20
178.745477
11
177.627556
21
178.375558
0
LINE
8
annotation
62
1
39
211
10
177.627556
20
178.375558
11
177.796859
21
178.030431
0
LINE
8
annotation
62
1
39
211
10
177.796859
20
178.030431
11
178.022573
21
177.718189
0
LINE
8
annotation
62
1
39
211
10
178.022573
20
177.718189
11
178.300657
21
177.446922
0
LINE
8
annotation
62
1
39
211
10
178.300657
20
177.446922
11
178.627072
21
177.224723
0
LINE
8
annotation
62
1
39
211
10
178.627072
20
177.224723
11
178.997776
21
177.059682
0
LINE
8
annotation
62
1
39
211
10
178.997776
20
177.059682
11
180.066770
21
176.694441
0
LINE
8
annotation
62
1
39
211
10
180.066770
20
176.694441
11
180.066770
21
176.694441
0
LINE
8
annotation
62
1
39
211
10
180.066770
20
176.694441
11
180.460802
21
176.598195
0
LINE
8
annotation
62
1
39
211
10
180.460802
20
176.598195
11
180.854854
21
176.574234
0
LINE
8
annotation
62
1
39
211
10
180.854854
20
176.574234
11
181.240764
21
176.618635
0
LINE
8
annotation
62
1
39
211
10
181.240764
20
176.618635
11
181.610371
21
176.727475
0
LINE
8
annotation
62
1
39
211
10
181.610371
20
176.727475
11
181.955512
21
176.896833
0
LINE
8
annotation
62
1
39
211
10
181.955512
20
176.896833
11
182.268025
21
177.122786
0
LINE
8
annotation
62
1
39
211
10
182.268025
20
177.122786
11
182.539749
21
177.401411
0
LINE
8
annotation
62
1
39
211
10
182.539749
20
177.401411
11
182.762522
21
177.728787
0
LINE
8
annotation
62
1
39
211
10
182.762522
20
177.728787
11
182.928181
21
178.100991
0
LINE
8
annotation
62
1
39
211
10
182.928181
20
178.100991
11
183.293422
21
179.169985
0
LINE
8
annotation
62
1
39
211
10
183.293422
20
179.169985
11
182.928181
21
178.100991
0
LINE
8
annotation
62
1
39
211
10
182.928181
20
178.100991
11
182.928181
21
178.100991
0
LINE
8
annotation
62
1
39
211
10
182.928181
20
178.100991
11
182.831461
21
177.705233
0
LINE
8
annotation
62
1
39
211
10
182.831461
20
177.705233
11
182.807393
21
177.309966
0
LINE
8
annotation
62
1
39
211
10
182.807393
20
177.309966
11
182.851973
21
176.923269
0
LINE
8
annotation
62
1
39
211
10
182.851973
20
176.923269
11
182.961195
21
176.553223
0
LINE
8
annotation
62
1
39
211
10
182.961195
20
176.553223
11
183.131051
21
176.207907
0
LINE
8
annotation
62
1
39
211
10
183.131051
20
176.207907
11
183.357538
21
175.895400
0
LINE
8
annotation
62
1
39
211
10
183.357538
20
175.895400
11
183.636648
21
175.623783
0
LINE
8
annotation
62
1
39
211
10
183.636648
20
175.623783
11
183.964376
21
175.401135
0
LINE
8
annotation
62
1
39
211
10
183.964376
20
175.401135
11
184.336716
21
175.235536
0
LINE
8
annotation
62
1
39
211
10
184.336716
20
175.235536
11
184.336716
21
175.235536
0
LINE
8
annotation
62
1
39
211
10
184.336716
20
175.235536
11
184.730748
21
175.139290
0
LINE
8
annotation
62
1
39
211
10
184.730748
20
175.139290
11
185.124800
21
175.115329
0
LINE
8
annotation
62
1
39
211
10
185.124800
20
175.115329
11
185.510710
21
175.159730
0
LINE
8
annotation
62
1
39
211
10
185.510710
20
175.159730
11
185.880317
21
175.268570
0
LINE
8
annotation
62
1
39
211
10
185.880317
20
175.268570
11
186.225458
21
175.437928
0
LINE
8
annotation
62
1
39
211
10
186.225458
20
175.437928
11
186.537971
21
175.663881
0
LINE
8
annotation
62
1
39
211
10
186.537971
20
175.663881
11
186.809695
21
175.942506
0
LINE
8
annotation
62
1
39
211
10
186.809695
20
175.942506
11
187.032468
21
176.269882
0
LINE
8
annotation
62
1
39
211
10
187.032468
20
176.269882
11
187.198127
21
176.642087
0
LINE
8
annotation
62
1
39
211
10
187.198127
20
176.642087
11
187.927579
21
178.777059
0
LINE
8
annotation
62
1
39
211
10
188.893797
20
171.597240
11
189.008570
21
177.237402
0
LINE
8
annotation
62
1
39
211
10
189.008570
20
177.237402
11
196.862399
21
174.824152
0
LINE
8
annotation
62
1
39
211
10
186.669969
20
173.333840
11
191.181334
21
173.242037
0
LINE
8
annotation
62
1
39
211
10
196.538930
20
179.724136
11
197.261276
21
177.586748
0
LINE
8
annotation
62
1
39
211
10
197.261276
20
177.586748
11
197.261276
21
177.586748
0
LINE
8
annotation
62
1
39
211
10
197.261276
20
177.586748
11
197.425415
21
177.214785
0
LINE
8
annotation
62
1
39
211
10
197.425415
20
177.214785
11
197.646957
21
176.887093
0
LINE
8
annotation
62
1
39
211
10
197.646957
20
176.887093
11
197.917788
21
176.607715
0
LINE
8
annotation
62
1
39
211
10
197.917788
20
176.607715
11
198.229793
21
176.380696
0
LINE
8
annotation
62
1
39
211
10
198.229793
20
176.380696
11
198.574857
21
176.210080
0
LINE
8
annotation
62
1
39
211
10
198.574857
20
176.210080
11
198.944867
21
176.099910
0
LINE
8
annotation
62
1
39
211
10
198.944867
20
176.099910
11
199.331708
21
176.054231
0
LINE
8
annotation
62
1
39
211
10
199.331708
20
176.054231
11
199.727265
21
176.077087
0
LINE
8
annotation
62
1
39
211
10
199.727265
20
176.077087
11
200.123425
21
176.172522
0
LINE
8
annotation
62
1
39
211
10
200.123425
20
176.172522
11
201.188195
21
176.532369
0
LINE
8
annotation
62
1
39
211
10
201.188195
20
176.532369
11
201.188195
21
176.532369
0
LINE
8
annotation
62
1
39
211
10
201.188195
20
176.532369
11
201.560850
21
176.696739
0
LINE
8
annotation
62
1
39
211
10
201.560850
20
176.696739
11
201.888695
21
176.918306
0
LINE
8
annotation
62
1
39
211
10
201.888695
20
176.918306
11
202.167817
21
177.188980
0
LINE
8
annotation
62
1
39
211
10
202.167817
20
177.188980
11
202.394302
21
177.500668
0
LINE
8
annotation
62
1
39
211
10
202.394302
20
177.500668
11
202.564238
21
177.845277
0
LINE
8
annotation
62
1
39
211
10
202.564238
20
177.845277
11
202.673710
21
178.214716
0
LINE
8
annotation
62
1
39
211
10
202.673710
20
178.214716
11
202.718807
21
178.600891
0
LINE
8
annotation
62
1
39
211
10
202.718807
20
178.600891
11
202.695614
21
178.995711
0
LINE
8
annotation
62
1
39
211
10
202.695614
20
178.995711
11
202.600219
21
179.391083
0
LINE
8
annotation
62
1
39
211
10
202.600219
20
179.391083
11
201.877873
21
181.528471
0
LINE
8
annotation
62
1
39
211
10
201.877873
20
181.528471
11
206.164117
21
182.977039
0
LINE
8
annotation
62
1
39
211
10
206.164117
20
182.977039
11
207.608809
21
178.702264
0
LINE
8
annotation
62
1
39
211
10
211.911680
20
191.561223
11
211.911680
21
191.561223
0
LINE
8
annotation
62
1
39
211
10
211.911680
20
191.561223
11
211.702291
21
191.649632
0
LINE
8
annotation
62
1
39
211
10
211.702291
20
191.649632
11
211.486569
21
191.705862
0
LINE
8
annotation
62
1
39
211
10
211.486569
20
191.705862
11
211.267821
21
191.730489
0
LINE
8
annotation
62
1
39
211
10
211.267821
20
191.730489
11
211.049355
21
191.724090
0
LINE
8
annotation
62
1
39
211
10
211.049355
20
191.724090
11
210.834480
21
191.687244
0
LINE
8
annotation
62
1
39
211
10
210.834480
20
191.687244
11
210.626503
21
191.620526
0
LINE
8
annotation
62
1
39
211
10
210.626503
20
191.620526
11
210.428731
21
191.524515
0
LINE
8
annotation
62
1
39
211
10
210.428731
20
191.524515
11
210.244473
21
191.399788
0
LINE
8
annotation
62
1
39
211
10
210.244473
20
191.399788
11
210.077037
21
191.246921
0
LINE
8
annotation
62
1
39
211
10
210.077037
20
191.246921
11
209.312427
21
190.439605
0
LINE
8
annotation
62
1
39
211
10
209.312427
20
190.439605
11
209.312427
21
190.439605
0
LINE
8
annotation
62
1
39
211
10
209.312427
20
190.439605
11
209.229239
21
190.334327
0
LINE
8
annotation
62
1
39
211
10
209.229239
20
190.334327
11
209.167833
21
190.219217
0
LINE
8
annotation
62
1
39
211
10
209.167833
20
190.219217
11
209.128121
21
190.097258
0
LINE
8
annotation
62
1
39
211
10
209.128121
20
190.097258
11
209.110012
21
189.971433
0
LINE
8
annotation
62
1
39
211
10
209.110012
20
189.971433
11
209.113417
21
189.844727
0
LINE
8
annotation
62
1
39
211
10
209.113417
20
189.844727
11
209.138246
21
189.720124
0
LINE
8
annotation
62
1
39
211
10
209.138246
20
189.720124
11
209.184410
21
189.600607
0
LINE
8
annotation
62
1
39
211
10
209.184410
20
189.600607
11
209.251819
21
189.489162
0
LINE
8
annotation
62
1
39
211
10
209.251819
20
189.489162
11
209.340383
21
189.388771
0
LINE
8
annotation
62
1
39
211
10
209.340383
20
189.388771
11
209.340383
21
189.388771
0
LINE
8
annotation
62
1
39
211
10
209.340383
20
189.388771
11
209.445636
21
189.305598
0
LINE
8
annotation
62
1
39
211
10
209.445636
20
189.305598
11
209.560684
21
189.244239
0
LINE
8
annotation
62
1
39
211
10
209.560684
20
189.244239
11
209.682562
21
189.204603
0
LINE
8
annotation
62
1
39
211
10
209.682562
20
189.204603
11
209.808304
21
189.186600
0
LINE
8
annotation
62
1
39
211
10
209.808304
20
189.186600
11
209.934945
21
189.190139
0
LINE
8
annotation
62
1
39
211
10
209.934945
20
189.190139
11
210.059520
21
189.215130
0
LINE
8
annotation
62
1
39
211
10
210.059520
20
189.215130
11
210.179062
21
189.261483
0
LINE
8
annotation
62
1
39
211
10
210.179062
20
189.261483
11
210.290605
21
189.329108
0
LINE
8
annotation
62
1
39
211
10
210.290605
20
189.329108
11
210.391185
21
189.417913
0
LINE
8
annotation
62
1
39
211
10
210.391185
20
189.417913
11
210.645670
21
189.686613
0
LINE
8
annotation
62
1
39
211
10
210.645670
20
189.686613
11
210.645670
21
189.686613
0
LINE
8
annotation
62
1
39
211
10
210.645670
20
189.686613
11
210.728839
21
189.791819
0
LINE
8
annotation
62
1
39
211
10
210.728839
20
189.791819
11
210.790188
21
189.906744
0
LINE
8
annotation
62
1
39
211
10
210.790188
20
189.906744
11
210.829809
21
190.028444
0
LINE
8
annotation
62
1
39
211
10
210.829809
20
190.028444
11
210.847795
21
190.153975
0
LINE
8
annotation
62
1
39
211
10
210.847795
20
190.153975
11
210.844237
21
190.280394
0
LINE
8
annotation
62
1
39
211
10
210.844237
20
190.280394
11
210.819228
21
190.404757
0
LINE
8
annotation
62
1
39
211
10
210.819228
20
190.404757
11
210.772860
21
190.524121
0
LINE
8
annotation
62
1
39
211
10
210.772860
20
190.524121
11
210.705225
21
190.635542
0
LINE
8
annotation
62
1
39
211
10
210.705225
20
190.635542
11
210.616416
21
190.736076
0
LINE
8
annotation
62
1
39
211
10
210.616416
20
190.736076
11
210.077037
21
191.246921
0
LINE
8
annotation
62
1
39
211
10
208.445891
20
189.659979
11
209.660369
21
188.509746
0
LINE
8
annotation
62
1
39
211
10
181.145382
20
172.362608
11
176.881938
21
172.362608
0
LINE
8
annotation
62
1
39
211
10
176.881938
20
172.362608
11
181.145382
21
180.041045
0
LINE
8
annotation
62
1
39
211
10
181.145382
20
180.041045
11
176.881938
21
180.041045
0
LINE
8
annotation
62
1
39
211
10
188.223956
20
176.201827
11
184.025518
21
176.201827
0
LINE
8
annotation
62
1
39
211
10
192.809904
20
172.362608
11
194.516918
21
180.041045
0
LINE
8
annotation
62
1
39
211
10
194.516918
20
180.041045
11
191.102407
21
180.041045
0
LINE
8
annotation
62
1
39
211
10
194.516918
20
176.621719
11
192.809904
21
176.621719
0
LINE
8
annotation
62
1
39
211
10
201.595733
20
176.201827
11
197.397295
21
176.201827
0
LINE
8
annotation
62
1
39
211
10
206.181681
20
172.362608
11
206.181681
21
180.041045
0
LINE
8
annotation
62
1
39
211
10
206.181681
20
180.041045
11
204.474666
21
178.333549
0
LINE
8
boundary
62
5
39
2
10
231.908464
20
167.778992
11
231.788874
21
167.221694
0
LINE
8
boundary
62
5
39
2
10
231.788874
20
167.221694
11
231.363302
21
165.238500
0
LINE
8
boundary
62
5
39
2
10
231.363302
20
165.238500
11
240.986444
21
150.344435
0
LINE
8
boundary
62
5
39
2
10
240.986444
20
150.344435
11
242.881124
21
147.318812
0
LINE
8
boundary
62
5
39
2
10
242.881124
20
147.318812
11
249.487017
21
165.671034
0
LINE
8
boundary
62
5
39
2
10
249.487017
20
165.671034
11
255.255604
21
163.700091
0
LINE
8
boundary
62
5
39
2
10
255.255604
20
163.700091
11
248.145977
21
142.891522
0
LINE
8
boundary
62
5
39
2
10
248.145977
20
142.891522
11
255.443314
21
139.816581
0
LINE
8
boundary
62
5
39
2
10
255.443314
20
139.816581
11
261.463393
21
137.388345
0
LINE
8
boundary
62
5
39
2
10
261.463393
20
137.388345
11
262.248298
21
160.354272
0
LINE
8
boundary
62
5
39
2
10
262.248298
20
160.354272
11
268.343036
21
160.230248
0
LINE
8
boundary
62
5
39
2
10
268.343036
20
160.230248
11
267.858266
21
136.407737
0
LINE
8
boundary
62
5
39
2
10
267.858266
20
136.407737
11
277.060370
21
139.761953
0
LINE
8
boundary
62
5
39
2
10
277.060370
20
139.761953
11
283.873021
21
142.408623
0
LINE
8
boundary
62
5
39
2
10
283.873021
20
142.408623
11
276.692552
21
164.646956
0
LINE
8
boundary
62
5
39
2
10
276.692552
20
164.646956
11
282.467664
21
166.598698
0
LINE
8
boundary
62
5
39
2
10
282.467664
20
166.598698
11
289.138795
21
146.859140
0
LINE
8
boundary
62
5
39
2
10
289.138795
20
146.859140
11
291.699477
21
150.148469
0
LINE
8
boundary
62
5
39
2
10
291.699477
20
150.148469
11
301.338253
21
164.965960
0
LINE
8
boundary
62
5
39
2
10
301.338253
20
164.965960
11
300.694618
21
167.890159
0
LINE
8
boundary
62
5
39
2
10
300.694618
20
167.890159
11
300.573017
21
168.442625
0
LINE
8
boundary
62
5
39
2
10
300.573017
20
168.442625
11
286.032428
21
182.214011
0
LINE
8
boundary
62
5
39
2
10
286.032428
20
182.214011
11
290.224292
21
186.640013
0
LINE
8
boundary
62
5
39
2
10
290.224292
20
186.640013
11
297.831347
21
179.435374
0
LINE
8
boundary
62
5
39
2
10
297.831347
20
179.435374
11
296.856502
21
185.820575
0
LINE
8
boundary
62
5
39
2
10
296.856502
20
185.820575
11
289.976820
21
189.541244
0
LINE
8
boundary
62
5
39
2
10
289.976820
20
189.541244
11
266.491028
21
202.420740
0
LINE
8
boundary
62
5
39
2
10
266.491028
20
202.420740
11
242.957708
21
189.658786
0
LINE
8
boundary
62
5
39
2
10
242.957708
20
189.658786
11
236.066535
21
186.021020
0
LINE
8
boundary
62
5
39
2
10
236.066535
20
186.021020
11
234.445987
21
179.154200
0
LINE
8
boundary
62
5
39
2
10
234.445987
20
179.154200
11
242.125352
21
186.138230
0
LINE
8
boundary
62
5
39
2
10
242.125352
20
186.138230
11
246.362886
21
181.755933
0
LINE
8
boundary
62
5
39
2
10
246.362886
20
181.755933
11
231.908464
21
167.778992
0
LINE
8
annotation
62
1
39
211
10
246.398497
20
189.695716
11
248.081035
21
191.322674
0
LINE
8
annotation
62
1
39
211
10
248.081035
20
191.322674
11
248.946535
21
187.316412
0
LINE
8
annotation
62
1
39
211
10
248.946535
20
187.316412
11
248.946535
21
187.316412
0
LINE
8
annotation
62
1
39
211
10
248.946535
20
187.316412
11
248.946900
21
187.312315
0
LINE
8
annotation
62
1
39
211
10
248.946900
20
187.312315
11
248.947361
21
187.308272
0
LINE
8
annotation
62
1
39
211
10
248.947361
20
187.308272
11
248.947923
21
187.304253
0
LINE
8
annotation
62
1
39
211
10
248.947923
20
187.304253
11
248.948596
21
187.300226
0
LINE
8
annotation
62
1
39
211
10
248.948596
20
187.300226
11
248.949385
21
187.296160
0
LINE
8
annotation
62
1
39
211
10
248.949385
20
187.296160
11
248.950298
21
187.292025
0
LINE
8
annotation
62
1
39
211
10
248.950298
20
187.292025
11
248.951342
21
187.287789
0
LINE
8
annotation
62
1
39
211
10
248.951342
20
187.287789
11
248.952524
21
187.283423
0
LINE
8
annotation
62
1
39
211
10
248.952524
20
187.283423
11
248.953851
21
187.278894
0
LINE
8
annotation
62
1
39
211
10
248.953851
20
187.278894
11
248.953851
21
187.278894
0
LINE
8
annotation
62
1
39
211
10
248.953851
20
187.278894
11
249.022934
21
187.078991
0
LINE
8
annotation
62
1
39
211
10
249.022934
20
187.078991
11
249.123586
21
186.899855
0
LINE
8
annotation
62
1
39
211
10
249.123586
20
186.899855
11
249.251767
21
186.743828
0
LINE
8
annotation
62
1
39
211
10
249.251767
20
186.743828
11
249.403436
21
186.613248
0
LINE
8
annotation
62
1
39
211
10
249.403436
20
186.613248
11
249.574552
21
186.510456
0
LINE
8
annotation
62
1
39
211
10
249.574552
20
186.510456
11
249.761074
21
186.437791
0
LINE
8
annotation
62
1
39
211
10
249.761074
20
186.437791
11
249.958962
21
186.397592
0
LINE
8
annotation
62
1
39
211
10
249.958962
20
186.397592
11
250.164175
21
186.392200
0
LINE
8
annotation
62
1
39
211
10
250.164175
20
186.392200
11
250.372672
21
186.423953
0
LINE
8
annotation
62
1
39
211
10
250.372672
20
186.423953
11
250.372672
21
186.423953
0
LINE
8
annotation
62
1
39
211
10
250.372672
20
186.423953
11
250.572077
21
186.494319
0
LINE
8
annotation
62
1
39
211
10
250.572077
20
186.494319
11
250.750872
21
186.595761
0
LINE
8
annotation
62
1
39
211
10
250.750872
20
186.595761
11
250.906663
21
186.724354
0
LINE
8
annotation
62
1
39
211
10
250.906663
20
186.724354
11
251.037054
21
186.876175
0
LINE
8
annotation
62
1
39
211
10
251.037054
20
186.876175
11
251.139649
21
187.047299
0
LINE
8
annotation
62
1
39
211
10
251.139649
20
187.047299
11
251.212054
21
187.233802
0
LINE
8
annotation
62
1
39
211
10
251.212054
20
187.233802
11
251.251872
21
187.431759
0
LINE
8
annotation
62
1
39
211
10
251.251872
20
187.431759
11
251.256708
21
187.637246
0
LINE
8
annotation
62
1
39
211
10
251.256708
20
187.637246
11
251.224167
21
187.846338
0
LINE
8
annotation
62
1
39
211
10
251.224167
20
187.846338
11
251.129721
21
188.165084
0
LINE
8
annotation
62
1
39
211
10
252.441513
20
180.602160
11
251.712061
21
178.467187
0
LINE
8
annotation
62
1
39
211
10
251.712061
20
178.467187
11
251.712061
21
178.467187
0
LINE
8
annotation
62
1
39
211
10
251.712061
20
178.467187
11
251.615312
21
178.071438
0
LINE
8
annotation
62
1
39
211
10
251.615312
20
178.071438
11
251.591138
21
177.676207
0
LINE
8
annotation
62
1
39
211
10
251.591138
20
177.676207
11
251.635496
21
177.289587
0
LINE
8
annotation
62
1
39
211
10
251.635496
20
177.289587
11
251.744347
21
176.919667
0
LINE
8
annotation
62
1
39
211
10
251.744347
20
176.919667
11
251.913649
21
176.574540
0
LINE
8
annotation
62
1
39
211
10
251.913649
20
176.574540
11
252.139363
21
176.262298
0
LINE
8
annotation
62
1
39
211
10
252.139363
20
176.262298
11
252.417448
21
175.991031
0
LINE
8
annotation
62
1
39
211
10
252.417448
20
175.991031
11
252.743862
21
175.768832
0
LINE
8
annotation
62
1
39
211
10
252.743862
20
175.768832
11
253.114566
21
175.603792
0
LINE
8
annotation
62
1
39
211
10
253.114566
20
175.603792
11
254.183560
21
175.238550
0
LINE
8
annotation
62
1
39
211
10
254.183560
20
175.238550
11
254.183560
21
175.238550
0
LINE
8
annotation
62
1
39
211
10
254.183560
20
175.238550
11
254.577592
21
175.142305
0
LINE
8
annotation
62
1
39
211
10
254.577592
20
175.142305
11
254.971644
21
175.118343
0
LINE
8
annotation
62
1
39
211
10
254.971644
20
175.118343
11
255.357555
21
175.162744
0
LINE
8
annotation
62
1
39
211
10
255.357555
20
175.162744
11
255.727161
21
175.271584
0
LINE
8
annotation
62
1
39
211
10
255.727161
20
175.271584
11
256.072302
21
175.440942
0
LINE
8
annotation
62
1
39
211
10
256.072302
20
175.440942
11
256.384815
21
175.666895
0
LINE
8
annotation
62
1
39
211
10
256.384815
20
175.666895
11
256.656539
21
175.945520
0
LINE
8
annotation
62
1
39
211
10
256.656539
20
175.945520
11
256.879312
21
176.272896
0
LINE
8
annotation
62
1
39
211
10
256.879312
20
176.272896
11
257.044971
21
176.645101
0
LINE
8
annotation
62
1
39
211
10
257.044971
20
176.645101
11
257.410212
21
177.714095
0
LINE
8
annotation
62
1
39
211
10
257.410212
20
177.714095
11
257.044971
21
176.645101
0
LINE
8
annotation
62
1
39
211
10
257.044971
20
176.645101
11
257.044971
21
176.645101
0
LINE
8
annotation
62
1
39
211
10
257.044971
20
176.645101
11
256.948251
21
176.249342
0
LINE
8
annotation
62
1
39
211
10
256.948251
20
176.249342
11
256.924184
21
175.854075
0
LINE
8
annotation
62
1
39
211
10
256.924184
20
175.854075
11
256.968764
21
175.467378
0
LINE
8
annotation
62
1
39
211
10
256.968764
20
175.467378
11
257.077985
21
175.097332
0
LINE
8
annotation
62
1
39
211
10
257.077985
20
175.097332
11
257.247842
21
174.752016
0
LINE
8
annotation
62
1
39
211
10
257.247842
20
174.752016
11
257.474328
21
174.439510
0
LINE
8
annotation
62
1
39
211
10
257.474328
20
174.439510
11
257.753438
21
174.167893
0
LINE
8
annotation
62
1
39
211
10
257.753438
20
174.167893
11
258.081166
21
173.945245
0
LINE
8
annotation
62
1
39
211
10
258.081166
20
173.945245
11
258.453506
21
173.779645
0
LINE
8
annotation
62
1
39
211
10
258.453506
20
173.779645
11
258.453506
21
173.779645
0
LINE
8
annotation
62
1
39
211
10
258.453506
20
173.779645
11
258.847538
21
173.683400
0
LINE
8
annotation
62
1
39
211
10
258.847538
20
173.683400
11
259.241590
21
173.659438
0
LINE
8
annotation
62
1
39
211
10
259.241590
20
173.659438
11
259.627500
21
173.703839
0
LINE
8
annotation
62
1
39
211
10
259.627500
20
173.703839
11
259.997107
21
173.812679
0
LINE
8
annotation
62
1
39
211
10
259.997107
20
173.812679
11
260.342248
21
173.982037
0
LINE
8
annotation
62
1
39
211
10
260.342248
20
173.982037
11
260.654761
21
174.207990
0
LINE
8
annotation
62
1
39
211
10
260.654761
20
174.207990
11
260.926485
21
174.486615
0
LINE
8
annotation
62
1
39
211
10
260.926485
20
174.486615
11
261.149258
21
174.813991
0
LINE
8
annotation
62
1
39
211
10
261.149258
20
174.813991
11
261.314917
21
175.186196
0
LINE
8
annotation
62
1
39
211
10
261.314917
20
175.186196
11
262.044370
21
177.321169
0
LINE
8
annotation
62
1
39
211
10
262.678554
20
170.355198
11
262.793327
21
175.995359
0
LINE
8
annotation
62
1
39
211
10
262.793327
20
175.995359
11
270.647157
21
173.582110
0
LINE
8
annotation
62
1
39
211
10
260.454727
20
172.091798
11
264.966092
21
171.999995
0
LINE
8
annotation
62
1
39
211
10
269.937970
20
178.286769
11
270.660316
21
176.149381
0
LINE
8
annotation
62
1
39
211
10
270.660316
20
176.149381
11
270.660316
21
176.149381
0
LINE
8
annotation
62
1
39
211
10
270.660316
20
176.149381
11
270.824455
21
175.777418
0
LINE
8
annotation
62
1
39
211
10
270.824455
20
175.777418
11
271.045997
21
175.449726
0
LINE
8
annotation
62
1
39
211
10
271.045997
20
175.449726
11
271.316827
21
175.170348
0
LINE
8
annotation
62
1
39
211
10
271.316827
20
175.170348
11
271.628832
21
174.943329
0
LINE
8
annotation
62
1
39
211
10
271.628832
20
174.943329
11
271.973896
21
174.772713
0
LINE
8
annotation
62
1
39
211
10
271.973896
20
174.772713
11
272.343906
21
174.662543
0
LINE
8
annotation
62
1
39
211
10
272.343906
20
174.662543
11
272.730747
21
174.616864
0
LINE
8
annotation
62
1
39
211
10
272.730747
20
174.616864
11
273.126305
21
174.639720
0
LINE
8
annotation
62
1
39
211
10
273.126305
20
174.639720
11
273.522464
21
174.735155
0
LINE
8
annotation
62
1
39
211
10
273.522464
20
174.735155
11
274.587234
21
175.095002
0
LINE
8
annotation
62
1
39
211
10
274.587234
20
175.095002
11
274.587234
21
175.095002
0
LINE
8
annotation
62
1
39
211
10
274.587234
20
175.095002
11
274.959890
21
175.259372
0
LINE
8
annotation
62
1
39
211
10
274.959890
20
175.259372
11
275.287735
21
175.480940
0
LINE
8
annotation
62
1
39
211
10
275.287735
20
175.480940
11
275.566856
21
175.751613
0
LINE
8
annotation
62
1
39
211
10
275.566856
20
175.751613
11
275.793341
21
176.063301
0
LINE
8
annotation
62
1
39
211
10
275.793341
20
176.063301
11
275.963277
21
176.407910
0
LINE
8
annotation
62
1
39
211
10
275.963277
20
176.407910
11
276.072749
21
176.777349
0
LINE
8
annotation
62
1
39
211
10
276.072749
20
176.777349
11
276.117846
21
177.163524
0
LINE
8
annotation
62
1
39
211
10
276.117846
20
177.163524
11
276.094653
21
177.558344
0
LINE
8
annotation
62
1
39
211
10
276.094653
20
177.558344
11
275.999258
21
177.953716
0
LINE
8
annotation
62
1
39
211
10
275.999258
20
177.953716
11
275.276912
21
180.091104
0
LINE
8
annotation
62
1
39
211
10
275.276912
20
180.091104
11
279.563156
21
181.539672
0
LINE
8
annotation
62
1
39
211
10
279.563156
20
181.539672
11
281.007848
21
177.264897
0
LINE
8
annotation
62
1
39
211
10
285.560856
20
190.388848
11
285.560856
21
190.388848
0
LINE
8
annotation
62
1
39
211
10
285.560856
20
190.388848
11
285.240015
21
190.524316
0
LINE
8
annotation
62
1
39
211
10
285.240015
20
190.524316
11
284.909469
21
190.610475
0
LINE
8
annotation
62
1
39
211
10
284.909469
20
190.610475
11
284.574287
21
190.648210
0
LINE
8
annotation
62
1
39
211
10
284.574287
20
190.648210
11
284.239537
21
190.638406
0
LINE
8
annotation
62
1
39
211
10
284.239537
20
190.638406
11
283.910289
21
190.581947
0
LINE
8
annotation
62
1
39
211
10
283.910289
20
190.581947
11
283.591610
21
190.479718
0
LINE
8
annotation
62
1
39
211
10
283.591610
20
190.479718
11
283.288569
21
190.332602
0
LINE
8
annotation
62
1
39
211
10
283.288569
20
190.332602
11
283.006235
21
190.141485
0
LINE
8
annotation
62
1
39
211
10
283.006235
20
190.141485
11
282.749676
21
189.907251
0
LINE
8
annotation
62
1
39
211
10
282.749676
20
189.907251
11
281.578084
21
188.670219
0
LINE
8
annotation
62
1
39
211
10
281.578084
20
188.670219
11
281.578084
21
188.670219
0
LINE
8
annotation
62
1
39
211
10
281.578084
20
188.670219
11
281.450616
21
188.508905
0
LINE
8
annotation
62
1
39
211
10
281.450616
20
188.508905
11
281.356526
21
188.332525
0
LINE
8
annotation
62
1
39
211
10
281.356526
20
188.332525
11
281.295676
21
188.145649
0
LINE
8
annotation
62
1
39
211
10
281.295676
20
188.145649
11
281.267928
21
187.952851
0
LINE
8
annotation
62
1
39
211
10
281.267928
20
187.952851
11
281.273145
21
187.758702
0
LINE
8
annotation
62
1
39
211
10
281.273145
20
187.758702
11
281.311191
21
187.567776
0
LINE
8
annotation
62
1
39
211
10
281.311191
20
187.567776
11
281.381927
21
187.384644
0
LINE
8
annotation
62
1
39
211
10
281.381927
20
187.384644
11
281.485216
21
187.213878
0
LINE
8
annotation
62
1
39
211
10
281.485216
20
187.213878
11
281.620920
21
187.060051
0
LINE
8
annotation
62
1
39
211
10
281.620920
20
187.060051
11
281.620920
21
187.060051
0
LINE
8
annotation
62
1
39
211
10
281.620920
20
187.060051
11
281.782196
21
186.932608
0
LINE
8
annotation
62
1
39
211
10
281.782196
20
186.932608
11
281.958481
21
186.838589
0
LINE
8
annotation
62
1
39
211
10
281.958481
20
186.838589
11
282.145232
21
186.777856
0
LINE
8
annotation
62
1
39
211
10
282.145232
20
186.777856
11
282.337904
21
186.750270
0
LINE
8
annotation
62
1
39
211
10
282.337904
20
186.750270
11
282.531954
21
186.755693
0
LINE
8
annotation
62
1
39
211
10
282.531954
20
186.755693
11
282.722836
21
186.793986
0
LINE
8
annotation
62
1
39
211
10
282.722836
20
186.793986
11
282.906007
21
186.865012
0
LINE
8
annotation
62
1
39
211
10
282.906007
20
186.865012
11
283.076922
21
186.968631
0
LINE
8
annotation
62
1
39
211
10
283.076922
20
186.968631
11
283.231039
21
187.104706
0
LINE
8
annotation
62
1
39
211
10
283.231039
20
187.104706
11
283.620980
21
187.516428
0
LINE
8
annotation
62
1
39
211
10
283.620980
20
187.516428
11
283.620980
21
187.516428
0
LINE
8
annotation
62
1
39
211
10
283.620980
20
187.516428
11
283.748418
21
187.677633
0
LINE
8
annotation
62
1
39
211
10
283.748418
20
187.677633
11
283.842421
21
187.853730
0
LINE
8
annotation
62
1
39
211
10
283.842421
20
187.853730
11
283.903131
21
188.040208
0
LINE
8
annotation
62
1
39
211
10
283.903131
20
188.040208
11
283.930690
21
188.232556
0
LINE
8
annotation
62
1
39
211
10
283.930690
20
188.232556
11
283.925239
21
188.426265
0
LINE
8
annotation
62
1
39
211
10
283.925239
20
188.426265
11
283.886918
21
188.616824
0
LINE
8
annotation
62
1
39
211
10
283.886918
20
188.616824
11
283.815870
21
188.799722
0
LINE
8
annotation
62
1
39
211
10
283.815870
20
188.799722
11
283.712234
21
188.970449
0
LINE
8
annotation
62
1
39
211
10
283.712234
20
188.970449
11
283.576154
21
189.124495
0
LINE
8
annotation
62
1
39
211
10
283.576154
20
189.124495
11
282.749676
21
189.907251
0
LINE
8
annotation
62
1
39
211
10
280.250311
20
187.475617
11
282.111227
21
185.713144
0
LINE
8
annotation
62
1
39
211
10
255.035030
20
169.534210
11
250.838430
21
169.534210
0
LINE
8
annotation
62
1
39
211
10
250.838430
20
169.534210
11
255.035030
21
177.092260
0
LINE
8
annotation
62
1
39
211
10
255.035030
20
177.092260
11
250.838430
21
177.092260
0
LINE
8
annotation
62
1
39
211
10
262.002622
20
173.313235
11
257.870009
21
173.313235
0
LINE
8
annotation
62
1
39
211
10
264.836180
20
169.534210
11
266.514535
21
169.534210
0
LINE
8
annotation
62
1
39
211
10
266.514535
20
169.534210
11
266.514535
21
169.534210
0
LINE
8
annotation
62
1
39
211
10
266.514535
20
169.534210
11
266.815768
21
169.561294
0
LINE
8
annotation
62
1
39
211
10
266.815768
20
169.561294
11
267.099472
21
169.639377
0
LINE
8
annotation
62
1
39
211
10
267.099472
20
169.639377
11
267.360867
21
169.763703
0
LINE
8
annotation
62
1
39
211
10
267.360867
20
169.763703
11
267.595169
21
169.929516
0
LINE
8
annotation
62
1
39
211
10
267.595169
20
169.929516
11
267.797595
21
170.132062
0
LINE
8
annotation
62
1
39
211
10
267.797595
20
170.132062
11
267.963363
21
170.366585
0
LINE
8
annotation
62
1
39
211
10
267.963363
20
170.366585
11
268.087690
21
170.628329
0
LINE
8
annotation
62
1
39
211
10
268.087690
20
170.628329
11
268.165794
21
170.912540
0
LINE
8
annotation
62
1
39
211
10
268.165794
20
170.912540
11
268.192891
21
171.214461
0
LINE
8
annotation
62
1
39
211
10
268.192891
20
171.214461
11
268.192891
21
172.050558
0
LINE
8
annotation
62
1
39
211
10
268.192891
20
172.050558
11
268.192891
21
172.050558
0
LINE
8
annotation
62
1
39
211
10
268.192891
20
172.050558
11
268.165809
21
172.352333
0
LINE
8
annotation
62
1
39
211
10
268.165809
20
172.352333
11
268.087745
21
172.636152
0
LINE
8
annotation
62
1
39
211
10
268.087745
20
172.636152
11
267.963468
21
172.897328
0
LINE
8
annotation
62
1
39
211
10
267.963468
20
172.897328
11
267.797751
21
173.131178
0
LINE
8
annotation
62
1
39
211
10
267.797751
20
173.131178
11
267.595364
21
173.333016
0
LINE
8
annotation
62
1
39
211
10
267.595364
20
173.333016
11
267.361077
21
173.498157
0
LINE
8
annotation
62
1
39
211
10
267.361077
20
173.498157
11
267.099663
21
173.621915
0
LINE
8
annotation
62
1
39
211
10
267.099663
20
173.621915
11
266.815892
21
173.699606
0
LINE
8
annotation
62
1
39
211
10
266.815892
20
173.699606
11
266.514535
21
173.726544
0
LINE
8
annotation
62
1
39
211
10
266.514535
20
173.726544
11
264.836180
21
173.726544
0
LINE
8
annotation
62
1
39
211
10
264.836180
20
173.726544
11
264.836180
21
177.092260
0
LINE
8
annotation
62
1
39
211
10
264.836180
20
177.092260
11
268.192891
21
177.092260
0
LINE
8
annotation
62
1
39
211
10
275.160483
20
173.313235
11
271.027871
21
173.313235
0
LINE
8
annotation
62
1
39
211
10
279.674530
20
169.534210
11
279.674530
21
177.092260
0
LINE
8
annotation
62
1
39
211
10
279.674530
20
177.092260
11
277.994278
21
175.411535
0
LINE
8
boundary
62
5
39
2
10
308.300477
20
149.524213
11
310.449248
21
149.299370
0
LINE
8
boundary
62
5
39
2
10
310.449248
20
149.299370
11
322.611427
21
147.909544
0
LINE
8
boundary
62
5
39
2
10
322.611427
20
147.909544
11
325.233563
21
143.937058
0
LINE
8
boundary
62
5
39
2
10
325.233563
20
143.937058
11
328.518766
21
142.724886
0
LINE
8
boundary
62
5
39
2
10
328.518766
20
142.724886
11
334.446585
21
159.092510
0
LINE
8
boundary
62
5
39
2
10
334.446585
20
159.092510
11
340.215172
21
157.121567
0
LINE
8
boundary
62
5
39
2
10
340.215172
20
157.121567
11
334.616330
21
140.734787
0
LINE
8
boundary
62
5
39
2
10
334.616330
20
140.734787
11
345.133501
21
137.008444
0
LINE
8
boundary
62
5
39
2
10
345.133501
20
137.008444
11
345.812774
21
154.783415
0
LINE
8
boundary
62
5
39
2
10
345.812774
20
154.783415
11
351.907512
21
154.659392
0
LINE
8
boundary
62
5
39
2
10
351.907512
20
154.659392
11
351.536046
21
136.404835
0
LINE
8
boundary
62
5
39
2
10
351.536046
20
136.404835
11
364.195782
21
140.690653
0
LINE
8
boundary
62
5
39
2
10
364.195782
20
140.690653
11
358.582272
21
158.292431
0
LINE
8
boundary
62
5
39
2
10
358.582272
20
158.292431
11
364.357384
21
160.244173
0
LINE
8
boundary
62
5
39
2
10
364.357384
20
160.244173
11
370.175791
21
143.027782
0
LINE
8
boundary
62
5
39
2
10
370.175791
20
143.027782
11
373.764647
21
144.112387
0
LINE
8
boundary
62
5
39
2
10
373.764647
20
144.112387
11
376.537032
21
148.089538
0
LINE
8
boundary
62
5
39
2
10
376.537032
20
148.089538
11
388.467738
21
148.319314
0
LINE
8
boundary
62
5
39
2
10
388.467738
20
148.319314
11
388.119706
21
153.145341
0
LINE
8
boundary
62
5
39
2
10
388.119706
20
153.145341
11
380.460196
21
160.836958
0
LINE
8
boundary
62
5
39
2
10
380.460196
20
160.836958
11
384.652060
21
165.262959
0
LINE
8
boundary
62
5
39
2
10
384.652060
20
165.262959
11
387.046253
21
162.995420
0
LINE
8
boundary
62
5
39
2
10
387.046253
20
162.995420
11
386.884959
21
169.143913
0
LINE
8
boundary
62
5
39
2
10
386.884959
20
169.143913
11
380.651788
21
169.536764
0
LINE
8
boundary
62
5
39
2
10
380.651788
20
169.536764
11
378.672312
21
169.656911
0
LINE
8
boundary
62
5
39
2
10
378.672312
20
169.656911
11
378.324175
21
167.890449
0
LINE
8
boundary
62
5
39
2
10
378.324175
20
167.890449
11
377.676215
21
165.079692
0
LINE
8
boundary
62
5
39
2
10
377.676215
20
165.079692
11
375.291212
21
166.362402
0
LINE
8
boundary
62
5
39
2
10
375.291212
20
166.362402
11
349.912860
21
179.299242
0
LINE
8
boundary
62
5
39
2
10
349.912860
20
179.299242
11
321.467437
21
168.738111
0
LINE
8
boundary
62
5
39
2
10
321.467437
20
168.738111
11
320.897152
21
168.276830
0
LINE
8
boundary
62
5
39
2
10
320.897152
20
168.276830
11
320.571536
21
169.159330
0
LINE
8
boundary
62
5
39
2
10
320.571536
20
169.159330
11
307.619724
21
170.953325
0
LINE
8
boundary
62
5
39
2
10
307.619724
20
170.953325
11
306.051714
21
170.640769
0
LINE
8
boundary
62
5
39
2
10
306.051714
20
170.640769
11
305.310177
21
170.535678
0
LINE
8
boundary
62
5
39
2
10
305.310177
20
170.535678
11
304.725202
21
155.430210
0
LINE
8
boundary
62
5
39
2
10
304.725202
20
155.430210
11
314.801668
21
164.732156
0
LINE
8
boundary
62
5
39
2
10
314.801668
20
164.732156
11
319.039202
21
160.349859
0
LINE
8
boundary
62
5
39
2
10
319.039202
20
160.349859
11
308.207589
21
149.876053
0
LINE
8
boundary
62
5
39
2
10
308.207589
20
149.876053
11
308.300477
21
149.524213
0
LINE
8
annotation
62
1
39
211
10
320.821988
20
166.413025
11
322.489467
21
168.025421
0
LINE
8
annotation
62
1
39
211
10
322.489467
20
168.025421
11
323.347221
21
164.055016
0
LINE
8
annotation
62
1
39
211
10
323.347221
20
164.055016
11
323.347221
21
164.055016
0
LINE
8
annotation
62
1
39
211
10
323.347221
20
164.055016
11
323.347583
21
164.050956
0
LINE
8
annotation
62
1
39
211
10
323.347583
20
164.050956
11
323.348039
21
164.046949
0
LINE
8
annotation
62
1
39
211
10
323.348039
20
164.046949
11
323.348597
21
164.042965
0
LINE
8
annotation
62
1
39
211
10
323.348597
20
164.042965
11
323.349263
21
164.038974
0
LINE
8
annotation
62
1
39
211
10
323.349263
20
164.038974
11
323.350045
21
164.034945
0
LINE
8
annotation
62
1
39
211
10
323.350045
20
164.034945
11
323.350950
21
164.030847
0
LINE
8
annotation
62
1
39
211
10
323.350950
20
164.030847
11
323.351985
21
164.026649
0
LINE
8
annotation
62
1
39
211
10
323.351985
20
164.026649
11
323.353156
21
164.022322
0
LINE
8
annotation
62
1
39
211
10
323.353156
20
164.022322
11
323.354472
21
164.017833
0
LINE
8
annotation
62
1
39
211
10
323.354472
20
164.017833
11
323.354472
21
164.017833
0
LINE
8
annotation
62
1
39
211
10
323.354472
20
164.017833
11
323.422936
21
163.819719
0
LINE
8
annotation
62
1
39
211
10
323.422936
20
163.819719
11
323.522688
21
163.642187
0
LINE
8
annotation
62
1
39
211
10
323.522688
20
163.642187
11
323.649721
21
163.487556
0
LINE
8
annotation
62
1
39
211
10
323.649721
20
163.487556
11
323.800033
21
163.358146
0
LINE
8
annotation
62
1
39
211
10
323.800033
20
163.358146
11
323.969617
21
163.256273
0
LINE
8
annotation
62
1
39
211
10
323.969617
20
163.256273
11
324.154470
21
163.184258
0
LINE
8
annotation
62
1
39
211
10
324.154470
20
163.184258
11
324.350587
21
163.144419
0
LINE
8
annotation
62
1
39
211
10
324.350587
20
163.144419
11
324.553963
21
163.139075
0
LINE
8
annotation
62
1
39
211
10
324.553963
20
163.139075
11
324.760594
21
163.170544
0
LINE
8
annotation
62
1
39
211
10
324.760594
20
163.170544
11
324.760594
21
163.170544
0
LINE
8
annotation
62
1
39
211
10
324.760594
20
163.170544
11
324.958214
21
163.240280
0
LINE
8
annotation
62
1
39
211
10
324.958214
20
163.240280
11
325.135410
21
163.340814
0
LINE
8
annotation
62
1
39
211
10
325.135410
20
163.340814
11
325.289806
21
163.468257
0
LINE
8
annotation
62
1
39
211
10
325.289806
20
163.468257
11
325.419030
21
163.618719
0
LINE
8
annotation
62
1
39
211
10
325.419030
20
163.618719
11
325.520707
21
163.788312
0
LINE
8
annotation
62
1
39
211
10
325.520707
20
163.788312
11
325.592463
21
163.973145
0
LINE
8
annotation
62
1
39
211
10
325.592463
20
163.973145
11
325.631925
21
164.169330
0
LINE
8
annotation
62
1
39
211
10
325.631925
20
164.169330
11
325.636718
21
164.372978
0
LINE
8
annotation
62
1
39
211
10
325.636718
20
164.372978
11
325.604468
21
164.580199
0
LINE
8
annotation
62
1
39
211
10
325.604468
20
164.580199
11
325.510868
21
164.896092
0
LINE
8
annotation
62
1
39
211
10
337.398572
20
172.663121
11
336.731945
21
170.712029
0
LINE
8
annotation
62
1
39
211
10
336.731945
20
170.712029
11
336.731945
21
170.712029
0
LINE
8
annotation
62
1
39
211
10
336.731945
20
170.712029
11
336.643530
21
170.350365
0
LINE
8
annotation
62
1
39
211
10
336.643530
20
170.350365
11
336.621437
21
169.989175
0
LINE
8
annotation
62
1
39
211
10
336.621437
20
169.989175
11
336.661975
21
169.635853
0
LINE
8
annotation
62
1
39
211
10
336.661975
20
169.635853
11
336.761451
21
169.297794
0
LINE
8
annotation
62
1
39
211
10
336.761451
20
169.297794
11
336.916172
21
168.982392
0
LINE
8
annotation
62
1
39
211
10
336.916172
20
168.982392
11
337.122445
21
168.697043
0
LINE
8
annotation
62
1
39
211
10
337.122445
20
168.697043
11
337.376579
21
168.449140
0
LINE
8
annotation
62
1
39
211
10
337.376579
20
168.449140
11
337.674880
21
168.246078
0
LINE
8
annotation
62
1
39
211
10
337.674880
20
168.246078
11
338.013656
21
168.095252
0
LINE
8
annotation
62
1
39
211
10
338.013656
20
168.095252
11
338.990579
21
167.761469
0
LINE
8
annotation
62
1
39
211
10
338.990579
20
167.761469
11
338.990579
21
167.761469
0
LINE
8
annotation
62
1
39
211
10
338.990579
20
167.761469
11
339.350674
21
167.673512
0
LINE
8
annotation
62
1
39
211
10
339.350674
20
167.673512
11
339.710787
21
167.651615
0
LINE
8
annotation
62
1
39
211
10
339.710787
20
167.651615
11
340.063460
21
167.692191
0
LINE
8
annotation
62
1
39
211
10
340.063460
20
167.692191
11
340.401233
21
167.791657
0
LINE
8
annotation
62
1
39
211
10
340.401233
20
167.791657
11
340.716647
21
167.946429
0
LINE
8
annotation
62
1
39
211
10
340.716647
20
167.946429
11
341.002245
21
168.152921
0
LINE
8
annotation
62
1
39
211
10
341.002245
20
168.152921
11
341.250566
21
168.407549
0
LINE
8
annotation
62
1
39
211
10
341.250566
20
168.407549
11
341.454151
21
168.706728
0
LINE
8
annotation
62
1
39
211
10
341.454151
20
168.706728
11
341.605542
21
169.046876
0
LINE
8
annotation
62
1
39
211
10
341.605542
20
169.046876
11
341.939326
21
170.023799
0
LINE
8
annotation
62
1
39
211
10
341.939326
20
170.023799
11
341.605542
21
169.046876
0
LINE
8
annotation
62
1
39
211
10
341.605542
20
169.046876
11
341.605542
21
169.046876
0
LINE
8
annotation
62
1
39
211
10
341.605542
20
169.046876
11
341.517153
21
168.685203
0
LINE
8
annotation
62
1
39
211
10
341.517153
20
168.685203
11
341.495158
21
168.323979
0
LINE
8
annotation
62
1
39
211
10
341.495158
20
168.323979
11
341.535899
21
167.970588
0
LINE
8
annotation
62
1
39
211
10
341.535899
20
167.970588
11
341.635713
21
167.632413
0
LINE
8
annotation
62
1
39
211
10
341.635713
20
167.632413
11
341.790940
21
167.316839
0
LINE
8
annotation
62
1
39
211
10
341.790940
20
167.316839
11
341.997920
21
167.031248
0
LINE
8
annotation
62
1
39
211
10
341.997920
20
167.031248
11
342.252990
21
166.783025
0
LINE
8
annotation
62
1
39
211
10
342.252990
20
166.783025
11
342.552492
21
166.579553
0
LINE
8
annotation
62
1
39
211
10
342.552492
20
166.579553
11
342.892763
21
166.428216
0
LINE
8
annotation
62
1
39
211
10
342.892763
20
166.428216
11
342.892763
21
166.428216
0
LINE
8
annotation
62
1
39
211
10
342.892763
20
166.428216
11
343.252858
21
166.340260
0
LINE
8
annotation
62
1
39
211
10
343.252858
20
166.340260
11
343.612971
21
166.318363
0
LINE
8
annotation
62
1
39
211
10
343.612971
20
166.318363
11
343.965643
21
166.358939
0
LINE
8
annotation
62
1
39
211
10
343.965643
20
166.358939
11
344.303416
21
166.458405
0
LINE
8
annotation
62
1
39
211
10
344.303416
20
166.458405
11
344.618831
21
166.613176
0
LINE
8
annotation
62
1
39
211
10
344.618831
20
166.613176
11
344.904428
21
166.819668
0
LINE
8
annotation
62
1
39
211
10
344.904428
20
166.819668
11
345.152749
21
167.074296
0
LINE
8
annotation
62
1
39
211
10
345.152749
20
167.074296
11
345.356335
21
167.373476
0
LINE
8
annotation
62
1
39
211
10
345.356335
20
167.373476
11
345.507726
21
167.713623
0
LINE
8
annotation
62
1
39
211
10
345.507726
20
167.713623
11
346.174352
21
169.664715
0
LINE
8
annotation
62
1
39
211
10
346.243030
20
164.784341
11
346.357803
21
170.424503
0
LINE
8
annotation
62
1
39
211
10
346.357803
20
170.424503
11
354.211633
21
168.011253
0
LINE
8
annotation
62
1
39
211
10
344.019203
20
166.520942
11
348.530568
21
166.429139
0
LINE
8
annotation
62
1
39
211
10
353.995034
20
169.100766
11
354.554325
21
167.445851
0
LINE
8
annotation
62
1
39
211
10
354.554325
20
167.445851
11
354.554325
21
167.445851
0
LINE
8
annotation
62
1
39
211
10
354.554325
20
167.445851
11
354.681413
21
167.157852
0
LINE
8
annotation
62
1
39
211
10
354.681413
20
167.157852
11
354.852946
21
166.904130
0
LINE
8
annotation
62
1
39
211
10
354.852946
20
166.904130
11
355.062642
21
166.687816
0
LINE
8
annotation
62
1
39
211
10
355.062642
20
166.687816
11
355.304218
21
166.512042
0
LINE
8
annotation
62
1
39
211
10
355.304218
20
166.512042
11
355.571391
21
166.379939
0
LINE
8
annotation
62
1
39
211
10
355.571391
20
166.379939
11
355.857878
21
166.294638
0
LINE
8
annotation
62
1
39
211
10
355.857878
20
166.294638
11
356.157397
21
166.259270
0
LINE
8
annotation
62
1
39
211
10
356.157397
20
166.259270
11
356.463665
21
166.276967
0
LINE
8
annotation
62
1
39
211
10
356.463665
20
166.276967
11
356.770400
21
166.350859
0
LINE
8
annotation
62
1
39
211
10
356.770400
20
166.350859
11
357.594819
21
166.629478
0
LINE
8
annotation
62
1
39
211
10
357.594819
20
166.629478
11
357.594819
21
166.629478
0
LINE
8
annotation
62
1
39
211
10
357.594819
20
166.629478
11
357.883355
21
166.756744
0
LINE
8
annotation
62
1
39
211
10
357.883355
20
166.756744
11
358.137195
21
166.928297
0
LINE
8
annotation
62
1
39
211
10
358.137195
20
166.928297
11
358.353310
21
167.137872
0
LINE
8
annotation
62
1
39
211
10
358.353310
20
167.137872
11
358.528671
21
167.379202
0
LINE
8
annotation
62
1
39
211
10
358.528671
20
167.379202
11
358.660247
21
167.646023
0
LINE
8
annotation
62
1
39
211
10
358.660247
20
167.646023
11
358.745008
21
167.932068
0
LINE
8
annotation
62
1
39
211
10
358.745008
20
167.932068
11
358.779925
21
168.231072
0
LINE
8
annotation
62
1
39
211
10
358.779925
20
168.231072
11
358.761968
21
168.536769
0
LINE
8
annotation
62
1
39
211
10
358.761968
20
168.536769
11
358.688106
21
168.842893
0
LINE
8
annotation
62
1
39
211
10
358.688106
20
168.842893
11
358.128815
21
170.497808
0
LINE
8
annotation
62
1
39
211
10
358.128815
20
170.497808
11
361.447524
21
171.619390
0
LINE
8
annotation
62
1
39
211
10
361.447524
20
171.619390
11
362.566105
21
168.309561
0
LINE
8
annotation
62
1
39
211
10
381.015311
20
166.575205
11
381.015311
21
166.575205
0
LINE
8
annotation
62
1
39
211
10
381.015311
20
166.575205
11
380.827546
21
166.654485
0
LINE
8
annotation
62
1
39
211
10
380.827546
20
166.654485
11
380.634102
21
166.704907
0
LINE
8
annotation
62
1
39
211
10
380.634102
20
166.704907
11
380.437945
21
166.726991
0
LINE
8
annotation
62
1
39
211
10
380.437945
20
166.726991
11
380.242040
21
166.721253
0
LINE
8
annotation
62
1
39
211
10
380.242040
20
166.721253
11
380.049355
21
166.688212
0
LINE
8
annotation
62
1
39
211
10
380.049355
20
166.688212
11
379.862856
21
166.628385
0
LINE
8
annotation
62
1
39
211
10
379.862856
20
166.628385
11
379.685509
21
166.542289
0
LINE
8
annotation
62
1
39
211
10
379.685509
20
166.542289
11
379.520279
21
166.430442
0
LINE
8
annotation
62
1
39
211
10
379.520279
20
166.430442
11
379.370134
21
166.293362
0
LINE
8
annotation
62
1
39
211
10
379.370134
20
166.293362
11
378.684487
21
165.569418
0
LINE
8
annotation
62
1
39
211
10
378.684487
20
165.569418
11
378.684487
21
165.569418
0
LINE
8
annotation
62
1
39
211
10
378.684487
20
165.569418
11
378.609890
21
165.475013
0
LINE
8
annotation
62
1
39
211
10
378.609890
20
165.475013
11
378.554826
21
165.371790
0
LINE
8
annotation
62
1
39
211
10
378.554826
20
165.371790
11
378.519215
21
165.262426
0
LINE
8
annotation
62
1
39
211
10
378.519215
20
165.262426
11
378.502976
21
165.149595
0
LINE
8
annotation
62
1
39
211
10
378.502976
20
165.149595
11
378.506029
21
165.035975
0
LINE
8
annotation
62
1
39
211
10
378.506029
20
165.035975
11
378.528294
21
164.924239
0
LINE
8
annotation
62
1
39
211
10
378.528294
20
164.924239
11
378.569691
21
164.817066
0
LINE
8
annotation
62
1
39
211
10
378.569691
20
164.817066
11
378.630138
21
164.717129
0
LINE
8
annotation
62
1
39
211
10
378.630138
20
164.717129
11
378.709556
21
164.627106
0
LINE
8
annotation
62
1
39
211
10
378.709556
20
164.627106
11
378.709556
21
164.627106
0
LINE
8
annotation
62
1
39
211
10
378.709556
20
164.627106
11
378.803939
21
164.552522
0
LINE
8
annotation
62
1
39
211
10
378.803939
20
164.552522
11
378.907106
21
164.497500
0
LINE
8
annotation
62
1
39
211
10
378.907106
20
164.497500
11
379.016398
21
164.461957
0
LINE
8
annotation
62
1
39
211
10
379.016398
20
164.461957
11
379.129154
21
164.445813
0
LINE
8
annotation
62
1
39
211
10
379.129154
20
164.445813
11
379.242717
21
164.448987
0
LINE
8
annotation
62
1
39
211
10
379.242717
20
164.448987
11
379.354426
21
164.471397
0
LINE
8
annotation
62
1
39
211
10
379.354426
20
164.471397
11
379.461623
21
164.512963
0
LINE
8
annotation
62
1
39
211
10
379.461623
20
164.512963
11
379.561647
21
164.573604
0
LINE
8
annotation
62
1
39
211
10
379.561647
20
164.573604
11
379.651840
21
164.653239
0
LINE
8
annotation
62
1
39
211
10
379.651840
20
164.653239
11
379.880044
21
164.894189
0
LINE
8
annotation
62
1
39
211
10
379.880044
20
164.894189
11
379.880044
21
164.894189
0
LINE
8
annotation
62
1
39
211
10
379.880044
20
164.894189
11
379.954624
21
164.988531
0
LINE
8
annotation
62
1
39
211
10
379.954624
20
164.988531
11
380.009637
21
165.091587
0
LINE
8
annotation
62
1
39
211
10
380.009637
20
165.091587
11
380.045167
21
165.200719
0
LINE
8
annotation
62
1
39
211
10
380.045167
20
165.200719
11
380.061295
21
165.313286
0
LINE
8
annotation
62
1
39
211
10
380.061295
20
165.313286
11
380.058105
21
165.426650
0
LINE
8
annotation
62
1
39
211
10
380.058105
20
165.426650
11
380.035678
21
165.538170
0
LINE
8
annotation
62
1
39
211
10
380.035678
20
165.538170
11
379.994099
21
165.645207
0
LINE
8
annotation
62
1
39
211
10
379.994099
20
165.645207
11
379.933449
21
165.745121
0
LINE
8
annotation
62
1
39
211
10
379.933449
20
165.745121
11
379.853811
21
165.835272
0
LINE
8
annotation
62
1
39
211
10
379.853811
20
165.835272
11
379.370134
21
166.293362
0
LINE
8
annotation
62
1
39
211
10
377.907439
20
164.870305
11
378.996497
21
163.838859
0
LINE
8
annotation
62
1
39
211
10
346.841652
20
162.227470
11
343.484990
21
162.227470
0
LINE
8
annotation
62
1
39
211
10
343.484990
20
162.227470
11
346.841652
21
168.272798
0
LINE
8
annotation
62
1
39
211
10
346.841652
20
168.272798
11
343.484990
21
168.272798
0
LINE
8
annotation
62
1
39
211
10
352.414700
20
165.250134
11
349.109219
21
165.250134
0
LINE
8
annotation
62
1
39
211
10
354.681129
20
163.567822
11
354.681129
21
163.567822
0
LINE
8
annotation
62
1
39
211
10
354.681129
20
163.567822
11
354.702803
21
163.326447
0
LINE
8
annotation
62
1
39
211
10
354.702803
20
163.326447
11
354.765275
21
163.099434
0
LINE
8
annotation
62
1
39
211
10
354.765275
20
163.099434
11
354.864718
21
162.890531
0
LINE
8
annotation
62
1
39
211
10
354.864718
20
162.890531
11
354.997308
21
162.703485
0
LINE
8
annotation
62
1
39
211
10
354.997308
20
162.703485
11
355.159219
21
162.542045
0
LINE
8
annotation
62
1
39
211
10
355.159219
20
162.542045
11
355.346626
21
162.409957
0
LINE
8
annotation
62
1
39
211
10
355.346626
20
162.409957
11
355.555703
21
162.310968
0
LINE
8
annotation
62
1
39
211
10
355.555703
20
162.310968
11
355.782625
21
162.248827
0
LINE
8
annotation
62
1
39
211
10
355.782625
20
162.248827
11
356.023567
21
162.227281
0
LINE
8
annotation
62
1
39
211
10
356.023567
20
162.227281
11
356.023567
21
162.227281
0
LINE
8
annotation
62
1
39
211
10
356.023567
20
162.227281
11
356.264508
21
162.248827
0
LINE
8
annotation
62
1
39
211
10
356.264508
20
162.248827
11
356.491430
21
162.310968
0
LINE
8
annotation
62
1
39
211
10
356.491430
20
162.310968
11
356.700507
21
162.409957
0
LINE
8
annotation
62
1
39
211
10
356.700507
20
162.409957
11
356.887914
21
162.542045
0
LINE
8
annotation
62
1
39
211
10
356.887914
20
162.542045
11
357.049825
21
162.703485
0
LINE
8
annotation
62
1
39
211
10
357.049825
20
162.703485
11
357.182415
21
162.890531
0
LINE
8
annotation
62
1
39
211
10
357.182415
20
162.890531
11
357.281859
21
163.099434
0
LINE
8
annotation
62
1
39
211
10
357.281859
20
163.099434
11
357.344330
21
163.326447
0
LINE
8
annotation
62
1
39
211
10
357.344330
20
163.326447
11
357.366004
21
163.567822
0
LINE
8
annotation
62
1
39
211
10
357.366004
20
163.567822
11
357.366004
21
164.236577
0
LINE
8
annotation
62
1
39
211
10
357.366004
20
164.236577
11
357.366004
21
164.236577
0
LINE
8
annotation
62
1
39
211
10
357.366004
20
164.236577
11
357.344342
21
164.478069
0
LINE
8
annotation
62
1
39
211
10
357.344342
20
164.478069
11
357.281902
21
164.705396
0
LINE
8
annotation
62
1
39
211
10
357.281902
20
164.705396
11
357.182499
21
164.914753
0
LINE
8
annotation
62
1
39
211
10
357.182499
20
164.914753
11
357.049950
21
165.102337
0
LINE
8
annotation
62
1
39
211
10
357.049950
20
165.102337
11
356.888070
21
165.264343
0
LINE
8
annotation
62
1
39
211
10
356.888070
20
165.264343
11
356.700675
21
165.396970
0
LINE
8
annotation
62
1
39
211
10
356.700675
20
165.396970
11
356.491583
21
165.496412
0
LINE
8
annotation
62
1
39
211
10
356.491583
20
165.496412
11
356.264608
21
165.558867
0
LINE
8
annotation
62
1
39
211
10
356.264608
20
165.558867
11
356.023567
21
165.580530
0
LINE
8
annotation
62
1
39
211
10
356.023567
20
165.580530
11
356.023567
21
165.580530
0
LINE
8
annotation
62
1
39
211
10
356.023567
20
165.580530
11
355.782525
21
165.558855
0
LINE
8
annotation
62
1
39
211
10
355.782525
20
165.558855
11
355.555550
21
165.496369
0
LINE
8
annotation
62
1
39
211
10
355.555550
20
165.496369
11
355.346458
21
165.396886
0
LINE
8
annotation
62
1
39
211
10
355.346458
20
165.396886
11
355.159063
21
165.264219
0
LINE
8
annotation
62
1
39
211
10
355.159063
20
165.264219
11
354.997183
21
165.102181
0
LINE
8
annotation
62
1
39
211
10
354.997183
20
165.102181
11
354.864634
21
164.914584
0
LINE
8
annotation
62
1
39
211
10
354.864634
20
164.914584
11
354.765231
21
164.705243
0
LINE
8
annotation
62
1
39
211
10
354.765231
20
164.705243
11
354.702791
21
164.477970
0
LINE
8
annotation
62
1
39
211
10
354.702791
20
164.477970
11
354.681129
21
164.236577
0
LINE
8
annotation
62
1
39
211
10
354.681129
20
164.236577
11
354.681129
21
163.567822
0
LINE
8
annotation
62
1
39
211
10
357.366004
20
166.924863
11
357.366004
21
166.924863
0
LINE
8
annotation
62
1
39
211
10
357.366004
20
166.924863
11
357.344342
21
167.165240
0
LINE
8
annotation
62
1
39
211
10
357.344342
20
167.165240
11
357.281902
21
167.391723
0
LINE
8
annotation
62
1
39
211
10
357.281902
20
167.391723
11
357.182499
21
167.600470
0
LINE
8
annotation
62
1
39
211
10
357.182499
20
167.600470
11
357.049950
21
167.787640
0
LINE
8
annotation
62
1
39
211
10
357.049950
20
167.787640
11
356.888070
21
167.949393
0
LINE
8
annotation
62
1
39
211
10
356.888070
20
167.949393
11
356.700675
21
168.081886
0
LINE
8
annotation
62
1
39
211
10
356.700675
20
168.081886
11
356.491583
21
168.181281
0
LINE
8
annotation
62
1
39
211
10
356.491583
20
168.181281
11
356.264608
21
168.243734
0
LINE
8
annotation
62
1
39
211
10
356.264608
20
168.243734
11
356.023567
21
168.265405
0
LINE
8
annotation
62
1
39
211
10
356.023567
20
168.265405
11
356.023567
21
168.265405
0
LINE
8
annotation
62
1
39
211
10
356.023567
20
168.265405
11
355.782525
21
168.243734
0
LINE
8
annotation
62
1
39
211
10
355.782525
20
168.243734
11
355.555550
21
168.181281
0
LINE
8
annotation
62
1
39
211
10
355.555550
20
168.181281
11
355.346458
21
168.081886
0
LINE
8
annotation
62
1
39
211
10
355.346458
20
168.081886
11
355.159063
21
167.949393
0
LINE
8
annotation
62
1
39
211
10
355.159063
20
167.949393
11
354.997183
21
167.787640
0
LINE
8
annotation
62
1
39
211
10
354.997183
20
167.787640
11
354.864634
21
167.600470
0
LINE
8
annotation
62
1
39
211
10
354.864634
20
167.600470
11
354.765231
21
167.391723
0
LINE
8
annotation
62
1
39
211
10
354.765231
20
167.391723
11
354.702791
21
167.165240
0
LINE
8
annotation
62
1
39
211
10
354.702791
20
167.165240
11
354.681129
21
166.924863
0
LINE
8
annotation
62
1
39
211
10
354.681129
20
166.924863
11
354.681129
21
166.924863
0
LINE
8
annotation
62
1
39
211
10
354.681129
20
166.924863
11
354.702803
21
166.683358
0
LINE
8
annotation
62
1
39
211
10
354.702803
20
166.683358
11
354.765275
21
166.455996
0
LINE
8
annotation
62
1
39
211
10
354.765275
20
166.455996
11
354.864718
21
166.246589
0
LINE
8
annotation
62
1
39
211
10
354.864718
20
166.246589
11
354.997308
21
166.058945
0
LINE
8
annotation
62
1
39
211
10
354.997308
20
166.058945
11
355.159219
21
165.896876
0
LINE
8
annotation
62
1
39
211
10
355.159219
20
165.896876
11
355.346626
21
165.764189
0
LINE
8
annotation
62
1
39
211
10
355.346626
20
165.764189
11
355.555703
21
165.664697
0
LINE
8
annotation
62
1
39
211
10
355.555703
20
165.664697
11
355.782625
21
165.602207
0
LINE
8
annotation
62
1
39
211
10
355.782625
20
165.602207
11
356.023567
21
165.580530
0
LINE
8
annotation
62
1
39
211
10
356.023567
20
165.580530
11
356.023567
21
165.580530
0
LINE
8
annotation
62
1
39
211
10
356.023567
20
165.580530
11
356.264508
21
165.602207
0
LINE
8
annotation
62
1
39
211
10
356.264508
20
165.602207
11
356.491430
21
165.664697
0
LINE
8
annotation
62
1
39
211
10
356.491430
20
165.664697
11
356.700507
21
165.764189
0
LINE
8
annotation
62
1
39
211
10
356.700507
20
165.764189
11
356.887914
21
165.896876
0
LINE
8
annotation
62
1
39
211
10
356.887914
20
165.896876
11
357.049825
21
166.058945
0
LINE
8
annotation
62
1
39
211
10
357.049825
20
166.058945
11
357.182415
21
166.246589
0
LINE
8
annotation
62
1
39
211
10
357.182415
20
166.246589
11
357.281859
21
166.455996
0
LINE
8
annotation
62
1
39
211
10
357.281859
20
166.455996
11
357.344330
21
166.683358
0
LINE
8
annotation
62
1
39
211
10
357.344330
20
166.683358
11
357.366004
21
166.924863
0
LINE
8
frame
62
5
39
2
10
0.000000
20
0.000000
11
609.600000
21
0.000000
0
LINE
8
frame
62
5
39
2
10
609.600000
20
0.000000
11
609.600000
21
914.400000
0
LINE
8
frame
62
5
39
2
10
609.600000
20
914.400000
11
0.000000
21
914.400000
0
LINE
8
frame
62
5
39
2
10
0.000000
20
914.400000
11
0.000000
21
0.000000
0
ENDSEC
0
EOF
