  0
SECTION
  2
HEADER
  9
$ACADVER
  1
AC1024
  9
$ACADMAINTVER
 70
     6
  9
$DWGCODEPAGE
  3
ANSI_1252
  9
$INSBASE
 10
0.0
 20
0.0
 30
0.0
  9
$EXTMIN
 10
1.000000000000000E+20
 20
1.000000000000000E+20
 30
1.000000000000000E+20
  9
$EXTMAX
 10
-1.000000000000000E+20
 20
-1.000000000000000E+20
 30
-1.000000000000000E+20
  9
$LIMMIN
 10
0.0
 20
0.0
  9
$LIMMAX
 10
12.0
 20
9.0
  9
$ORTHOMODE
 70
     0
  9
$REGENMODE
 70
     1
  9
$FILLMODE
 70
     1
  9
$QTEXTMODE
 70
     0
  9
$MIRRTEXT
 70
     1
  9
$LTSCALE
 40
1.0
  9
$ATTMODE
 70
     1
  9
$TEXTSIZE
 40
0.2
  9
$TRACEWID
 40
0.05
  9
$TEXTSTYLE
  7
Standard
  9
$CLAYER
  8
0
  9
$CELTYPE
  6
ByLayer
  9
$CECOLOR
 62
   256
  9
$CELTSCALE
 40
1.0
  9
$DISPSILH
 70
     0
  9
$DIMSCALE
 40
1.0
  9
$DIMASZ
 40
0.18
  9
$DIMEXO
 40
0.0625
  9
$DIMDLI
 40
0.38
  9
$DIMRND
 40
0.0
  9
$DIMDLE
 40
0.0
  9
$DIMEXE
 40
0.18
  9
$DIMTP
 40
0.0
  9
$DIMTM
 40
0.0
  9
$DIMTXT
 40
0.18
  9
$DIMCEN
 40
0.09
  9
$DIMTSZ
 40
0.0
  9
$DIMTOL
 70
     0
  9
$DIMLIM
 70
     0
  9
$DIMTIH
 70
     1
  9
$DIMTOH
 70
     1
  9
$DIMSE1
 70
     0
  9
$DIMSE2
 70
     0
  9
$DIMTAD
 70
     0
  9
$DIMZIN
 70
     0
  9
$DIMBLK
  1

  9
$DIMASO
 70
     1
  9
$DIMSHO
 70
     1
  9
$DIMPOST
  1

  9
$DIMAPOST
  1

  9
$DIMALT
 70
     0
  9
$DIMALTD
 70
     2
  9
$DIMALTF
 40
25.4
  9
$DIMLFAC
 40
1.0
  9
$DIMTOFL
 70
     0
  9
$DIMTVP
 40
0.0
  9
$DIMTIX
 70
     0
  9
$DIMSOXD
 70
     0
  9
$DIMSAH
 70
     0
  9
$DIMBLK1
  1

  9
$DIMBLK2
  1

  9
$DIMSTYLE
  2
Standard
  9
$DIMCLRD
 70
     0
  9
$DIMCLRE
 70
     0
  9
$DIMCLRT
 70
     0
  9
$DIMTFAC
 40
1.0
  9
$DIMGAP
 40
0.09
  9
$DIMJUST
 70
     0
  9
$DIMSD1
 70
     0
  9
$DIMSD2
 70
     0
  9
$DIMTOLJ
 70
     1
  9
$DIMTZIN
 70
     0
  9
$DIMALTZ
 70
     0
  9
$DIMALTTZ
 70
     0
  9
$DIMUPT
 70
     0
  9
$DIMDEC
 70
     4
  9
$DIMTDEC
 70
     4
  9
$DIMALTU
 70
     2
  9
$DIMALTTD
 70
     2
  9
$DIMTXSTY
  7
Standard
  9
$DIMAUNIT
 70
     0
  9
$DIMADEC
 70
     0
  9
$DIMALTRND
 40
0.0
  9
$DIMAZIN
 70
     0
  9
$DIMDSEP
 70
    46
  9
$DIMATFIT
 70
     3
  9
$DIMFRAC
 70
     0
  9
$DIMLDRBLK
  1

  9
$DIMLUNIT
 70
     2
  9
$DIMLWD
 70
    -2
  9
$DIMLWE
 70
    -2
  9
$DIMTMOVE
 70
     0
  9
$DIMFXL
 40
1.0
  9
$DIMFXLON
 70
     0
  9
$DIMJOGANG
 40
0.7853981633974483
  9
$DIMTFILL
 70
     0
  9
$DIMTFILLCLR
 70
     0
  9
$DIMARCSYM
 70
     0
  9
$DIMLTYPE
  6

  9
$DIMLTEX1
  6

  9
$DIMLTEX2
  6

  9
$DIMTXTDIRECTION
 70
     0
  9
$LUNITS
 70
     2
  9
$LUPREC
 70
     4
  9
$SKETCHINC
 40
0.1
  9
$FILLETRAD
 40
0.5
  9
$AUNITS
 70
     0
  9
$AUPREC
 70
     0
  9
$MENU
  1
.
  9
$ELEVATION
 40
0.0
  9
$PELEVATION
 40
0.0
  9
$THICKNESS
 40
0.0
  9
$LIMCHECK
 70
     0
  9
$CHAMFERA
 40
0.5
  9
$CHAMFERB
 40
0.5
  9
$CHAMFERC
 40
1.0
  9
$CHAMFERD
 40
0.0
  9
$SKPOLY
 70
     0
  9
$TDCREATE
 40
2457405.837414201
  9
$TDUCREATE
 40
2457405.795747535
  9
$TDUPDATE
 40
2457405.837414201
  9
$TDUUPDATE
 40
2457405.795747535
  9
$TDINDWG
 40
0.0000000116
  9
$TDUSRTIMER
 40
0.0000000116
  9
$USRTIMER
 70
     1
  9
$ANGBASE
 50
0.0
  9
$ANGDIR
 70
     0
  9
$PDMODE
 70
     0
  9
$PDSIZE
 40
0.0
  9
$PLINEWID
 40
0.0
  9
$SPLFRAME
 70
     0
  9
$SPLINETYPE
 70
     6
  9
$SPLINESEGS
 70
     8
  9
$HANDSEED
  5
349
  9
$SURFTAB1
 70
     6
  9
$SURFTAB2
 70
     6
  9
$SURFTYPE
 70
     6
  9
$SURFU
 70
     6
  9
$SURFV
 70
     6
  9
$UCSBASE
  2

  9
$UCSNAME
  2

  9
$UCSORG
 10
0.0
 20
0.0
 30
0.0
  9
$UCSXDIR
 10
1.0
 20
0.0
 30
0.0
  9
$UCSYDIR
 10
0.0
 20
1.0
 30
0.0
  9
$UCSORTHOREF
  2

  9
$UCSORTHOVIEW
 70
     0
  9
$UCSORGTOP
 10
0.0
 20
0.0
 30
0.0
  9
$UCSORGBOTTOM
 10
0.0
 20
0.0
 30
0.0
  9
$UCSORGLEFT
 10
0.0
 20
0.0
 30
0.0
  9
$UCSORGRIGHT
 10
0.0
 20
0.0
 30
0.0
  9
$UCSORGFRONT
 10
0.0
 20
0.0
 30
0.0
  9
$UCSORGBACK
 10
0.0
 20
0.0
 30
0.0
  9
$PUCSBASE
  2

  9
$PUCSNAME
  2

  9
$PUCSORG
 10
0.0
 20
0.0
 30
0.0
  9
$PUCSXDIR
 10
1.0
 20
0.0
 30
0.0
  9
$PUCSYDIR
 10
0.0
 20
1.0
 30
0.0
  9
$PUCSORTHOREF
  2

  9
$PUCSORTHOVIEW
 70
     0
  9
$PUCSORGTOP
 10
0.0
 20
0.0
 30
0.0
  9
$PUCSORGBOTTOM
 10
0.0
 20
0.0
 30
0.0
  9
$PUCSORGLEFT
 10
0.0
 20
0.0
 30
0.0
  9
$PUCSORGRIGHT
 10
0.0
 20
0.0
 30
0.0
  9
$PUCSORGFRONT
 10
0.0
 20
0.0
 30
0.0
  9
$PUCSORGBACK
 10
0.0
 20
0.0
 30
0.0
  9
$USERI1
 70
     0
  9
$USERI2
 70
     0
  9
$USERI3
 70
     0
  9
$USERI4
 70
     0
  9
$USERI5
 70
     0
  9
$USERR1
 40
0.0
  9
$USERR2
 40
0.0
  9
$USERR3
 40
0.0
  9
$USERR4
 40
0.0
  9
$USERR5
 40
0.0
  9
$WORLDVIEW
 70
     1
  9
$SHADEDGE
 70
     3
  9
$SHADEDIF
 70
    70
  9
$TILEMODE
 70
     1
  9
$MAXACTVP
 70
    64
  9
$PINSBASE
 10
0.0
 20
0.0
 30
0.0
  9
$PLIMCHECK
 70
     0
  9
$PEXTMIN
 10
1.000000000000000E+20
 20
1.000000000000000E+20
 30
1.000000000000000E+20
  9
$PEXTMAX
 10
-1.000000000000000E+20
 20
-1.000000000000000E+20
 30
-1.000000000000000E+20
  9
$PLIMMIN
 10
0.0
 20
0.0
  9
$PLIMMAX
 10
12.0
 20
9.0
  9
$UNITMODE
 70
     0
  9
$VISRETAIN
 70
     1
  9
$PLINEGEN
 70
     0
  9
$PSLTSCALE
 70
     1
  9
$TREEDEPTH
 70
  3020
  9
$CMLSTYLE
  2
Standard
  9
$CMLJUST
 70
     0
  9
$CMLSCALE
 40
1.0
  9
$PROXYGRAPHICS
 70
     1
  9
$MEASUREMENT
 70
     0
  9
$CELWEIGHT
370
    -1
  9
$ENDCAPS
280
     0
  9
$JOINSTYLE
280
     0
  9
$LWDISPLAY
290
     1
  9
$INSUNITS
 70
     1
  9
$HYPERLINKBASE
  1

  9
$STYLESHEET
  1

  9
$XEDIT
290
     1
  9
$CEPSNTYPE
380
     0
  9
$PSTYLEMODE
290
     1
  9
$FINGERPRINTGUID
  2
{09D7FDD7-1F46-41EA-8310-CC228D7836B5}
  9
$VERSIONGUID
  2
{FAEB1C32-E019-11D5-929B-00C0DF256EC4}
  9
$EXTNAMES
290
     1
  9
$PSVPSCALE
 40
0.0
  9
$OLESTARTUP
290
     0
  9
$SORTENTS
280
   127
  9
$INDEXCTL
280
     0
  9
$HIDETEXT
280
     1
  9
$XCLIPFRAME
280
     2
  9
$HALOGAP
280
     0
  9
$OBSCOLOR
 70
   257
  9
$OBSLTYPE
280
     0
  9
$INTERSECTIONDISPLAY
280
     0
  9
$INTERSECTIONCOLOR
 70
   257
  9
$DIMASSOC
280
     2
  9
$PROJECTNAME
  1

  9
$CAMERADISPLAY
290
     0
  9
$LENSLENGTH
 40
50.0
  9
$CAMERAHEIGHT
 40
0.0
  9
$STEPSPERSEC
 40
2.0
  9
$STEPSIZE
 40
6.0
  9
$3DDWFPREC
 40
2.0
  9
$PSOLWIDTH
 40
0.25
  9
$PSOLHEIGHT
 40
4.0
  9
$LOFTANG1
 40
1.570796326794897
  9
$LOFTANG2
 40
1.570796326794897
  9
$LOFTMAG1
 40
0.0
  9
$LOFTMAG2
 40
0.0
  9
$LOFTPARAM
 70
     7
  9
$LOFTNORMALS
280
     1
  9
$LATITUDE
 40
37.795
  9
$LONGITUDE
 40
-122.394
  9
$NORTHDIRECTION
 40
0.0
  9
$TIMEZONE
 70
 -8000
  9
$LIGHTGLYPHDISPLAY
280
     1
  9
$TILEMODELIGHTSYNCH
280
     1
  9
$CMATERIAL
347
3C
  9
$SOLIDHIST
280
     1
  9
$SHOWHIST
280
     1
  9
$DWFFRAME
280
     2
  9
$DGNFRAME
280
     2
  9
$REALWORLDSCALE
290
     1
  9
$INTERFERECOLOR
 62
   256
  9
$CSHADOW
280
     0
  9
$SHADOWPLANELOCATION
 40
0.0
  0
ENDSEC
  0
SECTION
  2
CLASSES
  0
CLASS
  1
ACDBDICTIONARYWDFLT
  2
AcDbDictionaryWithDefault
  3
ObjectDBX Classes
 90
        0
 91
        4
280
     0
281
     0
  0
CLASS
  1
VISUALSTYLE
  2
AcDbVisualStyle
  3
ObjectDBX Classes
 90
     4095
 91
        4
280
     0
281
     0
  0
CLASS
  1
MATERIAL
  2
AcDbMaterial
  3
ObjectDBX Classes
 90
     1153
 91
        4
280
     0
281
     0
  0
CLASS
  1
SUN
  2
AcDbSun
  3
SCENEOE
 90
     1024
 91
        4
280
     0
281
     0
  0
ENDSEC
  0
SECTION
  2
TABLES
  0
TABLE
  2
VPORT
  5
8
330
0
100
AcDbSymbolTable
 70
     1
  0
VPORT
  5
29
330
8
100
AcDbSymbolTableRecord
100
AcDbViewportTableRecord
  2
*Active
 70
     0
 10
0.0
 20
0.0
 11
1.0
 21
1.0
 12
0.0
 22
0.0
 13
0.0
 23
0.0
 14
0.5
 24
0.5
 15
0.5
 25
0.5
 16
0.0
 26
0.0
 36
1.0
 17
165.0319594894366
 27
135.853730984841
 37
0.0
 40
322.2917804749828
 41
0.7622577066427649
 42
50.0
 43
0.0
 44
0.0
 50
0.0
 51
0.0
 71
     0
 72
   100
 73
     1
 74
     3
 75
     0
 76
     0
 77
     0
 78
     0
281
     0
 65
     1
110
0.0
120
0.0
130
0.0
111
1.0
121
0.0
131
0.0
112
0.0
122
1.0
132
0.0
 79
     0
146
0.0
 60
     3
 61
     5
292
     1
282
     1
141
0.0
142
0.0
 63
   250
361
3F
  0
ENDTAB
  0
TABLE
  2
LTYPE
  5
5
330
0
100
AcDbSymbolTable
 70
     1
  0
LTYPE
  5
14
330
5
100
AcDbSymbolTableRecord
100
AcDbLinetypeTableRecord
  2
ByBlock
 70
     0
  3

 72
    65
 73
     0
 40
0.0
  0
LTYPE
  5
15
330
5
100
AcDbSymbolTableRecord
100
AcDbLinetypeTableRecord
  2
ByLayer
 70
     0
  3

 72
    65
 73
     0
 40
0.0
  0
LTYPE
  5
16
330
5
100
AcDbSymbolTableRecord
100
AcDbLinetypeTableRecord
  2
Continuous
 70
     0
  3
Solid line
 72
    65
 73
     0
 40
0.0
  0
ENDTAB
  0
TABLE
  2
LAYER
  5
2
330
0
100
AcDbSymbolTable
 70
     2
  0
LAYER
  5
10
330
2
100
AcDbSymbolTableRecord
100
AcDbLayerTableRecord
  2
0
 70
     0
 62
     7
  6
Continuous
370
    -3
390
F
347
3E
  0
LAYER
  5
40
330
2
100
AcDbSymbolTableRecord
100
AcDbLayerTableRecord
  2
_1
 70
     0
 62
     7
  6
Continuous
370
    -3
390
F
347
3E
  0
ENDTAB
  0
TABLE
  2
STYLE
  5
3
330
0
100
AcDbSymbolTable
 70
     1
  0
STYLE
  5
11
330
3
100
AcDbSymbolTableRecord
100
AcDbTextStyleTableRecord
  2
Standard
 70
     0
 40
0.0
 41
1.0
 50
0.0
 71
     0
 42
0.2
  3
txt
  4

  0
ENDTAB
  0
TABLE
  2
VIEW
  5
6
330
0
100
AcDbSymbolTable
 70
     0
  0
ENDTAB
  0
TABLE
  2
UCS
  5
7
330
0
100
AcDbSymbolTable
 70
     0
  0
ENDTAB
  0
TABLE
  2
APPID
  5
9
330
0
100
AcDbSymbolTable
 70
     1
  0
APPID
  5
12
330
9
100
AcDbSymbolTableRecord
100
AcDbRegAppTableRecord
  2
ACAD
 70
     0
  0
ENDTAB
  0
TABLE
  2
DIMSTYLE
  5
A
330
0
100
AcDbSymbolTable
 70
     1
100
AcDbDimStyleTable
  0
DIMSTYLE
105
27
330
A
100
AcDbSymbolTableRecord
100
AcDbDimStyleTableRecord
  2
Standard
 70
     0
178
     0
340
11
  0
ENDTAB
  0
TABLE
  2
BLOCK_RECORD
  5
1
330
0
100
AcDbSymbolTable
 70
    13
  0
BLOCK_RECORD
  5
1F
330
1
100
AcDbSymbolTableRecord
100
AcDbBlockTableRecord
  2
*Model_Space
340
22
 70
     0
280
     1
281
     0
  0
BLOCK_RECORD
  5
1B
330
1
100
AcDbSymbolTableRecord
100
AcDbBlockTableRecord
  2
*Paper_Space
340
1E
 70
     0
280
     1
281
     0
  0
BLOCK_RECORD
  5
23
330
1
100
AcDbSymbolTableRecord
100
AcDbBlockTableRecord
  2
*Paper_Space0
340
26
 70
     0
280
     1
281
     0
  0
BLOCK_RECORD
  5
41
330
1
100
AcDbSymbolTableRecord
100
AcDbBlockTableRecord
  2
block 2
340
0
102
{BLKREFS
331
42
102
}
 70
     0
280
     1
281
     0
  0
BLOCK_RECORD
  5
70
330
1
100
AcDbSymbolTableRecord
100
AcDbBlockTableRecord
  2
block 3
340
0
102
{BLKREFS
331
71
102
}
 70
     0
280
     1
281
     0
  0
BLOCK_RECORD
  5
9F
330
1
100
AcDbSymbolTableRecord
100
AcDbBlockTableRecord
  2
block 4
340
0
102
{BLKREFS
331
A0
102
}
 70
     0
280
     1
281
     0
  0
BLOCK_RECORD
  5
CE
330
1
100
AcDbSymbolTableRecord
100
AcDbBlockTableRecord
  2
block 5
340
0
102
{BLKREFS
331
CF
102
}
 70
     0
280
     1
281
     0
  0
BLOCK_RECORD
  5
FD
330
1
100
AcDbSymbolTableRecord
100
AcDbBlockTableRecord
  2
block 6
340
0
102
{BLKREFS
331
FE
102
}
 70
     0
280
     1
281
     0
  0
BLOCK_RECORD
  5
12C
330
1
100
AcDbSymbolTableRecord
100
AcDbBlockTableRecord
  2
block 7
340
0
102
{BLKREFS
331
12D
102
}
 70
     0
280
     1
281
     0
  0
BLOCK_RECORD
  5
15B
330
1
100
AcDbSymbolTableRecord
100
AcDbBlockTableRecord
  2
block 8
340
0
102
{BLKREFS
331
15C
102
}
 70
     0
280
     1
281
     0
  0
BLOCK_RECORD
  5
15F
330
1
100
AcDbSymbolTableRecord
100
AcDbBlockTableRecord
  2
block 9
340
0
102
{BLKREFS
331
160
102
}
 70
     0
280
     1
281
     0
  0
BLOCK_RECORD
  5
1E9
330
1
100
AcDbSymbolTableRecord
100
AcDbBlockTableRecord
  2
block 10
340
0
102
{BLKREFS
331
1EA
102
}
 70
     0
280
     1
281
     0
  0
BLOCK_RECORD
  5
242
330
1
100
AcDbSymbolTableRecord
100
AcDbBlockTableRecord
  2
block 11
340
0
102
{BLKREFS
331
243
102
}
 70
     0
280
     1
281
     0
  0
BLOCK_RECORD
  5
29B
330
1
100
AcDbSymbolTableRecord
100
AcDbBlockTableRecord
  2
block 12
340
0
102
{BLKREFS
331
29C
102
}
 70
     0
280
     1
281
     0
  0
BLOCK_RECORD
  5
2E8
330
1
100
AcDbSymbolTableRecord
100
AcDbBlockTableRecord
  2
block 13
340
0
102
{BLKREFS
331
2E9
102
}
 70
     0
280
     1
281
     0
  0
ENDTAB
  0
ENDSEC
  0
SECTION
  2
BLOCKS
  0
BLOCK
  5
20
330
1F
100
AcDbEntity
  8
0
100
AcDbBlockBegin
  2
*Model_Space
 70
     0
 10
0.0
 20
0.0
 30
0.0
  3
*Model_Space
  1

  0
ENDBLK
  5
21
330
1F
100
AcDbEntity
  8
0
100
AcDbBlockEnd
  0
BLOCK
  5
1C
330
1B
100
AcDbEntity
 67
     1
  8
0
100
AcDbBlockBegin
  2
*Paper_Space
 70
     0
 10
0.0
 20
0.0
 30
0.0
  3
*Paper_Space
  1

  0
ENDBLK
  5
1D
330
1B
100
AcDbEntity
 67
     1
  8
0
100
AcDbBlockEnd
  0
BLOCK
  5
24
330
23
100
AcDbEntity
  8
0
100
AcDbBlockBegin
  2
*Paper_Space0
 70
     0
 10
0.0
 20
0.0
 30
0.0
  3
*Paper_Space0
  1

  0
ENDBLK
  5
25
330
23
100
AcDbEntity
  8
0
100
AcDbBlockEnd
  0
BLOCK
  5
43
330
41
100
AcDbEntity
  8
0
100
AcDbBlockBegin
  2
block 2
 70
     0
 10
0.0
 20
0.0
 30
0.0
  3
block 2
  1

  0
POLYLINE
  5
45
330
41
100
AcDbEntity
  8
_1
 62
    12
420
 14877971
370
     9
100
AcDb2dPolyline
 66
     1
 10
0.0
 20
0.0
 30
0.0
  0
VERTEX
  5
46
330
45
100
AcDbEntity
  8
_1
 62
    12
420
 14877971
370
     9
100
AcDbVertex
100
AcDb2dVertex
 10
278.584194281614
 20
289.5768201122798
 30
0.0
  0
VERTEX
  5
47
330
45
100
AcDbEntity
  8
_1
 62
    12
420
 14877971
370
     9
100
AcDbVertex
100
AcDb2dVertex
 10
264.6012476939042
 20
289.5768201122798
 30
0.0
  0
VERTEX
  5
48
330
45
100
AcDbEntity
  8
_1
 62
    12
420
 14877971
370
     9
100
AcDbVertex
100
AcDb2dVertex
 10
264.6012476939042
 20
275.4558668614243
 30
0.0
  0
VERTEX
  5
49
330
45
100
AcDbEntity
  8
_1
 62
    12
420
 14877971
370
     9
100
AcDbVertex
100
AcDb2dVertex
 10
261.4327741636276
 20
275.4558668614243
 30
0.0
  0
VERTEX
  5
4A
330
45
100
AcDbEntity
  8
_1
 62
    12
420
 14877971
370
     9
100
AcDbVertex
100
AcDb2dVertex
 10
261.4327741636276
 20
289.5768201122798
 30
0.0
  0
VERTEX
  5
4B
330
45
100
AcDbEntity
  8
_1
 62
    12
420
 14877971
370
     9
100
AcDbVertex
100
AcDb2dVertex
 10
247.3809300776756
 20
289.5768201122798
 30
0.0
  0
VERTEX
  5
4C
330
45
100
AcDbEntity
  8
_1
 62
    12
420
 14877971
370
     9
100
AcDbVertex
100
AcDb2dVertex
 10
247.3809300776756
 20
275.4558668614243
 30
0.0
  0
VERTEX
  5
4D
330
45
100
AcDbEntity
  8
_1
 62
    12
420
 14877971
370
     9
100
AcDbVertex
100
AcDb2dVertex
 10
244.2117862696383
 20
275.4558668614243
 30
0.0
  0
VERTEX
  5
4E
330
45
100
AcDbEntity
  8
_1
 62
    12
420
 14877971
370
     9
100
AcDbVertex
100
AcDb2dVertex
 10
244.2117862696383
 20
289.5768201122798
 30
0.0
  0
VERTEX
  5
4F
330
45
100
AcDbEntity
  8
_1
 62
    12
420
 14877971
370
     9
100
AcDbVertex
100
AcDb2dVertex
 10
230.1599421836862
 20
289.5766437233955
 30
0.0
  0
VERTEX
  5
50
330
45
100
AcDbEntity
  8
_1
 62
    12
420
 14877971
370
     9
100
AcDbVertex
100
AcDb2dVertex
 10
230.1599421836862
 20
275.4558668614243
 30
0.0
  0
VERTEX
  5
51
330
45
100
AcDbEntity
  8
_1
 62
    12
420
 14877971
370
     9
100
AcDbVertex
100
AcDb2dVertex
 10
226.9914686534096
 20
275.4558668614243
 30
0.0
  0
VERTEX
  5
52
330
45
100
AcDbEntity
  8
_1
 62
    12
420
 14877971
370
     9
100
AcDbVertex
100
AcDb2dVertex
 10
226.9914686534096
 20
289.5766437233955
 30
0.0
  0
VERTEX
  5
53
330
45
100
AcDbEntity
  8
_1
 62
    12
420
 14877971
370
     9
100
AcDbVertex
100
AcDb2dVertex
 10
213.0081692879311
 20
289.5766437233955
 30
0.0
  0
VERTEX
  5
54
330
45
100
AcDbEntity
  8
_1
 62
    12
420
 14877971
370
     9
100
AcDbVertex
100
AcDb2dVertex
 10
213.0081692879311
 20
275.9380082380127
 30
0.0
  0
VERTEX
  5
55
330
45
100
AcDbEntity
  8
_1
 62
    12
420
 14877971
370
     9
100
AcDbVertex
100
AcDb2dVertex
 10
209.634061596234
 20
275.9380082380127
 30
0.0
  0
VERTEX
  5
56
330
45
100
AcDbEntity
  8
_1
 62
    12
420
 14877971
370
     9
100
AcDbVertex
100
AcDb2dVertex
 10
209.6338852073496
 20
261.8858113742919
 30
0.0
  0
VERTEX
  5
57
330
45
100
AcDbEntity
  8
_1
 62
    12
420
 14877971
370
     9
100
AcDbVertex
100
AcDb2dVertex
 10
213.0081692879311
 20
261.8858113742919
 30
0.0
  0
VERTEX
  5
58
330
45
100
AcDbEntity
  8
_1
 62
    12
420
 14877971
370
     9
100
AcDbVertex
100
AcDb2dVertex
 10
213.0081692879311
 20
248.3848360490148
 30
0.0
  0
VERTEX
  5
59
330
45
100
AcDbEntity
  8
_1
 62
    12
420
 14877971
370
     9
100
AcDbVertex
100
AcDb2dVertex
 10
209.6337088184652
 20
248.3848360490148
 30
0.0
  0
VERTEX
  5
5A
330
45
100
AcDbEntity
  8
_1
 62
    12
420
 14877971
370
     9
100
AcDbVertex
100
AcDb2dVertex
 10
209.6333560406964
 20
234.3328092994498
 30
0.0
  0
VERTEX
  5
5B
330
45
100
AcDbEntity
  8
_1
 62
    12
420
 14877971
370
     9
100
AcDbVertex
100
AcDb2dVertex
 10
213.0081692879311
 20
234.3328092994498
 30
0.0
  0
VERTEX
  5
5C
330
45
100
AcDbEntity
  8
_1
 62
    12
420
 14877971
370
     9
100
AcDbVertex
100
AcDb2dVertex
 10
213.0081692879311
 20
220.6251055003994
 30
0.0
  0
VERTEX
  5
5D
330
45
100
AcDbEntity
  8
_1
 62
    12
420
 14877971
370
     9
100
AcDbVertex
100
AcDb2dVertex
 10
224.9933353710529
 20
220.6251055003994
 30
0.0
  0
VERTEX
  5
5E
330
45
100
AcDbEntity
  8
_1
 62
    12
420
 14877971
370
     9
100
AcDbVertex
100
AcDb2dVertex
 10
224.9933353710529
 20
217.2501102908213
 30
0.0
  0
VERTEX
  5
5F
330
45
100
AcDbEntity
  8
_1
 62
    12
420
 14877971
370
     9
100
AcDbVertex
100
AcDb2dVertex
 10
239.0455322347737
 20
217.2501102908213
 30
0.0
  0
VERTEX
  5
60
330
45
100
AcDbEntity
  8
_1
 62
    12
420
 14877971
370
     9
100
AcDbVertex
100
AcDb2dVertex
 10
239.0455322347737
 20
220.6251055003994
 30
0.0
  0
VERTEX
  5
61
330
45
100
AcDbEntity
  8
_1
 62
    12
420
 14877971
370
     9
100
AcDbVertex
100
AcDb2dVertex
 10
252.5461610570107
 20
220.6251055003994
 30
0.0
  0
VERTEX
  5
62
330
45
100
AcDbEntity
  8
_1
 62
    12
420
 14877971
370
     9
100
AcDbVertex
100
AcDb2dVertex
 10
252.5461610570107
 20
217.2501102908213
 30
0.0
  0
VERTEX
  5
63
330
45
100
AcDbEntity
  8
_1
 62
    12
420
 14877971
370
     9
100
AcDbVertex
100
AcDb2dVertex
 10
266.5983579207315
 20
217.2501102908213
 30
0.0
  0
VERTEX
  5
64
330
45
100
AcDbEntity
  8
_1
 62
    12
420
 14877971
370
     9
100
AcDbVertex
100
AcDb2dVertex
 10
266.5983579207315
 20
220.6251055003994
 30
0.0
  0
VERTEX
  5
65
330
45
100
AcDbEntity
  8
_1
 62
    12
420
 14877971
370
     9
100
AcDbVertex
100
AcDb2dVertex
 10
278.584194281614
 20
220.6251055003994
 30
0.0
  0
VERTEX
  5
66
330
45
100
AcDbEntity
  8
_1
 62
    12
420
 14877971
370
     9
100
AcDbVertex
100
AcDb2dVertex
 10
278.584194281614
 20
234.3328092994498
 30
0.0
  0
VERTEX
  5
67
330
45
100
AcDbEntity
  8
_1
 62
    12
420
 14877971
370
     9
100
AcDbVertex
100
AcDb2dVertex
 10
281.9586547510799
 20
234.3328092994498
 30
0.0
  0
VERTEX
  5
68
330
45
100
AcDbEntity
  8
_1
 62
    12
420
 14877971
370
     9
100
AcDbVertex
100
AcDb2dVertex
 10
281.9586547510799
 20
248.3848360490148
 30
0.0
  0
VERTEX
  5
69
330
45
100
AcDbEntity
  8
_1
 62
    12
420
 14877971
370
     9
100
AcDbVertex
100
AcDb2dVertex
 10
278.584194281614
 20
248.3848360490148
 30
0.0
  0
VERTEX
  5
6A
330
45
100
AcDbEntity
  8
_1
 62
    12
420
 14877971
370
     9
100
AcDbVertex
100
AcDb2dVertex
 10
278.584194281614
 20
261.8858113742919
 30
0.0
  0
VERTEX
  5
6B
330
45
100
AcDbEntity
  8
_1
 62
    12
420
 14877971
370
     9
100
AcDbVertex
100
AcDb2dVertex
 10
281.9586547510799
 20
261.8858113742919
 30
0.0
  0
VERTEX
  5
6C
330
45
100
AcDbEntity
  8
_1
 62
    12
420
 14877971
370
     9
100
AcDbVertex
100
AcDb2dVertex
 10
281.9586547510799
 20
275.9380082380127
 30
0.0
  0
VERTEX
  5
6D
330
45
100
AcDbEntity
  8
_1
 62
    12
420
 14877971
370
     9
100
AcDbVertex
100
AcDb2dVertex
 10
278.584194281614
 20
275.9380082380127
 30
0.0
  0
VERTEX
  5
6E
330
45
100
AcDbEntity
  8
_1
 62
    12
420
 14877971
370
     9
100
AcDbVertex
100
AcDb2dVertex
 10
278.584194281614
 20
289.5768201122798
 30
0.0
  0
SEQEND
  5
6F
330
45
100
AcDbEntity
  8
_1
 62
    12
420
 14877971
370
     9
  0
ENDBLK
  5
44
330
41
100
AcDbEntity
  8
0
100
AcDbBlockEnd
  0
BLOCK
  5
72
330
70
100
AcDbEntity
  8
0
100
AcDbBlockBegin
  2
block 3
 70
     0
 10
0.0
 20
0.0
 30
0.0
  3
block 3
  1

  0
POLYLINE
  5
74
330
70
100
AcDbEntity
  8
_1
 62
    12
420
 14877971
370
     9
100
AcDb2dPolyline
 66
     1
 10
0.0
 20
0.0
 30
0.0
  0
VERTEX
  5
75
330
74
100
AcDbEntity
  8
_1
 62
    12
420
 14877971
370
     9
100
AcDbVertex
100
AcDb2dVertex
 10
203.3774067558545
 20
220.9692699181598
 30
0.0
  0
VERTEX
  5
76
330
74
100
AcDbEntity
  8
_1
 62
    12
420
 14877971
370
     9
100
AcDbVertex
100
AcDb2dVertex
 10
203.3774067558545
 20
234.677332068438
 30
0.0
  0
VERTEX
  5
77
330
74
100
AcDbEntity
  8
_1
 62
    12
420
 14877971
370
     9
100
AcDbVertex
100
AcDb2dVertex
 10
206.7520436142048
 20
234.677332068438
 30
0.0
  0
VERTEX
  5
78
330
74
100
AcDbEntity
  8
_1
 62
    12
420
 14877971
370
     9
100
AcDbVertex
100
AcDb2dVertex
 10
206.7520436142048
 20
248.72917615439
 30
0.0
  0
VERTEX
  5
79
330
74
100
AcDbEntity
  8
_1
 62
    12
420
 14877971
370
     9
100
AcDbVertex
100
AcDb2dVertex
 10
203.3774067558545
 20
248.72917615439
 30
0.0
  0
VERTEX
  5
7A
330
74
100
AcDbEntity
  8
_1
 62
    12
420
 14877971
370
     9
100
AcDbVertex
100
AcDb2dVertex
 10
203.3774067558545
 20
262.2303341432802
 30
0.0
  0
VERTEX
  5
7B
330
74
100
AcDbEntity
  8
_1
 62
    12
420
 14877971
370
     9
100
AcDbVertex
100
AcDb2dVertex
 10
206.7522200030892
 20
262.2303341432802
 30
0.0
  0
VERTEX
  5
7C
330
74
100
AcDbEntity
  8
_1
 62
    12
420
 14877971
370
     9
100
AcDbVertex
100
AcDb2dVertex
 10
206.7522200030892
 20
276.2823546181166
 30
0.0
  0
VERTEX
  5
7D
330
74
100
AcDbEntity
  8
_1
 62
    12
420
 14877971
370
     9
100
AcDbVertex
100
AcDb2dVertex
 10
203.3774067558545
 20
276.2823546181166
 30
0.0
  0
VERTEX
  5
7E
330
74
100
AcDbEntity
  8
_1
 62
    12
420
 14877971
370
     9
100
AcDbVertex
100
AcDb2dVertex
 10
203.3774067558545
 20
289.9213076034915
 30
0.0
  0
VERTEX
  5
7F
330
74
100
AcDbEntity
  8
_1
 62
    12
420
 14877971
370
     9
100
AcDbVertex
100
AcDb2dVertex
 10
137.8019109288248
 20
289.9211312146069
 30
0.0
  0
VERTEX
  5
80
330
74
100
AcDbEntity
  8
_1
 62
    12
420
 14877971
370
     9
100
AcDbVertex
100
AcDb2dVertex
 10
137.8019109288248
 20
276.2823546181166
 30
0.0
  0
VERTEX
  5
81
330
74
100
AcDbEntity
  8
_1
 62
    12
420
 14877971
370
     9
100
AcDbVertex
100
AcDb2dVertex
 10
134.4267449038213
 20
276.2823546181166
 30
0.0
  0
VERTEX
  5
82
330
74
100
AcDbEntity
  8
_1
 62
    12
420
 14877971
370
     9
100
AcDbVertex
100
AcDb2dVertex
 10
134.4267449038213
 20
262.2303341432802
 30
0.0
  0
VERTEX
  5
83
330
74
100
AcDbEntity
  8
_1
 62
    12
420
 14877971
370
     9
100
AcDbVertex
100
AcDb2dVertex
 10
137.8019109288248
 20
262.2303341432802
 30
0.0
  0
VERTEX
  5
84
330
74
100
AcDbEntity
  8
_1
 62
    12
420
 14877971
370
     9
100
AcDbVertex
100
AcDb2dVertex
 10
137.8019109288248
 20
248.72917615439
 30
0.0
  0
VERTEX
  5
85
330
74
100
AcDbEntity
  8
_1
 62
    12
420
 14877971
370
     9
100
AcDbVertex
100
AcDb2dVertex
 10
134.4266037927138
 20
248.72917615439
 30
0.0
  0
VERTEX
  5
86
330
74
100
AcDbEntity
  8
_1
 62
    12
420
 14877971
370
     9
100
AcDbVertex
100
AcDb2dVertex
 10
134.4266037927138
 20
234.677332068438
 30
0.0
  0
VERTEX
  5
87
330
74
100
AcDbEntity
  8
_1
 62
    12
420
 14877971
370
     9
100
AcDbVertex
100
AcDb2dVertex
 10
137.8019109288248
 20
234.677332068438
 30
0.0
  0
VERTEX
  5
88
330
74
100
AcDbEntity
  8
_1
 62
    12
420
 14877971
370
     9
100
AcDbVertex
100
AcDb2dVertex
 10
137.8019109288248
 20
220.9692699181598
 30
0.0
  0
VERTEX
  5
89
330
74
100
AcDbEntity
  8
_1
 62
    12
420
 14877971
370
     9
100
AcDbVertex
100
AcDb2dVertex
 10
149.7867242341779
 20
220.9692699181598
 30
0.0
  0
VERTEX
  5
8A
330
74
100
AcDbEntity
  8
_1
 62
    12
420
 14877971
370
     9
100
AcDbVertex
100
AcDb2dVertex
 10
149.7867242341779
 20
217.5948094486939
 30
0.0
  0
VERTEX
  5
8B
330
74
100
AcDbEntity
  8
_1
 62
    12
420
 14877971
370
     9
100
AcDbVertex
100
AcDb2dVertex
 10
151.7848575165346
 20
217.5948094486939
 30
0.0
  0
VERTEX
  5
8C
330
74
100
AcDbEntity
  8
_1
 62
    12
420
 14877971
370
     9
100
AcDbVertex
100
AcDb2dVertex
 10
151.7848575165346
 20
275.4556904725399
 30
0.0
  0
VERTEX
  5
8D
330
74
100
AcDbEntity
  8
_1
 62
    12
420
 14877971
370
     9
100
AcDbVertex
100
AcDb2dVertex
 10
154.9533310468112
 20
275.4556904725399
 30
0.0
  0
VERTEX
  5
8E
330
74
100
AcDbEntity
  8
_1
 62
    12
420
 14877971
370
     9
100
AcDbVertex
100
AcDb2dVertex
 10
154.9533310468112
 20
217.5948094486939
 30
0.0
  0
VERTEX
  5
8F
330
74
100
AcDbEntity
  8
_1
 62
    12
420
 14877971
370
     9
100
AcDbVertex
100
AcDb2dVertex
 10
163.8383919312455
 20
217.5948094486939
 30
0.0
  0
VERTEX
  5
90
330
74
100
AcDbEntity
  8
_1
 62
    12
420
 14877971
370
     9
100
AcDbVertex
100
AcDb2dVertex
 10
163.8383919312455
 20
220.9692699181598
 30
0.0
  0
VERTEX
  5
91
330
74
100
AcDbEntity
  8
_1
 62
    12
420
 14877971
370
     9
100
AcDbVertex
100
AcDb2dVertex
 10
169.005527910532
 20
220.9692699181598
 30
0.0
  0
VERTEX
  5
92
330
74
100
AcDbEntity
  8
_1
 62
    12
420
 14877971
370
     9
100
AcDbVertex
100
AcDb2dVertex
 10
169.005527910532
 20
275.4555140836555
 30
0.0
  0
VERTEX
  5
93
330
74
100
AcDbEntity
  8
_1
 62
    12
420
 14877971
370
     9
100
AcDbVertex
100
AcDb2dVertex
 10
172.1739661630317
 20
275.4555140836555
 30
0.0
  0
VERTEX
  5
94
330
74
100
AcDbEntity
  8
_1
 62
    12
420
 14877971
370
     9
100
AcDbVertex
100
AcDb2dVertex
 10
172.1739661630317
 20
220.9692699181598
 30
0.0
  0
VERTEX
  5
95
330
74
100
AcDbEntity
  8
_1
 62
    12
420
 14877971
370
     9
100
AcDbVertex
100
AcDb2dVertex
 10
177.33972630902
 20
220.9692699181598
 30
0.0
  0
VERTEX
  5
96
330
74
100
AcDbEntity
  8
_1
 62
    12
420
 14877971
370
     9
100
AcDbVertex
100
AcDb2dVertex
 10
177.33972630902
 20
217.5948094486939
 30
0.0
  0
VERTEX
  5
97
330
74
100
AcDbEntity
  8
_1
 62
    12
420
 14877971
370
     9
100
AcDbVertex
100
AcDb2dVertex
 10
186.226021915645
 20
217.5948094486939
 30
0.0
  0
VERTEX
  5
98
330
74
100
AcDbEntity
  8
_1
 62
    12
420
 14877971
370
     9
100
AcDbVertex
100
AcDb2dVertex
 10
186.226021915645
 20
275.4555140836555
 30
0.0
  0
VERTEX
  5
99
330
74
100
AcDbEntity
  8
_1
 62
    12
420
 14877971
370
     9
100
AcDbVertex
100
AcDb2dVertex
 10
189.3944601681448
 20
275.4555140836555
 30
0.0
  0
VERTEX
  5
9A
330
74
100
AcDbEntity
  8
_1
 62
    12
420
 14877971
370
     9
100
AcDbVertex
100
AcDb2dVertex
 10
189.3944601681448
 20
217.5948094486939
 30
0.0
  0
VERTEX
  5
9B
330
74
100
AcDbEntity
  8
_1
 62
    12
420
 14877971
370
     9
100
AcDbVertex
100
AcDb2dVertex
 10
191.391570394972
 20
217.5948094486939
 30
0.0
  0
VERTEX
  5
9C
330
74
100
AcDbEntity
  8
_1
 62
    12
420
 14877971
370
     9
100
AcDbVertex
100
AcDb2dVertex
 10
191.391570394972
 20
220.9692699181598
 30
0.0
  0
VERTEX
  5
9D
330
74
100
AcDbEntity
  8
_1
 62
    12
420
 14877971
370
     9
100
AcDbVertex
100
AcDb2dVertex
 10
203.3774067558545
 20
220.9692699181598
 30
0.0
  0
SEQEND
  5
9E
330
74
100
AcDbEntity
  8
_1
 62
    12
420
 14877971
370
     9
  0
ENDBLK
  5
73
330
70
100
AcDbEntity
  8
0
100
AcDbBlockEnd
  0
BLOCK
  5
A1
330
9F
100
AcDbEntity
  8
0
100
AcDbBlockBegin
  2
block 4
 70
     0
 10
0.0
 20
0.0
 30
0.0
  3
block 4
  1

  0
POLYLINE
  5
A3
330
9F
100
AcDbEntity
  8
_1
 62
    12
420
 14877971
370
     9
100
AcDb2dPolyline
 66
     1
 10
0.0
 20
0.0
 30
0.0
  0
VERTEX
  5
A4
330
A3
100
AcDbEntity
  8
_1
 62
    12
420
 14877971
370
     9
100
AcDbVertex
100
AcDb2dVertex
 10
278.584194281614
 20
214.5648364704394
 30
0.0
  0
VERTEX
  5
A5
330
A3
100
AcDbEntity
  8
_1
 62
    12
420
 14877971
370
     9
100
AcDbVertex
100
AcDb2dVertex
 10
264.6012476939042
 20
214.5648364704394
 30
0.0
  0
VERTEX
  5
A6
330
A3
100
AcDbEntity
  8
_1
 62
    12
420
 14877971
370
     9
100
AcDbVertex
100
AcDb2dVertex
 10
264.6012476939042
 20
200.443918497361
 30
0.0
  0
VERTEX
  5
A7
330
A3
100
AcDbEntity
  8
_1
 62
    12
420
 14877971
370
     9
100
AcDbVertex
100
AcDb2dVertex
 10
261.4327741636276
 20
200.443918497361
 30
0.0
  0
VERTEX
  5
A8
330
A3
100
AcDbEntity
  8
_1
 62
    12
420
 14877971
370
     9
100
AcDbVertex
100
AcDb2dVertex
 10
261.4327741636276
 20
214.5648364704394
 30
0.0
  0
VERTEX
  5
A9
330
A3
100
AcDbEntity
  8
_1
 62
    12
420
 14877971
370
     9
100
AcDbVertex
100
AcDb2dVertex
 10
247.3809300776756
 20
214.564660081555
 30
0.0
  0
VERTEX
  5
AA
330
A3
100
AcDbEntity
  8
_1
 62
    12
420
 14877971
370
     9
100
AcDbVertex
100
AcDb2dVertex
 10
247.3809300776756
 20
200.443918497361
 30
0.0
  0
VERTEX
  5
AB
330
A3
100
AcDbEntity
  8
_1
 62
    12
420
 14877971
370
     9
100
AcDbVertex
100
AcDb2dVertex
 10
244.2117862696383
 20
200.443918497361
 30
0.0
  0
VERTEX
  5
AC
330
A3
100
AcDbEntity
  8
_1
 62
    12
420
 14877971
370
     9
100
AcDbVertex
100
AcDb2dVertex
 10
244.2117862696383
 20
214.564660081555
 30
0.0
  0
VERTEX
  5
AD
330
A3
100
AcDbEntity
  8
_1
 62
    12
420
 14877971
370
     9
100
AcDbVertex
100
AcDb2dVertex
 10
230.1599421836862
 20
214.564660081555
 30
0.0
  0
VERTEX
  5
AE
330
A3
100
AcDbEntity
  8
_1
 62
    12
420
 14877971
370
     9
100
AcDbVertex
100
AcDb2dVertex
 10
230.1599421836862
 20
200.443918497361
 30
0.0
  0
VERTEX
  5
AF
330
A3
100
AcDbEntity
  8
_1
 62
    12
420
 14877971
370
     9
100
AcDbVertex
100
AcDb2dVertex
 10
226.9914686534096
 20
200.443918497361
 30
0.0
  0
VERTEX
  5
B0
330
A3
100
AcDbEntity
  8
_1
 62
    12
420
 14877971
370
     9
100
AcDbVertex
100
AcDb2dVertex
 10
226.9914686534096
 20
214.564660081555
 30
0.0
  0
VERTEX
  5
B1
330
A3
100
AcDbEntity
  8
_1
 62
    12
420
 14877971
370
     9
100
AcDbVertex
100
AcDb2dVertex
 10
213.0081692879311
 20
214.564660081555
 30
0.0
  0
VERTEX
  5
B2
330
A3
100
AcDbEntity
  8
_1
 62
    12
420
 14877971
370
     9
100
AcDbVertex
100
AcDb2dVertex
 10
213.0081692879311
 20
200.9260598739492
 30
0.0
  0
VERTEX
  5
B3
330
A3
100
AcDbEntity
  8
_1
 62
    12
420
 14877971
370
     9
100
AcDbVertex
100
AcDb2dVertex
 10
209.634061596234
 20
200.9260598739492
 30
0.0
  0
VERTEX
  5
B4
330
A3
100
AcDbEntity
  8
_1
 62
    12
420
 14877971
370
     9
100
AcDbVertex
100
AcDb2dVertex
 10
209.6338852073496
 20
186.8738630102283
 30
0.0
  0
VERTEX
  5
B5
330
A3
100
AcDbEntity
  8
_1
 62
    12
420
 14877971
370
     9
100
AcDbVertex
100
AcDb2dVertex
 10
213.0081692879311
 20
186.8738630102283
 30
0.0
  0
VERTEX
  5
B6
330
A3
100
AcDbEntity
  8
_1
 62
    12
420
 14877971
370
     9
100
AcDbVertex
100
AcDb2dVertex
 10
213.0081692879311
 20
173.373057799107
 30
0.0
  0
VERTEX
  5
B7
330
A3
100
AcDbEntity
  8
_1
 62
    12
420
 14877971
370
     9
100
AcDbVertex
100
AcDb2dVertex
 10
209.6337088184652
 20
173.373057799107
 30
0.0
  0
VERTEX
  5
B8
330
A3
100
AcDbEntity
  8
_1
 62
    12
420
 14877971
370
     9
100
AcDbVertex
100
AcDb2dVertex
 10
209.6333560406964
 20
159.3210373242706
 30
0.0
  0
VERTEX
  5
B9
330
A3
100
AcDbEntity
  8
_1
 62
    12
420
 14877971
370
     9
100
AcDbVertex
100
AcDb2dVertex
 10
213.0081692879311
 20
159.3210373242706
 30
0.0
  0
VERTEX
  5
BA
330
A3
100
AcDbEntity
  8
_1
 62
    12
420
 14877971
370
     9
100
AcDbVertex
100
AcDb2dVertex
 10
213.0081692879311
 20
145.6135043406456
 30
0.0
  0
VERTEX
  5
BB
330
A3
100
AcDbEntity
  8
_1
 62
    12
420
 14877971
370
     9
100
AcDbVertex
100
AcDb2dVertex
 10
224.9933353710529
 20
145.6135043406456
 30
0.0
  0
VERTEX
  5
BC
330
A3
100
AcDbEntity
  8
_1
 62
    12
420
 14877971
370
     9
100
AcDbVertex
100
AcDb2dVertex
 10
224.9933353710529
 20
142.2376680378814
 30
0.0
  0
VERTEX
  5
BD
330
A3
100
AcDbEntity
  8
_1
 62
    12
420
 14877971
370
     9
100
AcDbVertex
100
AcDb2dVertex
 10
239.0455322347737
 20
142.2376680378814
 30
0.0
  0
VERTEX
  5
BE
330
A3
100
AcDbEntity
  8
_1
 62
    12
420
 14877971
370
     9
100
AcDbVertex
100
AcDb2dVertex
 10
239.0455322347737
 20
145.6135043406456
 30
0.0
  0
VERTEX
  5
BF
330
A3
100
AcDbEntity
  8
_1
 62
    12
420
 14877971
370
     9
100
AcDbVertex
100
AcDb2dVertex
 10
252.5461610570107
 20
145.6135043406456
 30
0.0
  0
VERTEX
  5
C0
330
A3
100
AcDbEntity
  8
_1
 62
    12
420
 14877971
370
     9
100
AcDbVertex
100
AcDb2dVertex
 10
252.5461610570107
 20
142.2376680378814
 30
0.0
  0
VERTEX
  5
C1
330
A3
100
AcDbEntity
  8
_1
 62
    12
420
 14877971
370
     9
100
AcDbVertex
100
AcDb2dVertex
 10
266.5983579207315
 20
142.2376680378814
 30
0.0
  0
VERTEX
  5
C2
330
A3
100
AcDbEntity
  8
_1
 62
    12
420
 14877971
370
     9
100
AcDbVertex
100
AcDb2dVertex
 10
266.5983579207315
 20
145.6135043406456
 30
0.0
  0
VERTEX
  5
C3
330
A3
100
AcDbEntity
  8
_1
 62
    12
420
 14877971
370
     9
100
AcDbVertex
100
AcDb2dVertex
 10
278.584194281614
 20
145.6135043406456
 30
0.0
  0
VERTEX
  5
C4
330
A3
100
AcDbEntity
  8
_1
 62
    12
420
 14877971
370
     9
100
AcDbVertex
100
AcDb2dVertex
 10
278.584194281614
 20
159.3210373242706
 30
0.0
  0
VERTEX
  5
C5
330
A3
100
AcDbEntity
  8
_1
 62
    12
420
 14877971
370
     9
100
AcDbVertex
100
AcDb2dVertex
 10
281.9586547510799
 20
159.3210373242706
 30
0.0
  0
VERTEX
  5
C6
330
A3
100
AcDbEntity
  8
_1
 62
    12
420
 14877971
370
     9
100
AcDbVertex
100
AcDb2dVertex
 10
281.9586547510799
 20
173.373057799107
 30
0.0
  0
VERTEX
  5
C7
330
A3
100
AcDbEntity
  8
_1
 62
    12
420
 14877971
370
     9
100
AcDbVertex
100
AcDb2dVertex
 10
278.584194281614
 20
173.373057799107
 30
0.0
  0
VERTEX
  5
C8
330
A3
100
AcDbEntity
  8
_1
 62
    12
420
 14877971
370
     9
100
AcDbVertex
100
AcDb2dVertex
 10
278.584194281614
 20
186.8738630102283
 30
0.0
  0
VERTEX
  5
C9
330
A3
100
AcDbEntity
  8
_1
 62
    12
420
 14877971
370
     9
100
AcDbVertex
100
AcDb2dVertex
 10
281.9586547510799
 20
186.8738630102283
 30
0.0
  0
VERTEX
  5
CA
330
A3
100
AcDbEntity
  8
_1
 62
    12
420
 14877971
370
     9
100
AcDbVertex
100
AcDb2dVertex
 10
281.9586547510799
 20
200.9260598739492
 30
0.0
  0
VERTEX
  5
CB
330
A3
100
AcDbEntity
  8
_1
 62
    12
420
 14877971
370
     9
100
AcDbVertex
100
AcDb2dVertex
 10
278.584194281614
 20
200.9260598739492
 30
0.0
  0
VERTEX
  5
CC
330
A3
100
AcDbEntity
  8
_1
 62
    12
420
 14877971
370
     9
100
AcDbVertex
100
AcDb2dVertex
 10
278.584194281614
 20
214.5648364704394
 30
0.0
  0
SEQEND
  5
CD
330
A3
100
AcDbEntity
  8
_1
 62
    12
420
 14877971
370
     9
  0
ENDBLK
  5
A2
330
9F
100
AcDbEntity
  8
0
100
AcDbBlockEnd
  0
BLOCK
  5
D0
330
CE
100
AcDbEntity
  8
0
100
AcDbBlockBegin
  2
block 5
 70
     0
 10
0.0
 20
0.0
 30
0.0
  3
block 5
  1

  0
POLYLINE
  5
D2
330
CE
100
AcDbEntity
  8
_1
 62
    12
420
 14877971
370
     9
100
AcDb2dPolyline
 66
     1
 10
0.0
 20
0.0
 30
0.0
  0
VERTEX
  5
D3
330
D2
100
AcDbEntity
  8
_1
 62
    12
420
 14877971
370
     9
100
AcDbVertex
100
AcDb2dVertex
 10
203.3774067558545
 20
145.9576743318651
 30
0.0
  0
VERTEX
  5
D4
330
D2
100
AcDbEntity
  8
_1
 62
    12
420
 14877971
370
     9
100
AcDbVertex
100
AcDb2dVertex
 10
203.3774067558545
 20
159.665524815482
 30
0.0
  0
VERTEX
  5
D5
330
D2
100
AcDbEntity
  8
_1
 62
    12
420
 14877971
370
     9
100
AcDbVertex
100
AcDb2dVertex
 10
206.7520436142048
 20
159.665524815482
 30
0.0
  0
VERTEX
  5
D6
330
D2
100
AcDbEntity
  8
_1
 62
    12
420
 14877971
370
     9
100
AcDbVertex
100
AcDb2dVertex
 10
206.7520436142048
 20
173.7177216792028
 30
0.0
  0
VERTEX
  5
D7
330
D2
100
AcDbEntity
  8
_1
 62
    12
420
 14877971
370
     9
100
AcDbVertex
100
AcDb2dVertex
 10
203.3774067558545
 20
173.7177216792028
 30
0.0
  0
VERTEX
  5
D8
330
D2
100
AcDbEntity
  8
_1
 62
    12
420
 14877971
370
     9
100
AcDbVertex
100
AcDb2dVertex
 10
203.3774067558545
 20
187.2185268903241
 30
0.0
  0
VERTEX
  5
D9
330
D2
100
AcDbEntity
  8
_1
 62
    12
420
 14877971
370
     9
100
AcDbVertex
100
AcDb2dVertex
 10
206.7522200030892
 20
187.2185268903241
 30
0.0
  0
VERTEX
  5
DA
330
D2
100
AcDbEntity
  8
_1
 62
    12
420
 14877971
370
     9
100
AcDbVertex
100
AcDb2dVertex
 10
206.7522200030892
 20
201.2705826429374
 30
0.0
  0
VERTEX
  5
DB
330
D2
100
AcDbEntity
  8
_1
 62
    12
420
 14877971
370
     9
100
AcDbVertex
100
AcDb2dVertex
 10
203.3774067558545
 20
201.2705826429374
 30
0.0
  0
VERTEX
  5
DC
330
D2
100
AcDbEntity
  8
_1
 62
    12
420
 14877971
370
     9
100
AcDbVertex
100
AcDb2dVertex
 10
203.3774067558545
 20
214.9093592394277
 30
0.0
  0
VERTEX
  5
DD
330
D2
100
AcDbEntity
  8
_1
 62
    12
420
 14877971
370
     9
100
AcDbVertex
100
AcDb2dVertex
 10
137.8019109288248
 20
214.9093592394277
 30
0.0
  0
VERTEX
  5
DE
330
D2
100
AcDbEntity
  8
_1
 62
    12
420
 14877971
370
     9
100
AcDbVertex
100
AcDb2dVertex
 10
137.8019109288248
 20
201.2705826429374
 30
0.0
  0
VERTEX
  5
DF
330
D2
100
AcDbEntity
  8
_1
 62
    12
420
 14877971
370
     9
100
AcDbVertex
100
AcDb2dVertex
 10
134.4267449038213
 20
201.2705826429374
 30
0.0
  0
VERTEX
  5
E0
330
D2
100
AcDbEntity
  8
_1
 62
    12
420
 14877971
370
     9
100
AcDbVertex
100
AcDb2dVertex
 10
134.4267449038213
 20
187.2185268903241
 30
0.0
  0
VERTEX
  5
E1
330
D2
100
AcDbEntity
  8
_1
 62
    12
420
 14877971
370
     9
100
AcDbVertex
100
AcDb2dVertex
 10
137.8019109288248
 20
187.2185268903241
 30
0.0
  0
VERTEX
  5
E2
330
D2
100
AcDbEntity
  8
_1
 62
    12
420
 14877971
370
     9
100
AcDbVertex
100
AcDb2dVertex
 10
137.8019109288248
 20
173.7177216792028
 30
0.0
  0
VERTEX
  5
E3
330
D2
100
AcDbEntity
  8
_1
 62
    12
420
 14877971
370
     9
100
AcDbVertex
100
AcDb2dVertex
 10
134.4266037927138
 20
173.7177216792028
 30
0.0
  0
VERTEX
  5
E4
330
D2
100
AcDbEntity
  8
_1
 62
    12
420
 14877971
370
     9
100
AcDbVertex
100
AcDb2dVertex
 10
134.4266037927138
 20
159.665524815482
 30
0.0
  0
VERTEX
  5
E5
330
D2
100
AcDbEntity
  8
_1
 62
    12
420
 14877971
370
     9
100
AcDbVertex
100
AcDb2dVertex
 10
137.8019109288248
 20
159.665524815482
 30
0.0
  0
VERTEX
  5
E6
330
D2
100
AcDbEntity
  8
_1
 62
    12
420
 14877971
370
     9
100
AcDbVertex
100
AcDb2dVertex
 10
137.8019109288248
 20
145.9576743318651
 30
0.0
  0
VERTEX
  5
E7
330
D2
100
AcDbEntity
  8
_1
 62
    12
420
 14877971
370
     9
100
AcDbVertex
100
AcDb2dVertex
 10
149.7867242341779
 20
145.9576743318651
 30
0.0
  0
VERTEX
  5
E8
330
D2
100
AcDbEntity
  8
_1
 62
    12
420
 14877971
370
     9
100
AcDbVertex
100
AcDb2dVertex
 10
149.7867242341779
 20
142.5828610846304
 30
0.0
  0
VERTEX
  5
E9
330
D2
100
AcDbEntity
  8
_1
 62
    12
420
 14877971
370
     9
100
AcDbVertex
100
AcDb2dVertex
 10
151.7848575165346
 20
142.5828610846304
 30
0.0
  0
VERTEX
  5
EA
330
D2
100
AcDbEntity
  8
_1
 62
    12
420
 14877971
370
     9
100
AcDbVertex
100
AcDb2dVertex
 10
151.7848575165346
 20
200.443918497361
 30
0.0
  0
VERTEX
  5
EB
330
D2
100
AcDbEntity
  8
_1
 62
    12
420
 14877971
370
     9
100
AcDbVertex
100
AcDb2dVertex
 10
154.9533310468112
 20
200.443918497361
 30
0.0
  0
VERTEX
  5
EC
330
D2
100
AcDbEntity
  8
_1
 62
    12
420
 14877971
370
     9
100
AcDbVertex
100
AcDb2dVertex
 10
154.9533310468112
 20
142.5828610846304
 30
0.0
  0
VERTEX
  5
ED
330
D2
100
AcDbEntity
  8
_1
 62
    12
420
 14877971
370
     9
100
AcDbVertex
100
AcDb2dVertex
 10
163.8383919312455
 20
142.5828610846304
 30
0.0
  0
VERTEX
  5
EE
330
D2
100
AcDbEntity
  8
_1
 62
    12
420
 14877971
370
     9
100
AcDbVertex
100
AcDb2dVertex
 10
163.8383919312455
 20
145.9576743318651
 30
0.0
  0
VERTEX
  5
EF
330
D2
100
AcDbEntity
  8
_1
 62
    12
420
 14877971
370
     9
100
AcDbVertex
100
AcDb2dVertex
 10
169.005527910532
 20
145.9576743318651
 30
0.0
  0
VERTEX
  5
F0
330
D2
100
AcDbEntity
  8
_1
 62
    12
420
 14877971
370
     9
100
AcDbVertex
100
AcDb2dVertex
 10
169.005527910532
 20
200.4437471721112
 30
0.0
  0
VERTEX
  5
F1
330
D2
100
AcDbEntity
  8
_1
 62
    12
420
 14877971
370
     9
100
AcDbVertex
100
AcDb2dVertex
 10
172.1739661630317
 20
200.4437471721112
 30
0.0
  0
VERTEX
  5
F2
330
D2
100
AcDbEntity
  8
_1
 62
    12
420
 14877971
370
     9
100
AcDbVertex
100
AcDb2dVertex
 10
172.1739661630317
 20
145.9576743318651
 30
0.0
  0
VERTEX
  5
F3
330
D2
100
AcDbEntity
  8
_1
 62
    12
420
 14877971
370
     9
100
AcDbVertex
100
AcDb2dVertex
 10
177.33972630902
 20
145.9576743318651
 30
0.0
  0
VERTEX
  5
F4
330
D2
100
AcDbEntity
  8
_1
 62
    12
420
 14877971
370
     9
100
AcDbVertex
100
AcDb2dVertex
 10
177.33972630902
 20
142.5828610846304
 30
0.0
  0
VERTEX
  5
F5
330
D2
100
AcDbEntity
  8
_1
 62
    12
420
 14877971
370
     9
100
AcDbVertex
100
AcDb2dVertex
 10
186.226021915645
 20
142.5828610846304
 30
0.0
  0
VERTEX
  5
F6
330
D2
100
AcDbEntity
  8
_1
 62
    12
420
 14877971
370
     9
100
AcDbVertex
100
AcDb2dVertex
 10
186.226021915645
 20
200.4437471721112
 30
0.0
  0
VERTEX
  5
F7
330
D2
100
AcDbEntity
  8
_1
 62
    12
420
 14877971
370
     9
100
AcDbVertex
100
AcDb2dVertex
 10
189.3944601681448
 20
200.4437471721112
 30
0.0
  0
VERTEX
  5
F8
330
D2
100
AcDbEntity
  8
_1
 62
    12
420
 14877971
370
     9
100
AcDbVertex
100
AcDb2dVertex
 10
189.3944601681448
 20
142.5828610846304
 30
0.0
  0
VERTEX
  5
F9
330
D2
100
AcDbEntity
  8
_1
 62
    12
420
 14877971
370
     9
100
AcDbVertex
100
AcDb2dVertex
 10
191.391570394972
 20
142.5828610846304
 30
0.0
  0
VERTEX
  5
FA
330
D2
100
AcDbEntity
  8
_1
 62
    12
420
 14877971
370
     9
100
AcDbVertex
100
AcDb2dVertex
 10
191.391570394972
 20
145.9576743318651
 30
0.0
  0
VERTEX
  5
FB
330
D2
100
AcDbEntity
  8
_1
 62
    12
420
 14877971
370
     9
100
AcDbVertex
100
AcDb2dVertex
 10
203.3774067558545
 20
145.9576743318651
 30
0.0
  0
SEQEND
  5
FC
330
D2
100
AcDbEntity
  8
_1
 62
    12
420
 14877971
370
     9
  0
ENDBLK
  5
D1
330
CE
100
AcDbEntity
  8
0
100
AcDbBlockEnd
  0
BLOCK
  5
FF
330
FD
100
AcDbEntity
  8
0
100
AcDbBlockBegin
  2
block 6
 70
     0
 10
0.0
 20
0.0
 30
0.0
  3
block 6
  1

  0
POLYLINE
  5
101
330
FD
100
AcDbEntity
  8
_1
 62
    12
420
 14877971
370
     9
100
AcDb2dPolyline
 66
     1
 10
0.0
 20
0.0
 30
0.0
  0
VERTEX
  5
102
330
101
100
AcDbEntity
  8
_1
 62
    12
420
 14877971
370
     9
100
AcDbVertex
100
AcDb2dVertex
 10
278.584194281614
 20
140.1961078121882
 30
0.0
  0
VERTEX
  5
103
330
101
100
AcDbEntity
  8
_1
 62
    12
420
 14877971
370
     9
100
AcDbVertex
100
AcDb2dVertex
 10
264.6012476939042
 20
140.1961078121882
 30
0.0
  0
VERTEX
  5
104
330
101
100
AcDbEntity
  8
_1
 62
    12
420
 14877971
370
     9
100
AcDbVertex
100
AcDb2dVertex
 10
264.6012476939042
 20
126.075330950217
 30
0.0
  0
VERTEX
  5
105
330
101
100
AcDbEntity
  8
_1
 62
    12
420
 14877971
370
     9
100
AcDbVertex
100
AcDb2dVertex
 10
261.4327741636276
 20
126.075330950217
 30
0.0
  0
VERTEX
  5
106
330
101
100
AcDbEntity
  8
_1
 62
    12
420
 14877971
370
     9
100
AcDbVertex
100
AcDb2dVertex
 10
261.4327741636276
 20
140.1961078121882
 30
0.0
  0
VERTEX
  5
107
330
101
100
AcDbEntity
  8
_1
 62
    12
420
 14877971
370
     9
100
AcDbVertex
100
AcDb2dVertex
 10
247.3809300776756
 20
140.1961078121882
 30
0.0
  0
VERTEX
  5
108
330
101
100
AcDbEntity
  8
_1
 62
    12
420
 14877971
370
     9
100
AcDbVertex
100
AcDb2dVertex
 10
247.3809300776756
 20
126.075330950217
 30
0.0
  0
VERTEX
  5
109
330
101
100
AcDbEntity
  8
_1
 62
    12
420
 14877971
370
     9
100
AcDbVertex
100
AcDb2dVertex
 10
244.2117862696383
 20
126.075330950217
 30
0.0
  0
VERTEX
  5
10A
330
101
100
AcDbEntity
  8
_1
 62
    12
420
 14877971
370
     9
100
AcDbVertex
100
AcDb2dVertex
 10
244.2117862696383
 20
140.1961078121882
 30
0.0
  0
VERTEX
  5
10B
330
101
100
AcDbEntity
  8
_1
 62
    12
420
 14877971
370
     9
100
AcDbVertex
100
AcDb2dVertex
 10
230.1599421836862
 20
140.1957550344194
 30
0.0
  0
VERTEX
  5
10C
330
101
100
AcDbEntity
  8
_1
 62
    12
420
 14877971
370
     9
100
AcDbVertex
100
AcDb2dVertex
 10
230.1599421836862
 20
126.075330950217
 30
0.0
  0
VERTEX
  5
10D
330
101
100
AcDbEntity
  8
_1
 62
    12
420
 14877971
370
     9
100
AcDbVertex
100
AcDb2dVertex
 10
226.9914686534096
 20
126.075330950217
 30
0.0
  0
VERTEX
  5
10E
330
101
100
AcDbEntity
  8
_1
 62
    12
420
 14877971
370
     9
100
AcDbVertex
100
AcDb2dVertex
 10
226.9914686534096
 20
140.1957550344194
 30
0.0
  0
VERTEX
  5
10F
330
101
100
AcDbEntity
  8
_1
 62
    12
420
 14877971
370
     9
100
AcDbVertex
100
AcDb2dVertex
 10
213.0081692879311
 20
140.1957550344194
 30
0.0
  0
VERTEX
  5
110
330
101
100
AcDbEntity
  8
_1
 62
    12
420
 14877971
370
     9
100
AcDbVertex
100
AcDb2dVertex
 10
213.0081692879311
 20
126.5569431601523
 30
0.0
  0
VERTEX
  5
111
330
101
100
AcDbEntity
  8
_1
 62
    12
420
 14877971
370
     9
100
AcDbVertex
100
AcDb2dVertex
 10
209.634061596234
 20
126.5569431601523
 30
0.0
  0
VERTEX
  5
112
330
101
100
AcDbEntity
  8
_1
 62
    12
420
 14877971
370
     9
100
AcDbVertex
100
AcDb2dVertex
 10
209.6338852073496
 20
112.505451851969
 30
0.0
  0
VERTEX
  5
113
330
101
100
AcDbEntity
  8
_1
 62
    12
420
 14877971
370
     9
100
AcDbVertex
100
AcDb2dVertex
 10
213.0081692879311
 20
112.505451851969
 30
0.0
  0
VERTEX
  5
114
330
101
100
AcDbEntity
  8
_1
 62
    12
420
 14877971
370
     9
100
AcDbVertex
100
AcDb2dVertex
 10
213.0081692879311
 20
99.00376469642576
 30
0.0
  0
VERTEX
  5
115
330
101
100
AcDbEntity
  8
_1
 62
    12
420
 14877971
370
     9
100
AcDbVertex
100
AcDb2dVertex
 10
209.6337088184652
 20
99.00376469642576
 30
0.0
  0
VERTEX
  5
116
330
101
100
AcDbEntity
  8
_1
 62
    12
420
 14877971
370
     9
100
AcDbVertex
100
AcDb2dVertex
 10
209.6333560406964
 20
84.9522733882425
 30
0.0
  0
VERTEX
  5
117
330
101
100
AcDbEntity
  8
_1
 62
    12
420
 14877971
370
     9
100
AcDbVertex
100
AcDb2dVertex
 10
213.0081692879311
 20
84.9522733882425
 30
0.0
  0
VERTEX
  5
118
330
101
100
AcDbEntity
  8
_1
 62
    12
420
 14877971
370
     9
100
AcDbVertex
100
AcDb2dVertex
 10
213.0081692879311
 20
71.24491679350186
 30
0.0
  0
VERTEX
  5
119
330
101
100
AcDbEntity
  8
_1
 62
    12
420
 14877971
370
     9
100
AcDbVertex
100
AcDb2dVertex
 10
224.9933353710529
 20
71.24491679350186
 30
0.0
  0
VERTEX
  5
11A
330
101
100
AcDbEntity
  8
_1
 62
    12
420
 14877971
370
     9
100
AcDbVertex
100
AcDb2dVertex
 10
224.9933353710529
 20
67.86939799072962
 30
0.0
  0
VERTEX
  5
11B
330
101
100
AcDbEntity
  8
_1
 62
    12
420
 14877971
370
     9
100
AcDbVertex
100
AcDb2dVertex
 10
239.0455322347737
 20
67.86939799072962
 30
0.0
  0
VERTEX
  5
11C
330
101
100
AcDbEntity
  8
_1
 62
    12
420
 14877971
370
     9
100
AcDbVertex
100
AcDb2dVertex
 10
239.0455322347737
 20
71.24491679350186
 30
0.0
  0
VERTEX
  5
11D
330
101
100
AcDbEntity
  8
_1
 62
    12
420
 14877971
370
     9
100
AcDbVertex
100
AcDb2dVertex
 10
252.5461610570107
 20
71.24491679350186
 30
0.0
  0
VERTEX
  5
11E
330
101
100
AcDbEntity
  8
_1
 62
    12
420
 14877971
370
     9
100
AcDbVertex
100
AcDb2dVertex
 10
252.5461610570107
 20
67.86939799072962
 30
0.0
  0
VERTEX
  5
11F
330
101
100
AcDbEntity
  8
_1
 62
    12
420
 14877971
370
     9
100
AcDbVertex
100
AcDb2dVertex
 10
266.5983579207315
 20
67.86939799072962
 30
0.0
  0
VERTEX
  5
120
330
101
100
AcDbEntity
  8
_1
 62
    12
420
 14877971
370
     9
100
AcDbVertex
100
AcDb2dVertex
 10
266.5983579207315
 20
71.24491679350186
 30
0.0
  0
VERTEX
  5
121
330
101
100
AcDbEntity
  8
_1
 62
    12
420
 14877971
370
     9
100
AcDbVertex
100
AcDb2dVertex
 10
278.584194281614
 20
71.24491679350186
 30
0.0
  0
VERTEX
  5
122
330
101
100
AcDbEntity
  8
_1
 62
    12
420
 14877971
370
     9
100
AcDbVertex
100
AcDb2dVertex
 10
278.584194281614
 20
84.9522733882425
 30
0.0
  0
VERTEX
  5
123
330
101
100
AcDbEntity
  8
_1
 62
    12
420
 14877971
370
     9
100
AcDbVertex
100
AcDb2dVertex
 10
281.9586547510799
 20
84.9522733882425
 30
0.0
  0
VERTEX
  5
124
330
101
100
AcDbEntity
  8
_1
 62
    12
420
 14877971
370
     9
100
AcDbVertex
100
AcDb2dVertex
 10
281.9586547510799
 20
99.00376469642576
 30
0.0
  0
VERTEX
  5
125
330
101
100
AcDbEntity
  8
_1
 62
    12
420
 14877971
370
     9
100
AcDbVertex
100
AcDb2dVertex
 10
278.584194281614
 20
99.00376469642576
 30
0.0
  0
VERTEX
  5
126
330
101
100
AcDbEntity
  8
_1
 62
    12
420
 14877971
370
     9
100
AcDbVertex
100
AcDb2dVertex
 10
278.584194281614
 20
112.505451851969
 30
0.0
  0
VERTEX
  5
127
330
101
100
AcDbEntity
  8
_1
 62
    12
420
 14877971
370
     9
100
AcDbVertex
100
AcDb2dVertex
 10
281.9586547510799
 20
112.505451851969
 30
0.0
  0
VERTEX
  5
128
330
101
100
AcDbEntity
  8
_1
 62
    12
420
 14877971
370
     9
100
AcDbVertex
100
AcDb2dVertex
 10
281.9586547510799
 20
126.5569431601523
 30
0.0
  0
VERTEX
  5
129
330
101
100
AcDbEntity
  8
_1
 62
    12
420
 14877971
370
     9
100
AcDbVertex
100
AcDb2dVertex
 10
278.584194281614
 20
126.5569431601523
 30
0.0
  0
VERTEX
  5
12A
330
101
100
AcDbEntity
  8
_1
 62
    12
420
 14877971
370
     9
100
AcDbVertex
100
AcDb2dVertex
 10
278.584194281614
 20
140.1961078121882
 30
0.0
  0
SEQEND
  5
12B
330
101
100
AcDbEntity
  8
_1
 62
    12
420
 14877971
370
     9
  0
ENDBLK
  5
100
330
FD
100
AcDbEntity
  8
0
100
AcDbBlockEnd
  0
BLOCK
  5
12E
330
12C
100
AcDbEntity
  8
0
100
AcDbBlockBegin
  2
block 7
 70
     0
 10
0.0
 20
0.0
 30
0.0
  3
block 7
  1

  0
POLYLINE
  5
130
330
12C
100
AcDbEntity
  8
_1
 62
    12
420
 14877971
370
     9
100
AcDb2dPolyline
 66
     1
 10
0.0
 20
0.0
 30
0.0
  0
VERTEX
  5
131
330
130
100
AcDbEntity
  8
_1
 62
    12
420
 14877971
370
     9
100
AcDbVertex
100
AcDb2dVertex
 10
203.3774067558545
 20
71.58873400695258
 30
0.0
  0
VERTEX
  5
132
330
130
100
AcDbEntity
  8
_1
 62
    12
420
 14877971
370
     9
100
AcDbVertex
100
AcDb2dVertex
 10
203.3774067558545
 20
85.2967608794539
 30
0.0
  0
VERTEX
  5
133
330
130
100
AcDbEntity
  8
_1
 62
    12
420
 14877971
370
     9
100
AcDbVertex
100
AcDb2dVertex
 10
206.7520436142048
 20
85.2967608794539
 30
0.0
  0
VERTEX
  5
134
330
130
100
AcDbEntity
  8
_1
 62
    12
420
 14877971
370
     9
100
AcDbVertex
100
AcDb2dVertex
 10
206.7520436142048
 20
99.34828746541403
 30
0.0
  0
VERTEX
  5
135
330
130
100
AcDbEntity
  8
_1
 62
    12
420
 14877971
370
     9
100
AcDbVertex
100
AcDb2dVertex
 10
203.3774067558545
 20
99.34828746541403
 30
0.0
  0
VERTEX
  5
136
330
130
100
AcDbEntity
  8
_1
 62
    12
420
 14877971
370
     9
100
AcDbVertex
100
AcDb2dVertex
 10
203.3774067558545
 20
112.8496218431885
 30
0.0
  0
VERTEX
  5
137
330
130
100
AcDbEntity
  8
_1
 62
    12
420
 14877971
370
     9
100
AcDbVertex
100
AcDb2dVertex
 10
206.7522200030892
 20
112.8496218431885
 30
0.0
  0
VERTEX
  5
138
330
130
100
AcDbEntity
  8
_1
 62
    12
420
 14877971
370
     9
100
AcDbVertex
100
AcDb2dVertex
 10
206.7522200030892
 20
126.9014659291406
 30
0.0
  0
VERTEX
  5
139
330
130
100
AcDbEntity
  8
_1
 62
    12
420
 14877971
370
     9
100
AcDbVertex
100
AcDb2dVertex
 10
203.3774067558545
 20
126.9014659291406
 30
0.0
  0
VERTEX
  5
13A
330
130
100
AcDbEntity
  8
_1
 62
    12
420
 14877971
370
     9
100
AcDbVertex
100
AcDb2dVertex
 10
203.3774067558545
 20
140.5409480811684
 30
0.0
  0
VERTEX
  5
13B
330
130
100
AcDbEntity
  8
_1
 62
    12
420
 14877971
370
     9
100
AcDbVertex
100
AcDb2dVertex
 10
137.8019109288248
 20
140.5405953033996
 30
0.0
  0
VERTEX
  5
13C
330
130
100
AcDbEntity
  8
_1
 62
    12
420
 14877971
370
     9
100
AcDbVertex
100
AcDb2dVertex
 10
137.8019109288248
 20
126.9014659291406
 30
0.0
  0
VERTEX
  5
13D
330
130
100
AcDbEntity
  8
_1
 62
    12
420
 14877971
370
     9
100
AcDbVertex
100
AcDb2dVertex
 10
134.4267449038213
 20
126.9014659291406
 30
0.0
  0
VERTEX
  5
13E
330
130
100
AcDbEntity
  8
_1
 62
    12
420
 14877971
370
     9
100
AcDbVertex
100
AcDb2dVertex
 10
134.4267449038213
 20
112.8496218431885
 30
0.0
  0
VERTEX
  5
13F
330
130
100
AcDbEntity
  8
_1
 62
    12
420
 14877971
370
     9
100
AcDbVertex
100
AcDb2dVertex
 10
137.8019109288248
 20
112.8496218431885
 30
0.0
  0
VERTEX
  5
140
330
130
100
AcDbEntity
  8
_1
 62
    12
420
 14877971
370
     9
100
AcDbVertex
100
AcDb2dVertex
 10
137.8019109288248
 20
99.34828746541403
 30
0.0
  0
VERTEX
  5
141
330
130
100
AcDbEntity
  8
_1
 62
    12
420
 14877971
370
     9
100
AcDbVertex
100
AcDb2dVertex
 10
134.4266037927138
 20
99.34828746541403
 30
0.0
  0
VERTEX
  5
142
330
130
100
AcDbEntity
  8
_1
 62
    12
420
 14877971
370
     9
100
AcDbVertex
100
AcDb2dVertex
 10
134.4266037927138
 20
85.2967608794539
 30
0.0
  0
VERTEX
  5
143
330
130
100
AcDbEntity
  8
_1
 62
    12
420
 14877971
370
     9
100
AcDbVertex
100
AcDb2dVertex
 10
137.8019109288248
 20
85.2967608794539
 30
0.0
  0
VERTEX
  5
144
330
130
100
AcDbEntity
  8
_1
 62
    12
420
 14877971
370
     9
100
AcDbVertex
100
AcDb2dVertex
 10
137.8019109288248
 20
71.58873400695258
 30
0.0
  0
VERTEX
  5
145
330
130
100
AcDbEntity
  8
_1
 62
    12
420
 14877971
370
     9
100
AcDbVertex
100
AcDb2dVertex
 10
149.7867242341779
 20
71.58873400695258
 30
0.0
  0
VERTEX
  5
146
330
130
100
AcDbEntity
  8
_1
 62
    12
420
 14877971
370
     9
100
AcDbVertex
100
AcDb2dVertex
 10
149.7867242341779
 20
68.2139207597179
 30
0.0
  0
VERTEX
  5
147
330
130
100
AcDbEntity
  8
_1
 62
    12
420
 14877971
370
     9
100
AcDbVertex
100
AcDb2dVertex
 10
151.7848575165346
 20
68.2139207597179
 30
0.0
  0
VERTEX
  5
148
330
130
100
AcDbEntity
  8
_1
 62
    12
420
 14877971
370
     9
100
AcDbVertex
100
AcDb2dVertex
 10
151.7848575165346
 20
126.075330950217
 30
0.0
  0
VERTEX
  5
149
330
130
100
AcDbEntity
  8
_1
 62
    12
420
 14877971
370
     9
100
AcDbVertex
100
AcDb2dVertex
 10
154.9533310468112
 20
126.075330950217
 30
0.0
  0
VERTEX
  5
14A
330
130
100
AcDbEntity
  8
_1
 62
    12
420
 14877971
370
     9
100
AcDbVertex
100
AcDb2dVertex
 10
154.9533310468112
 20
68.2139207597179
 30
0.0
  0
VERTEX
  5
14B
330
130
100
AcDbEntity
  8
_1
 62
    12
420
 14877971
370
     9
100
AcDbVertex
100
AcDb2dVertex
 10
163.8383919312455
 20
68.2139207597179
 30
0.0
  0
VERTEX
  5
14C
330
130
100
AcDbEntity
  8
_1
 62
    12
420
 14877971
370
     9
100
AcDbVertex
100
AcDb2dVertex
 10
163.8383919312455
 20
71.58873400695258
 30
0.0
  0
VERTEX
  5
14D
330
130
100
AcDbEntity
  8
_1
 62
    12
420
 14877971
370
     9
100
AcDbVertex
100
AcDb2dVertex
 10
169.005527910532
 20
71.58873400695258
 30
0.0
  0
VERTEX
  5
14E
330
130
100
AcDbEntity
  8
_1
 62
    12
420
 14877971
370
     9
100
AcDbVertex
100
AcDb2dVertex
 10
169.005527910532
 20
126.0746638573704
 30
0.0
  0
VERTEX
  5
14F
330
130
100
AcDbEntity
  8
_1
 62
    12
420
 14877971
370
     9
100
AcDbVertex
100
AcDb2dVertex
 10
172.1739661630317
 20
126.0746638573704
 30
0.0
  0
VERTEX
  5
150
330
130
100
AcDbEntity
  8
_1
 62
    12
420
 14877971
370
     9
100
AcDbVertex
100
AcDb2dVertex
 10
172.1739661630317
 20
71.58873400695258
 30
0.0
  0
VERTEX
  5
151
330
130
100
AcDbEntity
  8
_1
 62
    12
420
 14877971
370
     9
100
AcDbVertex
100
AcDb2dVertex
 10
177.33972630902
 20
71.58873400695258
 30
0.0
  0
VERTEX
  5
152
330
130
100
AcDbEntity
  8
_1
 62
    12
420
 14877971
370
     9
100
AcDbVertex
100
AcDb2dVertex
 10
177.33972630902
 20
68.2139207597179
 30
0.0
  0
VERTEX
  5
153
330
130
100
AcDbEntity
  8
_1
 62
    12
420
 14877971
370
     9
100
AcDbVertex
100
AcDb2dVertex
 10
186.226021915645
 20
68.2139207597179
 30
0.0
  0
VERTEX
  5
154
330
130
100
AcDbEntity
  8
_1
 62
    12
420
 14877971
370
     9
100
AcDbVertex
100
AcDb2dVertex
 10
186.226021915645
 20
126.0746638573704
 30
0.0
  0
VERTEX
  5
155
330
130
100
AcDbEntity
  8
_1
 62
    12
420
 14877971
370
     9
100
AcDbVertex
100
AcDb2dVertex
 10
189.3944601681448
 20
126.0746638573704
 30
0.0
  0
VERTEX
  5
156
330
130
100
AcDbEntity
  8
_1
 62
    12
420
 14877971
370
     9
100
AcDbVertex
100
AcDb2dVertex
 10
189.3944601681448
 20
68.2139207597179
 30
0.0
  0
VERTEX
  5
157
330
130
100
AcDbEntity
  8
_1
 62
    12
420
 14877971
370
     9
100
AcDbVertex
100
AcDb2dVertex
 10
191.391570394972
 20
68.2139207597179
 30
0.0
  0
VERTEX
  5
158
330
130
100
AcDbEntity
  8
_1
 62
    12
420
 14877971
370
     9
100
AcDbVertex
100
AcDb2dVertex
 10
191.391570394972
 20
71.58873400695258
 30
0.0
  0
VERTEX
  5
159
330
130
100
AcDbEntity
  8
_1
 62
    12
420
 14877971
370
     9
100
AcDbVertex
100
AcDb2dVertex
 10
203.3774067558545
 20
71.58873400695258
 30
0.0
  0
SEQEND
  5
15A
330
130
100
AcDbEntity
  8
_1
 62
    12
420
 14877971
370
     9
  0
ENDBLK
  5
12F
330
12C
100
AcDbEntity
  8
0
100
AcDbBlockEnd
  0
BLOCK
  5
15D
330
15B
100
AcDbEntity
  8
0
100
AcDbBlockBegin
  2
block 8
 70
     0
 10
0.0
 20
0.0
 30
0.0
  3
block 8
  1

  0
INSERT
  5
160
330
15B
100
AcDbEntity
  8
_1
100
AcDbBlockReference
  2
block 9
 10
0.0
 20
0.0
 30
0.0
  0
POLYLINE
  5
1E2
330
15B
100
AcDbEntity
  8
_1
 62
    12
420
 14877971
370
     9
100
AcDb2dPolyline
 66
     1
 10
0.0
 20
0.0
 30
0.0
  0
VERTEX
  5
1E3
330
1E2
100
AcDbEntity
  8
_1
 62
    12
420
 14877971
370
     9
100
AcDbVertex
100
AcDb2dVertex
 10
59.79410319674756
 20
217.5941038931564
 30
0.0
  0
VERTEX
  5
1E4
330
1E2
100
AcDbEntity
  8
_1
 62
    12
420
 14877971
370
     9
100
AcDbVertex
100
AcDb2dVertex
 10
59.79463236340073
 20
217.5941038931564
 30
0.0
  0
VERTEX
  5
1E5
330
1E2
100
AcDbEntity
  8
_1
 62
    12
420
 14877971
370
     9
100
AcDbVertex
100
AcDb2dVertex
 10
59.79463236340073
 20
217.5960088931078
 30
0.0
  0
VERTEX
  5
1E6
330
1E2
100
AcDbEntity
  8
_1
 62
    12
420
 14877971
370
     9
100
AcDbVertex
100
AcDb2dVertex
 10
59.79410319674756
 20
217.5960088931078
 30
0.0
  0
VERTEX
  5
1E7
330
1E2
100
AcDbEntity
  8
_1
 62
    12
420
 14877971
370
     9
100
AcDbVertex
100
AcDb2dVertex
 10
59.79410319674756
 20
217.5941038931564
 30
0.0
  0
SEQEND
  5
1E8
330
1E2
100
AcDbEntity
  8
_1
 62
    12
420
 14877971
370
     9
  0
ENDBLK
  5
15E
330
15B
100
AcDbEntity
  8
0
100
AcDbBlockEnd
  0
BLOCK
  5
161
330
15F
100
AcDbEntity
  8
0
100
AcDbBlockBegin
  2
block 9
 70
     0
 10
0.0
 20
0.0
 30
0.0
  3
block 9
  1

  0
POLYLINE
  5
163
330
15F
100
AcDbEntity
  8
_1
 62
    12
420
 14877971
370
     9
100
AcDb2dPolyline
 66
     1
 10
0.0
 20
0.0
 30
0.0
  0
VERTEX
  5
164
330
163
100
AcDbEntity
  8
_1
 62
    12
420
 14877971
370
     9
100
AcDbVertex
100
AcDb2dVertex
 10
132.1199310737842
 20
260.5094841871827
 30
0.0
  0
VERTEX
  5
165
330
163
100
AcDbEntity
  8
_1
 62
    12
420
 14877971
370
     9
100
AcDbVertex
100
AcDb2dVertex
 10
132.1199310737842
 20
274.5613635509116
 30
0.0
  0
VERTEX
  5
166
330
163
100
AcDbEntity
  8
_1
 62
    12
420
 14877971
370
     9
100
AcDbVertex
100
AcDb2dVertex
 10
128.7447650487807
 20
274.5613635509116
 30
0.0
  0
VERTEX
  5
167
330
163
100
AcDbEntity
  8
_1
 62
    12
420
 14877971
370
     9
100
AcDbVertex
100
AcDb2dVertex
 10
128.7447650487807
 20
286.5461415784878
 30
0.0
  0
VERTEX
  5
168
330
163
100
AcDbEntity
  8
_1
 62
    12
420
 14877971
370
     9
100
AcDbVertex
100
AcDb2dVertex
 10
116.7594578545514
 20
286.5461415784878
 30
0.0
  0
VERTEX
  5
169
330
163
100
AcDbEntity
  8
_1
 62
    12
420
 14877971
370
     9
100
AcDbVertex
100
AcDb2dVertex
 10
116.7594578545514
 20
289.9213076034915
 30
0.0
  0
VERTEX
  5
16A
330
163
100
AcDbEntity
  8
_1
 62
    12
420
 14877971
370
     9
100
AcDbVertex
100
AcDb2dVertex
 10
102.7075784908225
 20
289.9213076034915
 30
0.0
  0
VERTEX
  5
16B
330
163
100
AcDbEntity
  8
_1
 62
    12
420
 14877971
370
     9
100
AcDbVertex
100
AcDb2dVertex
 10
102.7075784908225
 20
286.5461415784878
 30
0.0
  0
VERTEX
  5
16C
330
163
100
AcDbEntity
  8
_1
 62
    12
420
 14877971
370
     9
100
AcDbVertex
100
AcDb2dVertex
 10
89.20627939082488
 20
286.5461415784878
 30
0.0
  0
VERTEX
  5
16D
330
163
100
AcDbEntity
  8
_1
 62
    12
420
 14877971
370
     9
100
AcDbVertex
100
AcDb2dVertex
 10
89.20627939082488
 20
289.9213076034915
 30
0.0
  0
VERTEX
  5
16E
330
163
100
AcDbEntity
  8
_1
 62
    12
420
 14877971
370
     9
100
AcDbVertex
100
AcDb2dVertex
 10
75.15440002709596
 20
289.9213076034915
 30
0.0
  0
VERTEX
  5
16F
330
163
100
AcDbEntity
  8
_1
 62
    12
420
 14877971
370
     9
100
AcDbVertex
100
AcDb2dVertex
 10
75.15440002709596
 20
286.5461415784878
 30
0.0
  0
VERTEX
  5
170
330
163
100
AcDbEntity
  8
_1
 62
    12
420
 14877971
370
     9
100
AcDbVertex
100
AcDb2dVertex
 10
63.16962199952011
 20
286.5461415784878
 30
0.0
  0
VERTEX
  5
171
330
163
100
AcDbEntity
  8
_1
 62
    12
420
 14877971
370
     9
100
AcDbVertex
100
AcDb2dVertex
 10
63.16962199952011
 20
274.5613635509116
 30
0.0
  0
VERTEX
  5
172
330
163
100
AcDbEntity
  8
_1
 62
    12
420
 14877971
370
     9
100
AcDbVertex
100
AcDb2dVertex
 10
59.79445597451634
 20
274.5613635509116
 30
0.0
  0
VERTEX
  5
173
330
163
100
AcDbEntity
  8
_1
 62
    12
420
 14877971
370
     9
100
AcDbVertex
100
AcDb2dVertex
 10
59.79445597451634
 20
260.5094841871827
 30
0.0
  0
VERTEX
  5
174
330
163
100
AcDbEntity
  8
_1
 62
    12
420
 14877971
370
     9
100
AcDbVertex
100
AcDb2dVertex
 10
63.16962199952011
 20
260.5094841871827
 30
0.0
  0
VERTEX
  5
175
330
163
100
AcDbEntity
  8
_1
 62
    12
420
 14877971
370
     9
100
AcDbVertex
100
AcDb2dVertex
 10
63.16962199952011
 20
247.0083614760695
 30
0.0
  0
VERTEX
  5
176
330
163
100
AcDbEntity
  8
_1
 62
    12
420
 14877971
370
     9
100
AcDbVertex
100
AcDb2dVertex
 10
59.79427958563195
 20
247.0083614760695
 30
0.0
  0
VERTEX
  5
177
330
163
100
AcDbEntity
  8
_1
 62
    12
420
 14877971
370
     9
100
AcDbVertex
100
AcDb2dVertex
 10
59.79427958563195
 20
232.956658501225
 30
0.0
  0
VERTEX
  5
178
330
163
100
AcDbEntity
  8
_1
 62
    12
420
 14877971
370
     9
100
AcDbVertex
100
AcDb2dVertex
 10
63.16962199952011
 20
232.956658501225
 30
0.0
  0
VERTEX
  5
179
330
163
100
AcDbEntity
  8
_1
 62
    12
420
 14877971
370
     9
100
AcDbVertex
100
AcDb2dVertex
 10
63.16962199952011
 20
220.9696226959286
 30
0.0
  0
VERTEX
  5
17A
330
163
100
AcDbEntity
  8
_1
 62
    12
420
 14877971
370
     9
100
AcDbVertex
100
AcDb2dVertex
 10
75.15440002709596
 20
220.9696226959286
 30
0.0
  0
VERTEX
  5
17B
330
163
100
AcDbEntity
  8
_1
 62
    12
420
 14877971
370
     9
100
AcDbVertex
100
AcDb2dVertex
 10
75.15440002709596
 20
217.5942802820408
 30
0.0
  0
VERTEX
  5
17C
330
163
100
AcDbEntity
  8
_1
 62
    12
420
 14877971
370
     9
100
AcDbVertex
100
AcDb2dVertex
 10
89.20627939082488
 20
217.5946330598095
 30
0.0
  0
VERTEX
  5
17D
330
163
100
AcDbEntity
  8
_1
 62
    12
420
 14877971
370
     9
100
AcDbVertex
100
AcDb2dVertex
 10
89.20627939082488
 20
220.9696226959286
 30
0.0
  0
VERTEX
  5
17E
330
163
100
AcDbEntity
  8
_1
 62
    12
420
 14877971
370
     9
100
AcDbVertex
100
AcDb2dVertex
 10
102.7075784908225
 20
220.9696226959286
 30
0.0
  0
VERTEX
  5
17F
330
163
100
AcDbEntity
  8
_1
 62
    12
420
 14877971
370
     9
100
AcDbVertex
100
AcDb2dVertex
 10
102.7075784908225
 20
217.5946330598095
 30
0.0
  0
VERTEX
  5
180
330
163
100
AcDbEntity
  8
_1
 62
    12
420
 14877971
370
     9
100
AcDbVertex
100
AcDb2dVertex
 10
116.7594578545514
 20
217.5949858375783
 30
0.0
  0
VERTEX
  5
181
330
163
100
AcDbEntity
  8
_1
 62
    12
420
 14877971
370
     9
100
AcDbVertex
100
AcDb2dVertex
 10
116.7594578545514
 20
220.9696226959286
 30
0.0
  0
VERTEX
  5
182
330
163
100
AcDbEntity
  8
_1
 62
    12
420
 14877971
370
     9
100
AcDbVertex
100
AcDb2dVertex
 10
128.7447650487807
 20
220.9696226959286
 30
0.0
  0
VERTEX
  5
183
330
163
100
AcDbEntity
  8
_1
 62
    12
420
 14877971
370
     9
100
AcDbVertex
100
AcDb2dVertex
 10
128.7447650487807
 20
232.956658501225
 30
0.0
  0
VERTEX
  5
184
330
163
100
AcDbEntity
  8
_1
 62
    12
420
 14877971
370
     9
100
AcDbVertex
100
AcDb2dVertex
 10
132.1197546848998
 20
232.956658501225
 30
0.0
  0
VERTEX
  5
185
330
163
100
AcDbEntity
  8
_1
 62
    12
420
 14877971
370
     9
100
AcDbVertex
100
AcDb2dVertex
 10
132.1197546848998
 20
247.0083614760695
 30
0.0
  0
VERTEX
  5
186
330
163
100
AcDbEntity
  8
_1
 62
    12
420
 14877971
370
     9
100
AcDbVertex
100
AcDb2dVertex
 10
128.7447650487807
 20
247.0083614760695
 30
0.0
  0
VERTEX
  5
187
330
163
100
AcDbEntity
  8
_1
 62
    12
420
 14877971
370
     9
100
AcDbVertex
100
AcDb2dVertex
 10
128.7447650487807
 20
260.5094841871827
 30
0.0
  0
VERTEX
  5
188
330
163
100
AcDbEntity
  8
_1
 62
    12
420
 14877971
370
     9
100
AcDbVertex
100
AcDb2dVertex
 10
132.1199310737842
 20
260.5094841871827
 30
0.0
  0
SEQEND
  5
189
330
163
100
AcDbEntity
  8
_1
 62
    12
420
 14877971
370
     9
  0
POLYLINE
  5
18A
330
15F
100
AcDbEntity
  8
_1
 62
    12
420
 14877971
370
     9
100
AcDb2dPolyline
 66
     1
 10
0.0
 20
0.0
 30
0.0
  0
VERTEX
  5
18B
330
18A
100
AcDbEntity
  8
_1
 62
    12
420
 14877971
370
     9
100
AcDbVertex
100
AcDb2dVertex
 10
89.06862775551065
 20
234.9530984502915
 30
0.0
  0
VERTEX
  5
18C
330
18A
100
AcDbEntity
  8
_1
 62
    12
420
 14877971
370
     9
100
AcDbVertex
100
AcDb2dVertex
 10
80.32016017308422
 20
234.9530984502915
 30
0.0
  0
VERTEX
  5
18D
330
18A
100
AcDbEntity
  8
_1
 62
    12
420
 14877971
370
     9
100
AcDbVertex
100
AcDb2dVertex
 10
80.32016017308422
 20
233.0927601644194
 30
0.0
  0
VERTEX
  5
18E
330
18A
100
AcDbEntity
  8
_1
 62
    12
420
 14877971
370
     9
100
AcDbVertex
100
AcDb2dVertex
 10
77.15172192058448
 20
233.0927601644194
 30
0.0
  0
VERTEX
  5
18F
330
18A
100
AcDbEntity
  8
_1
 62
    12
420
 14877971
370
     9
100
AcDbVertex
100
AcDb2dVertex
 10
77.15172192058448
 20
234.9530984502915
 30
0.0
  0
VERTEX
  5
190
330
18A
100
AcDbEntity
  8
_1
 62
    12
420
 14877971
370
     9
100
AcDbVertex
100
AcDb2dVertex
 10
75.29205391247301
 20
234.9530984502915
 30
0.0
  0
VERTEX
  5
191
330
18A
100
AcDbEntity
  8
_1
 62
    12
420
 14877971
370
     9
100
AcDbVertex
100
AcDb2dVertex
 10
75.29205391247301
 20
238.1217130916756
 30
0.0
  0
VERTEX
  5
192
330
18A
100
AcDbEntity
  8
_1
 62
    12
420
 14877971
370
     9
100
AcDbVertex
100
AcDb2dVertex
 10
77.15172192058448
 20
238.1217130916756
 30
0.0
  0
VERTEX
  5
193
330
18A
100
AcDbEntity
  8
_1
 62
    12
420
 14877971
370
     9
100
AcDbVertex
100
AcDb2dVertex
 10
77.15172192058448
 20
246.8691553685098
 30
0.0
  0
VERTEX
  5
194
330
18A
100
AcDbEntity
  8
_1
 62
    12
420
 14877971
370
     9
100
AcDbVertex
100
AcDb2dVertex
 10
80.32016017308422
 20
246.8691553685098
 30
0.0
  0
VERTEX
  5
195
330
18A
100
AcDbEntity
  8
_1
 62
    12
420
 14877971
370
     9
100
AcDbVertex
100
AcDb2dVertex
 10
80.32016017308422
 20
238.1217130916756
 30
0.0
  0
VERTEX
  5
196
330
18A
100
AcDbEntity
  8
_1
 62
    12
420
 14877971
370
     9
100
AcDbVertex
100
AcDb2dVertex
 10
89.06862775551065
 20
238.1217130916756
 30
0.0
  0
VERTEX
  5
197
330
18A
100
AcDbEntity
  8
_1
 62
    12
420
 14877971
370
     9
100
AcDbVertex
100
AcDb2dVertex
 10
89.06862775551065
 20
234.9530984502915
 30
0.0
  0
SEQEND
  5
198
330
18A
100
AcDbEntity
  8
_1
 62
    12
420
 14877971
370
     9
  0
POLYLINE
  5
199
330
15F
100
AcDbEntity
  8
_1
 62
    12
420
 14877971
370
     9
100
AcDb2dPolyline
 66
     1
 10
0.0
 20
0.0
 30
0.0
  0
VERTEX
  5
19A
330
199
100
AcDbEntity
  8
_1
 62
    12
420
 14877971
370
     9
100
AcDbVertex
100
AcDb2dVertex
 10
89.06862775551065
 20
252.1739099553968
 30
0.0
  0
VERTEX
  5
19B
330
199
100
AcDbEntity
  8
_1
 62
    12
420
 14877971
370
     9
100
AcDbVertex
100
AcDb2dVertex
 10
75.29205391247301
 20
252.1739099553968
 30
0.0
  0
VERTEX
  5
19C
330
199
100
AcDbEntity
  8
_1
 62
    12
420
 14877971
370
     9
100
AcDbVertex
100
AcDb2dVertex
 10
75.29205391247301
 20
255.3425598745575
 30
0.0
  0
VERTEX
  5
19D
330
199
100
AcDbEntity
  8
_1
 62
    12
420
 14877971
370
     9
100
AcDbVertex
100
AcDb2dVertex
 10
89.06862775551065
 20
255.3425598745575
 30
0.0
  0
VERTEX
  5
19E
330
199
100
AcDbEntity
  8
_1
 62
    12
420
 14877971
370
     9
100
AcDbVertex
100
AcDb2dVertex
 10
89.06862775551065
 20
252.1739099553968
 30
0.0
  0
SEQEND
  5
19F
330
199
100
AcDbEntity
  8
_1
 62
    12
420
 14877971
370
     9
  0
POLYLINE
  5
1A0
330
15F
100
AcDbEntity
  8
_1
 62
    12
420
 14877971
370
     9
100
AcDb2dPolyline
 66
     1
 10
0.0
 20
0.0
 30
0.0
  0
VERTEX
  5
1A1
330
1A0
100
AcDbEntity
  8
_1
 62
    12
420
 14877971
370
     9
100
AcDbVertex
100
AcDb2dVertex
 10
89.06862775551065
 20
269.3947567382783
 30
0.0
  0
VERTEX
  5
1A2
330
1A0
100
AcDbEntity
  8
_1
 62
    12
420
 14877971
370
     9
100
AcDbVertex
100
AcDb2dVertex
 10
80.32016017308422
 20
269.3947567382783
 30
0.0
  0
VERTEX
  5
1A3
330
1A0
100
AcDbEntity
  8
_1
 62
    12
420
 14877971
370
     9
100
AcDbVertex
100
AcDb2dVertex
 10
80.32016017308422
 20
260.6457622392615
 30
0.0
  0
VERTEX
  5
1A4
330
1A0
100
AcDbEntity
  8
_1
 62
    12
420
 14877971
370
     9
100
AcDbVertex
100
AcDb2dVertex
 10
77.15172192058448
 20
260.6457622392615
 30
0.0
  0
VERTEX
  5
1A5
330
1A0
100
AcDbEntity
  8
_1
 62
    12
420
 14877971
370
     9
100
AcDbVertex
100
AcDb2dVertex
 10
77.15172192058448
 20
269.3947567382783
 30
0.0
  0
VERTEX
  5
1A6
330
1A0
100
AcDbEntity
  8
_1
 62
    12
420
 14877971
370
     9
100
AcDbVertex
100
AcDb2dVertex
 10
75.29205391247301
 20
269.3947567382783
 30
0.0
  0
VERTEX
  5
1A7
330
1A0
100
AcDbEntity
  8
_1
 62
    12
420
 14877971
370
     9
100
AcDbVertex
100
AcDb2dVertex
 10
75.29205391247301
 20
272.5633713796624
 30
0.0
  0
VERTEX
  5
1A8
330
1A0
100
AcDbEntity
  8
_1
 62
    12
420
 14877971
370
     9
100
AcDbVertex
100
AcDb2dVertex
 10
77.15172192058448
 20
272.5633713796624
 30
0.0
  0
VERTEX
  5
1A9
330
1A0
100
AcDbEntity
  8
_1
 62
    12
420
 14877971
370
     9
100
AcDbVertex
100
AcDb2dVertex
 10
77.15172192058448
 20
274.4223338322363
 30
0.0
  0
VERTEX
  5
1AA
330
1A0
100
AcDbEntity
  8
_1
 62
    12
420
 14877971
370
     9
100
AcDbVertex
100
AcDb2dVertex
 10
80.32016017308422
 20
274.4223338322363
 30
0.0
  0
VERTEX
  5
1AB
330
1A0
100
AcDbEntity
  8
_1
 62
    12
420
 14877971
370
     9
100
AcDbVertex
100
AcDb2dVertex
 10
80.32016017308422
 20
272.5633713796624
 30
0.0
  0
VERTEX
  5
1AC
330
1A0
100
AcDbEntity
  8
_1
 62
    12
420
 14877971
370
     9
100
AcDbVertex
100
AcDb2dVertex
 10
89.06862775551065
 20
272.5633713796624
 30
0.0
  0
VERTEX
  5
1AD
330
1A0
100
AcDbEntity
  8
_1
 62
    12
420
 14877971
370
     9
100
AcDbVertex
100
AcDb2dVertex
 10
89.06862775551065
 20
269.3947567382783
 30
0.0
  0
SEQEND
  5
1AE
330
1A0
100
AcDbEntity
  8
_1
 62
    12
420
 14877971
370
     9
  0
POLYLINE
  5
1AF
330
15F
100
AcDbEntity
  8
_1
 62
    12
420
 14877971
370
     9
100
AcDb2dPolyline
 66
     1
 10
0.0
 20
0.0
 30
0.0
  0
VERTEX
  5
1B0
330
1AF
100
AcDbEntity
  8
_1
 62
    12
420
 14877971
370
     9
100
AcDbVertex
100
AcDb2dVertex
 10
97.54097167818917
 20
233.0927601644194
 30
0.0
  0
VERTEX
  5
1B1
330
1AF
100
AcDbEntity
  8
_1
 62
    12
420
 14877971
370
     9
100
AcDbVertex
100
AcDb2dVertex
 10
94.37253342568943
 20
233.0927601644194
 30
0.0
  0
VERTEX
  5
1B2
330
1AF
100
AcDbEntity
  8
_1
 62
    12
420
 14877971
370
     9
100
AcDbVertex
100
AcDb2dVertex
 10
94.37253342568943
 20
246.8691553685098
 30
0.0
  0
VERTEX
  5
1B3
330
1AF
100
AcDbEntity
  8
_1
 62
    12
420
 14877971
370
     9
100
AcDbVertex
100
AcDb2dVertex
 10
97.54097167818917
 20
246.8691553685098
 30
0.0
  0
VERTEX
  5
1B4
330
1AF
100
AcDbEntity
  8
_1
 62
    12
420
 14877971
370
     9
100
AcDbVertex
100
AcDb2dVertex
 10
97.54097167818917
 20
233.0927601644194
 30
0.0
  0
SEQEND
  5
1B5
330
1AF
100
AcDbEntity
  8
_1
 62
    12
420
 14877971
370
     9
  0
POLYLINE
  5
1B6
330
15F
100
AcDbEntity
  8
_1
 62
    12
420
 14877971
370
     9
100
AcDb2dPolyline
 66
     1
 10
0.0
 20
0.0
 30
0.0
  0
VERTEX
  5
1B7
330
1B6
100
AcDbEntity
  8
_1
 62
    12
420
 14877971
370
     9
100
AcDbVertex
100
AcDb2dVertex
 10
97.54097167818917
 20
260.6457622392615
 30
0.0
  0
VERTEX
  5
1B8
330
1B6
100
AcDbEntity
  8
_1
 62
    12
420
 14877971
370
     9
100
AcDbVertex
100
AcDb2dVertex
 10
94.37253342568943
 20
260.6457622392615
 30
0.0
  0
VERTEX
  5
1B9
330
1B6
100
AcDbEntity
  8
_1
 62
    12
420
 14877971
370
     9
100
AcDbVertex
100
AcDb2dVertex
 10
94.37253342568943
 20
274.4223338322363
 30
0.0
  0
VERTEX
  5
1BA
330
1B6
100
AcDbEntity
  8
_1
 62
    12
420
 14877971
370
     9
100
AcDbVertex
100
AcDb2dVertex
 10
97.54097167818917
 20
274.4223338322363
 30
0.0
  0
VERTEX
  5
1BB
330
1B6
100
AcDbEntity
  8
_1
 62
    12
420
 14877971
370
     9
100
AcDbVertex
100
AcDb2dVertex
 10
97.54097167818917
 20
260.6457622392615
 30
0.0
  0
SEQEND
  5
1BC
330
1B6
100
AcDbEntity
  8
_1
 62
    12
420
 14877971
370
     9
  0
POLYLINE
  5
1BD
330
15F
100
AcDbEntity
  8
_1
 62
    12
420
 14877971
370
     9
100
AcDb2dPolyline
 66
     1
 10
0.0
 20
0.0
 30
0.0
  0
VERTEX
  5
1BE
330
1BD
100
AcDbEntity
  8
_1
 62
    12
420
 14877971
370
     9
100
AcDbVertex
100
AcDb2dVertex
 10
116.6218039691744
 20
234.9530984502915
 30
0.0
  0
VERTEX
  5
1BF
330
1BD
100
AcDbEntity
  8
_1
 62
    12
420
 14877971
370
     9
100
AcDbVertex
100
AcDb2dVertex
 10
114.761818461071
 20
234.9530984502915
 30
0.0
  0
VERTEX
  5
1C0
330
1BD
100
AcDbEntity
  8
_1
 62
    12
420
 14877971
370
     9
100
AcDbVertex
100
AcDb2dVertex
 10
114.761818461071
 20
233.0927601644194
 30
0.0
  0
VERTEX
  5
1C1
330
1BD
100
AcDbEntity
  8
_1
 62
    12
420
 14877971
370
     9
100
AcDbVertex
100
AcDb2dVertex
 10
111.5933449307944
 20
233.0927601644194
 30
0.0
  0
VERTEX
  5
1C2
330
1BD
100
AcDbEntity
  8
_1
 62
    12
420
 14877971
370
     9
100
AcDbVertex
100
AcDb2dVertex
 10
111.5933449307944
 20
234.9530984502915
 30
0.0
  0
VERTEX
  5
1C3
330
1BD
100
AcDbEntity
  8
_1
 62
    12
420
 14877971
370
     9
100
AcDbVertex
100
AcDb2dVertex
 10
102.8452323761995
 20
234.9530984502915
 30
0.0
  0
VERTEX
  5
1C4
330
1BD
100
AcDbEntity
  8
_1
 62
    12
420
 14877971
370
     9
100
AcDbVertex
100
AcDb2dVertex
 10
102.8452323761995
 20
238.1217130916756
 30
0.0
  0
VERTEX
  5
1C5
330
1BD
100
AcDbEntity
  8
_1
 62
    12
420
 14877971
370
     9
100
AcDbVertex
100
AcDb2dVertex
 10
111.5933449307944
 20
238.1217130916756
 30
0.0
  0
VERTEX
  5
1C6
330
1BD
100
AcDbEntity
  8
_1
 62
    12
420
 14877971
370
     9
100
AcDbVertex
100
AcDb2dVertex
 10
111.5933449307944
 20
246.8691553685098
 30
0.0
  0
VERTEX
  5
1C7
330
1BD
100
AcDbEntity
  8
_1
 62
    12
420
 14877971
370
     9
100
AcDbVertex
100
AcDb2dVertex
 10
114.761818461071
 20
246.8691553685098
 30
0.0
  0
VERTEX
  5
1C8
330
1BD
100
AcDbEntity
  8
_1
 62
    12
420
 14877971
370
     9
100
AcDbVertex
100
AcDb2dVertex
 10
114.761818461071
 20
238.1217130916756
 30
0.0
  0
VERTEX
  5
1C9
330
1BD
100
AcDbEntity
  8
_1
 62
    12
420
 14877971
370
     9
100
AcDbVertex
100
AcDb2dVertex
 10
116.6218039691744
 20
238.1217130916756
 30
0.0
  0
VERTEX
  5
1CA
330
1BD
100
AcDbEntity
  8
_1
 62
    12
420
 14877971
370
     9
100
AcDbVertex
100
AcDb2dVertex
 10
116.6218039691744
 20
234.9530984502915
 30
0.0
  0
SEQEND
  5
1CB
330
1BD
100
AcDbEntity
  8
_1
 62
    12
420
 14877971
370
     9
  0
POLYLINE
  5
1CC
330
15F
100
AcDbEntity
  8
_1
 62
    12
420
 14877971
370
     9
100
AcDb2dPolyline
 66
     1
 10
0.0
 20
0.0
 30
0.0
  0
VERTEX
  5
1CD
330
1CC
100
AcDbEntity
  8
_1
 62
    12
420
 14877971
370
     9
100
AcDbVertex
100
AcDb2dVertex
 10
116.6218039691744
 20
252.1739099553968
 30
0.0
  0
VERTEX
  5
1CE
330
1CC
100
AcDbEntity
  8
_1
 62
    12
420
 14877971
370
     9
100
AcDbVertex
100
AcDb2dVertex
 10
102.8452323761995
 20
252.1739099553968
 30
0.0
  0
VERTEX
  5
1CF
330
1CC
100
AcDbEntity
  8
_1
 62
    12
420
 14877971
370
     9
100
AcDbVertex
100
AcDb2dVertex
 10
102.8452323761995
 20
255.3425598745575
 30
0.0
  0
VERTEX
  5
1D0
330
1CC
100
AcDbEntity
  8
_1
 62
    12
420
 14877971
370
     9
100
AcDbVertex
100
AcDb2dVertex
 10
116.6218039691744
 20
255.3425598745575
 30
0.0
  0
VERTEX
  5
1D1
330
1CC
100
AcDbEntity
  8
_1
 62
    12
420
 14877971
370
     9
100
AcDbVertex
100
AcDb2dVertex
 10
116.6218039691744
 20
252.1739099553968
 30
0.0
  0
SEQEND
  5
1D2
330
1CC
100
AcDbEntity
  8
_1
 62
    12
420
 14877971
370
     9
  0
POLYLINE
  5
1D3
330
15F
100
AcDbEntity
  8
_1
 62
    12
420
 14877971
370
     9
100
AcDb2dPolyline
 66
     1
 10
0.0
 20
0.0
 30
0.0
  0
VERTEX
  5
1D4
330
1D3
100
AcDbEntity
  8
_1
 62
    12
420
 14877971
370
     9
100
AcDbVertex
100
AcDb2dVertex
 10
116.6218039691744
 20
269.3947567382783
 30
0.0
  0
VERTEX
  5
1D5
330
1D3
100
AcDbEntity
  8
_1
 62
    12
420
 14877971
370
     9
100
AcDbVertex
100
AcDb2dVertex
 10
114.761818461071
 20
269.3947567382783
 30
0.0
  0
VERTEX
  5
1D6
330
1D3
100
AcDbEntity
  8
_1
 62
    12
420
 14877971
370
     9
100
AcDbVertex
100
AcDb2dVertex
 10
114.761818461071
 20
260.6457622392615
 30
0.0
  0
VERTEX
  5
1D7
330
1D3
100
AcDbEntity
  8
_1
 62
    12
420
 14877971
370
     9
100
AcDbVertex
100
AcDb2dVertex
 10
111.5933449307944
 20
260.6457622392615
 30
0.0
  0
VERTEX
  5
1D8
330
1D3
100
AcDbEntity
  8
_1
 62
    12
420
 14877971
370
     9
100
AcDbVertex
100
AcDb2dVertex
 10
111.5933449307944
 20
269.3947567382783
 30
0.0
  0
VERTEX
  5
1D9
330
1D3
100
AcDbEntity
  8
_1
 62
    12
420
 14877971
370
     9
100
AcDbVertex
100
AcDb2dVertex
 10
102.8452323761995
 20
269.3947567382783
 30
0.0
  0
VERTEX
  5
1DA
330
1D3
100
AcDbEntity
  8
_1
 62
    12
420
 14877971
370
     9
100
AcDbVertex
100
AcDb2dVertex
 10
102.8452323761995
 20
272.5633713796624
 30
0.0
  0
VERTEX
  5
1DB
330
1D3
100
AcDbEntity
  8
_1
 62
    12
420
 14877971
370
     9
100
AcDbVertex
100
AcDb2dVertex
 10
111.5933449307944
 20
272.5633713796624
 30
0.0
  0
VERTEX
  5
1DC
330
1D3
100
AcDbEntity
  8
_1
 62
    12
420
 14877971
370
     9
100
AcDbVertex
100
AcDb2dVertex
 10
111.5933449307944
 20
274.4223338322363
 30
0.0
  0
VERTEX
  5
1DD
330
1D3
100
AcDbEntity
  8
_1
 62
    12
420
 14877971
370
     9
100
AcDbVertex
100
AcDb2dVertex
 10
114.761818461071
 20
274.4223338322363
 30
0.0
  0
VERTEX
  5
1DE
330
1D3
100
AcDbEntity
  8
_1
 62
    12
420
 14877971
370
     9
100
AcDbVertex
100
AcDb2dVertex
 10
114.761818461071
 20
272.5633713796624
 30
0.0
  0
VERTEX
  5
1DF
330
1D3
100
AcDbEntity
  8
_1
 62
    12
420
 14877971
370
     9
100
AcDbVertex
100
AcDb2dVertex
 10
116.6218039691744
 20
272.5633713796624
 30
0.0
  0
VERTEX
  5
1E0
330
1D3
100
AcDbEntity
  8
_1
 62
    12
420
 14877971
370
     9
100
AcDbVertex
100
AcDb2dVertex
 10
116.6218039691744
 20
269.3947567382783
 30
0.0
  0
SEQEND
  5
1E1
330
1D3
100
AcDbEntity
  8
_1
 62
    12
420
 14877971
370
     9
  0
ENDBLK
  5
162
330
15F
100
AcDbEntity
  8
0
100
AcDbBlockEnd
  0
BLOCK
  5
1EB
330
1E9
100
AcDbEntity
  8
0
100
AcDbBlockBegin
  2
block 10
 70
     0
 10
0.0
 20
0.0
 30
0.0
  3
block 10
  1

  0
POLYLINE
  5
1ED
330
1E9
100
AcDbEntity
  8
_1
 62
    12
420
 14877971
370
     9
100
AcDb2dPolyline
 66
     1
 10
0.0
 20
0.0
 30
0.0
  0
VERTEX
  5
1EE
330
1ED
100
AcDbEntity
  8
_1
 62
    12
420
 14877971
370
     9
100
AcDbVertex
100
AcDb2dVertex
 10
115.9122973206087
 20
85.43526143147601
 30
0.0
  0
VERTEX
  5
1EF
330
1ED
100
AcDbEntity
  8
_1
 62
    12
420
 14877971
370
     9
100
AcDbVertex
100
AcDb2dVertex
 10
119.286934178959
 20
85.43526143147601
 30
0.0
  0
VERTEX
  5
1F0
330
1ED
100
AcDbEntity
  8
_1
 62
    12
420
 14877971
370
     9
100
AcDbVertex
100
AcDb2dVertex
 10
119.286934178959
 20
99.2118683022277
 30
0.0
  0
VERTEX
  5
1F1
330
1ED
100
AcDbEntity
  8
_1
 62
    12
420
 14877971
370
     9
100
AcDbVertex
100
AcDb2dVertex
 10
115.9128264872619
 20
99.2118683022277
 30
0.0
  0
VERTEX
  5
1F2
330
1ED
100
AcDbEntity
  8
_1
 62
    12
420
 14877971
370
     9
100
AcDbVertex
100
AcDb2dVertex
 10
115.9128264872619
 20
112.9877696174418
 30
0.0
  0
VERTEX
  5
1F3
330
1ED
100
AcDbEntity
  8
_1
 62
    12
420
 14877971
370
     9
100
AcDbVertex
100
AcDb2dVertex
 10
119.2867577900746
 20
112.9877696174418
 30
0.0
  0
VERTEX
  5
1F4
330
1ED
100
AcDbEntity
  8
_1
 62
    12
420
 14877971
370
     9
100
AcDbVertex
100
AcDb2dVertex
 10
119.2867577900746
 20
126.765049968309
 30
0.0
  0
VERTEX
  5
1F5
330
1ED
100
AcDbEntity
  8
_1
 62
    12
420
 14877971
370
     9
100
AcDbVertex
100
AcDb2dVertex
 10
115.9128264872619
 20
126.765049968309
 30
0.0
  0
VERTEX
  5
1F6
330
1ED
100
AcDbEntity
  8
_1
 62
    12
420
 14877971
370
     9
100
AcDbVertex
100
AcDb2dVertex
 10
115.9128264872619
 20
140.5409480811684
 30
0.0
  0
VERTEX
  5
1F7
330
1ED
100
AcDbEntity
  8
_1
 62
    12
420
 14877971
370
     9
100
AcDbVertex
100
AcDb2dVertex
 10
50.3371555429713
 20
140.5409480811684
 30
0.0
  0
VERTEX
  5
1F8
330
1ED
100
AcDbEntity
  8
_1
 62
    12
420
 14877971
370
     9
100
AcDbVertex
100
AcDb2dVertex
 10
50.3371555429713
 20
126.765049968309
 30
0.0
  0
VERTEX
  5
1F9
330
1ED
100
AcDbEntity
  8
_1
 62
    12
420
 14877971
370
     9
100
AcDbVertex
100
AcDb2dVertex
 10
46.96163546857553
 20
126.765049968309
 30
0.0
  0
VERTEX
  5
1FA
330
1ED
100
AcDbEntity
  8
_1
 62
    12
420
 14877971
370
     9
100
AcDbVertex
100
AcDb2dVertex
 10
46.96145907969115
 20
112.9877696174418
 30
0.0
  0
VERTEX
  5
1FB
330
1ED
100
AcDbEntity
  8
_1
 62
    12
420
 14877971
370
     9
100
AcDbVertex
100
AcDb2dVertex
 10
50.3371555429713
 20
112.9877696174418
 30
0.0
  0
VERTEX
  5
1FC
330
1ED
100
AcDbEntity
  8
_1
 62
    12
420
 14877971
370
     9
100
AcDbVertex
100
AcDb2dVertex
 10
50.3371555429713
 20
99.2118683022277
 30
0.0
  0
VERTEX
  5
1FD
330
1ED
100
AcDbEntity
  8
_1
 62
    12
420
 14877971
370
     9
100
AcDbVertex
100
AcDb2dVertex
 10
46.96145907969115
 20
99.2118683022277
 30
0.0
  0
VERTEX
  5
1FE
330
1ED
100
AcDbEntity
  8
_1
 62
    12
420
 14877971
370
     9
100
AcDbVertex
100
AcDb2dVertex
 10
46.96131796858363
 20
85.43526143147601
 30
0.0
  0
VERTEX
  5
1FF
330
1ED
100
AcDbEntity
  8
_1
 62
    12
420
 14877971
370
     9
100
AcDbVertex
100
AcDb2dVertex
 10
50.33680276519355
 20
85.43526143147601
 30
0.0
  0
VERTEX
  5
200
330
1ED
100
AcDbEntity
  8
_1
 62
    12
420
 14877971
370
     9
100
AcDbVertex
100
AcDb2dVertex
 10
50.33680276519355
 20
71.65900733849308
 30
0.0
  0
VERTEX
  5
201
330
1ED
100
AcDbEntity
  8
_1
 62
    12
420
 14877971
370
     9
100
AcDbVertex
100
AcDb2dVertex
 10
46.96114157969924
 20
71.65900733849308
 30
0.0
  0
VERTEX
  5
202
330
1ED
100
AcDbEntity
  8
_1
 62
    12
420
 14877971
370
     9
100
AcDbVertex
100
AcDb2dVertex
 10
46.96114157969924
 20
57.88208296774948
 30
0.0
  0
VERTEX
  5
203
330
1ED
100
AcDbEntity
  8
_1
 62
    12
420
 14877971
370
     9
100
AcDbVertex
100
AcDb2dVertex
 10
50.3371555429713
 20
57.88208296774948
 30
0.0
  0
VERTEX
  5
204
330
1ED
100
AcDbEntity
  8
_1
 62
    12
420
 14877971
370
     9
100
AcDbVertex
100
AcDb2dVertex
 10
50.3371555429713
 20
44.10582887476656
 30
0.0
  0
VERTEX
  5
205
330
1ED
100
AcDbEntity
  8
_1
 62
    12
420
 14877971
370
     9
100
AcDbVertex
100
AcDb2dVertex
 10
46.96096519081485
 20
44.10582887476656
 30
0.0
  0
VERTEX
  5
206
330
1ED
100
AcDbEntity
  8
_1
 62
    12
420
 14877971
370
     9
100
AcDbVertex
100
AcDb2dVertex
 10
46.96078880193046
 20
26.45731027116363
 30
0.0
  0
VERTEX
  5
207
330
1ED
100
AcDbEntity
  8
_1
 62
    12
420
 14877971
370
     9
100
AcDbVertex
100
AcDb2dVertex
 10
115.9122973206087
 20
66.26570553164323
 30
0.0
  0
VERTEX
  5
208
330
1ED
100
AcDbEntity
  8
_1
 62
    12
420
 14877971
370
     9
100
AcDbVertex
100
AcDb2dVertex
 10
115.9122973206087
 20
85.43526143147601
 30
0.0
  0
SEQEND
  5
209
330
1ED
100
AcDbEntity
  8
_1
 62
    12
420
 14877971
370
     9
  0
POLYLINE
  5
20A
330
1E9
100
AcDbEntity
  8
_1
 62
    12
420
 14877971
370
     9
100
AcDb2dPolyline
 66
     1
 10
0.0
 20
0.0
 30
0.0
  0
VERTEX
  5
20B
330
20A
100
AcDbEntity
  8
_1
 62
    12
420
 14877971
370
     9
100
AcDbVertex
100
AcDb2dVertex
 10
98.77174275790068
 20
126.7643444127535
 30
0.0
  0
VERTEX
  5
20C
330
20A
100
AcDbEntity
  8
_1
 62
    12
420
 14877971
370
     9
100
AcDbVertex
100
AcDb2dVertex
 10
101.9407101770536
 20
126.7643444127535
 30
0.0
  0
VERTEX
  5
20D
330
20A
100
AcDbEntity
  8
_1
 62
    12
420
 14877971
370
     9
100
AcDbVertex
100
AcDb2dVertex
 10
101.9407101770536
 20
112.9877696174418
 30
0.0
  0
VERTEX
  5
20E
330
20A
100
AcDbEntity
  8
_1
 62
    12
420
 14877971
370
     9
100
AcDbVertex
100
AcDb2dVertex
 10
98.77174275790068
 20
112.9877696174418
 30
0.0
  0
VERTEX
  5
20F
330
20A
100
AcDbEntity
  8
_1
 62
    12
420
 14877971
370
     9
100
AcDbVertex
100
AcDb2dVertex
 10
98.77174275790068
 20
126.7643444127535
 30
0.0
  0
SEQEND
  5
210
330
20A
100
AcDbEntity
  8
_1
 62
    12
420
 14877971
370
     9
  0
POLYLINE
  5
211
330
1E9
100
AcDbEntity
  8
_1
 62
    12
420
 14877971
370
     9
100
AcDb2dPolyline
 66
     1
 10
0.0
 20
0.0
 30
0.0
  0
VERTEX
  5
212
330
211
100
AcDbEntity
  8
_1
 62
    12
420
 14877971
370
     9
100
AcDbVertex
100
AcDb2dVertex
 10
98.77174275790068
 20
99.21116274669015
 30
0.0
  0
VERTEX
  5
213
330
211
100
AcDbEntity
  8
_1
 62
    12
420
 14877971
370
     9
100
AcDbVertex
100
AcDb2dVertex
 10
101.9407101770536
 20
99.21116274669015
 30
0.0
  0
VERTEX
  5
214
330
211
100
AcDbEntity
  8
_1
 62
    12
420
 14877971
370
     9
100
AcDbVertex
100
AcDb2dVertex
 10
101.9407101770536
 20
85.43526143147601
 30
0.0
  0
VERTEX
  5
215
330
211
100
AcDbEntity
  8
_1
 62
    12
420
 14877971
370
     9
100
AcDbVertex
100
AcDb2dVertex
 10
98.77174275790068
 20
85.43526143147601
 30
0.0
  0
VERTEX
  5
216
330
211
100
AcDbEntity
  8
_1
 62
    12
420
 14877971
370
     9
100
AcDbVertex
100
AcDb2dVertex
 10
98.77174275790068
 20
99.21116274669015
 30
0.0
  0
SEQEND
  5
217
330
211
100
AcDbEntity
  8
_1
 62
    12
420
 14877971
370
     9
  0
POLYLINE
  5
218
330
1E9
100
AcDbEntity
  8
_1
 62
    12
420
 14877971
370
     9
100
AcDb2dPolyline
 66
     1
 10
0.0
 20
0.0
 30
0.0
  0
VERTEX
  5
219
330
218
100
AcDbEntity
  8
_1
 62
    12
420
 14877971
370
     9
100
AcDbVertex
100
AcDb2dVertex
 10
64.33008609502862
 20
126.7643444127535
 30
0.0
  0
VERTEX
  5
21A
330
218
100
AcDbEntity
  8
_1
 62
    12
420
 14877971
370
     9
100
AcDbVertex
100
AcDb2dVertex
 10
67.49922827795122
 20
126.7643444127535
 30
0.0
  0
VERTEX
  5
21B
330
218
100
AcDbEntity
  8
_1
 62
    12
420
 14877971
370
     9
100
AcDbVertex
100
AcDb2dVertex
 10
67.49922827795122
 20
112.9877696174418
 30
0.0
  0
VERTEX
  5
21C
330
218
100
AcDbEntity
  8
_1
 62
    12
420
 14877971
370
     9
100
AcDbVertex
100
AcDb2dVertex
 10
64.33008609502862
 20
112.9877696174418
 30
0.0
  0
VERTEX
  5
21D
330
218
100
AcDbEntity
  8
_1
 62
    12
420
 14877971
370
     9
100
AcDbVertex
100
AcDb2dVertex
 10
64.33008609502862
 20
126.7643444127535
 30
0.0
  0
SEQEND
  5
21E
330
218
100
AcDbEntity
  8
_1
 62
    12
420
 14877971
370
     9
  0
POLYLINE
  5
21F
330
1E9
100
AcDbEntity
  8
_1
 62
    12
420
 14877971
370
     9
100
AcDb2dPolyline
 66
     1
 10
0.0
 20
0.0
 30
0.0
  0
VERTEX
  5
220
330
21F
100
AcDbEntity
  8
_1
 62
    12
420
 14877971
370
     9
100
AcDbVertex
100
AcDb2dVertex
 10
64.33008609502862
 20
99.21116274669015
 30
0.0
  0
VERTEX
  5
221
330
21F
100
AcDbEntity
  8
_1
 62
    12
420
 14877971
370
     9
100
AcDbVertex
100
AcDb2dVertex
 10
67.49922827795122
 20
99.21116274669015
 30
0.0
  0
VERTEX
  5
222
330
21F
100
AcDbEntity
  8
_1
 62
    12
420
 14877971
370
     9
100
AcDbVertex
100
AcDb2dVertex
 10
67.49922827795122
 20
85.43526143147601
 30
0.0
  0
VERTEX
  5
223
330
21F
100
AcDbEntity
  8
_1
 62
    12
420
 14877971
370
     9
100
AcDbVertex
100
AcDb2dVertex
 10
64.33008609502862
 20
85.43526143147601
 30
0.0
  0
VERTEX
  5
224
330
21F
100
AcDbEntity
  8
_1
 62
    12
420
 14877971
370
     9
100
AcDbVertex
100
AcDb2dVertex
 10
64.33008609502862
 20
99.21116274669015
 30
0.0
  0
SEQEND
  5
225
330
21F
100
AcDbEntity
  8
_1
 62
    12
420
 14877971
370
     9
  0
POLYLINE
  5
226
330
1E9
100
AcDbEntity
  8
_1
 62
    12
420
 14877971
370
     9
100
AcDb2dPolyline
 66
     1
 10
0.0
 20
0.0
 30
0.0
  0
VERTEX
  5
227
330
226
100
AcDbEntity
  8
_1
 62
    12
420
 14877971
370
     9
100
AcDbVertex
100
AcDb2dVertex
 10
76.24617666590909
 20
68.31795492373043
 30
0.0
  0
VERTEX
  5
228
330
226
100
AcDbEntity
  8
_1
 62
    12
420
 14877971
370
     9
100
AcDbVertex
100
AcDb2dVertex
 10
62.46956979515739
 20
68.31795492373043
 30
0.0
  0
VERTEX
  5
229
330
226
100
AcDbEntity
  8
_1
 62
    12
420
 14877971
370
     9
100
AcDbVertex
100
AcDb2dVertex
 10
62.46956979515739
 20
71.48642845400705
 30
0.0
  0
VERTEX
  5
22A
330
226
100
AcDbEntity
  8
_1
 62
    12
420
 14877971
370
     9
100
AcDbVertex
100
AcDb2dVertex
 10
76.24617666590909
 20
71.48642845400705
 30
0.0
  0
VERTEX
  5
22B
330
226
100
AcDbEntity
  8
_1
 62
    12
420
 14877971
370
     9
100
AcDbVertex
100
AcDb2dVertex
 10
76.24617666590909
 20
68.31795492373043
 30
0.0
  0
SEQEND
  5
22C
330
226
100
AcDbEntity
  8
_1
 62
    12
420
 14877971
370
     9
  0
POLYLINE
  5
22D
330
1E9
100
AcDbEntity
  8
_1
 62
    12
420
 14877971
370
     9
100
AcDb2dPolyline
 66
     1
 10
0.0
 20
0.0
 30
0.0
  0
VERTEX
  5
22E
330
22D
100
AcDbEntity
  8
_1
 62
    12
420
 14877971
370
     9
100
AcDbVertex
100
AcDb2dVertex
 10
84.71989867194866
 20
85.43526143147601
 30
0.0
  0
VERTEX
  5
22F
330
22D
100
AcDbEntity
  8
_1
 62
    12
420
 14877971
370
     9
100
AcDbVertex
100
AcDb2dVertex
 10
81.55093331294549
 20
85.43526143147601
 30
0.0
  0
VERTEX
  5
230
330
22D
100
AcDbEntity
  8
_1
 62
    12
420
 14877971
370
     9
100
AcDbVertex
100
AcDb2dVertex
 10
81.55093331294549
 20
99.21116274669015
 30
0.0
  0
VERTEX
  5
231
330
22D
100
AcDbEntity
  8
_1
 62
    12
420
 14877971
370
     9
100
AcDbVertex
100
AcDb2dVertex
 10
84.71989867194866
 20
99.21116274669015
 30
0.0
  0
VERTEX
  5
232
330
22D
100
AcDbEntity
  8
_1
 62
    12
420
 14877971
370
     9
100
AcDbVertex
100
AcDb2dVertex
 10
84.71989867194866
 20
85.43526143147601
 30
0.0
  0
SEQEND
  5
233
330
22D
100
AcDbEntity
  8
_1
 62
    12
420
 14877971
370
     9
  0
POLYLINE
  5
234
330
1E9
100
AcDbEntity
  8
_1
 62
    12
420
 14877971
370
     9
100
AcDb2dPolyline
 66
     1
 10
0.0
 20
0.0
 30
0.0
  0
VERTEX
  5
235
330
234
100
AcDbEntity
  8
_1
 62
    12
420
 14877971
370
     9
100
AcDbVertex
100
AcDb2dVertex
 10
84.71989867194866
 20
112.9877696174418
 30
0.0
  0
VERTEX
  5
236
330
234
100
AcDbEntity
  8
_1
 62
    12
420
 14877971
370
     9
100
AcDbVertex
100
AcDb2dVertex
 10
81.55093331294549
 20
112.9877696174418
 30
0.0
  0
VERTEX
  5
237
330
234
100
AcDbEntity
  8
_1
 62
    12
420
 14877971
370
     9
100
AcDbVertex
100
AcDb2dVertex
 10
81.55093331294549
 20
126.7643444127535
 30
0.0
  0
VERTEX
  5
238
330
234
100
AcDbEntity
  8
_1
 62
    12
420
 14877971
370
     9
100
AcDbVertex
100
AcDb2dVertex
 10
84.71989867194866
 20
126.7643444127535
 30
0.0
  0
VERTEX
  5
239
330
234
100
AcDbEntity
  8
_1
 62
    12
420
 14877971
370
     9
100
AcDbVertex
100
AcDb2dVertex
 10
84.71989867194866
 20
112.9877696174418
 30
0.0
  0
SEQEND
  5
23A
330
234
100
AcDbEntity
  8
_1
 62
    12
420
 14877971
370
     9
  0
POLYLINE
  5
23B
330
1E9
100
AcDbEntity
  8
_1
 62
    12
420
 14877971
370
     9
100
AcDb2dPolyline
 66
     1
 10
0.0
 20
0.0
 30
0.0
  0
VERTEX
  5
23C
330
23B
100
AcDbEntity
  8
_1
 62
    12
420
 14877971
370
     9
100
AcDbVertex
100
AcDb2dVertex
 10
90.02274825888391
 20
68.31795492373043
 30
0.0
  0
VERTEX
  5
23D
330
23B
100
AcDbEntity
  8
_1
 62
    12
420
 14877971
370
     9
100
AcDbVertex
100
AcDb2dVertex
 10
90.02274825888391
 20
71.48642845400705
 30
0.0
  0
VERTEX
  5
23E
330
23B
100
AcDbEntity
  8
_1
 62
    12
420
 14877971
370
     9
100
AcDbVertex
100
AcDb2dVertex
 10
103.7993551296356
 20
71.48642845400705
 30
0.0
  0
VERTEX
  5
23F
330
23B
100
AcDbEntity
  8
_1
 62
    12
420
 14877971
370
     9
100
AcDbVertex
100
AcDb2dVertex
 10
103.7993551296356
 20
68.31795492373043
 30
0.0
  0
VERTEX
  5
240
330
23B
100
AcDbEntity
  8
_1
 62
    12
420
 14877971
370
     9
100
AcDbVertex
100
AcDb2dVertex
 10
90.02274825888391
 20
68.31795492373043
 30
0.0
  0
SEQEND
  5
241
330
23B
100
AcDbEntity
  8
_1
 62
    12
420
 14877971
370
     9
  0
ENDBLK
  5
1EC
330
1E9
100
AcDbEntity
  8
0
100
AcDbBlockEnd
  0
BLOCK
  5
244
330
242
100
AcDbEntity
  8
0
100
AcDbBlockBegin
  2
block 11
 70
     0
 10
0.0
 20
0.0
 30
0.0
  3
block 11
  1

  0
POLYLINE
  5
246
330
242
100
AcDbEntity
  8
_1
 62
    12
420
 14877971
370
     9
100
AcDb2dPolyline
 66
     1
 10
0.0
 20
0.0
 30
0.0
  0
VERTEX
  5
247
330
246
100
AcDbEntity
  8
_1
 62
    12
420
 14877971
370
     9
100
AcDbVertex
100
AcDb2dVertex
 10
152.0370583434337
 20
53.36899697177679
 30
0.0
  0
VERTEX
  5
248
330
246
100
AcDbEntity
  8
_1
 62
    12
420
 14877971
370
     9
100
AcDbVertex
100
AcDb2dVertex
 10
138.2597811949213
 20
53.36899697177679
 30
0.0
  0
VERTEX
  5
249
330
246
100
AcDbEntity
  8
_1
 62
    12
420
 14877971
370
     9
100
AcDbVertex
100
AcDb2dVertex
 10
138.2597811949213
 20
49.99524205784844
 30
0.0
  0
VERTEX
  5
24A
330
246
100
AcDbEntity
  8
_1
 62
    12
420
 14877971
370
     9
100
AcDbVertex
100
AcDb2dVertex
 10
124.4838798797072
 20
49.99524205784844
 30
0.0
  0
VERTEX
  5
24B
330
246
100
AcDbEntity
  8
_1
 62
    12
420
 14877971
370
     9
100
AcDbVertex
100
AcDb2dVertex
 10
124.4838798797072
 20
53.36934974954556
 30
0.0
  0
VERTEX
  5
24C
330
246
100
AcDbEntity
  8
_1
 62
    12
420
 14877971
370
     9
100
AcDbVertex
100
AcDb2dVertex
 10
110.7072730089555
 20
53.36934974954556
 30
0.0
  0
VERTEX
  5
24D
330
246
100
AcDbEntity
  8
_1
 62
    12
420
 14877971
370
     9
100
AcDbVertex
100
AcDb2dVertex
 10
110.7072730089555
 20
49.99453650231089
 30
0.0
  0
VERTEX
  5
24E
330
246
100
AcDbEntity
  8
_1
 62
    12
420
 14877971
370
     9
100
AcDbVertex
100
AcDb2dVertex
 10
91.53789349800711
 20
49.99453650231089
 30
0.0
  0
VERTEX
  5
24F
330
246
100
AcDbEntity
  8
_1
 62
    12
420
 14877971
370
     9
100
AcDbVertex
100
AcDb2dVertex
 10
51.72932118027507
 20
-18.95697249526093
 30
0.0
  0
VERTEX
  5
250
330
246
100
AcDbEntity
  8
_1
 62
    12
420
 14877971
370
     9
100
AcDbVertex
100
AcDb2dVertex
 10
69.37784045224605
 20
-18.95697249526093
 30
0.0
  0
VERTEX
  5
251
330
246
100
AcDbEntity
  8
_1
 62
    12
420
 14877971
370
     9
100
AcDbVertex
100
AcDb2dVertex
 10
69.37784045224605
 20
-15.58043055166076
 30
0.0
  0
VERTEX
  5
252
330
246
100
AcDbEntity
  8
_1
 62
    12
420
 14877971
370
     9
100
AcDbVertex
100
AcDb2dVertex
 10
83.15409454522897
 20
-15.58043055166076
 30
0.0
  0
VERTEX
  5
253
330
246
100
AcDbEntity
  8
_1
 62
    12
420
 14877971
370
     9
100
AcDbVertex
100
AcDb2dVertex
 10
83.15409454522897
 20
-18.95665499526068
 30
0.0
  0
VERTEX
  5
254
330
246
100
AcDbEntity
  8
_1
 62
    12
420
 14877971
370
     9
100
AcDbVertex
100
AcDb2dVertex
 10
96.93101891597257
 20
-18.95665499526068
 30
0.0
  0
VERTEX
  5
255
330
246
100
AcDbEntity
  8
_1
 62
    12
420
 14877971
370
     9
100
AcDbVertex
100
AcDb2dVertex
 10
96.93101891597257
 20
-15.58113610721564
 30
0.0
  0
VERTEX
  5
256
330
246
100
AcDbEntity
  8
_1
 62
    12
420
 14877971
370
     9
100
AcDbVertex
100
AcDb2dVertex
 10
110.7072730089555
 20
-15.58113610721564
 30
0.0
  0
VERTEX
  5
257
330
246
100
AcDbEntity
  8
_1
 62
    12
420
 14877971
370
     9
100
AcDbVertex
100
AcDb2dVertex
 10
110.7072730089555
 20
-18.95630221748292
 30
0.0
  0
VERTEX
  5
258
330
246
100
AcDbEntity
  8
_1
 62
    12
420
 14877971
370
     9
100
AcDbVertex
100
AcDb2dVertex
 10
124.4838798797072
 20
-18.95630221748292
 30
0.0
  0
VERTEX
  5
259
330
246
100
AcDbEntity
  8
_1
 62
    12
420
 14877971
370
     9
100
AcDbVertex
100
AcDb2dVertex
 10
124.4838798797072
 20
-15.58043055166076
 30
0.0
  0
VERTEX
  5
25A
330
246
100
AcDbEntity
  8
_1
 62
    12
420
 14877971
370
     9
100
AcDbVertex
100
AcDb2dVertex
 10
138.2597811949213
 20
-15.58043055166076
 30
0.0
  0
VERTEX
  5
25B
330
246
100
AcDbEntity
  8
_1
 62
    12
420
 14877971
370
     9
100
AcDbVertex
100
AcDb2dVertex
 10
138.2597811949213
 20
-18.95630221748292
 30
0.0
  0
VERTEX
  5
25C
330
246
100
AcDbEntity
  8
_1
 62
    12
420
 14877971
370
     9
100
AcDbVertex
100
AcDb2dVertex
 10
152.0370583434337
 20
-18.95594943970516
 30
0.0
  0
VERTEX
  5
25D
330
246
100
AcDbEntity
  8
_1
 62
    12
420
 14877971
370
     9
100
AcDbVertex
100
AcDb2dVertex
 10
152.0370583434337
 20
-15.58043055166076
 30
0.0
  0
VERTEX
  5
25E
330
246
100
AcDbEntity
  8
_1
 62
    12
420
 14877971
370
     9
100
AcDbVertex
100
AcDb2dVertex
 10
165.8129638474359
 20
-15.58043055166076
 30
0.0
  0
VERTEX
  5
25F
330
246
100
AcDbEntity
  8
_1
 62
    12
420
 14877971
370
     9
100
AcDbVertex
100
AcDb2dVertex
 10
165.8129638474359
 20
49.99524205784844
 30
0.0
  0
VERTEX
  5
260
330
246
100
AcDbEntity
  8
_1
 62
    12
420
 14877971
370
     9
100
AcDbVertex
100
AcDb2dVertex
 10
152.0370583434337
 20
49.99524205784844
 30
0.0
  0
VERTEX
  5
261
330
246
100
AcDbEntity
  8
_1
 62
    12
420
 14877971
370
     9
100
AcDbVertex
100
AcDb2dVertex
 10
152.0370583434337
 20
53.36899697177679
 30
0.0
  0
SEQEND
  5
262
330
246
100
AcDbEntity
  8
_1
 62
    12
420
 14877971
370
     9
  0
POLYLINE
  5
263
330
242
100
AcDbEntity
  8
_1
 62
    12
420
 14877971
370
     9
100
AcDb2dPolyline
 66
     1
 10
0.0
 20
0.0
 30
0.0
  0
VERTEX
  5
264
330
263
100
AcDbEntity
  8
_1
 62
    12
420
 14877971
370
     9
100
AcDbVertex
100
AcDb2dVertex
 10
96.75844003148654
 20
-3.44785244358278
 30
0.0
  0
VERTEX
  5
265
330
263
100
AcDbEntity
  8
_1
 62
    12
420
 14877971
370
     9
100
AcDbVertex
100
AcDb2dVertex
 10
93.58996650120993
 20
-3.44785244358278
 30
0.0
  0
VERTEX
  5
266
330
263
100
AcDbEntity
  8
_1
 62
    12
420
 14877971
370
     9
100
AcDbVertex
100
AcDb2dVertex
 10
93.58996650120993
 20
10.32838083075115
 30
0.0
  0
VERTEX
  5
267
330
263
100
AcDbEntity
  8
_1
 62
    12
420
 14877971
370
     9
100
AcDbVertex
100
AcDb2dVertex
 10
96.75844003148654
 20
10.32838083075115
 30
0.0
  0
VERTEX
  5
268
330
263
100
AcDbEntity
  8
_1
 62
    12
420
 14877971
370
     9
100
AcDbVertex
100
AcDb2dVertex
 10
96.75844003148654
 20
-3.44785244358278
 30
0.0
  0
SEQEND
  5
269
330
263
100
AcDbEntity
  8
_1
 62
    12
420
 14877971
370
     9
  0
POLYLINE
  5
26A
330
242
100
AcDbEntity
  8
_1
 62
    12
420
 14877971
370
     9
100
AcDb2dPolyline
 66
     1
 10
0.0
 20
0.0
 30
0.0
  0
VERTEX
  5
26B
330
26A
100
AcDbEntity
  8
_1
 62
    12
420
 14877971
370
     9
100
AcDbVertex
100
AcDb2dVertex
 10
96.75844003148654
 20
24.10498804952961
 30
0.0
  0
VERTEX
  5
26C
330
26A
100
AcDbEntity
  8
_1
 62
    12
420
 14877971
370
     9
100
AcDbVertex
100
AcDb2dVertex
 10
93.58996650120993
 20
24.10498804952961
 30
0.0
  0
VERTEX
  5
26D
330
26A
100
AcDbEntity
  8
_1
 62
    12
420
 14877971
370
     9
100
AcDbVertex
100
AcDb2dVertex
 10
93.58996650120993
 20
37.88159431133779
 30
0.0
  0
VERTEX
  5
26E
330
26A
100
AcDbEntity
  8
_1
 62
    12
420
 14877971
370
     9
100
AcDbVertex
100
AcDb2dVertex
 10
96.75844003148654
 20
37.88159431133779
 30
0.0
  0
VERTEX
  5
26F
330
26A
100
AcDbEntity
  8
_1
 62
    12
420
 14877971
370
     9
100
AcDbVertex
100
AcDb2dVertex
 10
96.75844003148654
 20
24.10498804952961
 30
0.0
  0
SEQEND
  5
270
330
26A
100
AcDbEntity
  8
_1
 62
    12
420
 14877971
370
     9
  0
POLYLINE
  5
271
330
242
100
AcDbEntity
  8
_1
 62
    12
420
 14877971
370
     9
100
AcDb2dPolyline
 66
     1
 10
0.0
 20
0.0
 30
0.0
  0
VERTEX
  5
272
330
271
100
AcDbEntity
  8
_1
 62
    12
420
 14877971
370
     9
100
AcDbVertex
100
AcDb2dVertex
 10
124.4831743241696
 20
-1.587499999603125
 30
0.0
  0
VERTEX
  5
273
330
271
100
AcDbEntity
  8
_1
 62
    12
420
 14877971
370
     9
100
AcDbVertex
100
AcDb2dVertex
 10
110.7072730089555
 20
-1.587499999603125
 30
0.0
  0
VERTEX
  5
274
330
271
100
AcDbEntity
  8
_1
 62
    12
420
 14877971
370
     9
100
AcDbVertex
100
AcDb2dVertex
 10
110.7072730089555
 20
1.581298166271439
 30
0.0
  0
VERTEX
  5
275
330
271
100
AcDbEntity
  8
_1
 62
    12
420
 14877971
370
     9
100
AcDbVertex
100
AcDb2dVertex
 10
124.4831743241696
 20
1.581298166271439
 30
0.0
  0
VERTEX
  5
276
330
271
100
AcDbEntity
  8
_1
 62
    12
420
 14877971
370
     9
100
AcDbVertex
100
AcDb2dVertex
 10
124.4831743241696
 20
-1.587499999603125
 30
0.0
  0
SEQEND
  5
277
330
271
100
AcDbEntity
  8
_1
 62
    12
420
 14877971
370
     9
  0
POLYLINE
  5
278
330
242
100
AcDbEntity
  8
_1
 62
    12
420
 14877971
370
     9
100
AcDb2dPolyline
 66
     1
 10
0.0
 20
0.0
 30
0.0
  0
VERTEX
  5
279
330
278
100
AcDbEntity
  8
_1
 62
    12
420
 14877971
370
     9
100
AcDbVertex
100
AcDb2dVertex
 10
124.4831743241696
 20
15.63317082942518
 30
0.0
  0
VERTEX
  5
27A
330
278
100
AcDbEntity
  8
_1
 62
    12
420
 14877971
370
     9
100
AcDbVertex
100
AcDb2dVertex
 10
110.7072730089555
 20
15.63317082942518
 30
0.0
  0
VERTEX
  5
27B
330
278
100
AcDbEntity
  8
_1
 62
    12
420
 14877971
370
     9
100
AcDbVertex
100
AcDb2dVertex
 10
110.7072730089555
 20
18.80231471752149
 30
0.0
  0
VERTEX
  5
27C
330
278
100
AcDbEntity
  8
_1
 62
    12
420
 14877971
370
     9
100
AcDbVertex
100
AcDb2dVertex
 10
124.4831743241696
 20
18.80231471752149
 30
0.0
  0
VERTEX
  5
27D
330
278
100
AcDbEntity
  8
_1
 62
    12
420
 14877971
370
     9
100
AcDbVertex
100
AcDb2dVertex
 10
124.4831743241696
 20
15.63317082942518
 30
0.0
  0
SEQEND
  5
27E
330
278
100
AcDbEntity
  8
_1
 62
    12
420
 14877971
370
     9
  0
POLYLINE
  5
27F
330
242
100
AcDbEntity
  8
_1
 62
    12
420
 14877971
370
     9
100
AcDb2dPolyline
 66
     1
 10
0.0
 20
0.0
 30
0.0
  0
VERTEX
  5
280
330
27F
100
AcDbEntity
  8
_1
 62
    12
420
 14877971
370
     9
100
AcDbVertex
100
AcDb2dVertex
 10
124.4831743241696
 20
32.85380638067534
 30
0.0
  0
VERTEX
  5
281
330
27F
100
AcDbEntity
  8
_1
 62
    12
420
 14877971
370
     9
100
AcDbVertex
100
AcDb2dVertex
 10
110.7072730089555
 20
32.85380638067534
 30
0.0
  0
VERTEX
  5
282
330
27F
100
AcDbEntity
  8
_1
 62
    12
420
 14877971
370
     9
100
AcDbVertex
100
AcDb2dVertex
 10
110.7072730089555
 20
36.02294935875577
 30
0.0
  0
VERTEX
  5
283
330
27F
100
AcDbEntity
  8
_1
 62
    12
420
 14877971
370
     9
100
AcDbVertex
100
AcDb2dVertex
 10
124.4831743241696
 20
36.02294935875577
 30
0.0
  0
VERTEX
  5
284
330
27F
100
AcDbEntity
  8
_1
 62
    12
420
 14877971
370
     9
100
AcDbVertex
100
AcDb2dVertex
 10
124.4831743241696
 20
32.85380638067534
 30
0.0
  0
SEQEND
  5
285
330
27F
100
AcDbEntity
  8
_1
 62
    12
420
 14877971
370
     9
  0
POLYLINE
  5
286
330
242
100
AcDbEntity
  8
_1
 62
    12
420
 14877971
370
     9
100
AcDb2dPolyline
 66
     1
 10
0.0
 20
0.0
 30
0.0
  0
VERTEX
  5
287
330
286
100
AcDbEntity
  8
_1
 62
    12
420
 14877971
370
     9
100
AcDbVertex
100
AcDb2dVertex
 10
152.0363527878962
 20
-1.587499999603125
 30
0.0
  0
VERTEX
  5
288
330
286
100
AcDbEntity
  8
_1
 62
    12
420
 14877971
370
     9
100
AcDbVertex
100
AcDb2dVertex
 10
138.2597811949213
 20
-1.587499999603125
 30
0.0
  0
VERTEX
  5
289
330
286
100
AcDbEntity
  8
_1
 62
    12
420
 14877971
370
     9
100
AcDbVertex
100
AcDb2dVertex
 10
138.2597811949213
 20
1.581298166271439
 30
0.0
  0
VERTEX
  5
28A
330
286
100
AcDbEntity
  8
_1
 62
    12
420
 14877971
370
     9
100
AcDbVertex
100
AcDb2dVertex
 10
152.0363527878962
 20
1.581298166271439
 30
0.0
  0
VERTEX
  5
28B
330
286
100
AcDbEntity
  8
_1
 62
    12
420
 14877971
370
     9
100
AcDbVertex
100
AcDb2dVertex
 10
152.0363527878962
 20
-1.587499999603125
 30
0.0
  0
SEQEND
  5
28C
330
286
100
AcDbEntity
  8
_1
 62
    12
420
 14877971
370
     9
  0
POLYLINE
  5
28D
330
242
100
AcDbEntity
  8
_1
 62
    12
420
 14877971
370
     9
100
AcDb2dPolyline
 66
     1
 10
0.0
 20
0.0
 30
0.0
  0
VERTEX
  5
28E
330
28D
100
AcDbEntity
  8
_1
 62
    12
420
 14877971
370
     9
100
AcDbVertex
100
AcDb2dVertex
 10
152.0363527878962
 20
15.63317082942518
 30
0.0
  0
VERTEX
  5
28F
330
28D
100
AcDbEntity
  8
_1
 62
    12
420
 14877971
370
     9
100
AcDbVertex
100
AcDb2dVertex
 10
138.2597811949213
 20
15.63317082942518
 30
0.0
  0
VERTEX
  5
290
330
28D
100
AcDbEntity
  8
_1
 62
    12
420
 14877971
370
     9
100
AcDbVertex
100
AcDb2dVertex
 10
138.2597811949213
 20
18.80231471752149
 30
0.0
  0
VERTEX
  5
291
330
28D
100
AcDbEntity
  8
_1
 62
    12
420
 14877971
370
     9
100
AcDbVertex
100
AcDb2dVertex
 10
152.0363527878962
 20
18.80231471752149
 30
0.0
  0
VERTEX
  5
292
330
28D
100
AcDbEntity
  8
_1
 62
    12
420
 14877971
370
     9
100
AcDbVertex
100
AcDb2dVertex
 10
152.0363527878962
 20
15.63317082942518
 30
0.0
  0
SEQEND
  5
293
330
28D
100
AcDbEntity
  8
_1
 62
    12
420
 14877971
370
     9
  0
POLYLINE
  5
294
330
242
100
AcDbEntity
  8
_1
 62
    12
420
 14877971
370
     9
100
AcDb2dPolyline
 66
     1
 10
0.0
 20
0.0
 30
0.0
  0
VERTEX
  5
295
330
294
100
AcDbEntity
  8
_1
 62
    12
420
 14877971
370
     9
100
AcDbVertex
100
AcDb2dVertex
 10
152.0363527878962
 20
32.85380638067534
 30
0.0
  0
VERTEX
  5
296
330
294
100
AcDbEntity
  8
_1
 62
    12
420
 14877971
370
     9
100
AcDbVertex
100
AcDb2dVertex
 10
138.2597811949213
 20
32.85380638067534
 30
0.0
  0
VERTEX
  5
297
330
294
100
AcDbEntity
  8
_1
 62
    12
420
 14877971
370
     9
100
AcDbVertex
100
AcDb2dVertex
 10
138.2597811949213
 20
36.02294935875577
 30
0.0
  0
VERTEX
  5
298
330
294
100
AcDbEntity
  8
_1
 62
    12
420
 14877971
370
     9
100
AcDbVertex
100
AcDb2dVertex
 10
152.0363527878962
 20
36.02294935875577
 30
0.0
  0
VERTEX
  5
299
330
294
100
AcDbEntity
  8
_1
 62
    12
420
 14877971
370
     9
100
AcDbVertex
100
AcDb2dVertex
 10
152.0363527878962
 20
32.85380638067534
 30
0.0
  0
SEQEND
  5
29A
330
294
100
AcDbEntity
  8
_1
 62
    12
420
 14877971
370
     9
  0
ENDBLK
  5
245
330
242
100
AcDbEntity
  8
0
100
AcDbBlockEnd
  0
BLOCK
  5
29D
330
29B
100
AcDbEntity
  8
0
100
AcDbBlockBegin
  2
block 12
 70
     0
 10
0.0
 20
0.0
 30
0.0
  3
block 12
  1

  0
POLYLINE
  5
29F
330
29B
100
AcDbEntity
  8
_1
 62
    12
420
 14877971
370
     9
100
AcDb2dPolyline
 66
     1
 10
0.0
 20
0.0
 30
0.0
  0
VERTEX
  5
2A0
330
29F
100
AcDbEntity
  8
_1
 62
    12
420
 14877971
370
     9
100
AcDbVertex
100
AcDb2dVertex
 10
128.7449414376651
 20
159.9413305155704
 30
0.0
  0
VERTEX
  5
2A1
330
29F
100
AcDbEntity
  8
_1
 62
    12
420
 14877971
370
     9
100
AcDbVertex
100
AcDb2dVertex
 10
128.7449414376651
 20
173.4424491862256
 30
0.0
  0
VERTEX
  5
2A2
330
29F
100
AcDbEntity
  8
_1
 62
    12
420
 14877971
370
     9
100
AcDbVertex
100
AcDb2dVertex
 10
132.1197546848998
 20
173.4424491862256
 30
0.0
  0
VERTEX
  5
2A3
330
29F
100
AcDbEntity
  8
_1
 62
    12
420
 14877971
370
     9
100
AcDbVertex
100
AcDb2dVertex
 10
132.1199310737842
 20
187.4941521610701
 30
0.0
  0
VERTEX
  5
2A4
330
29F
100
AcDbEntity
  8
_1
 62
    12
420
 14877971
370
     9
100
AcDbVertex
100
AcDb2dVertex
 10
128.7449414376651
 20
187.4941521610701
 30
0.0
  0
VERTEX
  5
2A5
330
29F
100
AcDbEntity
  8
_1
 62
    12
420
 14877971
370
     9
100
AcDbVertex
100
AcDb2dVertex
 10
128.7449414376651
 20
200.9951388386401
 30
0.0
  0
VERTEX
  5
2A6
330
29F
100
AcDbEntity
  8
_1
 62
    12
420
 14877971
370
     9
100
AcDbVertex
100
AcDb2dVertex
 10
132.1199310737842
 20
200.9951388386401
 30
0.0
  0
VERTEX
  5
2A7
330
29F
100
AcDbEntity
  8
_1
 62
    12
420
 14877971
370
     9
100
AcDbVertex
100
AcDb2dVertex
 10
132.1201074626686
 20
214.9093592394277
 30
0.0
  0
VERTEX
  5
2A8
330
29F
100
AcDbEntity
  8
_1
 62
    12
420
 14877971
370
     9
100
AcDbVertex
100
AcDb2dVertex
 10
59.79480875228511
 20
214.9093592394277
 30
0.0
  0
VERTEX
  5
2A9
330
29F
100
AcDbEntity
  8
_1
 62
    12
420
 14877971
370
     9
100
AcDbVertex
100
AcDb2dVertex
 10
59.79463236340073
 20
200.9951388386401
 30
0.0
  0
VERTEX
  5
2AA
330
29F
100
AcDbEntity
  8
_1
 62
    12
420
 14877971
370
     9
100
AcDbVertex
100
AcDb2dVertex
 10
63.16979998420766
 20
200.9951388386401
 30
0.0
  0
VERTEX
  5
2AB
330
29F
100
AcDbEntity
  8
_1
 62
    12
420
 14877971
370
     9
100
AcDbVertex
100
AcDb2dVertex
 10
63.16979998420766
 20
187.4941521610701
 30
0.0
  0
VERTEX
  5
2AC
330
29F
100
AcDbEntity
  8
_1
 62
    12
420
 14877971
370
     9
100
AcDbVertex
100
AcDb2dVertex
 10
59.79463236340073
 20
187.4941521610701
 30
0.0
  0
VERTEX
  5
2AD
330
29F
100
AcDbEntity
  8
_1
 62
    12
420
 14877971
370
     9
100
AcDbVertex
100
AcDb2dVertex
 10
59.79445597451634
 20
173.4424491862256
 30
0.0
  0
VERTEX
  5
2AE
330
29F
100
AcDbEntity
  8
_1
 62
    12
420
 14877971
370
     9
100
AcDbVertex
100
AcDb2dVertex
 10
63.16979998420766
 20
173.4424491862256
 30
0.0
  0
VERTEX
  5
2AF
330
29F
100
AcDbEntity
  8
_1
 62
    12
420
 14877971
370
     9
100
AcDbVertex
100
AcDb2dVertex
 10
63.16979998420766
 20
159.9413305155704
 30
0.0
  0
VERTEX
  5
2B0
330
29F
100
AcDbEntity
  8
_1
 62
    12
420
 14877971
370
     9
100
AcDbVertex
100
AcDb2dVertex
 10
59.79445597451634
 20
159.9413305155704
 30
0.0
  0
VERTEX
  5
2B1
330
29F
100
AcDbEntity
  8
_1
 62
    12
420
 14877971
370
     9
100
AcDbVertex
100
AcDb2dVertex
 10
59.79427958563195
 20
142.5835313623911
 30
0.0
  0
VERTEX
  5
2B2
330
29F
100
AcDbEntity
  8
_1
 62
    12
420
 14877971
370
     9
100
AcDbVertex
100
AcDb2dVertex
 10
75.29170113470423
 20
142.5835313623911
 30
0.0
  0
VERTEX
  5
2B3
330
29F
100
AcDbEntity
  8
_1
 62
    12
420
 14877971
370
     9
100
AcDbVertex
100
AcDb2dVertex
 10
75.29170113470423
 20
145.9580271096338
 30
0.0
  0
VERTEX
  5
2B4
330
29F
100
AcDbEntity
  8
_1
 62
    12
420
 14877971
370
     9
100
AcDbVertex
100
AcDb2dVertex
 10
89.06830800545593
 20
145.9580271096338
 30
0.0
  0
VERTEX
  5
2B5
330
29F
100
AcDbEntity
  8
_1
 62
    12
420
 14877971
370
     9
100
AcDbVertex
100
AcDb2dVertex
 10
89.06830800545593
 20
142.5835313623911
 30
0.0
  0
VERTEX
  5
2B6
330
29F
100
AcDbEntity
  8
_1
 62
    12
420
 14877971
370
     9
100
AcDbVertex
100
AcDb2dVertex
 10
102.8448795984308
 20
142.5832138623992
 30
0.0
  0
VERTEX
  5
2B7
330
29F
100
AcDbEntity
  8
_1
 62
    12
420
 14877971
370
     9
100
AcDbVertex
100
AcDb2dVertex
 10
102.8448795984308
 20
145.9580271096338
 30
0.0
  0
VERTEX
  5
2B8
330
29F
100
AcDbEntity
  8
_1
 62
    12
420
 14877971
370
     9
100
AcDbVertex
100
AcDb2dVertex
 10
116.6213100802981
 20
145.9580271096338
 30
0.0
  0
VERTEX
  5
2B9
330
29F
100
AcDbEntity
  8
_1
 62
    12
420
 14877971
370
     9
100
AcDbVertex
100
AcDb2dVertex
 10
116.6213100802981
 20
142.5832138623992
 30
0.0
  0
VERTEX
  5
2BA
330
29F
100
AcDbEntity
  8
_1
 62
    12
420
 14877971
370
     9
100
AcDbVertex
100
AcDb2dVertex
 10
132.1195782960154
 20
142.5832138623992
 30
0.0
  0
VERTEX
  5
2BB
330
29F
100
AcDbEntity
  8
_1
 62
    12
420
 14877971
370
     9
100
AcDbVertex
100
AcDb2dVertex
 10
132.1197546848998
 20
159.9413305155704
 30
0.0
  0
VERTEX
  5
2BC
330
29F
100
AcDbEntity
  8
_1
 62
    12
420
 14877971
370
     9
100
AcDbVertex
100
AcDb2dVertex
 10
128.7449414376651
 20
159.9413305155704
 30
0.0
  0
SEQEND
  5
2BD
330
29F
100
AcDbEntity
  8
_1
 62
    12
420
 14877971
370
     9
  0
POLYLINE
  5
2BE
330
29B
100
AcDbEntity
  8
_1
 62
    12
420
 14877971
370
     9
100
AcDb2dPolyline
 66
     1
 10
0.0
 20
0.0
 30
0.0
  0
VERTEX
  5
2BF
330
2BE
100
AcDbEntity
  8
_1
 62
    12
420
 14877971
370
     9
100
AcDbVertex
100
AcDb2dVertex
 10
80.32118322861368
 20
159.8034962008509
 30
0.0
  0
VERTEX
  5
2C0
330
2BE
100
AcDbEntity
  8
_1
 62
    12
420
 14877971
370
     9
100
AcDbVertex
100
AcDb2dVertex
 10
77.1522158094611
 20
159.8034962008509
 30
0.0
  0
VERTEX
  5
2C1
330
2BE
100
AcDbEntity
  8
_1
 62
    12
420
 14877971
370
     9
100
AcDbVertex
100
AcDb2dVertex
 10
77.1522158094611
 20
173.5799266827183
 30
0.0
  0
VERTEX
  5
2C2
330
2BE
100
AcDbEntity
  8
_1
 62
    12
420
 14877971
370
     9
100
AcDbVertex
100
AcDb2dVertex
 10
80.32118322861368
 20
173.5799266827183
 30
0.0
  0
VERTEX
  5
2C3
330
2BE
100
AcDbEntity
  8
_1
 62
    12
420
 14877971
370
     9
100
AcDbVertex
100
AcDb2dVertex
 10
80.32118322861368
 20
159.8034962008509
 30
0.0
  0
SEQEND
  5
2C4
330
2BE
100
AcDbEntity
  8
_1
 62
    12
420
 14877971
370
     9
  0
POLYLINE
  5
2C5
330
29B
100
AcDbEntity
  8
_1
 62
    12
420
 14877971
370
     9
100
AcDb2dPolyline
 66
     1
 10
0.0
 20
0.0
 30
0.0
  0
VERTEX
  5
2C6
330
2C5
100
AcDbEntity
  8
_1
 62
    12
420
 14877971
370
     9
100
AcDbVertex
100
AcDb2dVertex
 10
80.32118322861368
 20
187.3565335534699
 30
0.0
  0
VERTEX
  5
2C7
330
2C5
100
AcDbEntity
  8
_1
 62
    12
420
 14877971
370
     9
100
AcDbVertex
100
AcDb2dVertex
 10
77.1522158094611
 20
187.3565335534699
 30
0.0
  0
VERTEX
  5
2C8
330
2C5
100
AcDbEntity
  8
_1
 62
    12
420
 14877971
370
     9
100
AcDbVertex
100
AcDb2dVertex
 10
77.1522158094611
 20
201.1329287575604
 30
0.0
  0
VERTEX
  5
2C9
330
2C5
100
AcDbEntity
  8
_1
 62
    12
420
 14877971
370
     9
100
AcDbVertex
100
AcDb2dVertex
 10
80.32118322861368
 20
201.1329287575604
 30
0.0
  0
VERTEX
  5
2CA
330
2C5
100
AcDbEntity
  8
_1
 62
    12
420
 14877971
370
     9
100
AcDbVertex
100
AcDb2dVertex
 10
80.32118322861368
 20
187.3565335534699
 30
0.0
  0
SEQEND
  5
2CB
330
2C5
100
AcDbEntity
  8
_1
 62
    12
420
 14877971
370
     9
  0
POLYLINE
  5
2CC
330
29B
100
AcDbEntity
  8
_1
 62
    12
420
 14877971
370
     9
100
AcDb2dPolyline
 66
     1
 10
0.0
 20
0.0
 30
0.0
  0
VERTEX
  5
2CD
330
2CC
100
AcDbEntity
  8
_1
 62
    12
420
 14877971
370
     9
100
AcDbVertex
100
AcDb2dVertex
 10
97.5420300114955
 20
159.8034962008509
 30
0.0
  0
VERTEX
  5
2CE
330
2CC
100
AcDbEntity
  8
_1
 62
    12
420
 14877971
370
     9
100
AcDbVertex
100
AcDb2dVertex
 10
94.37306259234259
 20
159.8034962008509
 30
0.0
  0
VERTEX
  5
2CF
330
2CC
100
AcDbEntity
  8
_1
 62
    12
420
 14877971
370
     9
100
AcDbVertex
100
AcDb2dVertex
 10
94.37306259234259
 20
173.5799266827183
 30
0.0
  0
VERTEX
  5
2D0
330
2CC
100
AcDbEntity
  8
_1
 62
    12
420
 14877971
370
     9
100
AcDbVertex
100
AcDb2dVertex
 10
97.5420300114955
 20
173.5799266827183
 30
0.0
  0
VERTEX
  5
2D1
330
2CC
100
AcDbEntity
  8
_1
 62
    12
420
 14877971
370
     9
100
AcDbVertex
100
AcDb2dVertex
 10
97.5420300114955
 20
159.8034962008509
 30
0.0
  0
SEQEND
  5
2D2
330
2CC
100
AcDbEntity
  8
_1
 62
    12
420
 14877971
370
     9
  0
POLYLINE
  5
2D3
330
29B
100
AcDbEntity
  8
_1
 62
    12
420
 14877971
370
     9
100
AcDb2dPolyline
 66
     1
 10
0.0
 20
0.0
 30
0.0
  0
VERTEX
  5
2D4
330
2D3
100
AcDbEntity
  8
_1
 62
    12
420
 14877971
370
     9
100
AcDbVertex
100
AcDb2dVertex
 10
97.5420300114955
 20
187.3565335534699
 30
0.0
  0
VERTEX
  5
2D5
330
2D3
100
AcDbEntity
  8
_1
 62
    12
420
 14877971
370
     9
100
AcDbVertex
100
AcDb2dVertex
 10
94.37306259234259
 20
187.3565335534699
 30
0.0
  0
VERTEX
  5
2D6
330
2D3
100
AcDbEntity
  8
_1
 62
    12
420
 14877971
370
     9
100
AcDbVertex
100
AcDb2dVertex
 10
94.37306259234259
 20
201.1329287575604
 30
0.0
  0
VERTEX
  5
2D7
330
2D3
100
AcDbEntity
  8
_1
 62
    12
420
 14877971
370
     9
100
AcDbVertex
100
AcDb2dVertex
 10
97.5420300114955
 20
201.1329287575604
 30
0.0
  0
VERTEX
  5
2D8
330
2D3
100
AcDbEntity
  8
_1
 62
    12
420
 14877971
370
     9
100
AcDbVertex
100
AcDb2dVertex
 10
97.5420300114955
 20
187.3565335534699
 30
0.0
  0
SEQEND
  5
2D9
330
2D3
100
AcDbEntity
  8
_1
 62
    12
420
 14877971
370
     9
  0
POLYLINE
  5
2DA
330
29B
100
AcDbEntity
  8
_1
 62
    12
420
 14877971
370
     9
100
AcDb2dPolyline
 66
     1
 10
0.0
 20
0.0
 30
0.0
  0
VERTEX
  5
2DB
330
2DA
100
AcDbEntity
  8
_1
 62
    12
420
 14877971
370
     9
100
AcDbVertex
100
AcDb2dVertex
 10
114.7628444157537
 20
159.8034962008509
 30
0.0
  0
VERTEX
  5
2DC
330
2DA
100
AcDbEntity
  8
_1
 62
    12
420
 14877971
370
     9
100
AcDbVertex
100
AcDb2dVertex
 10
111.5938740974475
 20
159.8034962008509
 30
0.0
  0
VERTEX
  5
2DD
330
2DA
100
AcDbEntity
  8
_1
 62
    12
420
 14877971
370
     9
100
AcDbVertex
100
AcDb2dVertex
 10
111.5938740974475
 20
173.5799266827183
 30
0.0
  0
VERTEX
  5
2DE
330
2DA
100
AcDbEntity
  8
_1
 62
    12
420
 14877971
370
     9
100
AcDbVertex
100
AcDb2dVertex
 10
114.7628444157537
 20
173.5799266827183
 30
0.0
  0
VERTEX
  5
2DF
330
2DA
100
AcDbEntity
  8
_1
 62
    12
420
 14877971
370
     9
100
AcDbVertex
100
AcDb2dVertex
 10
114.7628444157537
 20
159.8034962008509
 30
0.0
  0
SEQEND
  5
2E0
330
2DA
100
AcDbEntity
  8
_1
 62
    12
420
 14877971
370
     9
  0
POLYLINE
  5
2E1
330
29B
100
AcDbEntity
  8
_1
 62
    12
420
 14877971
370
     9
100
AcDb2dPolyline
 66
     1
 10
0.0
 20
0.0
 30
0.0
  0
VERTEX
  5
2E2
330
2E1
100
AcDbEntity
  8
_1
 62
    12
420
 14877971
370
     9
100
AcDbVertex
100
AcDb2dVertex
 10
114.7628444157537
 20
187.3565335534699
 30
0.0
  0
VERTEX
  5
2E3
330
2E1
100
AcDbEntity
  8
_1
 62
    12
420
 14877971
370
     9
100
AcDbVertex
100
AcDb2dVertex
 10
111.5938740974475
 20
187.3565335534699
 30
0.0
  0
VERTEX
  5
2E4
330
2E1
100
AcDbEntity
  8
_1
 62
    12
420
 14877971
370
     9
100
AcDbVertex
100
AcDb2dVertex
 10
111.5938740974475
 20
201.1329287575604
 30
0.0
  0
VERTEX
  5
2E5
330
2E1
100
AcDbEntity
  8
_1
 62
    12
420
 14877971
370
     9
100
AcDbVertex
100
AcDb2dVertex
 10
114.7628444157537
 20
201.1329287575604
 30
0.0
  0
VERTEX
  5
2E6
330
2E1
100
AcDbEntity
  8
_1
 62
    12
420
 14877971
370
     9
100
AcDbVertex
100
AcDb2dVertex
 10
114.7628444157537
 20
187.3565335534699
 30
0.0
  0
SEQEND
  5
2E7
330
2E1
100
AcDbEntity
  8
_1
 62
    12
420
 14877971
370
     9
  0
ENDBLK
  5
29E
330
29B
100
AcDbEntity
  8
0
100
AcDbBlockEnd
  0
BLOCK
  5
2EA
330
2E8
100
AcDbEntity
  8
0
100
AcDbBlockBegin
  2
block 13
 70
     0
 10
0.0
 20
0.0
 30
0.0
  3
block 13
  1

  0
POLYLINE
  5
2EC
330
2E8
100
AcDbEntity
  8
_1
 62
    12
420
 14877971
370
     9
100
AcDb2dPolyline
 66
     1
 10
0.0
 20
0.0
 30
0.0
  0
VERTEX
  5
2ED
330
2EC
100
AcDbEntity
  8
_1
 62
    12
420
 14877971
370
     9
100
AcDbVertex
100
AcDb2dVertex
 10
268.043582606083
 20
63.46073421431512
 30
0.0
  0
VERTEX
  5
2EE
330
2EC
100
AcDbEntity
  8
_1
 62
    12
420
 14877971
370
     9
100
AcDbVertex
100
AcDb2dVertex
 10
268.043582606083
 20
60.09280013357161
 30
0.0
  0
VERTEX
  5
2EF
330
2EC
100
AcDbEntity
  8
_1
 62
    12
420
 14877971
370
     9
100
AcDbVertex
100
AcDb2dVertex
 10
254.5422482283085
 20
60.09280013357161
 30
0.0
  0
VERTEX
  5
2F0
330
2EC
100
AcDbEntity
  8
_1
 62
    12
420
 14877971
370
     9
100
AcDbVertex
100
AcDb2dVertex
 10
254.5422482283085
 20
63.46175726984458
 30
0.0
  0
VERTEX
  5
2F1
330
2EC
100
AcDbEntity
  8
_1
 62
    12
420
 14877971
370
     9
100
AcDbVertex
100
AcDb2dVertex
 10
240.4904041423564
 20
63.46278032537403
 30
0.0
  0
VERTEX
  5
2F2
330
2EC
100
AcDbEntity
  8
_1
 62
    12
420
 14877971
370
     9
100
AcDbVertex
100
AcDb2dVertex
 10
240.4904041423564
 20
60.09280013357161
 30
0.0
  0
VERTEX
  5
2F3
330
2EC
100
AcDbEntity
  8
_1
 62
    12
420
 14877971
370
     9
100
AcDbVertex
100
AcDb2dVertex
 10
226.9897400423426
 20
60.09280013357161
 30
0.0
  0
VERTEX
  5
2F4
330
2EC
100
AcDbEntity
  8
_1
 62
    12
420
 14877971
370
     9
100
AcDbVertex
100
AcDb2dVertex
 10
226.9897400423426
 20
63.46415615867227
 30
0.0
  0
VERTEX
  5
2F5
330
2EC
100
AcDbEntity
  8
_1
 62
    12
420
 14877971
370
     9
100
AcDbVertex
100
AcDb2dVertex
 10
212.9372256786299
 20
63.4652144919786
 30
0.0
  0
VERTEX
  5
2F6
330
2EC
100
AcDbEntity
  8
_1
 62
    12
420
 14877971
370
     9
100
AcDbVertex
100
AcDb2dVertex
 10
212.9372256786299
 20
60.09280013357161
 30
0.0
  0
VERTEX
  5
2F7
330
2EC
100
AcDbEntity
  8
_1
 62
    12
420
 14877971
370
     9
100
AcDbVertex
100
AcDb2dVertex
 10
199.4365666168077
 20
60.09280013357161
 30
0.0
  0
VERTEX
  5
2F8
330
2EC
100
AcDbEntity
  8
_1
 62
    12
420
 14877971
370
     9
100
AcDbVertex
100
AcDb2dVertex
 10
199.4365666168077
 20
63.46659032527683
 30
0.0
  0
VERTEX
  5
2F9
330
2EC
100
AcDbEntity
  8
_1
 62
    12
420
 14877971
370
     9
100
AcDbVertex
100
AcDb2dVertex
 10
185.3840166203205
 20
63.46761338080628
 30
0.0
  0
VERTEX
  5
2FA
330
2EC
100
AcDbEntity
  8
_1
 62
    12
420
 14877971
370
     9
100
AcDbVertex
100
AcDb2dVertex
 10
185.3840166203205
 20
60.09280013357161
 30
0.0
  0
VERTEX
  5
2FB
330
2EC
100
AcDbEntity
  8
_1
 62
    12
420
 14877971
370
     9
100
AcDbVertex
100
AcDb2dVertex
 10
169.8624999575344
 20
60.09280013357161
 30
0.0
  0
VERTEX
  5
2FC
330
2EC
100
AcDbEntity
  8
_1
 62
    12
420
 14877971
370
     9
100
AcDbVertex
100
AcDb2dVertex
 10
169.8612962220328
 20
-5.482166665296433
 30
0.0
  0
VERTEX
  5
2FD
330
2EC
100
AcDbEntity
  8
_1
 62
    12
420
 14877971
370
     9
100
AcDbVertex
100
AcDb2dVertex
 10
185.383870826019
 20
-5.482166665296433
 30
0.0
  0
VERTEX
  5
2FE
330
2EC
100
AcDbEntity
  8
_1
 62
    12
420
 14877971
370
     9
100
AcDbVertex
100
AcDb2dVertex
 10
185.383870826019
 20
-8.858038331118602
 30
0.0
  0
VERTEX
  5
2FF
330
2EC
100
AcDbEntity
  8
_1
 62
    12
420
 14877971
370
     9
100
AcDbVertex
100
AcDb2dVertex
 10
199.4365666168077
 20
-8.858038331118602
 30
0.0
  0
VERTEX
  5
300
330
2EC
100
AcDbEntity
  8
_1
 62
    12
420
 14877971
370
     9
100
AcDbVertex
100
AcDb2dVertex
 10
199.4365666168077
 20
-5.482166665296433
 30
0.0
  0
VERTEX
  5
301
330
2EC
100
AcDbEntity
  8
_1
 62
    12
420
 14877971
370
     9
100
AcDbVertex
100
AcDb2dVertex
 10
212.9372256786299
 20
-5.482166665296433
 30
0.0
  0
VERTEX
  5
302
330
2EC
100
AcDbEntity
  8
_1
 62
    12
420
 14877971
370
     9
100
AcDbVertex
100
AcDb2dVertex
 10
212.9372256786299
 20
-8.858038331118602
 30
0.0
  0
VERTEX
  5
303
330
2EC
100
AcDbEntity
  8
_1
 62
    12
420
 14877971
370
     9
100
AcDbVertex
100
AcDb2dVertex
 10
226.9897400423426
 20
-8.858038331118602
 30
0.0
  0
VERTEX
  5
304
330
2EC
100
AcDbEntity
  8
_1
 62
    12
420
 14877971
370
     9
100
AcDbVertex
100
AcDb2dVertex
 10
226.9897400423426
 20
-5.482166665296433
 30
0.0
  0
VERTEX
  5
305
330
2EC
100
AcDbEntity
  8
_1
 62
    12
420
 14877971
370
     9
100
AcDbVertex
100
AcDb2dVertex
 10
240.4904041423564
 20
-5.482166665296433
 30
0.0
  0
VERTEX
  5
306
330
2EC
100
AcDbEntity
  8
_1
 62
    12
420
 14877971
370
     9
100
AcDbVertex
100
AcDb2dVertex
 10
240.4904041423564
 20
-8.858038331118602
 30
0.0
  0
VERTEX
  5
307
330
2EC
100
AcDbEntity
  8
_1
 62
    12
420
 14877971
370
     9
100
AcDbVertex
100
AcDb2dVertex
 10
254.5422482283085
 20
-8.858038331118602
 30
0.0
  0
VERTEX
  5
308
330
2EC
100
AcDbEntity
  8
_1
 62
    12
420
 14877971
370
     9
100
AcDbVertex
100
AcDb2dVertex
 10
254.5422482283085
 20
-5.482166665296433
 30
0.0
  0
VERTEX
  5
309
330
2EC
100
AcDbEntity
  8
_1
 62
    12
420
 14877971
370
     9
100
AcDbVertex
100
AcDb2dVertex
 10
268.043582606083
 20
-5.482166665296433
 30
0.0
  0
VERTEX
  5
30A
330
2EC
100
AcDbEntity
  8
_1
 62
    12
420
 14877971
370
     9
100
AcDbVertex
100
AcDb2dVertex
 10
268.043582606083
 20
-8.858038331118602
 30
0.0
  0
VERTEX
  5
30B
330
2EC
100
AcDbEntity
  8
_1
 62
    12
420
 14877971
370
     9
100
AcDbVertex
100
AcDb2dVertex
 10
281.9576388183995
 20
-8.858038331118602
 30
0.0
  0
VERTEX
  5
30C
330
2EC
100
AcDbEntity
  8
_1
 62
    12
420
 14877971
370
     9
100
AcDbVertex
100
AcDb2dVertex
 10
281.9586547510799
 20
63.45935838101689
 30
0.0
  0
VERTEX
  5
30D
330
2EC
100
AcDbEntity
  8
_1
 62
    12
420
 14877971
370
     9
100
AcDbVertex
100
AcDb2dVertex
 10
268.043582606083
 20
63.46073421431512
 30
0.0
  0
SEQEND
  5
30E
330
2EC
100
AcDbEntity
  8
_1
 62
    12
420
 14877971
370
     9
  0
POLYLINE
  5
30F
330
2E8
100
AcDbEntity
  8
_1
 62
    12
420
 14877971
370
     9
100
AcDb2dPolyline
 66
     1
 10
0.0
 20
0.0
 30
0.0
  0
VERTEX
  5
310
330
30F
100
AcDbEntity
  8
_1
 62
    12
420
 14877971
370
     9
100
AcDbVertex
100
AcDb2dVertex
 10
212.9031120683891
 20
6.630775831675345
 30
0.0
  0
VERTEX
  5
311
330
30F
100
AcDbEntity
  8
_1
 62
    12
420
 14877971
370
     9
100
AcDbVertex
100
AcDb2dVertex
 10
209.7346385381125
 20
6.630775831675345
 30
0.0
  0
VERTEX
  5
312
330
30F
100
AcDbEntity
  8
_1
 62
    12
420
 14877971
370
     9
100
AcDbVertex
100
AcDb2dVertex
 10
209.7346385381125
 20
20.4077005504534
 30
0.0
  0
VERTEX
  5
313
330
30F
100
AcDbEntity
  8
_1
 62
    12
420
 14877971
370
     9
100
AcDbVertex
100
AcDb2dVertex
 10
212.9031120683891
 20
20.4077005504534
 30
0.0
  0
VERTEX
  5
314
330
30F
100
AcDbEntity
  8
_1
 62
    12
420
 14877971
370
     9
100
AcDbVertex
100
AcDb2dVertex
 10
212.9031120683891
 20
6.630775831675345
 30
0.0
  0
SEQEND
  5
315
330
30F
100
AcDbEntity
  8
_1
 62
    12
420
 14877971
370
     9
  0
POLYLINE
  5
316
330
2E8
100
AcDbEntity
  8
_1
 62
    12
420
 14877971
370
     9
100
AcDb2dPolyline
 66
     1
 10
0.0
 20
0.0
 30
0.0
  0
VERTEX
  5
317
330
316
100
AcDbEntity
  8
_1
 62
    12
420
 14877971
370
     9
100
AcDbVertex
100
AcDb2dVertex
 10
212.9031120683891
 20
34.1839549914541
 30
0.0
  0
VERTEX
  5
318
330
316
100
AcDbEntity
  8
_1
 62
    12
420
 14877971
370
     9
100
AcDbVertex
100
AcDb2dVertex
 10
209.7346385381125
 20
34.1839549914541
 30
0.0
  0
VERTEX
  5
319
330
316
100
AcDbEntity
  8
_1
 62
    12
420
 14877971
370
     9
100
AcDbVertex
100
AcDb2dVertex
 10
209.7346385381125
 20
47.96087849863827
 30
0.0
  0
VERTEX
  5
31A
330
316
100
AcDbEntity
  8
_1
 62
    12
420
 14877971
370
     9
100
AcDbVertex
100
AcDb2dVertex
 10
212.9031120683891
 20
47.96087849863827
 30
0.0
  0
VERTEX
  5
31B
330
316
100
AcDbEntity
  8
_1
 62
    12
420
 14877971
370
     9
100
AcDbVertex
100
AcDb2dVertex
 10
212.9031120683891
 20
34.1839549914541
 30
0.0
  0
SEQEND
  5
31C
330
316
100
AcDbEntity
  8
_1
 62
    12
420
 14877971
370
     9
  0
POLYLINE
  5
31D
330
2E8
100
AcDbEntity
  8
_1
 62
    12
420
 14877971
370
     9
100
AcDb2dPolyline
 66
     1
 10
0.0
 20
0.0
 30
0.0
  0
VERTEX
  5
31E
330
31D
100
AcDbEntity
  8
_1
 62
    12
420
 14877971
370
     9
100
AcDbVertex
100
AcDb2dVertex
 10
240.628199138841
 20
8.489738331210722
 30
0.0
  0
VERTEX
  5
31F
330
31D
100
AcDbEntity
  8
_1
 62
    12
420
 14877971
370
     9
100
AcDbVertex
100
AcDb2dVertex
 10
226.8519450458581
 20
8.489738331210722
 30
0.0
  0
VERTEX
  5
320
330
31D
100
AcDbEntity
  8
_1
 62
    12
420
 14877971
370
     9
100
AcDbVertex
100
AcDb2dVertex
 10
226.8519450458581
 20
11.65888221930767
 30
0.0
  0
VERTEX
  5
321
330
31D
100
AcDbEntity
  8
_1
 62
    12
420
 14877971
370
     9
100
AcDbVertex
100
AcDb2dVertex
 10
240.628199138841
 20
11.65888221930767
 30
0.0
  0
VERTEX
  5
322
330
31D
100
AcDbEntity
  8
_1
 62
    12
420
 14877971
370
     9
100
AcDbVertex
100
AcDb2dVertex
 10
240.628199138841
 20
8.489738331210722
 30
0.0
  0
SEQEND
  5
323
330
31D
100
AcDbEntity
  8
_1
 62
    12
420
 14877971
370
     9
  0
POLYLINE
  5
324
330
2E8
100
AcDbEntity
  8
_1
 62
    12
420
 14877971
370
     9
100
AcDb2dPolyline
 66
     1
 10
0.0
 20
0.0
 30
0.0
  0
VERTEX
  5
325
330
324
100
AcDbEntity
  8
_1
 62
    12
420
 14877971
370
     9
100
AcDbVertex
100
AcDb2dVertex
 10
240.628199138841
 20
25.71076193801679
 30
0.0
  0
VERTEX
  5
326
330
324
100
AcDbEntity
  8
_1
 62
    12
420
 14877971
370
     9
100
AcDbVertex
100
AcDb2dVertex
 10
226.8519450458581
 20
25.71076193801679
 30
0.0
  0
VERTEX
  5
327
330
324
100
AcDbEntity
  8
_1
 62
    12
420
 14877971
370
     9
100
AcDbVertex
100
AcDb2dVertex
 10
226.8519450458581
 20
28.87920027055822
 30
0.0
  0
VERTEX
  5
328
330
324
100
AcDbEntity
  8
_1
 62
    12
420
 14877971
370
     9
100
AcDbVertex
100
AcDb2dVertex
 10
240.628199138841
 20
28.87920027055822
 30
0.0
  0
VERTEX
  5
329
330
324
100
AcDbEntity
  8
_1
 62
    12
420
 14877971
370
     9
100
AcDbVertex
100
AcDb2dVertex
 10
240.628199138841
 20
25.71076193801679
 30
0.0
  0
SEQEND
  5
32A
330
324
100
AcDbEntity
  8
_1
 62
    12
420
 14877971
370
     9
  0
POLYLINE
  5
32B
330
2E8
100
AcDbEntity
  8
_1
 62
    12
420
 14877971
370
     9
100
AcDb2dPolyline
 66
     1
 10
0.0
 20
0.0
 30
0.0
  0
VERTEX
  5
32C
330
32B
100
AcDbEntity
  8
_1
 62
    12
420
 14877971
370
     9
100
AcDbVertex
100
AcDb2dVertex
 10
240.628199138841
 20
42.93139640472883
 30
0.0
  0
VERTEX
  5
32D
330
32B
100
AcDbEntity
  8
_1
 62
    12
420
 14877971
370
     9
100
AcDbVertex
100
AcDb2dVertex
 10
226.8519450458581
 20
42.93139640472883
 30
0.0
  0
VERTEX
  5
32E
330
32B
100
AcDbEntity
  8
_1
 62
    12
420
 14877971
370
     9
100
AcDbVertex
100
AcDb2dVertex
 10
226.8519450458581
 20
46.10018743499734
 30
0.0
  0
VERTEX
  5
32F
330
32B
100
AcDbEntity
  8
_1
 62
    12
420
 14877971
370
     9
100
AcDbVertex
100
AcDb2dVertex
 10
240.628199138841
 20
46.10018743499734
 30
0.0
  0
VERTEX
  5
330
330
32B
100
AcDbEntity
  8
_1
 62
    12
420
 14877971
370
     9
100
AcDbVertex
100
AcDb2dVertex
 10
240.628199138841
 20
42.93139640472883
 30
0.0
  0
SEQEND
  5
331
330
32B
100
AcDbEntity
  8
_1
 62
    12
420
 14877971
370
     9
  0
POLYLINE
  5
332
330
2E8
100
AcDbEntity
  8
_1
 62
    12
420
 14877971
370
     9
100
AcDb2dPolyline
 66
     1
 10
0.0
 20
0.0
 30
0.0
  0
VERTEX
  5
333
330
332
100
AcDbEntity
  8
_1
 62
    12
420
 14877971
370
     9
100
AcDbVertex
100
AcDb2dVertex
 10
268.1810248247987
 20
8.489738331210722
 30
0.0
  0
VERTEX
  5
334
330
332
100
AcDbEntity
  8
_1
 62
    12
420
 14877971
370
     9
100
AcDbVertex
100
AcDb2dVertex
 10
254.4044532318239
 20
8.489738331210722
 30
0.0
  0
VERTEX
  5
335
330
332
100
AcDbEntity
  8
_1
 62
    12
420
 14877971
370
     9
100
AcDbVertex
100
AcDb2dVertex
 10
254.4044532318239
 20
11.65888221930767
 30
0.0
  0
VERTEX
  5
336
330
332
100
AcDbEntity
  8
_1
 62
    12
420
 14877971
370
     9
100
AcDbVertex
100
AcDb2dVertex
 10
268.1810248247987
 20
11.65888221930767
 30
0.0
  0
VERTEX
  5
337
330
332
100
AcDbEntity
  8
_1
 62
    12
420
 14877971
370
     9
100
AcDbVertex
100
AcDb2dVertex
 10
268.1810248247987
 20
8.489738331210722
 30
0.0
  0
SEQEND
  5
338
330
332
100
AcDbEntity
  8
_1
 62
    12
420
 14877971
370
     9
  0
POLYLINE
  5
339
330
2E8
100
AcDbEntity
  8
_1
 62
    12
420
 14877971
370
     9
100
AcDb2dPolyline
 66
     1
 10
0.0
 20
0.0
 30
0.0
  0
VERTEX
  5
33A
330
339
100
AcDbEntity
  8
_1
 62
    12
420
 14877971
370
     9
100
AcDbVertex
100
AcDb2dVertex
 10
268.1810248247987
 20
25.71076193801679
 30
0.0
  0
VERTEX
  5
33B
330
339
100
AcDbEntity
  8
_1
 62
    12
420
 14877971
370
     9
100
AcDbVertex
100
AcDb2dVertex
 10
254.4044532318239
 20
25.71076193801679
 30
0.0
  0
VERTEX
  5
33C
330
339
100
AcDbEntity
  8
_1
 62
    12
420
 14877971
370
     9
100
AcDbVertex
100
AcDb2dVertex
 10
254.4044532318239
 20
28.87920027055822
 30
0.0
  0
VERTEX
  5
33D
330
339
100
AcDbEntity
  8
_1
 62
    12
420
 14877971
370
     9
100
AcDbVertex
100
AcDb2dVertex
 10
268.1810248247987
 20
28.87920027055822
 30
0.0
  0
VERTEX
  5
33E
330
339
100
AcDbEntity
  8
_1
 62
    12
420
 14877971
370
     9
100
AcDbVertex
100
AcDb2dVertex
 10
268.1810248247987
 20
25.71076193801679
 30
0.0
  0
SEQEND
  5
33F
330
339
100
AcDbEntity
  8
_1
 62
    12
420
 14877971
370
     9
  0
POLYLINE
  5
340
330
2E8
100
AcDbEntity
  8
_1
 62
    12
420
 14877971
370
     9
100
AcDb2dPolyline
 66
     1
 10
0.0
 20
0.0
 30
0.0
  0
VERTEX
  5
341
330
340
100
AcDbEntity
  8
_1
 62
    12
420
 14877971
370
     9
100
AcDbVertex
100
AcDb2dVertex
 10
268.1810248247987
 20
42.93139640472883
 30
0.0
  0
VERTEX
  5
342
330
340
100
AcDbEntity
  8
_1
 62
    12
420
 14877971
370
     9
100
AcDbVertex
100
AcDb2dVertex
 10
254.4044532318239
 20
42.93139640472883
 30
0.0
  0
VERTEX
  5
343
330
340
100
AcDbEntity
  8
_1
 62
    12
420
 14877971
370
     9
100
AcDbVertex
100
AcDb2dVertex
 10
254.4044532318239
 20
46.10018743499734
 30
0.0
  0
VERTEX
  5
344
330
340
100
AcDbEntity
  8
_1
 62
    12
420
 14877971
370
     9
100
AcDbVertex
100
AcDb2dVertex
 10
268.1810248247987
 20
46.10018743499734
 30
0.0
  0
VERTEX
  5
345
330
340
100
AcDbEntity
  8
_1
 62
    12
420
 14877971
370
     9
100
AcDbVertex
100
AcDb2dVertex
 10
268.1810248247987
 20
42.93139640472883
 30
0.0
  0
SEQEND
  5
346
330
340
100
AcDbEntity
  8
_1
 62
    12
420
 14877971
370
     9
  0
ENDBLK
  5
2EB
330
2E8
100
AcDbEntity
  8
0
100
AcDbBlockEnd
  0
ENDSEC
  0
SECTION
  2
ENTITIES
  0
INSERT
  5
42
330
1F
100
AcDbEntity
  8
_1
100
AcDbBlockReference
  2
block 2
 10
0.0
 20
0.0
 30
0.0
  0
INSERT
  5
71
330
1F
100
AcDbEntity
  8
_1
100
AcDbBlockReference
  2
block 3
 10
0.0
 20
0.0
 30
0.0
  0
INSERT
  5
A0
330
1F
100
AcDbEntity
  8
_1
100
AcDbBlockReference
  2
block 4
 10
0.0
 20
0.0
 30
0.0
  0
INSERT
  5
CF
330
1F
100
AcDbEntity
  8
_1
100
AcDbBlockReference
  2
block 5
 10
0.0
 20
0.0
 30
0.0
  0
INSERT
  5
FE
330
1F
100
AcDbEntity
  8
_1
100
AcDbBlockReference
  2
block 6
 10
0.0
 20
0.0
 30
0.0
  0
INSERT
  5
12D
330
1F
100
AcDbEntity
  8
_1
100
AcDbBlockReference
  2
block 7
 10
0.0
 20
0.0
 30
0.0
  0
INSERT
  5
15C
330
1F
100
AcDbEntity
  8
_1
100
AcDbBlockReference
  2
block 8
 10
0.0
 20
0.0
 30
0.0
  0
INSERT
  5
1EA
330
1F
100
AcDbEntity
  8
_1
100
AcDbBlockReference
  2
block 10
 10
0.0
 20
0.0
 30
0.0
  0
INSERT
  5
243
330
1F
100
AcDbEntity
  8
_1
100
AcDbBlockReference
  2
block 11
 10
0.0
 20
0.0
 30
0.0
  0
INSERT
  5
29C
330
1F
100
AcDbEntity
  8
_1
100
AcDbBlockReference
  2
block 12
 10
0.0
 20
0.0
 30
0.0
  0
INSERT
  5
2E9
330
1F
100
AcDbEntity
  8
_1
100
AcDbBlockReference
  2
block 13
 10
0.0
 20
0.0
 30
0.0
  0
ENDSEC
  0
SECTION
  2
OBJECTS
  0
DICTIONARY
  5
C
330
0
100
AcDbDictionary
281
     1
  3
ACAD_GROUP
350
D
  3
ACAD_LAYOUT
350
1A
  3
ACAD_MATERIAL
350
3B
  3
ACAD_MLEADERSTYLE
350
348
  3
ACAD_MLINESTYLE
350
17
  3
ACAD_PLOTSETTINGS
350
19
  3
ACAD_PLOTSTYLENAME
350
E
  3
ACAD_TABLESTYLE
350
347
  3
ACAD_VISUALSTYLE
350
2A
  0
SUN
  5
3F
330
29
100
AcDbSun
 90
        1
290
     0
 63
     7
421
 16777215
 40
1.0
291
     1
 91
  2455826
 92
 54000000
292
     0
 70
     2
 71
   256
280
     1
  0
DICTIONARY
  5
D
102
{ACAD_REACTORS
330
C
102
}
330
C
100
AcDbDictionary
281
     1
  0
DICTIONARY
  5
1A
102
{ACAD_REACTORS
330
C
102
}
330
C
100
AcDbDictionary
281
     1
  3
Layout1
350
1E
  3
Layout2
350
26
  3
Model
350
22
  0
DICTIONARY
  5
3B
102
{ACAD_REACTORS
330
C
102
}
330
C
100
AcDbDictionary
281
     1
  3
ByBlock
350
3D
  3
ByLayer
350
3C
  3
Global
350
3E
  0
DICTIONARY
  5
348
102
{ACAD_REACTORS
330
C
102
}
330
C
100
AcDbDictionary
281
     1
  0
DICTIONARY
  5
17
102
{ACAD_REACTORS
330
C
102
}
330
C
100
AcDbDictionary
281
     1
  3
Standard
350
18
  0
DICTIONARY
  5
19
102
{ACAD_REACTORS
330
C
102
}
330
C
100
AcDbDictionary
281
     1
  0
ACDBDICTIONARYWDFLT
  5
E
102
{ACAD_REACTORS
330
C
102
}
330
C
100
AcDbDictionary
281
     1
  3
Normal
350
F
100
AcDbDictionaryWithDefault
340
F
  0
DICTIONARY
  5
347
102
{ACAD_REACTORS
330
C
102
}
330
C
100
AcDbDictionary
281
     1
  0
DICTIONARY
  5
2A
102
{ACAD_REACTORS
330
C
102
}
330
C
100
AcDbDictionary
281
     1
  3
2dWireframe
350
2F
  3
3D Hidden
350
31
  3
3dWireframe
350
30
  3
Basic
350
32
  3
Brighten
350
36
  3
ColorChange
350
3A
  3
Conceptual
350
34
  3
Dim
350
35
  3
Facepattern
350
39
  3
Flat
350
2B
  3
FlatWithEdges
350
2C
  3
Gouraud
350
2D
  3
GouraudWithEdges
350
2E
  3
Linepattern
350
38
  3
Realistic
350
33
  3
Thicken
350
37
  0
LAYOUT
  5
1E
102
{ACAD_REACTORS
330
1A
102
}
330
1A
100
AcDbPlotSettings
  1

  2
none_device
  4

  6

 40
0.0
 41
0.0
 42
0.0
 43
0.0
 44
0.0
 45
0.0
 46
0.0
 47
0.0
 48
0.0
 49
0.0
140
0.0
141
0.0
142
1.0
143
1.0
 70
   688
 72
     0
 73
     0
 74
     5
  7

 75
    16
 76
     0
 77
     2
 78
   300
147
1.0
148
0.0
149
0.0
100
AcDbLayout
  1
Layout1
 70
     1
 71
     1
 10
0.0
 20
0.0
 11
12.0
 21
9.0
 12
0.0
 22
0.0
 32
0.0
 14
1.000000000000000E+20
 24
1.000000000000000E+20
 34
1.000000000000000E+20
 15
-1.000000000000000E+20
 25
-1.000000000000000E+20
 35
-1.000000000000000E+20
146
0.0
 13
0.0
 23
0.0
 33
0.0
 16
1.0
 26
0.0
 36
0.0
 17
0.0
 27
1.0
 37
0.0
 76
     0
330
1B
  0
LAYOUT
  5
26
102
{ACAD_REACTORS
330
1A
102
}
330
1A
100
AcDbPlotSettings
  1

  2
none_device
  4

  6

 40
0.0
 41
0.0
 42
0.0
 43
0.0
 44
0.0
 45
0.0
 46
0.0
 47
0.0
 48
0.0
 49
0.0
140
0.0
141
0.0
142
1.0
143
1.0
 70
   688
 72
     0
 73
     0
 74
     5
  7

 75
    16
 76
     0
 77
     2
 78
   300
147
1.0
148
0.0
149
0.0
100
AcDbLayout
  1
Layout2
 70
     1
 71
     2
 10
0.0
 20
0.0
 11
0.0
 21
0.0
 12
0.0
 22
0.0
 32
0.0
 14
0.0
 24
0.0
 34
0.0
 15
0.0
 25
0.0
 35
0.0
146
0.0
 13
0.0
 23
0.0
 33
0.0
 16
1.0
 26
0.0
 36
0.0
 17
0.0
 27
1.0
 37
0.0
 76
     0
330
23
  0
LAYOUT
  5
22
102
{ACAD_REACTORS
330
1A
102
}
330
1A
100
AcDbPlotSettings
  1

  2
none_device
  4

  6

 40
0.0
 41
0.0
 42
0.0
 43
0.0
 44
0.0
 45
0.0
 46
0.0
 47
0.0
 48
0.0
 49
0.0
140
0.0
141
0.0
142
1.0
143
1.0
 70
  1712
 72
     0
 73
     0
 74
     0
  7

 75
     0
 76
     0
 77
     2
 78
   300
147
1.0
148
0.0
149
0.0
100
AcDbLayout
  1
Model
 70
     1
 71
     0
 10
0.0
 20
0.0
 11
12.0
 21
9.0
 12
0.0
 22
0.0
 32
0.0
 14
1.000000000000000E+20
 24
1.000000000000000E+20
 34
1.000000000000000E+20
 15
-1.000000000000000E+20
 25
-1.000000000000000E+20
 35
-1.000000000000000E+20
146
0.0
 13
0.0
 23
0.0
 33
0.0
 16
1.0
 26
0.0
 36
0.0
 17
0.0
 27
1.0
 37
0.0
 76
     0
330
1F
331
29
  0
MATERIAL
  5
3D
102
{ACAD_REACTORS
330
3B
102
}
330
3B
100
AcDbMaterial
  1
ByBlock
 72
     1
 94
      127
  0
MATERIAL
  5
3C
102
{ACAD_REACTORS
330
3B
102
}
330
3B
100
AcDbMaterial
  1
ByLayer
 72
     1
 94
      127
  0
MATERIAL
  5
3E
102
{ACAD_REACTORS
330
3B
102
}
330
3B
100
AcDbMaterial
  1
Global
 72
     1
 94
      127
  0
MLINESTYLE
  5
18
102
{ACAD_REACTORS
330
17
102
}
330
17
100
AcDbMlineStyle
  2
Standard
 70
     0
  3

 62
   256
 51
90.0
 52
90.0
 71
     2
 49
0.5
 62
   256
  6
BYLAYER
 49
-0.5
 62
   256
  6
BYLAYER
  0
ACDBPLACEHOLDER
  5
F
102
{ACAD_REACTORS
330
E
102
}
330
E
  0
VISUALSTYLE
  5
2F
102
{ACAD_REACTORS
330
2A
102
}
330
2A
100
AcDbVisualStyle
  2
2dWireframe
 70
     4
177
     2
291
     0
 71
     0
176
     1
 72
     2
176
     1
 73
     0
176
     1
 90
        0
176
     1
 40
-0.6
176
     1
 41
-30.0
176
     1
 62
     5
 63
     7
421
 16777215
176
     1
 74
     1
176
     1
 91
        4
176
     1
 64
     7
176
     1
 65
   257
176
     1
 75
     1
176
     1
175
     1
176
     1
 42
1.0
176
     1
 92
        0
176
     1
 66
   257
176
     1
 43
1.0
176
     1
 76
     1
176
     1
 77
     6
176
     1
 78
     2
176
     1
 67
     7
176
     1
 79
     5
176
     1
170
     0
176
     1
171
     0
176
     1
290
     0
176
     1
 93
        1
176
     1
 44
0.0
176
     1
173
     0
176
     1
  0
VISUALSTYLE
  5
31
102
{ACAD_REACTORS
330
2A
102
}
330
2A
100
AcDbVisualStyle
  2
3D Hidden
 70
     6
177
     2
291
     0
 71
     1
176
     1
 72
     2
176
     1
 73
     2
176
     1
 90
        0
176
     1
 40
-0.6
176
     1
 41
-30.0
176
     1
 62
     5
 63
     7
421
 16777215
176
     1
 74
     2
176
     1
 91
        2
176
     1
 64
     7
176
     1
 65
   257
176
     1
 75
     2
176
     1
175
     1
176
     1
 42
40.0
176
     1
 92
        0
176
     1
 66
   257
176
     1
 43
1.0
176
     1
 76
     1
176
     1
 77
     6
176
     1
 78
     2
176
     1
 67
     7
176
     1
 79
     3
176
     1
170
     0
176
     1
171
     0
176
     1
290
     0
176
     1
 93
        1
176
     1
 44
0.0
176
     1
173
     0
176
     1
  0
VISUALSTYLE
  5
30
102
{ACAD_REACTORS
330
2A
102
}
330
2A
100
AcDbVisualStyle
  2
3dWireframe
 70
     5
177
     2
291
     0
 71
     0
176
     1
 72
     2
176
     1
 73
     0
176
     1
 90
        0
176
     1
 40
-0.6
176
     1
 41
-30.0
176
     1
 62
     5
 63
     7
421
 16777215
176
     1
 74
     1
176
     1
 91
        4
176
     1
 64
     7
176
     1
 65
   257
176
     1
 75
     1
176
     1
175
     1
176
     1
 42
1.0
176
     1
 92
        0
176
     1
 66
   257
176
     1
 43
1.0
176
     1
 76
     1
176
     1
 77
     6
176
     1
 78
     2
176
     1
 67
     7
176
     1
 79
     5
176
     1
170
     0
176
     1
171
     0
176
     1
290
     0
176
     1
 93
        1
176
     1
 44
0.0
176
     1
173
     0
176
     1
  0
VISUALSTYLE
  5
32
102
{ACAD_REACTORS
330
2A
102
}
330
2A
100
AcDbVisualStyle
  2
Basic
 70
     7
177
     2
291
     1
 71
     1
176
     1
 72
     0
176
     1
 73
     1
176
     1
 90
        0
176
     1
 40
-0.6
176
     1
 41
-30.0
176
     1
 62
     5
 63
     7
421
 16777215
176
     1
 74
     0
176
     1
 91
        4
176
     1
 64
     7
176
     1
 65
   257
176
     1
 75
     1
176
     1
175
     1
176
     1
 42
1.0
176
     1
 92
        8
176
     1
 66
     7
176
     1
 43
1.0
176
     1
 76
     1
176
     1
 77
     6
176
     1
 78
     2
176
     1
 67
     7
176
     1
 79
     5
176
     1
170
     0
176
     1
171
     0
176
     1
290
     0
176
     1
 93
        1
176
     1
 44
0.0
176
     1
173
     0
176
     1
  0
VISUALSTYLE
  5
36
102
{ACAD_REACTORS
330
2A
102
}
330
2A
100
AcDbVisualStyle
  2
Brighten
 70
    12
177
     2
291
     1
 71
     2
176
     1
 72
     2
176
     1
 73
     0
176
     1
 90
        0
176
     1
 40
-0.6
176
     1
 41
-30.0
176
     1
 62
     5
 63
     7
421
 16777215
176
     1
 74
     1
176
     1
 91
        4
176
     1
 64
     7
176
     1
 65
   257
176
     1
 75
     1
176
     1
175
     1
176
     1
 42
1.0
176
     1
 92
        8
176
     1
 66
     7
176
     1
 43
1.0
176
     1
 76
     1
176
     1
 77
     6
176
     1
 78
     2
176
     1
 67
     7
176
     1
 79
     5
176
     1
170
     0
176
     1
171
     0
176
     1
290
     0
176
     1
 93
        1
176
     1
 44
50.0
176
     1
173
     0
176
     1
  0
VISUALSTYLE
  5
3A
102
{ACAD_REACTORS
330
2A
102
}
330
2A
100
AcDbVisualStyle
  2
ColorChange
 70
    16
177
     2
291
     1
 71
     2
176
     1
 72
     2
176
     1
 73
     3
176
     1
 90
        0
176
     1
 40
-0.6
176
     1
 41
-30.0
176
     1
 62
     5
 63
     8
421
  8421504
176
     1
 74
     1
176
     1
 91
        4
176
     1
 64
     7
176
     1
 65
   257
176
     1
 75
     1
176
     1
175
     1
176
     1
 42
1.0
176
     1
 92
        8
176
     1
 66
     8
424
  8421504
176
     1
 43
1.0
176
     1
 76
     1
176
     1
 77
     6
176
     1
 78
     2
176
     1
 67
     7
176
     1
 79
     5
176
     1
170
     0
176
     1
171
     0
176
     1
290
     0
176
     1
 93
        1
176
     1
 44
0.0
176
     1
173
     0
176
     1
  0
VISUALSTYLE
  5
34
102
{ACAD_REACTORS
330
2A
102
}
330
2A
100
AcDbVisualStyle
  2
Conceptual
 70
     9
177
     2
291
     0
 71
     3
176
     1
 72
     2
176
     1
 73
     0
176
     1
 90
        0
176
     1
 40
-0.6
176
     1
 41
-30.0
176
     1
 62
     5
 63
     7
421
 16777215
176
     1
 74
     2
176
     1
 91
        2
176
     1
 64
     7
176
     1
 65
   257
176
     1
 75
     1
176
     1
175
     1
176
     1
 42
40.0
176
     1
 92
        8
176
     1
 66
     7
176
     1
 43
1.0
176
     1
 76
     1
176
     1
 77
     6
176
     1
 78
     2
176
     1
 67
     7
176
     1
 79
     3
176
     1
170
     0
176
     1
171
     0
176
     1
290
     0
176
     1
 93
        1
176
     1
 44
0.0
176
     1
173
     0
176
     1
  0
VISUALSTYLE
  5
35
102
{ACAD_REACTORS
330
2A
102
}
330
2A
100
AcDbVisualStyle
  2
Dim
 70
    11
177
     2
291
     1
 71
     2
176
     1
 72
     2
176
     1
 73
     0
176
     1
 90
        0
176
     1
 40
-0.6
176
     1
 41
-30.0
176
     1
 62
     5
 63
     7
421
 16777215
176
     1
 74
     1
176
     1
 91
        4
176
     1
 64
     7
176
     1
 65
   257
176
     1
 75
     1
176
     1
175
     1
176
     1
 42
1.0
176
     1
 92
        8
176
     1
 66
     7
176
     1
 43
1.0
176
     1
 76
     1
176
     1
 77
     6
176
     1
 78
     2
176
     1
 67
     7
176
     1
 79
     5
176
     1
170
     0
176
     1
171
     0
176
     1
290
     0
176
     1
 93
        1
176
     1
 44
-50.0
176
     1
173
     0
176
     1
  0
VISUALSTYLE
  5
39
102
{ACAD_REACTORS
330
2A
102
}
330
2A
100
AcDbVisualStyle
  2
Facepattern
 70
    15
177
     2
291
     1
 71
     2
176
     1
 72
     2
176
     1
 73
     0
176
     1
 90
        0
176
     1
 40
-0.6
176
     1
 41
-30.0
176
     1
 62
     5
 63
     7
421
 16777215
176
     1
 74
     1
176
     1
 91
        4
176
     1
 64
     7
176
     1
 65
   257
176
     1
 75
     1
176
     1
175
     1
176
     1
 42
1.0
176
     1
 92
        8
176
     1
 66
     7
176
     1
 43
1.0
176
     1
 76
     1
176
     1
 77
     6
176
     1
 78
     2
176
     1
 67
     7
176
     1
 79
     5
176
     1
170
     0
176
     1
171
     0
176
     1
290
     0
176
     1
 93
        1
176
     1
 44
0.0
176
     1
173
     0
176
     1
  0
VISUALSTYLE
  5
2B
102
{ACAD_REACTORS
330
2A
102
}
330
2A
100
AcDbVisualStyle
  2
Flat
 70
     0
177
     2
291
     1
 71
     2
176
     1
 72
     1
176
     1
 73
     1
176
     1
 90
        2
176
     1
 40
-0.6
176
     1
 41
30.0
176
     1
 62
     5
 63
     7
421
 16777215
176
     1
 74
     0
176
     1
 91
        4
176
     1
 64
     7
176
     1
 65
   257
176
     1
 75
     1
176
     1
175
     1
176
     1
 42
1.0
176
     1
 92
        8
176
     1
 66
     7
176
     1
 43
1.0
176
     1
 76
     1
176
     1
 77
     6
176
     1
 78
     2
176
     1
 67
     7
176
     1
 79
     5
176
     1
170
     0
176
     1
171
     0
176
     1
290
     0
176
     1
 93
       13
176
     1
 44
0.0
176
     1
173
     0
176
     1
  0
VISUALSTYLE
  5
2C
102
{ACAD_REACTORS
330
2A
102
}
330
2A
100
AcDbVisualStyle
  2
FlatWithEdges
 70
     1
177
     2
291
     1
 71
     2
176
     1
 72
     1
176
     1
 73
     1
176
     1
 90
        2
176
     1
 40
-0.6
176
     1
 41
30.0
176
     1
 62
     5
 63
     7
421
 16777215
176
     1
 74
     1
176
     1
 91
        4
176
     1
 64
     7
176
     1
 65
   257
176
     1
 75
     1
176
     1
175
     1
176
     1
 42
1.0
176
     1
 92
        0
176
     1
 66
   257
176
     1
 43
1.0
176
     1
 76
     1
176
     1
 77
     6
176
     1
 78
     2
176
     1
 67
     7
176
     1
 79
     5
176
     1
170
     0
176
     1
171
     0
176
     1
290
     0
176
     1
 93
       13
176
     1
 44
0.0
176
     1
173
     0
176
     1
  0
VISUALSTYLE
  5
2D
102
{ACAD_REACTORS
330
2A
102
}
330
2A
100
AcDbVisualStyle
  2
Gouraud
 70
     2
177
     2
291
     1
 71
     2
176
     1
 72
     2
176
     1
 73
     1
176
     1
 90
        2
176
     1
 40
-0.6
176
     1
 41
30.0
176
     1
 62
     5
 63
     7
421
 16777215
176
     1
 74
     0
176
     1
 91
        4
176
     1
 64
     7
176
     1
 65
   257
176
     1
 75
     1
176
     1
175
     1
176
     1
 42
1.0
176
     1
 92
        0
176
     1
 66
     7
176
     1
 43
1.0
176
     1
 76
     1
176
     1
 77
     6
176
     1
 78
     2
176
     1
 67
     7
176
     1
 79
     5
176
     1
170
     0
176
     1
171
     0
176
     1
290
     0
176
     1
 93
       13
176
     1
 44
0.0
176
     1
173
     0
176
     1
  0
VISUALSTYLE
  5
2E
102
{ACAD_REACTORS
330
2A
102
}
330
2A
100
AcDbVisualStyle
  2
GouraudWithEdges
 70
     3
177
     2
291
     1
 71
     2
176
     1
 72
     2
176
     1
 73
     1
176
     1
 90
        2
176
     1
 40
-0.6
176
     1
 41
30.0
176
     1
 62
     5
 63
     7
421
 16777215
176
     1
 74
     1
176
     1
 91
        4
176
     1
 64
     7
176
     1
 65
   257
176
     1
 75
     1
176
     1
175
     1
176
     1
 42
1.0
176
     1
 92
        0
176
     1
 66
   257
176
     1
 43
1.0
176
     1
 76
     1
176
     1
 77
     6
176
     1
 78
     2
176
     1
 67
     7
176
     1
 79
     5
176
     1
170
     0
176
     1
171
     0
176
     1
290
     0
176
     1
 93
       13
176
     1
 44
0.0
176
     1
173
     0
176
     1
  0
VISUALSTYLE
  5
38
102
{ACAD_REACTORS
330
2A
102
}
330
2A
100
AcDbVisualStyle
  2
Linepattern
 70
    14
177
     2
291
     1
 71
     2
176
     1
 72
     2
176
     1
 73
     0
176
     1
 90
        0
176
     1
 40
-0.6
176
     1
 41
-30.0
176
     1
 62
     5
 63
     7
421
 16777215
176
     1
 74
     1
176
     1
 91
        4
176
     1
 64
     7
176
     1
 65
   257
176
     1
 75
     7
176
     1
175
     7
176
     1
 42
1.0
176
     1
 92
        8
176
     1
 66
     7
176
     1
 43
1.0
176
     1
 76
     1
176
     1
 77
     6
176
     1
 78
     2
176
     1
 67
     7
176
     1
 79
     5
176
     1
170
     0
176
     1
171
     0
176
     1
290
     0
176
     1
 93
        1
176
     1
 44
0.0
176
     1
173
     0
176
     1
  0
VISUALSTYLE
  5
33
102
{ACAD_REACTORS
330
2A
102
}
330
2A
100
AcDbVisualStyle
  2
Realistic
 70
     8
177
     2
291
     0
 71
     2
176
     1
 72
     2
176
     1
 73
     0
176
     1
 90
        0
176
     1
 40
-0.6
176
     1
 41
-30.0
176
     1
 62
     5
 63
     7
421
 16777215
176
     1
 74
     1
176
     1
 91
        0
176
     1
 64
     7
176
     1
 65
   257
176
     1
 75
     1
176
     1
175
     1
176
     1
 42
1.0
176
     1
 92
        8
176
     1
 66
     8
424
  7895160
176
     1
 43
1.0
176
     1
 76
     1
176
     1
 77
     6
176
     1
 78
     2
176
     1
 67
     7
176
     1
 79
     5
176
     1
170
     0
176
     1
171
     0
176
     1
290
     0
176
     1
 93
       13
176
     1
 44
0.0
176
     1
173
     0
176
     1
  0
VISUALSTYLE
  5
37
102
{ACAD_REACTORS
330
2A
102
}
330
2A
100
AcDbVisualStyle
  2
Thicken
 70
    13
177
     2
291
     1
 71
     2
176
     1
 72
     2
176
     1
 73
     0
176
     1
 90
        0
176
     1
 40
-0.6
176
     1
 41
-30.0
176
     1
 62
     5
 63
     7
421
 16777215
176
     1
 74
     1
176
     1
 91
        4
176
     1
 64
     7
176
     1
 65
   257
176
     1
 75
     1
176
     1
175
     1
176
     1
 42
1.0
176
     1
 92
       12
176
     1
 66
     7
176
     1
 43
1.0
176
     1
 76
     1
176
     1
 77
     6
176
     1
 78
     2
176
     1
 67
     7
176
     1
 79
     5
176
     1
170
     0
176
     1
171
     0
176
     1
290
     0
176
     1
 93
        1
176
     1
 44
0.0
176
     1
173
     0
176
     1
  0
ENDSEC
  0
EOF
