999
dxfrw 0.6.3
  0
SECTION
  2
HEADER
  9
$ACADVER
  1
AC1021
  9
$DWGCODEPAGE
  3
ANSI_1250
  9
$INSBASE
 10
0
 20
0
 30
0
  9
$EXTMIN
 10
200
 20
-100
 30
0
  9
$EXTMAX
 10
600
 20
300
 30
0
  9
$LIMMIN
 10
0
 20
0
  9
$LIMMAX
 10
420
 20
297
  9
$ORTHOMODE
 70
    0
  9
$REGENMODE
 70
    1
  9
$FILLMODE
 70
    1
  9
$QTEXTMODE
 70
    0
  9
$MIRRTEXT
 70
    0
  9
$LTSCALE
 40
1
  9
$ATTMODE
 70
    0
  9
$TEXTSIZE
 40
2.5
  9
$TRACEWID
 40
15.68
  9
$TEXTSTYLE
  7
STANDARD
  9
$CLAYER
  8
cut
  9
$CELTYPE
  6
BYLAYER
  9
$CECOLOR
 62
  256
  9
$CELTSCALE
 40
1
  9
$DISPSILH
 70
    0
  9
$DIMSCALE
 40
2.5
  9
$DIMASZ
 40
2.5
  9
$DIMEXO
 40
0.625
  9
$DIMDLI
 40
3.75
  9
$DIMRND
 40
0
  9
$DIMDLE
 40
0
  9
$DIMEXE
 40
1.25
  9
$DIMTP
 40
0
  9
$DIMTM
 40
0
  9
$DIMTXT
 40
2.5
  9
$DIMCEN
 40
2.5
  9
$DIMTSZ
 40
0
  9
$DIMTOL
 70
    0
  9
$DIMLIM
 70
    0
  9
$DIMTIH
 70
    0
  9
$DIMTOH
 70
    0
  9
$DIMSE1
 70
    0
  9
$DIMSE2
 70
    0
  9
$DIMTAD
 70
    1
  9
$DIMZIN
 70
    8
  9
$DIMBLK
  1

  9
$DIMASO
 70
    1
  9
$DIMSHO
 70
    1
  9
$DIMPOST
  1

  9
$DIMAPOST
  1

  9
$DIMALT
 70
    0
  9
$DIMALTD
 70
    3
  9
$DIMALTF
 40
0.03937
  9
$DIMLFAC
 40
1
  9
$DIMTOFL
 70
    1
  9
$DIMTVP
 40
0
  9
$DIMTIX
 70
    0
  9
$DIMSOXD
 70
    0
  9
$DIMSAH
 70
    0
  9
$DIMBLK1
  1

  9
$DIMBLK2
  1

  9
$DIMSTYLE
  2
STANDARD
  9
$DIMCLRD
 70
    0
  9
$DIMCLRE
 70
    0
  9
$DIMCLRT
 70
    0
  9
$DIMTFAC
 40
1
  9
$DIMGAP
 40
0.625
  9
$DIMJUST
 70
    0
  9
$DIMSD1
 70
    0
  9
$DIMSD2
 70
    0
  9
$DIMTOLJ
 70
    0
  9
$DIMTZIN
 70
    8
  9
$DIMALTZ
 70
    0
  9
$DIMALTTZ
 70
    0
  9
$DIMUPT
 70
    0
  9
$DIMDEC
 70
    2
  9
$DIMTDEC
 70
    2
  9
$DIMALTU
 70
    2
  9
$DIMALTTD
 70
    3
  9
$DIMTXSTY
  7
STANDARD
  9
$DIMAUNIT
 70
    0
  9
$DIMADEC
 70
    0
  9
$DIMALTRND
 40
0
  9
$DIMAZIN
 70
    0
  9
$DIMDSEP
 70
   44
  9
$DIMATFIT
 70
    3
  9
$DIMFRAC
 70
    0
  9
$DIMLDRBLK
  1
STANDARD
  9
$DIMLUNIT
 70
    2
  9
$DIMLWD
 70
   -2
  9
$DIMLWE
 70
   -2
  9
$DIMTMOVE
 70
    0
  9
$DIMFXL
 40
1
  9
$DIMFXLON
 70
    0
  9
$DIMJOGANG
 40
0.7854
  9
$DIMTFILL
 70
    0
  9
$DIMTFILLCLR
 70
    0
  9
$DIMARCSYM
 70
    0
  9
$DIMLTYPE
  6

  9
$DIMLTEX1
  6

  9
$DIMLTEX2
  6

  9
$LUNITS
 70
    2
  9
$LUPREC
 70
    4
  9
$SKETCHINC
 40
1
  9
$FILLETRAD
 40
0
  9
$AUNITS
 70
    0
  9
$AUPREC
 70
    2
  9
$MENU
  1
.
  9
$ELEVATION
 40
0
  9
$PELEVATION
 40
0
  9
$THICKNESS
 40
0
  9
$LIMCHECK
 70
    0
  9
$CHAMFERA
 40
0
  9
$CHAMFERB
 40
0
  9
$CHAMFERC
 40
0
  9
$CHAMFERD
 40
0
  9
$SKPOLY
 70
    0
  9
$USRTIMER
 70
    1
  9
$ANGBASE
 50
0
  9
$ANGDIR
 70
    0
  9
$PDMODE
 70
   34
  9
$PDSIZE
 40
0
  9
$PLINEWID
 40
0
  9
$SPLFRAME
 70
    0
  9
$SPLINETYPE
 70
    2
  9
$SPLINESEGS
 70
    8
  9
$HANDSEED
  5
20000
  9
$SURFTAB1
 70
    6
  9
$SURFTAB2
 70
    6
  9
$SURFTYPE
 70
    6
  9
$SURFU
 70
    6
  9
$SURFV
 70
    6
  9
$UCSBASE
  2

  9
$UCSNAME
  2

  9
$UCSORG
 10
0
 20
0
 30
0
  9
$UCSXDIR
 10
1
 20
0
 30
0
  9
$UCSYDIR
 10
0
 20
1
 30
0
  9
$UCSORTHOREF
  2

  9
$UCSORTHOVIEW
 70
    0
  9
$UCSORGTOP
 10
0
 20
0
 30
0
  9
$UCSORGBOTTOM
 10
0
 20
0
 30
0
  9
$UCSORGLEFT
 10
0
 20
0
 30
0
  9
$UCSORGRIGHT
 10
0
 20
0
 30
0
  9
$UCSORGFRONT
 10
0
 20
0
 30
0
  9
$UCSORGBACK
 10
0
 20
0
 30
0
  9
$PUCSBASE
  2

  9
$PUCSNAME
  2

  9
$PUCSORG
 10
0
 20
0
 30
0
  9
$PUCSXDIR
 10
1
 20
0
 30
0
  9
$PUCSYDIR
 10
0
 20
1
 30
0
  9
$PUCSORTHOREF
  2

  9
$PUCSORTHOVIEW
 70
    0
  9
$PUCSORGTOP
 10
0
 20
0
 30
0
  9
$PUCSORGBOTTOM
 10
0
 20
0
 30
0
  9
$PUCSORGLEFT
 10
0
 20
0
 30
0
  9
$PUCSORGRIGHT
 10
0
 20
0
 30
0
  9
$PUCSORGFRONT
 10
0
 20
0
 30
0
  9
$PUCSORGBACK
 10
0
 20
0
 30
0
  9
$USERI1
 70
    0
  9
$USERI2
 70
    0
  9
$USERI3
 70
    0
  9
$USERI4
 70
    0
  9
$USERI5
 70
    0
  9
$USERR1
 40
0
  9
$USERR2
 40
0
  9
$USERR3
 40
0
  9
$USERR4
 40
0
  9
$USERR5
 40
0
  9
$WORLDVIEW
 70
    1
  9
$SHADEDGE
 70
    3
  9
$SHADEDIF
 70
   70
  9
$TILEMODE
 70
    1
  9
$MAXACTVP
 70
   64
  9
$PINSBASE
 10
0
 20
0
 30
0
  9
$PLIMCHECK
 70
    0
  9
$PEXTMIN
 10
0
 20
0
 30
0
  9
$PEXTMAX
 10
0
 20
0
 30
0
  9
$GRIDMODE
 70
    1
  9
$SNAPSTYLE
 70
    0
  9
$PLIMMIN
 10
0
 20
0
  9
$PLIMMAX
 10
210
 20
297
  9
$UNITMODE
 70
    0
  9
$VISRETAIN
 70
    1
  9
$PLINEGEN
 70
    0
  9
$PSLTSCALE
 70
    1
  9
$TREEDEPTH
 70
 3020
  9
$CMLSTYLE
  2
Standard
  9
$CMLJUST
 70
    0
  9
$CMLSCALE
 40
20
  9
$PROXYGRAPHICS
 70
    1
  9
$MEASUREMENT
 70
    1
  9
$CELWEIGHT
370
   -1
  9
$ENDCAPS
280
    0
  9
$JOINSTYLE
280
    0
  9
$LWDISPLAY
290
    0
  9
$INSUNITS
 70
    4
  9
$HYPERLINKBASE
  1

  9
$STYLESHEET
  1

  9
$XEDIT
290
    1
  9
$CEPSNTYPE
380
    0
  9
$PSTYLEMODE
290
    1
  9
$EXTNAMES
290
    1
  9
$PSVPSCALE
 40
1
  9
$OLESTARTUP
290
    0
  9
$SORTENTS
280
  127
  9
$INDEXCTL
280
    0
  9
$HIDETEXT
280
    1
  9
$XCLIPFRAME
290
    0
  9
$HALOGAP
280
    0
  9
$OBSCOLOR
 70
  257
  9
$OBSLTYPE
280
    0
  9
$INTERSECTIONDISPLAY
280
    0
  9
$INTERSECTIONCOLOR
 70
  257
  9
$DIMASSOC
280
    1
  9
$PROJECTNAME
  1

  9
$CAMERADISPLAY
290
    0
  9
$LENSLENGTH
 40
50
  9
$CAMERAHEIGHT
 40
0
  9
$STEPSPERSEC
 40
2
  9
$STEPSIZE
 40
50
  9
$3DDWFPREC
 40
2
  9
$PSOLWIDTH
 40
5
  9
$PSOLHEIGHT
 40
80
  9
$LOFTANG1
 40
1.570796326794897
  9
$LOFTANG2
 40
1.570796326794897
  9
$LOFTMAG1
 40
0
  9
$LOFTMAG2
 40
0
  9
$LOFTPARAM
 70
    7
  9
$LOFTNORMALS
280
    1
  9
$LATITUDE
 40
1
  9
$LONGITUDE
 40
1
  9
$NORTHDIRECTION
 40
0
  9
$TIMEZONE
 70
-8000
  9
$LIGHTGLYPHDISPLAY
280
    1
  9
$TILEMODELIGHTSYNCH
280
    1
  9
$SOLIDHIST
280
    1
  9
$SHOWHIST
280
    1
  9
$DWFFRAME
280
    2
  9
$DGNFRAME
280
    0
  9
$REALWORLDSCALE
290
    1
  9
$INTERFERECOLOR
 62
    1
  9
$CSHADOW
280
    0
  9
$SHADOWPLANELOCATION
 40
0
  0
ENDSEC
  0
SECTION
  2
CLASSES
  0
ENDSEC
  0
SECTION
  2
TABLES
  0
TABLE
  2
VPORT
  5
8
330
0
100
AcDbSymbolTable
 70
    1
  0
VPORT
  5
31
330
2
100
AcDbSymbolTableRecord
100
AcDbViewportTableRecord
  2
*ACTIVE
 70
    0
 10
0
 20
0
 11
1
 21
1
 12
381.5668202764977
 22
152.3041474654378
 13
0
 23
0
 14
10
 24
10
 15
10
 25
10
 16
0
 26
0
 36
1
 17
0
 27
0
 37
0
 40
409.2165898617512
 41
1.777027027027027
 42
50
 43
0
 44
0
 50
0
 51
0
 71
    0
 72
  100
 73
    1
 74
    3
 75
    0
 76
    1
 77
    0
 78
    0
281
    0
 65
    1
110
0
120
0
130
0
111
1
121
0
131
0
112
0
122
1
132
0
 79
    0
146
0
348
10020
 60
    7
 61
    5
292
1
282
    1
141
0
142
0
 63
  250
421
3358443
  0
ENDTAB
  0
TABLE
  2
LTYPE
  5
5
330
0
100
AcDbSymbolTable
 70
    4
  0
LTYPE
  5
14
330
5
100
AcDbSymbolTableRecord
100
AcDbLinetypeTableRecord
  2
ByBlock
 70
    0
  3

 72
   65
 73
    0
 40
0
  0
LTYPE
  5
15
330
5
100
AcDbSymbolTableRecord
100
AcDbLinetypeTableRecord
  2
ByLayer
 70
    0
  3

 72
   65
 73
    0
 40
0
  0
LTYPE
  5
16
330
5
100
AcDbSymbolTableRecord
100
AcDbLinetypeTableRecord
  2
Continuous
 70
    0
  3
Solid line
 72
   65
 73
    0
 40
0
  0
LTYPE
  5
32
330
5
100
AcDbSymbolTableRecord
100
AcDbLinetypeTableRecord
  2
DOT
 70
    0
  3
Dot . . . . . . . . . . . . . . . . . . . . . .
 72
   65
 73
    2
 40
6.35
 49
0
 74
    0
 49
-6.35
 74
    0
  0
LTYPE
  5
33
330
5
100
AcDbSymbolTableRecord
100
AcDbLinetypeTableRecord
  2
DOTTINY
 70
    0
  3
Dot (.15x) .....................................
 72
   65
 73
    2
 40
0.9525
 49
0
 74
    0
 49
-0.9525
 74
    0
  0
LTYPE
  5
34
330
5
100
AcDbSymbolTableRecord
100
AcDbLinetypeTableRecord
  2
DOT2
 70
    0
  3
Dot (.5x) .....................................
 72
   65
 73
    2
 40
3.175
 49
0
 74
    0
 49
-3.175
 74
    0
  0
LTYPE
  5
35
330
5
100
AcDbSymbolTableRecord
100
AcDbLinetypeTableRecord
  2
DOTX2
 70
    0
  3
Dot (2x) .  .  .  .  .  .  .  .  .  .  .  .  .
 72
   65
 73
    2
 40
12.7
 49
0
 74
    0
 49
-12.7
 74
    0
  0
LTYPE
  5
36
330
5
100
AcDbSymbolTableRecord
100
AcDbLinetypeTableRecord
  2
DASHED
 70
    0
  3
Dashed _ _ _ _ _ _ _ _ _ _ _ _ _ _ _ _ _
 72
   65
 73
    2
 40
19.05
 49
12.7
 74
    0
 49
-6.35
 74
    0
  0
LTYPE
  5
37
330
5
100
AcDbSymbolTableRecord
100
AcDbLinetypeTableRecord
  2
DASHEDTINY
 70
    0
  3
Dashed (.15x) _ _ _ _ _ _ _ _ _ _ _ _ _ _ _ _ _
 72
   65
 73
    2
 40
2.8575
 49
1.905
 74
    0
 49
-0.9525
 74
    0
  0
LTYPE
  5
38
330
5
100
AcDbSymbolTableRecord
100
AcDbLinetypeTableRecord
  2
DASHED2
 70
    0
  3
Dashed (.5x) _ _ _ _ _ _ _ _ _ _ _ _ _ _ _ _ _
 72
   65
 73
    2
 40
9.524999999999999
 49
6.35
 74
    0
 49
-3.175
 74
    0
  0
LTYPE
  5
39
330
5
100
AcDbSymbolTableRecord
100
AcDbLinetypeTableRecord
  2
DASHEDX2
 70
    0
  3
Dashed (2x) ____  ____  ____  ____  ____  ___
 72
   65
 73
    2
 40
38.09999999999999
 49
25.4
 74
    0
 49
-12.7
 74
    0
  0
LTYPE
  5
3A
330
5
100
AcDbSymbolTableRecord
100
AcDbLinetypeTableRecord
  2
DASHDOT
 70
    0
  3
Dash dot __ . __ . __ . __ . __ . __ . __ . __
 72
   65
 73
    4
 40
25.4
 49
12.7
 74
    0
 49
-6.35
 74
    0
 49
0
 74
    0
 49
-6.35
 74
    0
  0
LTYPE
  5
3B
330
5
100
AcDbSymbolTableRecord
100
AcDbLinetypeTableRecord
  2
DASHDOTTINY
 70
    0
  3
Dash dot (.15x) _._._._._._._._._._._._._._._.
 72
   65
 73
    4
 40
3.81
 49
1.905
 74
    0
 49
-0.9525
 74
    0
 49
0
 74
    0
 49
-0.9525
 74
    0
  0
LTYPE
  5
3C
330
5
100
AcDbSymbolTableRecord
100
AcDbLinetypeTableRecord
  2
DASHDOT2
 70
    0
  3
Dash dot (.5x) _._._._._._._._._._._._._._._.
 72
   65
 73
    4
 40
12.7
 49
6.35
 74
    0
 49
-3.175
 74
    0
 49
0
 74
    0
 49
-3.175
 74
    0
  0
LTYPE
  5
3D
330
5
100
AcDbSymbolTableRecord
100
AcDbLinetypeTableRecord
  2
DASHDOTX2
 70
    0
  3
Dash dot (2x) ____  .  ____  .  ____  .  ___
 72
   65
 73
    4
 40
50.8
 49
25.4
 74
    0
 49
-12.7
 74
    0
 49
0
 74
    0
 49
-12.7
 74
    0
  0
LTYPE
  5
3E
330
5
100
AcDbSymbolTableRecord
100
AcDbLinetypeTableRecord
  2
DIVIDE
 70
    0
  3
Divide ____ . . ____ . . ____ . . ____ . . ____
 72
   65
 73
    6
 40
31.75
 49
12.7
 74
    0
 49
-6.35
 74
    0
 49
0
 74
    0
 49
-6.35
 74
    0
 49
0
 74
    0
 49
-6.35
 74
    0
  0
LTYPE
  5
3F
330
5
100
AcDbSymbolTableRecord
100
AcDbLinetypeTableRecord
  2
DIVIDETINY
 70
    0
  3
Divide (.15x) __..__..__..__..__..__..__..__.._
 72
   65
 73
    6
 40
4.7625
 49
1.905
 74
    0
 49
-0.9525
 74
    0
 49
0
 74
    0
 49
-0.9525
 74
    0
 49
0
 74
    0
 49
-0.9525
 74
    0
  0
LTYPE
  5
40
330
5
100
AcDbSymbolTableRecord
100
AcDbLinetypeTableRecord
  2
DIVIDE2
 70
    0
  3
Divide (.5x) __..__..__..__..__..__..__..__.._
 72
   65
 73
    6
 40
15.875
 49
6.35
 74
    0
 49
-3.175
 74
    0
 49
0
 74
    0
 49
-3.175
 74
    0
 49
0
 74
    0
 49
-3.175
 74
    0
  0
LTYPE
  5
41
330
5
100
AcDbSymbolTableRecord
100
AcDbLinetypeTableRecord
  2
DIVIDEX2
 70
    0
  3
Divide (2x) ________  .  .  ________  .  .  _
 72
   65
 73
    6
 40
63.5
 49
25.4
 74
    0
 49
-12.7
 74
    0
 49
0
 74
    0
 49
-12.7
 74
    0
 49
0
 74
    0
 49
-12.7
 74
    0
  0
LTYPE
  5
42
330
5
100
AcDbSymbolTableRecord
100
AcDbLinetypeTableRecord
  2
BORDER
 70
    0
  3
Border __ __ . __ __ . __ __ . __ __ . __ __ .
 72
   65
 73
    6
 40
44.45
 49
12.7
 74
    0
 49
-6.35
 74
    0
 49
12.7
 74
    0
 49
-6.35
 74
    0
 49
0
 74
    0
 49
-6.35
 74
    0
  0
LTYPE
  5
43
330
5
100
AcDbSymbolTableRecord
100
AcDbLinetypeTableRecord
  2
BORDERTINY
 70
    0
  3
Border (.15x) __.__.__.__.__.__.__.__.__.__.__.
 72
   65
 73
    6
 40
6.6675
 49
1.905
 74
    0
 49
-0.9525
 74
    0
 49
1.905
 74
    0
 49
-0.9525
 74
    0
 49
0
 74
    0
 49
-0.9525
 74
    0
  0
LTYPE
  5
44
330
5
100
AcDbSymbolTableRecord
100
AcDbLinetypeTableRecord
  2
BORDER2
 70
    0
  3
Border (.5x) __.__.__.__.__.__.__.__.__.__.__.
 72
   65
 73
    6
 40
22.225
 49
6.35
 74
    0
 49
-3.175
 74
    0
 49
6.35
 74
    0
 49
-3.175
 74
    0
 49
0
 74
    0
 49
-3.175
 74
    0
  0
LTYPE
  5
45
330
5
100
AcDbSymbolTableRecord
100
AcDbLinetypeTableRecord
  2
BORDERX2
 70
    0
  3
Border (2x) ____  ____  .  ____  ____  .  ___
 72
   65
 73
    6
 40
88.89999999999999
 49
25.4
 74
    0
 49
-12.7
 74
    0
 49
25.4
 74
    0
 49
-12.7
 74
    0
 49
0
 74
    0
 49
-12.7
 74
    0
  0
LTYPE
  5
46
330
5
100
AcDbSymbolTableRecord
100
AcDbLinetypeTableRecord
  2
CENTER
 70
    0
  3
Center ____ _ ____ _ ____ _ ____ _ ____ _ ____
 72
   65
 73
    4
 40
50.8
 49
31.75
 74
    0
 49
-6.35
 74
    0
 49
6.35
 74
    0
 49
-6.35
 74
    0
  0
LTYPE
  5
47
330
5
100
AcDbSymbolTableRecord
100
AcDbLinetypeTableRecord
  2
CENTERTINY
 70
    0
  3
Center (.15x) ___ _ ___ _ ___ _ ___ _ ___ _ ___
 72
   65
 73
    4
 40
7.62
 49
4.7625
 74
    0
 49
-0.9525
 74
    0
 49
0.9525
 74
    0
 49
-0.9525
 74
    0
  0
LTYPE
  5
48
330
5
100
AcDbSymbolTableRecord
100
AcDbLinetypeTableRecord
  2
CENTER2
 70
    0
  3
Center (.5x) ___ _ ___ _ ___ _ ___ _ ___ _ ___
 72
   65
 73
    4
 40
28.575
 49
19.05
 74
    0
 49
-3.175
 74
    0
 49
3.175
 74
    0
 49
-3.175
 74
    0
  0
LTYPE
  5
49
330
5
100
AcDbSymbolTableRecord
100
AcDbLinetypeTableRecord
  2
CENTERX2
 70
    0
  3
Center (2x) ________  __  ________  __  _____
 72
   65
 73
    4
 40
101.6
 49
63.5
 74
    0
 49
-12.7
 74
    0
 49
12.7
 74
    0
 49
-12.7
 74
    0
  0
ENDTAB
  0
TABLE
  2
LAYER
  5
2
330
0
100
AcDbSymbolTable
 70
    1
  0
LAYER
  5
10
330
2
100
AcDbSymbolTableRecord
100
AcDbLayerTableRecord
  2
0
 70
    0
 62
    7
  6
CONTINUOUS
370
    0
390
F
  0
LAYER
  5
4A
330
2
100
AcDbSymbolTableRecord
100
AcDbLayerTableRecord
  2
cut
 70
    0
 62
    1
  6
CONTINUOUS
370
    0
390
F
  0
LAYER
  5
4B
330
2
100
AcDbSymbolTableRecord
100
AcDbLayerTableRecord
  2
outline
 70
    0
 62
    5
  6
CONTINUOUS
370
    0
390
F
  0
ENDTAB
  0
TABLE
  2
STYLE
  5
3
330
0
100
AcDbSymbolTable
 70
    3
  0
STYLE
  5
4C
330
2
100
AcDbSymbolTableRecord
100
AcDbTextStyleTableRecord
  2
Standard
 70
    0
 40
0
 41
1
 50
0
 71
    0
 42
1
  3
txt
  4

  0
ENDTAB
  0
TABLE
  2
VIEW
  5
6
330
0
100
AcDbSymbolTable
 70
    0
  0
ENDTAB
  0
TABLE
  2
UCS
  5
7
330
0
100
AcDbSymbolTable
 70
    0
  0
ENDTAB
  0
TABLE
  2
APPID
  5
9
330
0
100
AcDbSymbolTable
 70
    1
  0
APPID
  5
12
330
9
100
AcDbSymbolTableRecord
100
AcDbRegAppTableRecord
  2
ACAD
 70
    0
  0
APPID
  5
4D
330
9
100
AcDbSymbolTableRecord
100
AcDbRegAppTableRecord
  2
LibreCad
 70
    0
  0
ENDTAB
  0
TABLE
  2
DIMSTYLE
  5
A
330
0
100
AcDbSymbolTable
 70
    1
100
AcDbDimStyleTable
 71
    1
  0
DIMSTYLE
105
4E
330
A
100
AcDbSymbolTableRecord
100
AcDbDimStyleTableRecord
  2
Standard
 70
    0
 40
2.5
 41
2.5
 42
0.625
 43
0.38
 44
1.25
 45
0
 46
0
 47
0
 48
0
 49
1
140
2.5
141
0.09
142
0
143
25.4
144
1
145
0
146
1
147
0.625
148
0
 71
    0
 72
    0
 73
    0
 74
    1
 75
    0
 76
    0
 77
    0
 78
    8
 79
    0
170
    0
171
    2
172
    0
173
    0
174
    0
175
    0
176
    0
177
    0
178
    0
179
    0
271
    2
272
    4
273
    2
274
    2
275
    0
276
    0
277
    2
278
   44
279
    0
280
    0
281
    0
282
    0
283
    1
284
    0
285
    0
286
    0
288
    0
289
    3
340
STANDARD
341

371
   -2
372
   -2
  0
ENDTAB
  0
TABLE
  2
BLOCK_RECORD
  5
1
330
0
100
AcDbSymbolTable
 70
    2
  0
BLOCK_RECORD
  5
1F
330
1
100
AcDbSymbolTableRecord
100
AcDbBlockTableRecord
  2
*Model_Space
 70
    0
280
    1
281
    0
  0
BLOCK_RECORD
  5
1E
330
1
100
AcDbSymbolTableRecord
100
AcDbBlockTableRecord
  2
*Paper_Space
 70
    0
280
    1
281
    0
  0
ENDTAB
  0
ENDSEC
  0
SECTION
  2
BLOCKS
  0
BLOCK
  5
20
330
1F
100
AcDbEntity
  8
0
100
AcDbBlockBegin
  2
*Model_Space
 70
    0
 10
0
 20
0
 30
0
  3
*Model_Space
  1

  0
ENDBLK
  5
21
330
1F
100
AcDbEntity
  8
0
100
AcDbBlockEnd
  0
BLOCK
  5
1C
330
1B
100
AcDbEntity
  8
0
100
AcDbBlockBegin
  2
*Paper_Space
 70
    0
 10
0
 20
0
 30
0
  3
*Paper_Space
  1

  0
ENDBLK
  5
1D
330
1F
100
AcDbEntity
  8
0
100
AcDbBlockEnd
  0
ENDSEC
  0
SECTION
  2
ENTITIES
  0
ARC
  5
4F
100
AcDbEntity
  8
cut
  6
ByLayer
 62
  256
370
   -1
100
AcDbCircle
 10
560.5546106065331
 20
180.7112570400493
 40
0.3
100
AcDbArc
 50
26.68880576756112
 51
200.0884430580688
  0
CIRCLE
  5
50
100
AcDbEntity
  8
outline
  6
ByLayer
 62
  256
370
   -1
100
AcDbCircle
 10
400
 20
100
 40
200
  0
LWPOLYLINE
  5
51
100
AcDbEntity
  8
cut
  6
ByLayer
 62
  256
370
   -1
100
AcDbPolyline
 90
    8
 70
    1
 43
0
 10
295.9047508506692
 20
219.9997528904958
 42
0.266411745853218
 10
296.1632658965751
 20
220.1490066218395
 42
-0.2664117458528156
 10
347.8662750777357
 20
249.9997528904951
 42
0.2664117458529965
 10
348.1247901236405
 20
250.1490066218384
 42
-0.2213467923986823
 10
389.6723320047723
 20
279.1044776119404
 42
0.9439983073668615
 10
389.6033659413652
 20
279.6994991652755
 42
0.2372084154750378
 10
249.5739857048507
 20
198.8534987912686
 42
0.9439983073662602
 10
250.0548064541329
 20
198.4962616516918
 42
-0.2213467923986651
  0
LWPOLYLINE
  5
52
100
AcDbEntity
  8
cut
  6
ByLayer
 62
  256
370
   -1
100
AcDbPolyline
 90
    8
 70
    1
 43
0
 10
244.0295409743099
 20
69.85074626865708
 42
0.2664117458532215
 10
244.0295409743115
 20
70.14925373134375
 42
-0.2664117458528157
 10
244.0295409743099
 20
129.8507462686557
 42
0.2664117458530161
 10
244.0295409743084
 20
130.1492537313425
 42
-0.2213467923986823
 10
239.7271384589044
 20
180.6082159602514
 42
0.9439983073669913
 10
239.1773516462135
 20
180.8460003740094
 42
0.2372084154750376
 10
239.1773516462106
 20
19.15399962599398
 42
0.9439983073663206
 10
239.7271384589014
 20
19.3917840397519
 42
-0.2213467923986646
  0
LWPOLYLINE
  5
53
100
AcDbEntity
  8
cut
  6
ByLayer
 62
  256
370
   -1
100
AcDbPolyline
 90
    8
 70
    1
 43
0
 10
348.1247901236421
 20
-50.14900662183884
 42
0.2664117458532329
 10
347.8662750777365
 20
-49.99975289049579
 42
-0.2664117458528156
 10
296.1632658965756
 20
-20.14900662183953
 42
0.2664117458530348
 10
295.9047508506678
 20
-19.9997528904959
 42
-0.2213467923986817
 10
250.0548064541321
 20
1.503738348311064
 42
0.943998307366993
 10
249.5739857048484
 20
1.14650120873408
 42
0.2372084154750381
 10
389.6033659413599
 20
-79.69949916527464
 42
0.9439983073664483
 10
389.6723320047685
 20
-79.10447761193996
 42
-0.221346792398665
  0
LWPOLYLINE
  5
54
100
AcDbEntity
  8
cut
  6
ByLayer
 62
  256
370
   -1
100
AcDbPolyline
 90
    8
 70
    1
 43
0
 10
504.0952491493308
 20
-19.99975289049593
 42
0.266411745853229
 10
503.8367341034249
 20
-20.1490066218396
 42
-0.2664117458528156
 10
452.1337249222643
 20
-49.99975289049524
 42
0.2664117458530341
 10
451.8752098763595
 20
-50.14900662183847
 42
-0.2213467923986813
 10
410.3276679952277
 20
-79.10447761194033
 42
0.9439983073669355
 10
410.3966340586347
 20
-79.69949916527545
 42
0.237208415475038
 10
550.4260142951492
 20
1.146501208731381
 42
0.9439983073663278
 10
549.945193545867
 20
1.50373834830814
 42
-0.2213467923986643
  0
LWPOLYLINE
  5
55
100
AcDbEntity
  8
cut
  6
ByLayer
 62
  256
370
   -1
100
AcDbPolyline
 90
    8
 70
    0
 43
0
 10
560.8226483537881
 20
180.8460003740063
 42
-0.237208415475038
 10
560.8226483537867
 20
19.15399962599053
 42
-0.943998307366997
 10
560.2728615410973
 20
19.39178403974858
 42
0.2213467923986822
 10
555.9704590256898
 20
69.85074626865752
 42
-0.2664117458530436
 10
555.9704590256882
 20
70.14925373134409
 42
0.2664117458528156
 10
555.97045902569
 20
129.850746268656
 42
-0.2664117458531451
 10
555.9704590256916
 20
130.1492537313428
 42
0.221346792398665
 10
560.2728615410987
 20
180.608215960248
 42
0.221346792398665
  0
LWPOLYLINE
  5
56
100
AcDbEntity
  8
cut
  6
ByLayer
 62
  256
370
   -1
100
AcDbPolyline
 90
    8
 70
    1
 43
0
 10
451.8752098763579
 20
250.1490066218387
 42
0.2664117458532309
 10
452.1337249222635
 20
249.9997528904954
 42
-0.2664117458528156
 10
503.8367341034244
 20
220.1490066218394
 42
0.2664117458530233
 10
504.0952491493321
 20
219.9997528904959
 42
-0.2213467923986819
 10
549.9451935458678
 20
198.4962616516889
 42
0.9439983073667975
 10
550.4260142951517
 20
198.8534987912659
 42
0.237208415475038
 10
410.3966340586401
 20
279.6994991652746
 42
0.943998307366345
 10
410.3276679952315
 20
279.1044776119401
 42
-0.2213467923986649
  0
LWPOLYLINE
  5
57
100
AcDbEntity
  8
cut
  6
ByLayer
 62
  256
370
   -1
100
AcDbPolyline
 90
    6
 70
    1
 43
0
 10
397.269711404935
 20
274.6739865086511
 42
0.9048750780275066
 10
396.7526813131249
 20
274.9724939713375
 42
-0.2151329367067896
 10
354.0160830548735
 20
250.2985074626866
 42
0.9048750780271065
 10
354.0160830548738
 20
249.7014925373135
 42
-0.2151329367067903
 10
396.7526813131234
 20
225.0275060286624
 42
0.904875078027485
 10
397.2697114049365
 20
225.326013491349
 42
-0.2151329367067964
  0
LWPOLYLINE
  5
58
100
AcDbEntity
  8
cut
  6
ByLayer
 62
  256
370
   -1
100
AcDbPolyline
 90
    6
 70
    1
 43
0
 10
394.0223927180626
 20
219.701492537314
 42
0.9048750780275221
 10
394.0223927180614
 20
220.2985074626864
 42
-0.2151329367067901
 10
351.2857944598085
 20
244.9724939713361
 42
0.9048750780270836
 10
350.7687643679962
 20
244.67398650865
 42
-0.2151329367067896
 10
350.7687643679971
 20
195.3260134913487
 42
0.9048750780276162
 10
351.2857944598087
 20
195.0275060286619
 42
-0.2151329367067964
  0
LWPOLYLINE
  5
59
100
AcDbEntity
  8
cut
  6
ByLayer
 62
  256
370
   -1
100
AcDbPolyline
 90
    6
 70
    1
 43
0
 10
397.269711404935
 20
214.673986508651
 42
0.9048750780275108
 10
396.7526813131248
 20
214.9724939713375
 42
-0.2151329367067896
 10
354.0160830548735
 20
190.2985074626866
 42
0.9048750780271065
 10
354.0160830548738
 20
189.7014925373135
 42
-0.2151329367067903
 10
396.7526813131234
 20
165.0275060286624
 42
0.904875078027485
 10
397.2697114049365
 20
165.326013491349
 42
-0.2151329367067965
  0
LWPOLYLINE
  5
5A
100
AcDbEntity
  8
cut
  6
ByLayer
 62
  256
370
   -1
100
AcDbPolyline
 90
    6
 70
    1
 43
0
 10
445.9839169451264
 20
189.7014925373135
 42
0.9048750780274153
 10
445.9839169451279
 20
190.2985074626869
 42
-0.2151329367067902
 10
403.2473186868764
 20
214.9724939713361
 42
0.9048750780270686
 10
402.7302885950643
 20
214.6739865086501
 42
-0.2151329367067898
 10
402.730288595065
 20
165.326013491349
 42
0.9048750780274838
 10
403.2473186868752
 20
165.0275060286624
 42
-0.2151329367067964
  0
LWPOLYLINE
  5
5B
100
AcDbEntity
  8
cut
  6
ByLayer
 62
  256
370
   -1
100
AcDbPolyline
 90
    6
 70
    1
 43
0
 10
448.7142055401914
 20
195.0275060286624
 42
0.9048750780275251
 10
449.2312356320045
 20
195.3260134913493
 42
-0.21513293670679
 10
449.231235632003
 20
244.6739865086496
 42
0.9048750780271272
 10
448.7142055401903
 20
244.9724939713366
 42
-0.2151329367067898
 10
405.9776072819374
 20
220.2985074626866
 42
0.9048750780276293
 10
405.9776072819388
 20
219.7014925373134
 42
-0.2151329367067961
  0
LWPOLYLINE
  5
5C
100
AcDbEntity
  8
cut
  6
ByLayer
 62
  256
370
   -1
100
AcDbPolyline
 90
    6
 70
    1
 43
0
 10
445.9839169451264
 20
249.7014925373135
 42
0.9048750780274153
 10
445.9839169451279
 20
250.2985074626869
 42
-0.2151329367067902
 10
403.2473186868764
 20
274.9724939713361
 42
0.9048750780270686
 10
402.7302885950643
 20
274.67398650865
 42
-0.2151329367067898
 10
402.730288595065
 20
225.326013491349
 42
0.9048750780275053
 10
403.2473186868752
 20
225.0275060286621
 42
-0.2151329367067963
  0
LWPOLYLINE
  5
5D
100
AcDbEntity
  8
cut
  6
ByLayer
 62
  256
370
   -1
100
AcDbPolyline
 90
    6
 70
    1
 43
0
 10
397.269711404935
 20
154.673986508651
 42
0.9048750780275108
 10
396.7526813131248
 20
154.9724939713375
 42
-0.2151329367067896
 10
354.0160830548735
 20
130.2985074626866
 42
0.9048750780271065
 10
354.0160830548738
 20
129.7014925373135
 42
-0.2151329367067903
 10
396.7526813131234
 20
105.0275060286624
 42
0.9048750780275593
 10
397.2697114049365
 20
105.326013491349
 42
-0.2151329367067965
  0
LWPOLYLINE
  5
5E
100
AcDbEntity
  8
cut
  6
ByLayer
 62
  256
370
   -1
100
AcDbPolyline
 90
    6
 70
    1
 43
0
 10
351.2857944598086
 20
124.9724939713376
 42
0.9048750780274861
 10
350.7687643679955
 20
124.673986508651
 42
-0.2151329367067898
 10
350.768764367997
 20
75.32601349135027
 42
0.9048750780270991
 10
351.2857944598096
 20
75.02750602866368
 42
-0.2151329367067901
 10
394.0223927180626
 20
99.7014925373133
 42
0.9048750780276489
 10
394.0223927180612
 20
100.2985074626866
 42
-0.2151329367067964
  0
LWPOLYLINE
  5
5F
100
AcDbEntity
  8
cut
  6
ByLayer
 62
  256
370
   -1
100
AcDbPolyline
 90
    6
 70
    1
 43
0
 10
354.0160830548736
 20
70.29850746268646
 42
0.9048750780275308
 10
354.0160830548721
 20
69.70149253731341
 42
-0.2151329367067898
 10
396.7526813131236
 20
45.02750602866372
 42
0.9048750780271009
 10
397.2697114049357
 20
45.32601349135022
 42
-0.2151329367067903
 10
397.269711404935
 20
94.67398650865096
 42
0.9048750780275058
 10
396.7526813131248
 20
94.97249397133757
 42
-0.2151329367067966
  0
LWPOLYLINE
  5
60
100
AcDbEntity
  8
cut
  6
ByLayer
 62
  256
370
   -1
100
AcDbPolyline
 90
    6
 70
    1
 43
0
 10
402.730288595065
 20
45.32601349134894
 42
0.9048750780275746
 10
403.2473186868751
 20
45.02750602866246
 42
-0.2151329367067899
 10
445.9839169451265
 20
69.70149253731344
 42
0.9048750780271966
 10
445.9839169451261
 20
70.29850746268656
 42
-0.2151329367067897
 10
403.2473186868766
 20
94.97249397133764
 42
0.9048750780275568
 10
402.7302885950635
 20
94.67398650865104
 42
-0.2151329367067964
  0
LWPOLYLINE
  5
61
100
AcDbEntity
  8
cut
  6
ByLayer
 62
  256
370
   -1
100
AcDbPolyline
 90
    6
 70
    1
 43
0
 10
448.7142055401913
 20
75.02750602866233
 42
0.9048750780275083
 10
449.2312356320045
 20
75.32601349134882
 42
-0.21513293670679
 10
449.231235632003
 20
124.6739865086496
 42
0.9048750780271578
 10
448.7142055401903
 20
124.9724939713363
 42
-0.2151329367067898
 10
405.9776072819374
 20
100.2985074626866
 42
0.9048750780276358
 10
405.9776072819388
 20
99.70149253731338
 42
-0.2151329367067961
  0
LWPOLYLINE
  5
62
100
AcDbEntity
  8
cut
  6
ByLayer
 62
  256
370
   -1
100
AcDbPolyline
 90
    6
 70
    1
 43
0
 10
445.9839169451264
 20
129.7014925373135
 42
0.9048750780274153
 10
445.9839169451279
 20
130.2985074626869
 42
-0.2151329367067902
 10
403.2473186868764
 20
154.9724939713361
 42
0.9048750780270552
 10
402.7302885950642
 20
154.6739865086497
 42
-0.2151329367067896
 10
402.730288595065
 20
105.326013491349
 42
0.9048750780275213
 10
403.2473186868752
 20
105.0275060286624
 42
-0.2151329367067964
  0
LWPOLYLINE
  5
63
100
AcDbEntity
  8
cut
  6
ByLayer
 62
  256
370
   -1
100
AcDbPolyline
 90
    6
 70
    1
 43
0
 10
354.0160830548736
 20
10.29850746268657
 42
0.9048750780275474
 10
354.0160830548721
 20
9.701492537313399
 42
-0.2151329367067903
 10
396.7526813131236
 20
-14.97249397133628
 42
0.9048750780271053
 10
397.2697114049357
 20
-14.67398650864977
 42
-0.2151329367067903
 10
397.269711404935
 20
34.67398650865095
 42
0.9048750780275273
 10
396.7526813131248
 20
34.97249397133758
 42
-0.2151329367067966
  0
LWPOLYLINE
  5
64
100
AcDbEntity
  8
cut
  6
ByLayer
 62
  256
370
   -1
100
AcDbPolyline
 90
    6
 70
    1
 43
0
 10
351.2857944598087
 20
4.972493971337655
 42
0.9048750780274939
 10
350.7687643679955
 20
4.673986508651044
 42
-0.2151329367067898
 10
350.768764367997
 20
-44.67398650864973
 42
0.9048750780270803
 10
351.2857944598096
 20
-44.97249397133633
 42
-0.2151329367067901
 10
394.0223927180626
 20
-20.29850746268668
 42
0.9048750780276532
 10
394.0223927180612
 20
-19.70149253731338
 42
-0.2151329367067963
  0
LWPOLYLINE
  5
65
100
AcDbEntity
  8
cut
  6
ByLayer
 62
  256
370
   -1
100
AcDbPolyline
 90
    6
 70
    1
 43
0
 10
354.0160830548736
 20
-49.70149253731343
 42
0.9048750780275425
 10
354.0160830548721
 20
-50.29850746268656
 42
-0.2151329367067903
 10
396.7526813131236
 20
-74.97249397133626
 42
0.9048750780271184
 10
397.2697114049357
 20
-74.67398650864978
 42
-0.2151329367067903
 10
397.269711404935
 20
-25.32601349134904
 42
0.9048750780275134
 10
396.7526813131248
 20
-25.02750602866242
 42
-0.2151329367067966
  0
LWPOLYLINE
  5
66
100
AcDbEntity
  8
cut
  6
ByLayer
 62
  256
370
   -1
100
AcDbPolyline
 90
    6
 70
    1
 43
0
 10
402.730288595065
 20
-74.67398650865107
 42
0.9048750780275835
 10
403.2473186868751
 20
-74.97249397133754
 42
-0.2151329367067899
 10
445.9839169451265
 20
-50.29850746268656
 42
0.9048750780271941
 10
445.9839169451261
 20
-49.70149253731346
 42
-0.2151329367067897
 10
403.2473186868766
 20
-25.02750602866237
 42
0.9048750780275516
 10
402.7302885950635
 20
-25.32601349134895
 42
-0.2151329367067968
  0
LWPOLYLINE
  5
67
100
AcDbEntity
  8
cut
  6
ByLayer
 62
  256
370
   -1
100
AcDbPolyline
 90
    6
 70
    1
 43
0
 10
405.9776072819374
 20
-19.70149253731377
 42
0.9048750780275655
 10
405.9776072819386
 20
-20.29850746268649
 42
-0.2151329367067898
 10
448.7142055401915
 20
-44.97249397133628
 42
0.9048750780271073
 10
449.2312356320038
 20
-44.67398650864985
 42
-0.2151329367067901
 10
449.2312356320029
 20
4.673986508651285
 42
0.9048750780275546
 10
448.7142055401913
 20
4.972493971337812
 42
-0.2151329367067966
  0
LWPOLYLINE
  5
68
100
AcDbEntity
  8
cut
  6
ByLayer
 62
  256
370
   -1
100
AcDbPolyline
 90
    6
 70
    1
 43
0
 10
402.730288595065
 20
-14.67398650865106
 42
0.9048750780275675
 10
403.2473186868751
 20
-14.97249397133754
 42
-0.2151329367067899
 10
445.9839169451265
 20
9.701492537313444
 42
0.904875078027195
 10
445.9839169451261
 20
10.29850746268654
 42
-0.2151329367067897
 10
403.2473186868766
 20
34.97249397133762
 42
0.9048750780275558
 10
402.7302885950635
 20
34.67398650865104
 42
-0.2151329367067966
  0
LWPOLYLINE
  5
69
100
AcDbEntity
  8
cut
  6
ByLayer
 62
  256
370
   -1
100
AcDbPolyline
 90
    6
 70
    1
 43
0
 10
293.3466629508046
 20
214.673986508651
 42
0.9048750780275147
 10
292.8296328589904
 20
214.972493971338
 42
-0.2151329367067901
 10
250.0930346007417
 20
190.2985074626866
 42
0.9048750780271108
 10
250.0930346007393
 20
189.7014925373135
 42
-0.2151329367067901
 10
292.829632858993
 20
165.0275060286624
 42
0.9048750780275645
 10
293.3466629508035
 20
165.326013491349
 42
-0.2151329367067963
  0
LWPOLYLINE
  5
6A
100
AcDbEntity
  8
cut
  6
ByLayer
 62
  256
370
   -1
100
AcDbPolyline
 90
    6
 70
    1
 43
0
 10
247.3627460056755
 20
184.9724939713376
 42
0.904875078027582
 10
246.8457159138651
 20
184.673986508651
 42
-0.2151329367067898
 10
246.8457159138666
 20
135.32601349135
 42
0.9048750780272002
 10
247.3627460056751
 20
135.0275060286637
 42
-0.21513293670679
 10
290.0993442639282
 20
159.7014925373134
 42
0.9048750780275053
 10
290.0993442639267
 20
160.2985074626869
 42
-0.2151329367067963
  0
LWPOLYLINE
  5
6B
100
AcDbEntity
  8
cut
  6
ByLayer
 62
  256
370
   -1
100
AcDbPolyline
 90
    6
 70
    1
 43
0
 10
293.3466629508046
 20
154.6739865086514
 42
0.9048750780275865
 10
292.8296328589904
 20
154.9724939713375
 42
-0.2151329367067898
 10
250.0930346007417
 20
130.2985074626864
 42
0.904875078027175
 10
250.0930346007394
 20
129.7014925373137
 42
-0.2151329367067898
 10
292.829632858993
 20
105.0275060286621
 42
0.9048750780276081
 10
293.3466629508035
 20
105.3260134913488
 42
-0.2151329367067963
  0
LWPOLYLINE
  5
6C
100
AcDbEntity
  8
cut
  6
ByLayer
 62
  256
370
   -1
100
AcDbPolyline
 90
    6
 70
    1
 43
0
 10
299.3242702327421
 20
154.9724939713376
 42
0.9048750780274997
 10
298.807240140929
 20
154.673986508651
 42
-0.2151329367067898
 10
298.8072401409304
 20
105.32601349135
 42
0.904875078027106
 10
299.3242702327432
 20
105.0275060286637
 42
-0.21513293670679
 10
342.0608684909961
 20
129.7014925373134
 42
0.9048750780275053
 10
342.0608684909947
 20
130.2985074626869
 42
-0.2151329367067961
  0
LWPOLYLINE
  5
6D
100
AcDbEntity
  8
cut
  6
ByLayer
 62
  256
370
   -1
100
AcDbPolyline
 90
    6
 70
    1
 43
0
 10
345.3081871778685
 20
184.673986508651
 42
0.9048750780275591
 10
344.7911570860568
 20
184.972493971338
 42
-0.2151329367067901
 10
302.0545588278096
 20
160.2985074626866
 42
0.9048750780271964
 10
302.0545588278059
 20
159.7014925373135
 42
-0.2151329367067902
 10
344.791157086057
 20
135.0275060286624
 42
0.904875078027485
 10
345.30818717787
 20
135.326013491349
 42
-0.2151329367067963
  0
LWPOLYLINE
  5
6E
100
AcDbEntity
  8
cut
  6
ByLayer
 62
  256
370
   -1
100
AcDbPolyline
 90
    6
 70
    1
 43
0
 10
342.0608684909961
 20
189.701492537314
 42
0.9048750780276293
 10
342.0608684909949
 20
190.2985074626871
 42
-0.2151329367067901
 10
299.324270232742
 20
214.972493971336
 42
0.904875078027094
 10
298.8072401409297
 20
214.6739865086495
 42
-0.2151329367067896
 10
298.8072401409305
 20
165.3260134913492
 42
0.9048750780276493
 10
299.3242702327422
 20
165.0275060286626
 42
-0.2151329367067962
  0
LWPOLYLINE
  5
6F
100
AcDbEntity
  8
cut
  6
ByLayer
 62
  256
370
   -1
100
AcDbPolyline
 90
    6
 70
    1
 43
0
 10
344.791157086057
 20
195.0275060286624
 42
0.9048750780275542
 10
345.30818717787
 20
195.3260134913494
 42
-0.2151329367067898
 10
345.3081871778686
 20
244.67398650865
 42
0.9048750780271383
 10
344.7911570860558
 20
244.9724939713365
 42
-0.2151329367067896
 10
302.0545588278057
 20
220.2985074626871
 42
0.9048750780274234
 10
302.0545588278043
 20
219.7014925373136
 42
-0.2151329367067963
  0
LWPOLYLINE
  5
70
100
AcDbEntity
  8
cut
  6
ByLayer
 62
  256
370
   -1
100
AcDbPolyline
 90
    6
 70
    1
 43
0
 10
394.0223927180626
 20
159.7014925373135
 42
0.9048750780275351
 10
394.0223927180614
 20
160.2985074626871
 42
-0.2151329367067902
 10
351.2857944598085
 20
184.9724939713359
 42
0.9048750780271443
 10
350.7687643679961
 20
184.6739865086495
 42
-0.2151329367067894
 10
350.7687643679971
 20
135.3260134913492
 42
0.9048750780276076
 10
351.2857944598087
 20
135.0275060286625
 42
-0.2151329367067963
  0
LWPOLYLINE
  5
71
100
AcDbEntity
  8
cut
  6
ByLayer
 62
  256
370
   -1
100
AcDbPolyline
 90
    6
 70
    1
 43
0
 10
290.0993442639282
 20
99.70149253731373
 42
0.904875078027492
 10
290.0993442639269
 20
100.2985074626871
 42
-0.2151329367067901
 10
247.3627460056782
 20
124.9724939713361
 42
0.904875078027113
 10
246.845715913866
 20
124.6739865086498
 42
-0.2151329367067894
 10
246.845715913864
 20
75.32601349134929
 42
0.9048750780275872
 10
247.3627460056742
 20
75.02750602866271
 42
-0.2151329367067963
  0
LWPOLYLINE
  5
72
100
AcDbEntity
  8
cut
  6
ByLayer
 62
  256
370
   -1
100
AcDbPolyline
 90
    6
 70
    1
 43
0
 10
345.3081871778685
 20
124.6739865086513
 42
0.9048750780275578
 10
344.7911570860568
 20
124.9724939713377
 42
-0.2151329367067898
 10
302.0545588278096
 20
100.2985074626862
 42
0.9048750780271598
 10
302.0545588278059
 20
99.70149253731334
 42
-0.2151329367067898
 10
344.791157086057
 20
75.02750602866249
 42
0.9048750780275702
 10
345.30818717787
 20
75.32601349134904
 42
-0.2151329367067961
  0
LWPOLYLINE
  5
73
100
AcDbEntity
  8
cut
  6
ByLayer
 62
  256
370
   -1
100
AcDbPolyline
 90
    6
 70
    1
 43
0
 10
293.3466629508046
 20
94.67398650865118
 42
0.9048750780275088
 10
292.8296328589904
 20
94.97249397133768
 42
-0.2151329367067898
 10
250.0930346007417
 20
70.29850746268622
 42
0.9048750780271875
 10
250.0930346007394
 20
69.70149253731344
 42
-0.2151329367067898
 10
292.829632858993
 20
45.02750602866261
 42
0.9048750780276039
 10
293.3466629508035
 20
45.32601349134914
 42
-0.2151329367067963
  0
LWPOLYLINE
  5
74
100
AcDbEntity
  8
cut
  6
ByLayer
 62
  256
370
   -1
100
AcDbPolyline
 90
    6
 70
    1
 43
0
 10
299.3242702327421
 20
94.97249397133763
 42
0.9048750780275968
 10
298.807240140929
 20
94.67398650865137
 42
-0.2151329367067903
 10
298.8072401409304
 20
45.32601349135019
 42
0.9048750780271536
 10
299.3242702327432
 20
45.02750602866357
 42
-0.2151329367067903
 10
342.0608684909961
 20
69.70149253731341
 42
0.9048750780276313
 10
342.0608684909947
 20
70.29850746268662
 42
-0.2151329367067961
  0
LWPOLYLINE
  5
75
100
AcDbEntity
  8
cut
  6
ByLayer
 62
  256
370
   -1
100
AcDbPolyline
 90
    6
 70
    1
 43
0
 10
247.3627460056756
 20
64.97249397133776
 42
0.9048750780275768
 10
246.8457159138652
 20
64.67398650865138
 42
-0.2151329367067903
 10
246.8457159138666
 20
15.32601349135028
 42
0.9048750780271209
 10
247.3627460056751
 20
15.02750602866355
 42
-0.2151329367067903
 10
290.0993442639282
 20
39.70149253731353
 42
0.9048750780276318
 10
290.0993442639267
 20
40.29850746268671
 42
-0.2151329367067961
  0
LWPOLYLINE
  5
76
100
AcDbEntity
  8
cut
  6
ByLayer
 62
  256
370
   -1
100
AcDbPolyline
 90
    6
 70
    1
 43
0
 10
250.0930346007391
 20
10.29850746268657
 42
0.9048750780274863
 10
250.0930346007376
 20
9.701492537313534
 42
-0.21513293670679
 10
292.8296328589931
 20
-14.97249397133662
 42
0.90487507802709
 10
293.3466629508028
 20
-14.67398650864977
 42
-0.2151329367067903
 10
293.3466629508046
 20
34.67398650865104
 42
0.9048750780275928
 10
292.8296328589903
 20
34.97249397133761
 42
-0.2151329367067966
  0
LWPOLYLINE
  5
77
100
AcDbEntity
  8
cut
  6
ByLayer
 62
  256
370
   -1
100
AcDbPolyline
 90
    6
 70
    1
 43
0
 10
299.3242702327421
 20
34.97249397133763
 42
0.9048750780275443
 10
298.807240140929
 20
34.67398650865091
 42
-0.2151329367067896
 10
298.8072401409304
 20
-14.67398650864993
 42
0.9048750780271413
 10
299.3242702327432
 20
-14.97249397133632
 42
-0.2151329367067902
 10
342.0608684909961
 20
9.701492537313428
 42
0.9048750780276366
 10
342.0608684909947
 20
10.29850746268662
 42
-0.2151329367067963
  0
LWPOLYLINE
  5
78
100
AcDbEntity
  8
cut
  6
ByLayer
 62
  256
370
   -1
100
AcDbPolyline
 90
    6
 70
    1
 43
0
 10
302.0545588278057
 20
40.29850746268657
 42
0.9048750780277184
 10
302.054558827804
 20
39.70149253731341
 42
-0.2151329367067899
 10
344.7911570860571
 20
15.02750602866339
 42
0.9048750780271287
 10
345.3081871778693
 20
15.32601349135025
 42
-0.2151329367067902
 10
345.3081871778685
 20
64.67398650865094
 42
0.9048750780275351
 10
344.7911570860568
 20
64.97249397133768
 42
-0.2151329367067966
  0
LWPOLYLINE
  5
79
100
AcDbEntity
  8
cut
  6
ByLayer
 62
  256
370
   -1
100
AcDbPolyline
 90
    6
 70
    1
 43
0
 10
351.2857944598086
 20
64.97249397133766
 42
0.9048750780275098
 10
350.7687643679955
 20
64.67398650865093
 42
-0.2151329367067898
 10
350.768764367997
 20
15.32601349135027
 42
0.9048750780270715
 10
351.2857944598096
 20
15.02750602866367
 42
-0.2151329367067901
 10
394.0223927180626
 20
39.70149253731331
 42
0.9048750780276639
 10
394.0223927180612
 20
40.29850746268669
 42
-0.2151329367067963
  0
LWPOLYLINE
  5
7A
100
AcDbEntity
  8
cut
  6
ByLayer
 62
  256
370
   -1
100
AcDbPolyline
 90
    6
 70
    1
 43
0
 10
345.3081871778685
 20
4.673986508651311
 42
0.9048750780274853
 10
344.7911570860568
 20
4.972493971337791
 42
-0.2151329367067898
 10
302.0545588278096
 20
-19.70149253731367
 42
0.9048750780271601
 10
302.0545588278059
 20
-20.29850746268656
 42
-0.2151329367067898
 10
344.791157086057
 20
-44.97249397133741
 42
0.9048750780275615
 10
345.30818717787
 20
-44.67398650865084
 42
-0.2151329367067966
  0
LWPOLYLINE
  5
7B
100
AcDbEntity
  8
cut
  6
ByLayer
 62
  256
370
   -1
100
AcDbPolyline
 90
    6
 70
    1
 43
0
 10
448.7142055401914
 20
135.0275060286624
 42
0.9048750780274646
 10
449.2312356320045
 20
135.326013491349
 42
-0.2151329367067898
 10
449.231235632003
 20
184.6739865086496
 42
0.9048750780271272
 10
448.7142055401903
 20
184.9724939713366
 42
-0.2151329367067898
 10
405.9776072819374
 20
160.2985074626866
 42
0.9048750780276338
 10
405.9776072819388
 20
159.7014925373134
 42
-0.2151329367067961
  0
LWPOLYLINE
  5
7C
100
AcDbEntity
  8
cut
  6
ByLayer
 62
  256
370
   -1
100
AcDbPolyline
 90
    6
 70
    1
 43
0
 10
497.9454411721943
 20
159.7014925373135
 42
0.9048750780275865
 10
497.945441172196
 20
160.2985074626869
 42
-0.2151329367067903
 10
455.2088429139429
 20
184.9724939713366
 42
0.9048750780271287
 10
454.6918128221307
 20
184.6739865086497
 42
-0.2151329367067896
 10
454.6918128221315
 20
135.326013491349
 42
0.9048750780275875
 10
455.2088429139432
 20
135.0275060286623
 42
-0.2151329367067964
  0
LWPOLYLINE
  5
7D
100
AcDbEntity
  8
cut
  6
ByLayer
 62
  256
370
   -1
100
AcDbPolyline
 90
    6
 70
    1
 43
0
 10
500.6757297672579
 20
165.0275060286624
 42
0.9048750780275607
 10
501.192759859071
 20
165.3260134913493
 42
-0.2151329367067901
 10
501.1927598590696
 20
214.67398650865
 42
0.9048750780271039
 10
500.6757297672568
 20
214.9724939713366
 42
-0.2151329367067898
 10
457.9391315090039
 20
190.2985074626866
 42
0.9048750780276293
 10
457.9391315090053
 20
189.7014925373134
 42
-0.2151329367067961
  0
LWPOLYLINE
  5
7E
100
AcDbEntity
  8
cut
  6
ByLayer
 62
  256
370
   -1
100
AcDbPolyline
 90
    6
 70
    1
 43
0
 10
454.6918128221315
 20
195.3260134913486
 42
0.9048750780275931
 10
455.2088429139432
 20
195.0275060286623
 42
-0.2151329367067898
 10
497.9454411721904
 20
219.701492537314
 42
0.9048750780271193
 10
497.9454411721941
 20
220.2985074626865
 42
-0.21513293670679
 10
455.208842913943
 20
244.9724939713376
 42
0.904875078027673
 10
454.6918128221301
 20
244.6739865086509
 42
-0.2151329367067961
  0
LWPOLYLINE
  5
7F
100
AcDbEntity
  8
cut
  6
ByLayer
 62
  256
370
   -1
100
AcDbPolyline
 90
    6
 70
    1
 43
0
 10
549.9069653992609
 20
189.7014925373134
 42
0.9048750780275953
 10
549.9069653992624
 20
190.2985074626864
 42
-0.2151329367067901
 10
507.1703671410069
 20
214.9724939713366
 42
0.9048750780270617
 10
506.6533370491973
 20
214.67398650865
 42
-0.2151329367067898
 10
506.6533370491954
 20
165.326013491349
 42
0.9048750780275852
 10
507.1703671410097
 20
165.0275060286624
 42
-0.2151329367067964
  0
LWPOLYLINE
  5
80
100
AcDbEntity
  8
cut
  6
ByLayer
 62
  256
370
   -1
100
AcDbPolyline
 90
    6
 70
    1
 43
0
 10
500.6757297672579
 20
105.0275060286621
 42
0.9048750780275304
 10
501.192759859071
 20
105.3260134913486
 42
-0.2151329367067902
 10
501.1927598590696
 20
154.6739865086495
 42
0.9048750780271728
 10
500.6757297672568
 20
154.9724939713365
 42
-0.2151329367067901
 10
457.9391315090039
 20
130.2985074626866
 42
0.9048750780276508
 10
457.9391315090053
 20
129.7014925373132
 42
-0.2151329367067963
  0
LWPOLYLINE
  5
81
100
AcDbEntity
  8
cut
  6
ByLayer
 62
  256
370
   -1
100
AcDbPolyline
 90
    6
 70
    1
 43
0
 10
506.6533370491954
 20
105.3260134913487
 42
0.9048750780275154
 10
507.1703671410096
 20
105.0275060286621
 42
-0.2151329367067898
 10
549.9069653992583
 20
129.7014925373137
 42
0.9048750780270807
 10
549.9069653992606
 20
130.2985074626866
 42
-0.21513293670679
 10
507.170367141007
 20
154.9724939713374
 42
0.9048750780275405
 10
506.6533370491966
 20
154.6739865086509
 42
-0.2151329367067964
  0
LWPOLYLINE
  5
82
100
AcDbEntity
  8
cut
  6
ByLayer
 62
  256
370
   -1
100
AcDbPolyline
 90
    6
 70
    1
 43
0
 10
552.6372539943245
 20
135.0275060286621
 42
0.904875078027545
 10
553.1542840861349
 20
135.3260134913486
 42
-0.2151329367067903
 10
553.1542840861335
 20
184.6739865086495
 42
0.904875078027193
 10
552.6372539943249
 20
184.9724939713365
 42
-0.2151329367067898
 10
509.9006557360718
 20
160.2985074626866
 42
0.9048750780276679
 10
509.9006557360733
 20
159.7014925373132
 42
-0.2151329367067963
  0
LWPOLYLINE
  5
83
100
AcDbEntity
  8
cut
  6
ByLayer
 62
  256
370
   -1
100
AcDbPolyline
 90
    6
 70
    1
 43
0
 10
454.6918128221315
 20
75.32601349134869
 42
0.9048750780274853
 10
455.2088429139432
 20
75.02750602866219
 42
-0.2151329367067897
 10
497.9454411721904
 20
99.70149253731373
 42
0.9048750780271516
 10
497.9454411721941
 20
100.2985074626866
 42
-0.2151329367067897
 10
455.208842913943
 20
124.9724939713376
 42
0.9048750780275877
 10
454.6918128221301
 20
124.6739865086508
 42
-0.2151329367067961
  0
LWPOLYLINE
  5
84
100
AcDbEntity
  8
cut
  6
ByLayer
 62
  256
370
   -1
100
AcDbPolyline
 90
    6
 70
    1
 43
0
 10
500.6757297672579
 20
45.02750602866237
 42
0.9048750780275423
 10
501.192759859071
 20
45.32601349134894
 42
-0.2151329367067901
 10
501.1927598590696
 20
94.67398650865006
 42
0.9048750780270977
 10
500.6757297672568
 20
94.97249397133629
 42
-0.2151329367067898
 10
457.9391315090039
 20
70.29850746268657
 42
0.9048750780276358
 10
457.9391315090053
 20
69.70149253731338
 42
-0.2151329367067961
  0
LWPOLYLINE
  5
85
100
AcDbEntity
  8
cut
  6
ByLayer
 62
  256
370
   -1
100
AcDbPolyline
 90
    6
 70
    1
 43
0
 10
506.6533370491954
 20
45.32601349134859
 42
0.9048750780275702
 10
507.1703671410096
 20
45.02750602866256
 42
-0.2151329367067897
 10
549.9069653992583
 20
69.70149253731367
 42
0.9048750780270461
 10
549.9069653992606
 20
70.29850746268636
 42
-0.21513293670679
 10
507.170367141007
 20
94.97249397133774
 42
0.9048750780275665
 10
506.6533370491966
 20
94.67398650865115
 42
-0.2151329367067961
  0
LWPOLYLINE
  5
86
100
AcDbEntity
  8
cut
  6
ByLayer
 62
  256
370
   -1
100
AcDbPolyline
 90
    6
 70
    1
 43
0
 10
509.9006557360718
 20
100.2985074626861
 42
0.90487507802755
 10
509.9006557360732
 20
99.70149253731293
 42
-0.2151329367067898
 10
552.6372539943218
 20
75.02750602866384
 42
0.904875078027088
 10
553.1542840861341
 20
75.32601349134997
 42
-0.2151329367067901
 10
553.154284086136
 20
124.6739865086508
 42
0.9048750780276289
 10
552.6372539943258
 20
124.9724939713373
 42
-0.2151329367067964
  0
LWPOLYLINE
  5
87
100
AcDbEntity
  8
cut
  6
ByLayer
 62
  256
370
   -1
100
AcDbPolyline
 90
    6
 70
    1
 43
0
 10
405.9776072819374
 20
40.29850746268646
 42
0.9048750780274794
 10
405.9776072819386
 20
39.70149253731317
 42
-0.2151329367067898
 10
448.7142055401915
 20
15.02750602866406
 42
0.9048750780270898
 10
449.2312356320039
 20
15.32601349135037
 42
-0.2151329367067901
 10
449.2312356320029
 20
64.67398650865084
 42
0.9048750780275797
 10
448.7142055401913
 20
64.97249397133737
 42
-0.2151329367067968
  0
LWPOLYLINE
  5
88
100
AcDbEntity
  8
cut
  6
ByLayer
 62
  256
370
   -1
100
AcDbPolyline
 90
    6
 70
    1
 43
0
 10
454.6918128221315
 20
15.32601349134881
 42
0.9048750780275447
 10
455.2088429139431
 20
15.02750602866211
 42
-0.2151329367067905
 10
497.9454411721904
 20
39.70149253731345
 42
0.9048750780271946
 10
497.9454411721941
 20
40.29850746268656
 42
-0.2151329367067897
 10
455.208842913943
 20
64.97249397133741
 42
0.9048750780275526
 10
454.69181282213
 20
64.67398650865086
 42
-0.2151329367067964
  0
LWPOLYLINE
  5
89
100
AcDbEntity
  8
cut
  6
ByLayer
 62
  256
370
   -1
100
AcDbPolyline
 90
    6
 70
    1
 43
0
 10
457.9391315090039
 20
10.29850746268634
 42
0.9048750780276332
 10
457.9391315090051
 20
9.701492537313172
 42
-0.2151329367067899
 10
500.675729767258
 20
-14.97249397133606
 42
0.9048750780270478
 10
501.1927598590703
 20
-14.67398650864976
 42
-0.2151329367067902
 10
501.1927598590695
 20
34.67398650865082
 42
0.904875078027594
 10
500.6757297672578
 20
34.97249397133736
 42
-0.2151329367067968
  0
LWPOLYLINE
  5
8A
100
AcDbEntity
  8
cut
  6
ByLayer
 62
  256
370
   -1
100
AcDbPolyline
 90
    6
 70
    1
 43
0
 10
455.208842913943
 20
4.972493971337416
 42
0.9048750780275332
 10
454.69181282213
 20
4.673986508650852
 42
-0.2151329367067898
 10
454.6918128221314
 20
-44.67398650864981
 42
0.9048750780271608
 10
455.2088429139442
 20
-44.97249397133645
 42
-0.2151329367067896
 10
497.9454411721943
 20
-20.2985074626868
 42
0.904875078027637
 10
497.9454411721957
 20
-19.7014925373136
 42
-0.2151329367067961
  0
LWPOLYLINE
  5
8B
100
AcDbEntity
  8
cut
  6
ByLayer
 62
  256
370
   -1
100
AcDbPolyline
 90
    6
 70
    1
 43
0
 10
506.6533370491954
 20
-14.6739865086512
 42
0.9048750780275026
 10
507.1703671410096
 20
-14.97249397133788
 42
-0.2151329367067904
 10
549.9069653992583
 20
9.701492537313445
 42
0.9048750780271092
 10
549.9069653992606
 20
10.29850746268654
 42
-0.21513293670679
 10
507.170367141007
 20
34.97249397133739
 42
0.9048750780276039
 10
506.6533370491965
 20
34.67398650865086
 42
-0.2151329367067964
  0
LWPOLYLINE
  5
8C
100
AcDbEntity
  8
cut
  6
ByLayer
 62
  256
370
   -1
100
AcDbPolyline
 90
    6
 70
    1
 43
0
 10
552.6372539943245
 20
15.02750602866236
 42
0.9048750780275334
 10
553.1542840861348
 20
15.32601349134891
 42
-0.2151329367067902
 10
553.1542840861334
 20
64.67398650864993
 42
0.9048750780271853
 10
552.6372539943249
 20
64.97249397133609
 42
-0.2151329367067898
 10
509.9006557360718
 20
40.29850746268657
 42
0.904875078027638
 10
509.9006557360733
 20
39.70149253731338
 42
-0.2151329367067962
  0
ENDSEC
  0
SECTION
  2
OBJECTS
  0
DICTIONARY
  5
C
330
0
100
AcDbDictionary
281
    1
  3
ACAD_GROUP
350
D
  0
DICTIONARY
  5
D
330
C
100
AcDbDictionary
281
    1
  0
ENDSEC
  0
EOF
