999
dxfrw 0.6.3
  0
SECTION
  2
HEADER
  9
$ACADVER
  1
AC1021
  9
$DWGCODEPAGE
  3
ANSI_1250
  9
$INSBASE
 10
0
 20
0
 30
0
  9
$EXTMIN
 10
74.98599999999996
 20
74.98600000000012
 30
0
  9
$EXTMAX
 10
125.0139999999997
 20
125.0139999999999
 30
0
  9
$LIMMIN
 10
0
 20
0
  9
$LIMMAX
 10
420
 20
297
  9
$ORTHOMODE
 70
    0
  9
$REGENMODE
 70
    1
  9
$FILLMODE
 70
    1
  9
$QTEXTMODE
 70
    0
  9
$MIRRTEXT
 70
    0
  9
$LTSCALE
 40
1
  9
$ATTMODE
 70
    0
  9
$TEXTSIZE
 40
2.5
  9
$TRACEWID
 40
15.68
  9
$TEXTSTYLE
  7
STANDARD
  9
$CLAYER
  8
cut
  9
$CELTYPE
  6
BYLAYER
  9
$CECOLOR
 62
  256
  9
$CELTSCALE
 40
1
  9
$DISPSILH
 70
    0
  9
$DIMSCALE
 40
2.5
  9
$DIMASZ
 40
2.5
  9
$DIMEXO
 40
0.625
  9
$DIMDLI
 40
3.75
  9
$DIMRND
 40
0
  9
$DIMDLE
 40
0
  9
$DIMEXE
 40
1.25
  9
$DIMTP
 40
0
  9
$DIMTM
 40
0
  9
$DIMTXT
 40
2.5
  9
$DIMCEN
 40
2.5
  9
$DIMTSZ
 40
0
  9
$DIMTOL
 70
    0
  9
$DIMLIM
 70
    0
  9
$DIMTIH
 70
    0
  9
$DIMTOH
 70
    0
  9
$DIMSE1
 70
    0
  9
$DIMSE2
 70
    0
  9
$DIMTAD
 70
    1
  9
$DIMZIN
 70
    8
  9
$DIMBLK
  1

  9
$DIMASO
 70
    1
  9
$DIMSHO
 70
    1
  9
$DIMPOST
  1

  9
$DIMAPOST
  1

  9
$DIMALT
 70
    0
  9
$DIMALTD
 70
    3
  9
$DIMALTF
 40
0.03937
  9
$DIMLFAC
 40
1
  9
$DIMTOFL
 70
    1
  9
$DIMTVP
 40
0
  9
$DIMTIX
 70
    0
  9
$DIMSOXD
 70
    0
  9
$DIMSAH
 70
    0
  9
$DIMBLK1
  1

  9
$DIMBLK2
  1

  9
$DIMSTYLE
  2
STANDARD
  9
$DIMCLRD
 70
    0
  9
$DIMCLRE
 70
    0
  9
$DIMCLRT
 70
    0
  9
$DIMTFAC
 40
1
  9
$DIMGAP
 40
0.625
  9
$DIMJUST
 70
    0
  9
$DIMSD1
 70
    0
  9
$DIMSD2
 70
    0
  9
$DIMTOLJ
 70
    0
  9
$DIMTZIN
 70
    8
  9
$DIMALTZ
 70
    0
  9
$DIMALTTZ
 70
    0
  9
$DIMUPT
 70
    0
  9
$DIMDEC
 70
    2
  9
$DIMTDEC
 70
    2
  9
$DIMALTU
 70
    2
  9
$DIMALTTD
 70
    3
  9
$DIMTXSTY
  7
STANDARD
  9
$DIMAUNIT
 70
    0
  9
$DIMADEC
 70
    0
  9
$DIMALTRND
 40
0
  9
$DIMAZIN
 70
    0
  9
$DIMDSEP
 70
   44
  9
$DIMATFIT
 70
    3
  9
$DIMFRAC
 70
    0
  9
$DIMLDRBLK
  1
STANDARD
  9
$DIMLUNIT
 70
    2
  9
$DIMLWD
 70
   -2
  9
$DIMLWE
 70
   -2
  9
$DIMTMOVE
 70
    0
  9
$DIMFXL
 40
1
  9
$DIMFXLON
 70
    0
  9
$DIMJOGANG
 40
0.7854
  9
$DIMTFILL
 70
    0
  9
$DIMTFILLCLR
 70
    0
  9
$DIMARCSYM
 70
    0
  9
$DIMLTYPE
  6

  9
$DIMLTEX1
  6

  9
$DIMLTEX2
  6

  9
$LUNITS
 70
    2
  9
$LUPREC
 70
    4
  9
$SKETCHINC
 40
1
  9
$FILLETRAD
 40
0
  9
$AUNITS
 70
    0
  9
$AUPREC
 70
    2
  9
$MENU
  1
.
  9
$ELEVATION
 40
0
  9
$PELEVATION
 40
0
  9
$THICKNESS
 40
0
  9
$LIMCHECK
 70
    0
  9
$CHAMFERA
 40
0
  9
$CHAMFERB
 40
0
  9
$CHAMFERC
 40
0
  9
$CHAMFERD
 40
0
  9
$SKPOLY
 70
    0
  9
$USRTIMER
 70
    1
  9
$ANGBASE
 50
0
  9
$ANGDIR
 70
    0
  9
$PDMODE
 70
   34
  9
$PDSIZE
 40
0
  9
$PLINEWID
 40
0
  9
$SPLFRAME
 70
    0
  9
$SPLINETYPE
 70
    2
  9
$SPLINESEGS
 70
    8
  9
$HANDSEED
  5
20000
  9
$SURFTAB1
 70
    6
  9
$SURFTAB2
 70
    6
  9
$SURFTYPE
 70
    6
  9
$SURFU
 70
    6
  9
$SURFV
 70
    6
  9
$UCSBASE
  2

  9
$UCSNAME
  2

  9
$UCSORG
 10
0
 20
0
 30
0
  9
$UCSXDIR
 10
1
 20
0
 30
0
  9
$UCSYDIR
 10
0
 20
1
 30
0
  9
$UCSORTHOREF
  2

  9
$UCSORTHOVIEW
 70
    0
  9
$UCSORGTOP
 10
0
 20
0
 30
0
  9
$UCSORGBOTTOM
 10
0
 20
0
 30
0
  9
$UCSORGLEFT
 10
0
 20
0
 30
0
  9
$UCSORGRIGHT
 10
0
 20
0
 30
0
  9
$UCSORGFRONT
 10
0
 20
0
 30
0
  9
$UCSORGBACK
 10
0
 20
0
 30
0
  9
$PUCSBASE
  2

  9
$PUCSNAME
  2

  9
$PUCSORG
 10
0
 20
0
 30
0
  9
$PUCSXDIR
 10
1
 20
0
 30
0
  9
$PUCSYDIR
 10
0
 20
1
 30
0
  9
$PUCSORTHOREF
  2

  9
$PUCSORTHOVIEW
 70
    0
  9
$PUCSORGTOP
 10
0
 20
0
 30
0
  9
$PUCSORGBOTTOM
 10
0
 20
0
 30
0
  9
$PUCSORGLEFT
 10
0
 20
0
 30
0
  9
$PUCSORGRIGHT
 10
0
 20
0
 30
0
  9
$PUCSORGFRONT
 10
0
 20
0
 30
0
  9
$PUCSORGBACK
 10
0
 20
0
 30
0
  9
$USERI1
 70
    0
  9
$USERI2
 70
    0
  9
$USERI3
 70
    0
  9
$USERI4
 70
    0
  9
$USERI5
 70
    0
  9
$USERR1
 40
0
  9
$USERR2
 40
0
  9
$USERR3
 40
0
  9
$USERR4
 40
0
  9
$USERR5
 40
0
  9
$WORLDVIEW
 70
    1
  9
$SHADEDGE
 70
    3
  9
$SHADEDIF
 70
   70
  9
$TILEMODE
 70
    1
  9
$MAXACTVP
 70
   64
  9
$PINSBASE
 10
0
 20
0
 30
0
  9
$PLIMCHECK
 70
    0
  9
$PEXTMIN
 10
0
 20
0
 30
0
  9
$PEXTMAX
 10
0
 20
0
 30
0
  9
$GRIDMODE
 70
    1
  9
$SNAPSTYLE
 70
    0
  9
$PLIMMIN
 10
0
 20
0
  9
$PLIMMAX
 10
210
 20
297
  9
$UNITMODE
 70
    0
  9
$VISRETAIN
 70
    1
  9
$PLINEGEN
 70
    0
  9
$PSLTSCALE
 70
    1
  9
$TREEDEPTH
 70
 3020
  9
$CMLSTYLE
  2
Standard
  9
$CMLJUST
 70
    0
  9
$CMLSCALE
 40
20
  9
$PROXYGRAPHICS
 70
    1
  9
$MEASUREMENT
 70
    1
  9
$CELWEIGHT
370
   -1
  9
$ENDCAPS
280
    0
  9
$JOINSTYLE
280
    0
  9
$LWDISPLAY
290
    0
  9
$INSUNITS
 70
    4
  9
$HYPERLINKBASE
  1

  9
$STYLESHEET
  1

  9
$XEDIT
290
    1
  9
$CEPSNTYPE
380
    0
  9
$PSTYLEMODE
290
    1
  9
$EXTNAMES
290
    1
  9
$PSVPSCALE
 40
1
  9
$OLESTARTUP
290
    0
  9
$SORTENTS
280
  127
  9
$INDEXCTL
280
    0
  9
$HIDETEXT
280
    1
  9
$XCLIPFRAME
290
    0
  9
$HALOGAP
280
    0
  9
$OBSCOLOR
 70
  257
  9
$OBSLTYPE
280
    0
  9
$INTERSECTIONDISPLAY
280
    0
  9
$INTERSECTIONCOLOR
 70
  257
  9
$DIMASSOC
280
    1
  9
$PROJECTNAME
  1

  9
$CAMERADISPLAY
290
    0
  9
$LENSLENGTH
 40
50
  9
$CAMERAHEIGHT
 40
0
  9
$STEPSPERSEC
 40
2
  9
$STEPSIZE
 40
50
  9
$3DDWFPREC
 40
2
  9
$PSOLWIDTH
 40
5
  9
$PSOLHEIGHT
 40
80
  9
$LOFTANG1
 40
1.570796326794897
  9
$LOFTANG2
 40
1.570796326794897
  9
$LOFTMAG1
 40
0
  9
$LOFTMAG2
 40
0
  9
$LOFTPARAM
 70
    7
  9
$LOFTNORMALS
280
    1
  9
$LATITUDE
 40
1
  9
$LONGITUDE
 40
1
  9
$NORTHDIRECTION
 40
0
  9
$TIMEZONE
 70
-8000
  9
$LIGHTGLYPHDISPLAY
280
    1
  9
$TILEMODELIGHTSYNCH
280
    1
  9
$SOLIDHIST
280
    1
  9
$SHOWHIST
280
    1
  9
$DWFFRAME
280
    2
  9
$DGNFRAME
280
    0
  9
$REALWORLDSCALE
290
    1
  9
$INTERFERECOLOR
 62
    1
  9
$CSHADOW
280
    0
  9
$SHADOWPLANELOCATION
 40
0
  0
ENDSEC
  0
SECTION
  2
CLASSES
  0
ENDSEC
  0
SECTION
  2
TABLES
  0
TABLE
  2
VPORT
  5
8
330
0
100
AcDbSymbolTable
 70
    1
  0
VPORT
  5
31
330
2
100
AcDbSymbolTableRecord
100
AcDbViewportTableRecord
  2
*ACTIVE
 70
    0
 10
0
 20
0
 11
1
 21
1
 12
72.73656221198122
 22
62.79436175115178
 13
0
 23
0
 14
10
 24
10
 15
10
 25
10
 16
0
 26
0
 36
1
 17
0
 27
0
 37
0
 40
51.18071889400898
 41
1.777027027027027
 42
50
 43
0
 44
0
 50
0
 51
0
 71
    0
 72
  100
 73
    1
 74
    3
 75
    0
 76
    1
 77
    0
 78
    0
281
    0
 65
    1
110
0
120
0
130
0
111
1
121
0
131
0
112
0
122
1
132
0
 79
    0
146
0
348
10020
 60
    7
 61
    5
292
1
282
    1
141
0
142
0
 63
  250
421
3358443
  0
ENDTAB
  0
TABLE
  2
LTYPE
  5
5
330
0
100
AcDbSymbolTable
 70
    4
  0
LTYPE
  5
14
330
5
100
AcDbSymbolTableRecord
100
AcDbLinetypeTableRecord
  2
ByBlock
 70
    0
  3

 72
   65
 73
    0
 40
0
  0
LTYPE
  5
15
330
5
100
AcDbSymbolTableRecord
100
AcDbLinetypeTableRecord
  2
ByLayer
 70
    0
  3

 72
   65
 73
    0
 40
0
  0
LTYPE
  5
16
330
5
100
AcDbSymbolTableRecord
100
AcDbLinetypeTableRecord
  2
Continuous
 70
    0
  3
Solid line
 72
   65
 73
    0
 40
0
  0
LTYPE
  5
32
330
5
100
AcDbSymbolTableRecord
100
AcDbLinetypeTableRecord
  2
DOT
 70
    0
  3
Dot . . . . . . . . . . . . . . . . . . . . . .
 72
   65
 73
    2
 40
6.35
 49
0
 74
    0
 49
-6.35
 74
    0
  0
LTYPE
  5
33
330
5
100
AcDbSymbolTableRecord
100
AcDbLinetypeTableRecord
  2
DOTTINY
 70
    0
  3
Dot (.15x) .....................................
 72
   65
 73
    2
 40
0.9525
 49
0
 74
    0
 49
-0.9525
 74
    0
  0
LTYPE
  5
34
330
5
100
AcDbSymbolTableRecord
100
AcDbLinetypeTableRecord
  2
DOT2
 70
    0
  3
Dot (.5x) .....................................
 72
   65
 73
    2
 40
3.175
 49
0
 74
    0
 49
-3.175
 74
    0
  0
LTYPE
  5
35
330
5
100
AcDbSymbolTableRecord
100
AcDbLinetypeTableRecord
  2
DOTX2
 70
    0
  3
Dot (2x) .  .  .  .  .  .  .  .  .  .  .  .  .
 72
   65
 73
    2
 40
12.7
 49
0
 74
    0
 49
-12.7
 74
    0
  0
LTYPE
  5
36
330
5
100
AcDbSymbolTableRecord
100
AcDbLinetypeTableRecord
  2
DASHED
 70
    0
  3
Dashed _ _ _ _ _ _ _ _ _ _ _ _ _ _ _ _ _
 72
   65
 73
    2
 40
19.05
 49
12.7
 74
    0
 49
-6.35
 74
    0
  0
LTYPE
  5
37
330
5
100
AcDbSymbolTableRecord
100
AcDbLinetypeTableRecord
  2
DASHEDTINY
 70
    0
  3
Dashed (.15x) _ _ _ _ _ _ _ _ _ _ _ _ _ _ _ _ _
 72
   65
 73
    2
 40
2.8575
 49
1.905
 74
    0
 49
-0.9525
 74
    0
  0
LTYPE
  5
38
330
5
100
AcDbSymbolTableRecord
100
AcDbLinetypeTableRecord
  2
DASHED2
 70
    0
  3
Dashed (.5x) _ _ _ _ _ _ _ _ _ _ _ _ _ _ _ _ _
 72
   65
 73
    2
 40
9.524999999999999
 49
6.35
 74
    0
 49
-3.175
 74
    0
  0
LTYPE
  5
39
330
5
100
AcDbSymbolTableRecord
100
AcDbLinetypeTableRecord
  2
DASHEDX2
 70
    0
  3
Dashed (2x) ____  ____  ____  ____  ____  ___
 72
   65
 73
    2
 40
38.09999999999999
 49
25.4
 74
    0
 49
-12.7
 74
    0
  0
LTYPE
  5
3A
330
5
100
AcDbSymbolTableRecord
100
AcDbLinetypeTableRecord
  2
DASHDOT
 70
    0
  3
Dash dot __ . __ . __ . __ . __ . __ . __ . __
 72
   65
 73
    4
 40
25.4
 49
12.7
 74
    0
 49
-6.35
 74
    0
 49
0
 74
    0
 49
-6.35
 74
    0
  0
LTYPE
  5
3B
330
5
100
AcDbSymbolTableRecord
100
AcDbLinetypeTableRecord
  2
DASHDOTTINY
 70
    0
  3
Dash dot (.15x) _._._._._._._._._._._._._._._.
 72
   65
 73
    4
 40
3.81
 49
1.905
 74
    0
 49
-0.9525
 74
    0
 49
0
 74
    0
 49
-0.9525
 74
    0
  0
LTYPE
  5
3C
330
5
100
AcDbSymbolTableRecord
100
AcDbLinetypeTableRecord
  2
DASHDOT2
 70
    0
  3
Dash dot (.5x) _._._._._._._._._._._._._._._.
 72
   65
 73
    4
 40
12.7
 49
6.35
 74
    0
 49
-3.175
 74
    0
 49
0
 74
    0
 49
-3.175
 74
    0
  0
LTYPE
  5
3D
330
5
100
AcDbSymbolTableRecord
100
AcDbLinetypeTableRecord
  2
DASHDOTX2
 70
    0
  3
Dash dot (2x) ____  .  ____  .  ____  .  ___
 72
   65
 73
    4
 40
50.8
 49
25.4
 74
    0
 49
-12.7
 74
    0
 49
0
 74
    0
 49
-12.7
 74
    0
  0
LTYPE
  5
3E
330
5
100
AcDbSymbolTableRecord
100
AcDbLinetypeTableRecord
  2
DIVIDE
 70
    0
  3
Divide ____ . . ____ . . ____ . . ____ . . ____
 72
   65
 73
    6
 40
31.75
 49
12.7
 74
    0
 49
-6.35
 74
    0
 49
0
 74
    0
 49
-6.35
 74
    0
 49
0
 74
    0
 49
-6.35
 74
    0
  0
LTYPE
  5
3F
330
5
100
AcDbSymbolTableRecord
100
AcDbLinetypeTableRecord
  2
DIVIDETINY
 70
    0
  3
Divide (.15x) __..__..__..__..__..__..__..__.._
 72
   65
 73
    6
 40
4.7625
 49
1.905
 74
    0
 49
-0.9525
 74
    0
 49
0
 74
    0
 49
-0.9525
 74
    0
 49
0
 74
    0
 49
-0.9525
 74
    0
  0
LTYPE
  5
40
330
5
100
AcDbSymbolTableRecord
100
AcDbLinetypeTableRecord
  2
DIVIDE2
 70
    0
  3
Divide (.5x) __..__..__..__..__..__..__..__.._
 72
   65
 73
    6
 40
15.875
 49
6.35
 74
    0
 49
-3.175
 74
    0
 49
0
 74
    0
 49
-3.175
 74
    0
 49
0
 74
    0
 49
-3.175
 74
    0
  0
LTYPE
  5
41
330
5
100
AcDbSymbolTableRecord
100
AcDbLinetypeTableRecord
  2
DIVIDEX2
 70
    0
  3
Divide (2x) ________  .  .  ________  .  .  _
 72
   65
 73
    6
 40
63.5
 49
25.4
 74
    0
 49
-12.7
 74
    0
 49
0
 74
    0
 49
-12.7
 74
    0
 49
0
 74
    0
 49
-12.7
 74
    0
  0
LTYPE
  5
42
330
5
100
AcDbSymbolTableRecord
100
AcDbLinetypeTableRecord
  2
BORDER
 70
    0
  3
Border __ __ . __ __ . __ __ . __ __ . __ __ .
 72
   65
 73
    6
 40
44.45
 49
12.7
 74
    0
 49
-6.35
 74
    0
 49
12.7
 74
    0
 49
-6.35
 74
    0
 49
0
 74
    0
 49
-6.35
 74
    0
  0
LTYPE
  5
43
330
5
100
AcDbSymbolTableRecord
100
AcDbLinetypeTableRecord
  2
BORDERTINY
 70
    0
  3
Border (.15x) __.__.__.__.__.__.__.__.__.__.__.
 72
   65
 73
    6
 40
6.6675
 49
1.905
 74
    0
 49
-0.9525
 74
    0
 49
1.905
 74
    0
 49
-0.9525
 74
    0
 49
0
 74
    0
 49
-0.9525
 74
    0
  0
LTYPE
  5
44
330
5
100
AcDbSymbolTableRecord
100
AcDbLinetypeTableRecord
  2
BORDER2
 70
    0
  3
Border (.5x) __.__.__.__.__.__.__.__.__.__.__.
 72
   65
 73
    6
 40
22.225
 49
6.35
 74
    0
 49
-3.175
 74
    0
 49
6.35
 74
    0
 49
-3.175
 74
    0
 49
0
 74
    0
 49
-3.175
 74
    0
  0
LTYPE
  5
45
330
5
100
AcDbSymbolTableRecord
100
AcDbLinetypeTableRecord
  2
BORDERX2
 70
    0
  3
Border (2x) ____  ____  .  ____  ____  .  ___
 72
   65
 73
    6
 40
88.89999999999999
 49
25.4
 74
    0
 49
-12.7
 74
    0
 49
25.4
 74
    0
 49
-12.7
 74
    0
 49
0
 74
    0
 49
-12.7
 74
    0
  0
LTYPE
  5
46
330
5
100
AcDbSymbolTableRecord
100
AcDbLinetypeTableRecord
  2
CENTER
 70
    0
  3
Center ____ _ ____ _ ____ _ ____ _ ____ _ ____
 72
   65
 73
    4
 40
50.8
 49
31.75
 74
    0
 49
-6.35
 74
    0
 49
6.35
 74
    0
 49
-6.35
 74
    0
  0
LTYPE
  5
47
330
5
100
AcDbSymbolTableRecord
100
AcDbLinetypeTableRecord
  2
CENTERTINY
 70
    0
  3
Center (.15x) ___ _ ___ _ ___ _ ___ _ ___ _ ___
 72
   65
 73
    4
 40
7.62
 49
4.7625
 74
    0
 49
-0.9525
 74
    0
 49
0.9525
 74
    0
 49
-0.9525
 74
    0
  0
LTYPE
  5
48
330
5
100
AcDbSymbolTableRecord
100
AcDbLinetypeTableRecord
  2
CENTER2
 70
    0
  3
Center (.5x) ___ _ ___ _ ___ _ ___ _ ___ _ ___
 72
   65
 73
    4
 40
28.575
 49
19.05
 74
    0
 49
-3.175
 74
    0
 49
3.175
 74
    0
 49
-3.175
 74
    0
  0
LTYPE
  5
49
330
5
100
AcDbSymbolTableRecord
100
AcDbLinetypeTableRecord
  2
CENTERX2
 70
    0
  3
Center (2x) ________  __  ________  __  _____
 72
   65
 73
    4
 40
101.6
 49
63.5
 74
    0
 49
-12.7
 74
    0
 49
12.7
 74
    0
 49
-12.7
 74
    0
  0
ENDTAB
  0
TABLE
  2
LAYER
  5
2
330
0
100
AcDbSymbolTable
 70
    1
  0
LAYER
  5
10
330
2
100
AcDbSymbolTableRecord
100
AcDbLayerTableRecord
  2
0
 70
    0
 62
    7
  6
CONTINUOUS
370
    0
390
F
  0
LAYER
  5
4A
330
2
100
AcDbSymbolTableRecord
100
AcDbLayerTableRecord
  2
cut
 70
    0
 62
    1
  6
CONTINUOUS
370
    0
390
F
  0
LAYER
  5
4B
330
2
100
AcDbSymbolTableRecord
100
AcDbLayerTableRecord
  2
holes
 70
    0
 62
    3
  6
CONTINUOUS
370
    0
390
F
  0
LAYER
  5
4C
330
2
100
AcDbSymbolTableRecord
100
AcDbLayerTableRecord
  2
outline
 70
    0
 62
    5
  6
CONTINUOUS
370
    0
390
F
  0
ENDTAB
  0
TABLE
  2
STYLE
  5
3
330
0
100
AcDbSymbolTable
 70
    3
  0
STYLE
  5
4D
330
2
100
AcDbSymbolTableRecord
100
AcDbTextStyleTableRecord
  2
Standard
 70
    0
 40
0
 41
1
 50
0
 71
    0
 42
1
  3
txt
  4

  0
ENDTAB
  0
TABLE
  2
VIEW
  5
6
330
0
100
AcDbSymbolTable
 70
    0
  0
ENDTAB
  0
TABLE
  2
UCS
  5
7
330
0
100
AcDbSymbolTable
 70
    0
  0
ENDTAB
  0
TABLE
  2
APPID
  5
9
330
0
100
AcDbSymbolTable
 70
    1
  0
APPID
  5
12
330
9
100
AcDbSymbolTableRecord
100
AcDbRegAppTableRecord
  2
ACAD
 70
    0
  0
APPID
  5
4E
330
9
100
AcDbSymbolTableRecord
100
AcDbRegAppTableRecord
  2
LibreCad
 70
    0
  0
ENDTAB
  0
TABLE
  2
DIMSTYLE
  5
A
330
0
100
AcDbSymbolTable
 70
    1
100
AcDbDimStyleTable
 71
    1
  0
DIMSTYLE
105
4F
330
A
100
AcDbSymbolTableRecord
100
AcDbDimStyleTableRecord
  2
Standard
 70
    0
 40
2.5
 41
2.5
 42
0.625
 43
0.38
 44
1.25
 45
0
 46
0
 47
0
 48
0
 49
1
140
2.5
141
0.09
142
0
143
25.4
144
1
145
0
146
1
147
0.625
148
0
 71
    0
 72
    0
 73
    0
 74
    1
 75
    0
 76
    0
 77
    0
 78
    8
 79
    0
170
    0
171
    2
172
    0
173
    0
174
    0
175
    0
176
    0
177
    0
178
    0
179
    0
271
    2
272
    4
273
    2
274
    2
275
    0
276
    0
277
    2
278
   44
279
    0
280
    0
281
    0
282
    0
283
    1
284
    0
285
    0
286
    0
288
    0
289
    3
340
STANDARD
341

371
   -2
372
   -2
  0
ENDTAB
  0
TABLE
  2
BLOCK_RECORD
  5
1
330
0
100
AcDbSymbolTable
 70
    2
  0
BLOCK_RECORD
  5
1F
330
1
100
AcDbSymbolTableRecord
100
AcDbBlockTableRecord
  2
*Model_Space
 70
    0
280
    1
281
    0
  0
BLOCK_RECORD
  5
1E
330
1
100
AcDbSymbolTableRecord
100
AcDbBlockTableRecord
  2
*Paper_Space
 70
    0
280
    1
281
    0
  0
ENDTAB
  0
ENDSEC
  0
SECTION
  2
BLOCKS
  0
BLOCK
  5
20
330
1F
100
AcDbEntity
  8
0
100
AcDbBlockBegin
  2
*Model_Space
 70
    0
 10
0
 20
0
 30
0
  3
*Model_Space
  1

  0
ENDBLK
  5
21
330
1F
100
AcDbEntity
  8
0
100
AcDbBlockEnd
  0
BLOCK
  5
1C
330
1B
100
AcDbEntity
  8
0
100
AcDbBlockBegin
  2
*Paper_Space
 70
    0
 10
0
 20
0
 30
0
  3
*Paper_Space
  1

  0
ENDBLK
  5
1D
330
1F
100
AcDbEntity
  8
0
100
AcDbBlockEnd
  0
ENDSEC
  0
SECTION
  2
ENTITIES
  0
CIRCLE
  5
50
100
AcDbEntity
  8
holes
  6
ByLayer
 62
  256
370
   -1
100
AcDbCircle
 10
82.32233047033631
 20
117.6776695296637
 40
1
  0
LWPOLYLINE
  5
51
100
AcDbEntity
  8
outline
  6
ByLayer
 62
  256
370
   -1
100
AcDbPolyline
 90
    4
 70
    1
 43
0
 10
83.65605036713566
 20
120.3648969552609
 42
0.2740056216963713
 10
85.68940389733311
 20
120.5160189897147
 42
-11.31296841801219
 10
79.48398101028526
 20
114.3105961026669
 42
0.2740056216963737
 10
79.63510304473915
 20
116.3439496328644
 42
-0.7185205193385964
  0
LWPOLYLINE
  5
52
100
AcDbEntity
  8
cut
  6
ByLayer
 62
  256
370
   -1
100
AcDbPolyline
 90
    8
 70
    1
 43
0
 10
79.9813342593567
 20
101.4207677157771
 42
0.2664117458532456
 10
79.99109469896797
 20
101.4571941723108
 42
-0.2664117458528155
 10
81.94318262123389
 20
108.7424854790482
 42
0.2664117458530394
 10
81.95294306084509
 20
108.7789119355818
 42
-0.2213467923986825
 10
83.07780731866202
 20
115.0770276254921
 42
0.9439983073667626
 10
83.01849253683068
 20
115.1240207708904
 42
0.2372084154750378
 10
77.73157275689512
 20
95.39296753663052
 42
0.9439983073662216
 10
77.80643743747996
 20
95.4040074034334
 42
-0.2213467923986653
  0
LWPOLYLINE
  5
53
100
AcDbEntity
  8
cut
  6
ByLayer
 62
  256
370
   -1
100
AcDbPolyline
 90
    8
 70
    1
 43
0
 10
91.221088064418
 20
118.0470569391547
 42
0.2664117458533123
 10
91.25751452095166
 20
118.0568173787661
 42
-0.2664117458528152
 10
98.54280582768911
 20
120.0089053010319
 42
0.2664117458530204
 10
98.57923228422293
 20
120.0186657406434
 42
-0.2213467923986824
 10
104.5959925965669
 20
122.1935625625199
 42
0.9439983073668806
 10
104.6070324633699
 20
122.2684272431049
 42
0.237208415475038
 10
84.87597922911009
 20
116.9815074631697
 42
0.943998307365851
 10
84.92297237450838
 20
116.9221926813383
 42
-0.2213467923986645
  0
LWPOLYLINE
  5
54
100
AcDbEntity
  8
cut
  6
ByLayer
 62
  256
370
   -1
100
AcDbPolyline
 90
    8
 70
    1
 43
0
 10
88.76024619493855
 20
83.3737107766222
 42
0.2664117458531485
 10
88.7335801780163
 20
83.40037679354469
 42
-0.2664117458528162
 10
83.40037679354465
 20
88.7335801780161
 42
0.2664117458529861
 10
83.37371077662213
 20
88.76024619493833
 42
-0.2213467923986814
 10
78.48181472209507
 20
92.88346506297222
 42
0.943998307366812
 10
78.41146007346074
 20
92.85559352778549
 42
0.2372084154750377
 10
92.85559352778493
 20
78.41146007346076
 42
0.9439983073664344
 10
92.88346506297165
 20
78.48181472209512
 42
-0.2213467923986645
  0
LWPOLYLINE
  5
55
100
AcDbEntity
  8
cut
  6
ByLayer
 62
  256
370
   -1
100
AcDbPolyline
 90
    8
 70
    1
 43
0
 10
111.2397538050615
 20
116.6262892233778
 42
0.2664117458532855
 10
111.2664198219837
 20
116.5996232064553
 42
-0.2664117458528154
 10
116.5996232064554
 20
111.2664198219839
 42
0.2664117458528861
 10
116.6262892233779
 20
111.2397538050616
 42
-0.221346792398682
 10
121.5181852779049
 20
107.1165349370278
 42
0.9439983073664612
 10
121.5885399265393
 20
107.1444064722145
 42
0.237208415475038
 10
107.144406472215
 20
121.5885399265391
 42
0.9439983073661976
 10
107.1165349370284
 20
121.5181852779048
 42
-0.2213467923986653
  0
LWPOLYLINE
  5
56
100
AcDbEntity
  8
cut
  6
ByLayer
 62
  256
370
   -1
100
AcDbPolyline
 90
    8
 70
    1
 43
0
 10
108.778911935582
 20
81.95294306084519
 42
0.2664117458532569
 10
108.7424854790484
 20
81.9431826212339
 42
-0.2664117458528159
 10
101.4571941723109
 20
79.99109469896801
 42
0.2664117458529009
 10
101.420767715777
 20
79.98133425935653
 42
-0.2213467923986815
 10
95.40400740343306
 20
77.80643743748014
 42
0.9439983073668594
 10
95.39296753663002
 20
77.73157275689512
 42
0.2372084154750382
 10
115.1240207708898
 20
83.01849253683022
 42
0.9439983073663512
 10
115.0770276254917
 20
83.07780731866173
 42
-0.2213467923986652
  0
LWPOLYLINE
  5
57
100
AcDbEntity
  8
cut
  6
ByLayer
 62
  256
370
   -1
100
AcDbPolyline
 90
    8
 70
    1
 43
0
 10
120.0186657406433
 20
98.57923228422287
 42
0.2664117458532001
 10
120.008905301032
 20
98.54280582768915
 42
-0.2664117458528159
 10
118.0568173787661
 20
91.25751452095176
 42
0.2664117458530059
 10
118.0470569391549
 20
91.22108806441815
 42
-0.2213467923986822
 10
116.922192681338
 20
84.92297237450794
 42
0.9439983073670837
 10
116.9815074631693
 20
84.87597922910959
 42
0.2372084154750384
 10
122.2684272431048
 20
104.6070324633694
 42
0.9439983073663534
 10
122.19356256252
 20
104.5959925965666
 42
-0.2213467923986643
  0
LWPOLYLINE
  5
58
100
AcDbEntity
  8
cut
  6
ByLayer
 62
  256
370
   -1
100
AcDbPolyline
 90
    6
 70
    1
 43
0
 10
84.15227090325172
 20
115.3599294201595
 42
0.9048750780274569
 10
84.0794179901845
 20
115.3404085409369
 42
-0.2151329367067896
 10
82.46586398975207
 20
109.318543030567
 42
0.9048750780271043
 10
82.51919602359676
 20
109.2652109967223
 42
-0.2151329367067902
 10
88.5410615339667
 20
110.8787649971545
 42
0.9048750780277517
 10
88.56058241318949
 20
110.951617910222
 42
-0.215132936706796
  0
LWPOLYLINE
  5
59
100
AcDbEntity
  8
cut
  6
ByLayer
 62
  256
370
   -1
100
AcDbPolyline
 90
    6
 70
    1
 43
0
 10
90.73478900327771
 20
117.4808039764031
 42
0.9048750780270537
 10
90.68145696943319
 20
117.5341360102481
 42
-0.2151329367067906
 10
84.65959145906332
 20
115.9205820098156
 42
0.9048750780271591
 10
84.64007057984055
 20
115.847729096748
 42
-0.2151329367067897
 10
89.04838208977817
 20
111.4394175868107
 42
0.9048750780273277
 10
89.12123500284537
 20
111.4589384660333
 42
-0.215132936706796
  0
LWPOLYLINE
  5
5A
100
AcDbEntity
  8
cut
  6
ByLayer
 62
  256
370
   -1
100
AcDbPolyline
 90
    6
 70
    1
 43
0
 10
86.5792131720896
 20
103.5570472338833
 42
0.904875078027693
 10
86.59873405131233
 20
103.6299001469508
 42
-0.2151329367067895
 10
82.19042254137474
 20
108.0382116568882
 42
0.9048750780273169
 10
82.11756962830731
 20
108.0186907776654
 42
-0.2151329367067892
 10
80.50401562787482
 20
101.9968252672957
 42
0.9048750780274607
 10
80.5573476617194
 20
101.9434932334509
 42
-0.2151329367067966
  0
LWPOLYLINE
  5
5B
100
AcDbEntity
  8
cut
  6
ByLayer
 62
  256
370
   -1
100
AcDbPolyline
 90
    6
 70
    1
 43
0
 10
88.77294064140088
 20
110.1590862131322
 42
0.9048750780274437
 10
88.71960860755607
 20
110.2124182469768
 42
-0.2151329367067896
 10
82.69774309718602
 20
108.5988642465442
 42
0.9048750780266481
 10
82.67822221796334
 20
108.5260113334768
 42
-0.2151329367067896
 10
87.08653372790086
 20
104.1176998235394
 42
0.9048750780278394
 10
87.15938664096828
 20
104.137220702762
 42
-0.2151329367067964
  0
LWPOLYLINE
  5
5C
100
AcDbEntity
  8
cut
  6
ByLayer
 62
  256
370
   -1
100
AcDbPolyline
 90
    6
 70
    1
 43
0
 10
95.86277929723798
 20
112.8406133590317
 42
0.904875078027822
 10
95.88230017646079
 20
112.9134662720993
 42
-0.2151329367067896
 10
91.47398866652316
 20
117.3217777820366
 42
0.9048750780271706
 10
91.40113575345566
 20
117.3022569028139
 42
-0.2151329367067903
 10
89.78758175302296
 20
111.2803913924438
 42
0.9048750780274434
 10
89.84091378686779
 20
111.2270593585993
 42
-0.2151329367067966
  0
LWPOLYLINE
  5
5D
100
AcDbEntity
  8
cut
  6
ByLayer
 62
  256
370
   -1
100
AcDbPolyline
 90
    6
 70
    1
 43
0
 10
96.37009985304928
 20
113.4012659486878
 42
0.9048750780276037
 10
96.44295276611662
 20
113.4207868279105
 42
-0.2151329367067896
 10
98.05650676654868
 20
119.44265233828
 42
0.9048750780277324
 10
98.00317473270427
 20
119.4959843721252
 42
-0.2151329367067898
 10
91.9813092223343
 20
117.8824303716928
 42
0.9048750780277223
 10
91.96178834311154
 20
117.8095774586253
 42
-0.2151329367067964
  0
LWPOLYLINE
  5
5E
100
AcDbEntity
  8
cut
  6
ByLayer
 62
  256
370
   -1
100
AcDbPolyline
 90
    6
 70
    1
 43
0
 10
105.3782245298202
 20
121.4045007001575
 42
0.9048750780275627
 10
105.3248924959756
 20
121.4578327340024
 42
-0.2151329367067903
 10
99.30302698560533
 20
119.8442787335695
 42
0.9048750780274165
 10
99.28350610638292
 20
119.7714258205023
 42
-0.2151329367067902
 10
103.6918176163202
 20
115.3631143105647
 42
0.9048750780276366
 10
103.7646705293878
 20
115.3826351897876
 42
-0.2151329367067963
  0
LWPOLYLINE
  5
5F
100
AcDbEntity
  8
cut
  6
ByLayer
 62
  256
370
   -1
100
AcDbPolyline
 90
    6
 70
    1
 43
0
 10
103.1844970605091
 20
114.8024617209089
 42
0.9048750780277904
 10
103.2040179397319
 20
114.8753146339764
 42
-0.2151329367067895
 10
98.79570642979432
 20
119.2836261439138
 42
0.9048750780271706
 10
98.72285351672686
 20
119.264105264691
 42
-0.215132936706791
 10
97.10929951629423
 20
113.242239754321
 42
0.904875078027257
 10
97.16263155013898
 20
113.1889077204764
 42
-0.2151329367067959
  0
LWPOLYLINE
  5
60
100
AcDbEntity
  8
cut
  6
ByLayer
 62
  256
370
   -1
100
AcDbPolyline
 90
    6
 70
    1
 43
0
 10
96.09465840467173
 20
112.1209345750091
 42
0.9048750780270537
 10
96.04132637082721
 20
112.174266608854
 42
-0.2151329367067908
 10
90.01946086045737
 20
110.5607126084216
 42
0.9048750780272586
 10
89.99993998123459
 20
110.487859695354
 42
-0.2151329367067897
 10
94.40825149117221
 20
106.0795481854167
 42
0.9048750780275364
 10
94.48110440423939
 20
106.0990690646392
 42
-0.2151329367067965
  0
LWPOLYLINE
  5
61
100
AcDbEntity
  8
cut
  6
ByLayer
 62
  256
370
   -1
100
AcDbPolyline
 90
    6
 70
    1
 43
0
 10
89.51214030464574
 20
110.0000600187655
 42
0.9048750780277507
 10
89.43928739157852
 20
109.9805391395429
 42
-0.2151329367067898
 10
87.82573339114609
 20
103.9586736291729
 42
0.9048750780272231
 10
87.87906542499086
 20
103.9053415953282
 42
-0.2151329367067903
 10
93.90093093536073
 20
105.5188955957604
 42
0.9048750780278898
 10
93.92045181458352
 20
105.591748508828
 42
-0.2151329367067958
  0
LWPOLYLINE
  5
62
100
AcDbEntity
  8
cut
  6
ByLayer
 62
  256
370
   -1
100
AcDbPolyline
 90
    6
 70
    1
 43
0
 10
86.81109227952376
 20
102.8373684498611
 42
0.9048750780276814
 10
86.75776024567878
 20
102.8907004837058
 42
-0.2151329367067898
 10
80.73589473530889
 20
101.2771464832731
 42
0.9048750780270417
 10
80.71637385608621
 20
101.2042935702056
 42
-0.2151329367067892
 10
85.12468536602367
 20
96.79598206026826
 42
0.9048750780276548
 10
85.19753827909105
 20
96.81550293949091
 42
-0.2151329367067964
  0
LWPOLYLINE
  5
63
100
AcDbEntity
  8
cut
  6
ByLayer
 62
  256
370
   -1
100
AcDbPolyline
 90
    6
 70
    1
 43
0
 10
80.22857417949767
 20
100.7164938936174
 42
0.9048750780279274
 10
80.15572126643013
 20
100.6969730143945
 42
-0.2151329367067898
 10
78.54216726599795
 20
94.67510750402479
 42
0.9048750780263748
 10
78.59549929984249
 20
94.62177547017984
 42
-0.21513293670679
 10
84.61736481021266
 20
96.23532947061237
 42
0.9048750780280661
 10
84.63688568943519
 20
96.30818238367965
 42
-0.2151329367067964
  0
LWPOLYLINE
  5
64
100
AcDbEntity
  8
cut
  6
ByLayer
 62
  256
370
   -1
100
AcDbPolyline
 90
    6
 70
    1
 43
0
 10
78.77404637343163
 20
93.95542872000208
 42
0.9048750780276333
 10
78.75452549420913
 20
93.88257580693481
 42
-0.2151329367067896
 10
83.16283700414672
 20
89.47426429699745
 42
0.9048750780272287
 10
83.23568991721385
 20
89.49378517621979
 42
-0.2151329367067903
 10
84.84924391764649
 20
95.51565068658978
 42
0.9048750780274607
 10
84.79591188380165
 20
95.56898272043438
 42
-0.2151329367067957
  0
LWPOLYLINE
  5
65
100
AcDbEntity
  8
cut
  6
ByLayer
 62
  256
370
   -1
100
AcDbPolyline
 90
    6
 70
    1
 43
0
 10
87.55029194276862
 20
102.6783422554943
 42
0.9048750780270705
 10
87.47743902970129
 20
102.6588213762716
 42
-0.2151329367067901
 10
85.86388502926921
 20
96.63695586590202
 42
0.9048750780267312
 10
85.91721706311364
 20
96.58362383205693
 42
-0.2151329367067902
 10
91.93908257348362
 20
98.19717783248929
 42
0.9048750780279869
 10
91.95860345270637
 20
98.27003074555681
 42
-0.2151329367067963
  0
LWPOLYLINE
  5
66
100
AcDbEntity
  8
cut
  6
ByLayer
 62
  256
370
   -1
100
AcDbPolyline
 90
    6
 70
    1
 43
0
 10
94.13281004279492
 20
104.7992168117382
 42
0.9048750780275797
 10
94.07947800895003
 20
104.8525488455829
 42
-0.2151329367067901
 10
88.05761249858004
 20
103.2389948451502
 42
0.9048750780271116
 10
88.03809161935736
 20
103.1661419320828
 42
-0.2151329367067903
 10
92.44640312929485
 20
98.75783042214542
 42
0.9048750780273058
 10
92.51925604236227
 20
98.77735130136809
 42
-0.2151329367067956
  0
LWPOLYLINE
  5
67
100
AcDbEntity
  8
cut
  6
ByLayer
 62
  256
370
   -1
100
AcDbPolyline
 90
    6
 70
    1
 43
0
 10
101.222648698632
 20
107.4807439576377
 42
0.904875078027822
 10
101.2421695778548
 20
107.5535968707052
 42
-0.2151329367067902
 10
96.83385806791718
 20
111.9619083806426
 42
0.9048750780271706
 10
96.7610051548497
 20
111.9423875014199
 42
-0.2151329367067898
 10
95.14745115441698
 20
105.9205219910498
 42
0.9048750780272398
 10
95.20078318826189
 20
105.8671899572052
 42
-0.2151329367067965
  0
LWPOLYLINE
  5
68
100
AcDbEntity
  8
cut
  6
ByLayer
 62
  256
370
   -1
100
AcDbPolyline
 90
    6
 70
    1
 43
0
 10
103.416376167943
 20
114.0827829368863
 42
0.9048750780269517
 10
103.3630441340985
 20
114.1361149707312
 42
-0.2151329367067903
 10
97.34117862372847
 20
112.5225609702986
 42
0.9048750780270708
 10
97.32165774450577
 20
112.4497080572311
 42
-0.2151329367067895
 10
101.7299692544433
 20
108.0413965472938
 42
0.9048750780273468
 10
101.8028221675107
 20
108.0609174265164
 42
-0.2151329367067964
  0
LWPOLYLINE
  5
69
100
AcDbEntity
  8
cut
  6
ByLayer
 62
  256
370
   -1
100
AcDbPolyline
 90
    6
 70
    1
 43
0
 10
110.5062148237802
 20
116.764310082786
 42
0.9048750780271221
 10
110.5257357030028
 20
116.8371629958533
 42
-0.2151329367067904
 10
106.1174241930652
 20
121.2454745057906
 42
0.9048750780267285
 10
106.0445712799982
 20
121.2259536265682
 42
-0.2151329367067903
 10
104.4310172795655
 20
115.2040881161983
 42
0.9048750780270705
 10
104.4843493134103
 20
115.1507560823536
 42
-0.2151329367067956
  0
LWPOLYLINE
  5
6A
100
AcDbEntity
  8
cut
  6
ByLayer
 62
  256
370
   -1
100
AcDbPolyline
 90
    6
 70
    1
 43
0
 10
85.58844358089171
 20
95.35662449222336
 42
0.9048750780277719
 10
85.51559066782417
 20
95.33710361300044
 42
-0.2151329367067901
 10
83.90203666739197
 20
89.31523810263076
 42
0.9048750780265953
 10
83.95536870123645
 20
89.26190606878586
 42
-0.2151329367067901
 10
89.9772342116067
 20
90.87546006921836
 42
0.904875078027379
 10
89.99675509082923
 20
90.94831298228561
 42
-0.2151329367067964
  0
LWPOLYLINE
  5
6B
100
AcDbEntity
  8
cut
  6
ByLayer
 62
  256
370
   -1
100
AcDbPolyline
 90
    6
 70
    1
 43
0
 10
86.09576413670278
 20
95.91727708187919
 42
0.9048750780281248
 10
86.07624325748002
 20
95.84442416881168
 42
-0.2151329367067896
 10
90.48455476741762
 20
91.43611265887432
 42
0.9048750780270153
 10
90.5574076804851
 20
91.45563353809705
 42
-0.2151329367067906
 10
92.17096168091778
 20
97.47749904846705
 42
0.9048750780275627
 10
92.11762964707287
 20
97.53083108231164
 42
-0.2151329367067957
  0
LWPOLYLINE
  5
6C
100
AcDbEntity
  8
cut
  6
ByLayer
 62
  256
370
   -1
100
AcDbPolyline
 90
    6
 70
    1
 43
0
 10
94.87200970603976
 20
104.6401906173714
 42
0.9048750780275953
 10
94.79915679297257
 20
104.6206697381488
 42
-0.2151329367067898
 10
93.18560279254012
 20
98.5988042277789
 42
0.9048750780272231
 10
93.23893482638491
 20
98.54547219393416
 42
-0.2151329367067903
 10
99.26080033675476
 20
100.1590261943664
 42
0.9048750780275964
 10
99.28032121597755
 20
100.231879107434
 42
-0.2151329367067958
  0
LWPOLYLINE
  5
6D
100
AcDbEntity
  8
cut
  6
ByLayer
 62
  256
370
   -1
100
AcDbPolyline
 90
    6
 70
    1
 43
0
 10
101.4545278060658
 20
106.761065173615
 42
0.9048750780270537
 10
101.4011957722212
 20
106.81439720746
 42
-0.2151329367067908
 10
95.37933026185139
 20
105.2008432070275
 42
0.9048750780273971
 10
95.35980938262861
 20
105.12799029396
 42
-0.2151329367067898
 10
99.76812089256624
 20
100.7196787840226
 42
0.9048750780269151
 10
99.8409738056335
 20
100.7391996632451
 42
-0.2151329367067964
  0
LWPOLYLINE
  5
6E
100
AcDbEntity
  8
cut
  6
ByLayer
 62
  256
370
   -1
100
AcDbPolyline
 90
    6
 70
    1
 43
0
 10
108.5443664619032
 20
109.4425923195148
 42
0.9048750780273273
 10
108.563887341126
 20
109.5154452325824
 42
-0.2151329367067895
 10
104.1555758311883
 20
113.9237567425197
 42
0.9048750780273089
 10
104.0827229181209
 20
113.904235863297
 42
-0.2151329367067901
 10
102.4691689176883
 20
107.882370352927
 42
0.9048750780270535
 10
102.5225009515331
 20
107.8290383190823
 42
-0.2151329367067956
  0
LWPOLYLINE
  5
6F
100
AcDbEntity
  8
cut
  6
ByLayer
 62
  256
370
   -1
100
AcDbPolyline
 90
    6
 70
    1
 43
0
 10
109.0516870177142
 20
110.0032449091706
 42
0.9048750780273093
 10
109.1245399307819
 20
110.0227657883935
 42
-0.21513293670679
 10
110.738093931214
 20
116.0446312987632
 42
0.9048750780272231
 10
110.6847618973695
 20
116.0979633326083
 42
-0.2151329367067896
 10
104.6628963869993
 20
114.4844093321756
 42
0.9048750780275362
 10
104.6433755077767
 20
114.4115564191084
 42
-0.215132936706796
  0
LWPOLYLINE
  5
70
100
AcDbEntity
  8
cut
  6
ByLayer
 62
  256
370
   -1
100
AcDbPolyline
 90
    6
 70
    1
 43
0
 10
90.20911331904051
 20
90.15578128519574
 42
0.9048750780276984
 10
90.15578128519557
 20
90.20911331904047
 42
-0.2151329367067896
 10
84.13391577482605
 20
88.59555931860815
 42
0.9048750780270417
 10
84.11439489560337
 20
88.52270640554069
 42
-0.215132936706789
 10
88.52270640554062
 20
84.11439489560307
 42
0.9048750780279786
 10
88.59555931860785
 20
84.13391577482562
 42
-0.2151329367067965
  0
LWPOLYLINE
  5
71
100
AcDbEntity
  8
cut
  6
ByLayer
 62
  256
370
   -1
100
AcDbPolyline
 90
    6
 70
    1
 43
0
 10
92.91016134416266
 20
97.31847285410026
 42
0.9048750780279272
 10
92.83730843109532
 20
97.29895197487754
 42
-0.2151329367067903
 10
91.22375443066332
 20
91.27708646450793
 42
0.9048750780269004
 10
91.27708646450765
 20
91.22375443066294
 42
-0.2151329367067904
 10
97.29895197487758
 20
92.83730843109531
 42
0.9048750780281081
 10
97.31847285410038
 20
92.9101613441628
 42
-0.2151329367067963
  0
LWPOLYLINE
  5
72
100
AcDbEntity
  8
cut
  6
ByLayer
 62
  256
370
   -1
100
AcDbPolyline
 90
    6
 70
    1
 43
0
 10
93.41748189997394
 20
97.87912544375631
 42
0.9048750780276927
 10
93.39796102075118
 20
97.80627253068879
 42
-0.21513293670679
 10
97.80627253068879
 20
93.39796102075144
 42
0.9048750780272824
 10
97.87912544375627
 20
93.41748189997419
 42
-0.2151329367067903
 10
99.49267944418895
 20
99.43934741034415
 42
0.9048750780274777
 10
99.43934741034413
 20
99.49267944418874
 42
-0.2151329367067964
  0
LWPOLYLINE
  5
73
100
AcDbEntity
  8
cut
  6
ByLayer
 62
  256
370
   -1
100
AcDbPolyline
 90
    6
 70
    1
 43
0
 10
106.582518100026
 20
102.1208745562437
 42
0.9048750780276491
 10
106.6020389792488
 20
102.1937274693112
 42
-0.2151329367067894
 10
102.1937274693112
 20
106.6020389792485
 42
0.9048750780271706
 10
102.1208745562437
 20
106.5825181000258
 42
-0.2151329367067903
 10
100.507320555811
 20
100.5606525896558
 42
0.9048750780272059
 10
100.5606525896559
 20
100.5073205558112
 42
-0.2151329367067965
  0
LWPOLYLINE
  5
74
100
AcDbEntity
  8
cut
  6
ByLayer
 62
  256
370
   -1
100
AcDbPolyline
 90
    6
 70
    1
 43
0
 10
107.0898386558374
 20
102.6815271458997
 42
0.9048750780271742
 10
107.1626915689047
 20
102.7010480251224
 42
-0.2151329367067902
 10
108.7762455693367
 20
108.722913535492
 42
0.9048750780276814
 10
108.7229135354923
 20
108.7762455693371
 42
-0.2151329367067903
 10
102.7010480251224
 20
107.1626915689047
 42
0.9048750780272586
 10
102.6815271458996
 20
107.0898386558372
 42
-0.2151329367067964
  0
LWPOLYLINE
  5
75
100
AcDbEntity
  8
cut
  6
ByLayer
 62
  256
370
   -1
100
AcDbPolyline
 90
    6
 70
    1
 43
0
 10
109.7908866809595
 20
109.8442187148042
 42
0.9048750780273248
 10
109.8442187148043
 20
109.7908866809595
 42
-0.21513293670679
 10
115.8660842251739
 20
111.4044406813919
 42
0.9048750780271196
 10
115.8856051043967
 20
111.4772935944593
 42
-0.2151329367067898
 10
111.4772935944594
 20
115.8856051043968
 42
0.9048750780270414
 10
111.4044406813921
 20
115.8660842251744
 42
-0.2151329367067968
  0
LWPOLYLINE
  5
76
100
AcDbEntity
  8
cut
  6
ByLayer
 62
  256
370
   -1
100
AcDbPolyline
 90
    6
 70
    1
 43
0
 10
114.4115564191083
 20
104.6433755077766
 42
0.9048750780274281
 10
114.4844093321759
 20
104.6628963869995
 42
-0.2151329367067903
 10
116.0979633326079
 20
110.6847618973692
 42
0.9048750780271043
 10
116.0446312987635
 20
110.7380939312142
 42
-0.2151329367067894
 10
110.0227657883933
 20
109.1245399307816
 42
0.9048750780280195
 10
110.0032449091708
 20
109.0516870177144
 42
-0.215132936706796
  0
LWPOLYLINE
  5
77
100
AcDbEntity
  8
cut
  6
ByLayer
 62
  256
370
   -1
100
AcDbPolyline
 90
    6
 70
    1
 43
0
 10
113.9042358632972
 20
104.0827229181208
 42
0.9048750780276352
 10
113.92375674252
 20
104.1555758311884
 42
-0.2151329367067898
 10
109.5154452325823
 20
108.5638873411257
 42
0.9048750780271196
 10
109.4425923195149
 20
108.5443664619029
 42
-0.2151329367067908
 10
107.8290383190823
 20
102.522500951533
 42
0.9048750780270365
 10
107.8823703529271
 20
102.4691689176883
 42
-0.2151329367067959
  0
LWPOLYLINE
  5
78
100
AcDbEntity
  8
cut
  6
ByLayer
 62
  256
370
   -1
100
AcDbPolyline
 90
    6
 70
    1
 43
0
 10
105.1279902939603
 20
95.35980938262863
 42
0.9048750780280195
 10
105.2008432070275
 20
95.37933026185115
 42
-0.2151329367067897
 10
106.8143972074598
 20
101.401195772221
 42
0.9048750780276641
 10
106.7610651736152
 20
101.4545278060658
 42
-0.2151329367067896
 10
100.7391996632453
 20
99.8409738056336
 42
0.904875078027893
 10
100.7196787840225
 20
99.76812089256602
 42
-0.215132936706797
  0
LWPOLYLINE
  5
79
100
AcDbEntity
  8
cut
  6
ByLayer
 62
  256
370
   -1
100
AcDbPolyline
 90
    6
 70
    1
 43
0
 10
98.54547219393417
 20
93.23893482638486
 42
0.9048750780274947
 10
98.59880422777874
 20
93.18560279254001
 42
-0.2151329367067897
 10
104.6206697381486
 20
94.79915679297252
 42
0.9048750780271128
 10
104.6401906173714
 20
94.87200970604003
 42
-0.2151329367067897
 10
100.2318791074338
 20
99.28032121597739
 42
0.9048750780276879
 10
100.1590261943665
 20
99.26080033675478
 42
-0.2151329367067957
  0
LWPOLYLINE
  5
7A
100
AcDbEntity
  8
cut
  6
ByLayer
 62
  256
370
   -1
100
AcDbPolyline
 90
    6
 70
    1
 43
0
 10
91.45563353809685
 20
90.55740768048513
 42
0.9048750780283603
 10
91.43611265887402
 20
90.48455476741765
 42
-0.2151329367067901
 10
95.84442416881167
 20
86.07624325748027
 42
0.9048750780270833
 10
95.91727708187912
 20
86.095764136703
 42
-0.2151329367067902
 10
97.53083108231179
 20
92.11762964707304
 42
0.9048750780274779
 10
97.47749904846692
 20
92.1709616809176
 42
-0.2151329367067961
  0
LWPOLYLINE
  5
7B
100
AcDbEntity
  8
cut
  6
ByLayer
 62
  256
370
   -1
100
AcDbPolyline
 90
    6
 70
    1
 43
0
 10
90.94831298228574
 20
89.99675509082932
 42
0.9048750780268935
 10
90.87546006921816
 20
89.97723421160643
 42
-0.2151329367067901
 10
89.26190606878605
 20
83.95536870123668
 42
0.9048750780269176
 10
89.31523810263052
 20
83.9020366673918
 42
-0.2151329367067905
 10
95.33710361300066
 20
85.5155906678244
 42
0.9048750780279635
 10
95.35662449222322
 20
85.58844358089164
 42
-0.2151329367067961
  0
LWPOLYLINE
  5
7C
100
AcDbEntity
  8
cut
  6
ByLayer
 62
  256
370
   -1
100
AcDbPolyline
 90
    6
 70
    1
 43
0
 10
89.4937851762197
 20
83.23568991721397
 42
0.9048750780275001
 10
89.47426429699716
 20
83.16283700414675
 42
-0.2151329367067899
 10
93.88257580693478
 20
78.75452549420935
 42
0.904875078027241
 10
93.9554287200019
 20
78.77404637343174
 42
-0.2151329367067903
 10
95.56898272043453
 20
84.79591188380172
 42
0.9048750780275285
 10
95.51565068658968
 20
84.84924391764633
 42
-0.2151329367067959
  0
LWPOLYLINE
  5
7D
100
AcDbEntity
  8
cut
  6
ByLayer
 62
  256
370
   -1
100
AcDbPolyline
 90
    6
 70
    1
 43
0
 10
96.58362383205696
 20
85.91721706311358
 42
0.9048750780274777
 10
96.63695586590151
 20
85.86388502926874
 42
-0.2151329367067898
 10
102.6588213762715
 20
87.47743902970136
 42
0.9048750780271798
 10
102.6783422554942
 20
87.55029194276882
 42
-0.2151329367067896
 10
98.27003074555672
 20
91.95860345270623
 42
0.9048750780275411
 10
98.19717783248932
 20
91.93908257348353
 42
-0.2151329367067966
  0
LWPOLYLINE
  5
7E
100
AcDbEntity
  8
cut
  6
ByLayer
 62
  256
370
   -1
100
AcDbPolyline
 90
    6
 70
    1
 43
0
 10
98.777351301368
 20
92.51925604236224
 42
0.904875078027676
 10
98.75783042214523
 20
92.44640312929475
 42
-0.2151329367067896
 10
103.1661419320828
 20
88.03809161935737
 42
0.9048750780270569
 10
103.2389948451503
 20
88.05761249858017
 42
-0.2151329367067901
 10
104.852548845583
 20
94.07947800895015
 42
0.9048750780274947
 10
104.7992168117381
 20
94.13281004279474
 42
-0.2151329367067966
  0
LWPOLYLINE
  5
7F
100
AcDbEntity
  8
cut
  6
ByLayer
 62
  256
370
   -1
100
AcDbPolyline
 90
    6
 70
    1
 43
0
 10
105.8671899572051
 20
95.20078318826174
 42
0.9048750780278676
 10
105.9205219910499
 20
95.14745115441713
 42
-0.2151329367067903
 10
111.9423875014199
 20
96.7610051548498
 42
0.9048750780265177
 10
111.9619083806426
 20
96.83385806791725
 42
-0.2151329367067901
 10
107.5535968707051
 20
101.2421695778546
 42
0.9048750780272427
 10
107.4807439576377
 20
101.2226486986319
 42
-0.2151329367067968
  0
LWPOLYLINE
  5
80
100
AcDbEntity
  8
cut
  6
ByLayer
 62
  256
370
   -1
100
AcDbPolyline
 90
    6
 70
    1
 43
0
 10
112.4497080572314
 20
97.32165774450569
 42
0.9048750780279488
 10
112.5225609702988
 20
97.34117862372834
 42
-0.2151329367067902
 10
114.1361149707308
 20
103.363044134098
 42
0.9048750780276814
 10
114.0827829368864
 20
103.416376167943
 42
-0.2151329367067898
 10
108.0609174265164
 20
101.8028221675107
 42
0.9048750780277053
 10
108.0413965472936
 20
101.7299692544431
 42
-0.2151329367067963
  0
LWPOLYLINE
  5
81
100
AcDbEntity
  8
cut
  6
ByLayer
 62
  256
370
   -1
100
AcDbPolyline
 90
    6
 70
    1
 43
0
 10
121.2259536265683
 20
106.0445712799979
 42
0.9048750780278991
 10
121.2454745057909
 20
106.1174241930652
 42
-0.2151329367067902
 10
116.8371629958532
 20
110.5257357030026
 42
0.9048750780271776
 10
116.7643100827862
 20
110.5062148237802
 42
-0.2151329367067894
 10
115.1507560823535
 20
104.4843493134102
 42
0.9048750780270195
 10
115.2040881161983
 20
104.4310172795655
 42
-0.2151329367067964
  0
LWPOLYLINE
  5
82
100
AcDbEntity
  8
cut
  6
ByLayer
 62
  256
370
   -1
100
AcDbPolyline
 90
    6
 70
    1
 43
0
 10
119.7714258205023
 20
99.28350610638256
 42
0.9048750780270157
 10
119.8442787335699
 20
99.30302698560547
 42
-0.2151329367067901
 10
121.457832734002
 20
105.3248924959752
 42
0.9048750780271383
 10
121.4045007001576
 20
105.3782245298202
 42
-0.2151329367067896
 10
115.3826351897873
 20
103.7646705293875
 42
0.9048750780280195
 10
115.3631143105648
 20
103.6918176163203
 42
-0.2151329367067959
  0
LWPOLYLINE
  5
83
100
AcDbEntity
  8
cut
  6
ByLayer
 62
  256
370
   -1
100
AcDbPolyline
 90
    6
 70
    1
 43
0
 10
113.1889077204763
 20
97.16263155013893
 42
0.9048750780270365
 10
113.2422397543212
 20
97.10929951629424
 42
-0.2151329367067895
 10
119.2641052646911
 20
98.72285351672693
 42
0.9048750780272752
 10
119.2836261439138
 20
98.79570642979436
 42
-0.2151329367067906
 10
114.8753146339763
 20
103.2040179397317
 42
0.9048750780277931
 10
114.8024617209089
 20
103.1844970605091
 42
-0.2151329367067968
  0
LWPOLYLINE
  5
84
100
AcDbEntity
  8
cut
  6
ByLayer
 62
  256
370
   -1
100
AcDbPolyline
 90
    6
 70
    1
 43
0
 10
110.4878596953543
 20
89.99993998123459
 42
0.9048750780269682
 10
110.5607126084215
 20
90.01946086045712
 42
-0.2151329367067904
 10
112.1742666088538
 20
96.04132637082701
 42
0.9048750780279524
 10
112.1209345750092
 20
96.09465840467176
 42
-0.2151329367067901
 10
106.0990690646394
 20
94.48110440423956
 42
0.904875078027893
 10
106.0795481854165
 20
94.40825149117198
 42
-0.215132936706797
  0
LWPOLYLINE
  5
85
100
AcDbEntity
  8
cut
  6
ByLayer
 62
  256
370
   -1
100
AcDbPolyline
 90
    6
 70
    1
 43
0
 10
103.9053415953282
 20
87.87906542499081
 42
0.9048750780274607
 10
103.9586736291728
 20
87.82573339114597
 42
-0.2151329367067906
 10
109.9805391395427
 20
89.43928739157852
 42
0.9048750780270663
 10
110.0000600187654
 20
89.51214030464598
 42
-0.2151329367067894
 10
105.5917485088279
 20
93.92045181458336
 42
0.9048750780276757
 10
105.5188955957606
 20
93.90093093536079
 42
-0.2151329367067966
  0
LWPOLYLINE
  5
86
100
AcDbEntity
  8
cut
  6
ByLayer
 62
  256
370
   -1
100
AcDbPolyline
 90
    6
 70
    1
 43
0
 10
96.81550293949087
 20
85.19753827909109
 42
0.904875078027676
 10
96.7959820602681
 20
85.1246853660236
 42
-0.2151329367067898
 10
101.2042935702057
 20
80.71637385608622
 42
0.904875078027275
 10
101.2771464832731
 20
80.73589473530899
 42
-0.21513293670679
 10
102.8907004837058
 20
86.75776024567899
 42
0.9048750780275627
 10
102.8373684498609
 20
86.81109227952358
 42
-0.2151329367067959
  0
LWPOLYLINE
  5
87
100
AcDbEntity
  8
cut
  6
ByLayer
 62
  256
370
   -1
100
AcDbPolyline
 90
    6
 70
    1
 43
0
 10
94.62177547017983
 20
78.59549929984243
 42
0.9048750780274607
 10
94.6751075040244
 20
78.54216726599759
 42
-0.21513293670679
 10
100.6969730143946
 20
80.15572126643042
 42
0.9048750780269824
 10
100.7164938936171
 20
80.22857417949764
 42
-0.2151329367067897
 10
96.30818238367981
 20
84.6368856894353
 42
0.9048750780274886
 10
96.23532947061219
 20
84.61736481021241
 42
-0.2151329367067966
  0
LWPOLYLINE
  5
88
100
AcDbEntity
  8
cut
  6
ByLayer
 62
  256
370
   -1
100
AcDbPolyline
 90
    6
 70
    1
 43
0
 10
103.6299001469507
 20
86.59873405131223
 42
0.90487507802691
 10
103.5570472338833
 20
86.57921317208955
 42
-0.2151329367067906
 10
101.9434932334514
 20
80.55734766171987
 42
0.9048750780269178
 10
101.9968252672957
 20
80.50401562787488
 42
-0.2151329367067903
 10
108.0186907776657
 20
82.11756962830725
 42
0.9048750780275764
 10
108.0382116568884
 20
82.19042254137476
 42
-0.2151329367067964
  0
LWPOLYLINE
  5
89
100
AcDbEntity
  8
cut
  6
ByLayer
 62
  256
370
   -1
100
AcDbPolyline
 90
    6
 70
    1
 43
0
 10
104.137220702762
 20
87.15938664096821
 42
0.904875078027676
 10
104.1176998235393
 20
87.08653372790072
 42
-0.2151329367067896
 10
108.5260113334768
 20
82.67822221796335
 42
0.9048750780273507
 10
108.5988642465443
 20
82.69774309718615
 42
-0.2151329367067902
 10
110.212418246977
 20
88.71960860755611
 42
0.9048750780274947
 10
110.1590862131321
 20
88.77294064140072
 42
-0.2151329367067964
  0
LWPOLYLINE
  5
8A
100
AcDbEntity
  8
cut
  6
ByLayer
 62
  256
370
   -1
100
AcDbPolyline
 90
    6
 70
    1
 43
0
 10
111.2270593585991
 20
89.84091378686767
 42
0.9048750780274434
 10
111.2803913924439
 20
89.78758175302312
 42
-0.21513293670679
 10
117.3022569028139
 20
91.40113575345575
 42
0.9048750780271366
 10
117.3217777820367
 20
91.47398866652318
 42
-0.2151329367067896
 10
112.9134662720991
 20
95.88230017646063
 42
0.904875078027342
 10
112.8406133590317
 20
95.86277929723795
 42
-0.2151329367067971
  0
LWPOLYLINE
  5
8B
100
AcDbEntity
  8
cut
  6
ByLayer
 62
  256
370
   -1
100
AcDbPolyline
 90
    6
 70
    1
 43
0
 10
113.4207868279105
 20
96.4429527661166
 42
0.9048750780275497
 10
113.4012659486877
 20
96.37009985304911
 42
-0.2151329367067897
 10
117.8095774586253
 20
91.96178834311178
 42
0.9048750780272234
 10
117.8824303716927
 20
91.9813092223345
 42
-0.2151329367067896
 10
119.4959843721251
 20
98.0031747327042
 42
0.904875078027342
 10
119.4426523382806
 20
98.05650676654912
 42
-0.2151329367067964
  0
LWPOLYLINE
  5
8C
100
AcDbEntity
  8
cut
  6
ByLayer
 62
  256
370
   -1
100
AcDbPolyline
 90
    6
 70
    1
 43
0
 10
109.2652109967222
 20
82.51919602359679
 42
0.9048750780275117
 10
109.3185430305668
 20
82.46586398975194
 42
-0.2151329367067903
 10
115.3404085409367
 20
84.07941799018448
 42
0.9048750780270663
 10
115.3599294201594
 20
84.15227090325193
 42
-0.2151329367067896
 10
110.9516179102219
 20
88.56058241318934
 42
0.9048750780276055
 10
110.8787649971546
 20
88.54106153396675
 42
-0.2151329367067966
  0
LWPOLYLINE
  5
8D
100
AcDbEntity
  8
cut
  6
ByLayer
 62
  256
370
   -1
100
AcDbPolyline
 90
    6
 70
    1
 43
0
 10
115.8477290967483
 20
84.64007057984057
 42
0.9048750780280195
 10
115.9205820098155
 20
84.65959145906308
 42
-0.21513293670679
 10
117.5341360102479
 20
90.68145696943297
 42
0.9048750780276471
 10
117.4808039764032
 20
90.73478900327775
 42
-0.2151329367067896
 10
111.4589384660334
 20
89.12123500284554
 42
0.904875078027893
 10
111.4394175868105
 20
89.04838208977796
 42
-0.215132936706797
  0
ENDSEC
  0
SECTION
  2
OBJECTS
  0
DICTIONARY
  5
C
330
0
100
AcDbDictionary
281
    1
  3
ACAD_GROUP
350
D
  0
DICTIONARY
  5
D
330
C
100
AcDbDictionary
281
    1
  0
ENDSEC
  0
EOF
