999
dxfrw 0.6.3
  0
SECTION
  2
HEADER
  9
$ACADVER
  1
AC1021
  9
$DWGCODEPAGE
  3
ANSI_1250
  9
$INSBASE
 10
0
 20
0
 30
0
  9
$EXTMIN
 10
100
 20
100
 30
0
  9
$EXTMAX
 10
300
 20
300
 30
0
  9
$LIMMIN
 10
0
 20
0
  9
$LIMMAX
 10
420
 20
297
  9
$ORTHOMODE
 70
    0
  9
$REGENMODE
 70
    1
  9
$FILLMODE
 70
    1
  9
$QTEXTMODE
 70
    0
  9
$MIRRTEXT
 70
    0
  9
$LTSCALE
 40
1
  9
$ATTMODE
 70
    0
  9
$TEXTSIZE
 40
2.5
  9
$TRACEWID
 40
15.68
  9
$TEXTSTYLE
  7
STANDARD
  9
$CLAYER
  8
0
  9
$CELTYPE
  6
BYLAYER
  9
$CECOLOR
 62
  256
  9
$CELTSCALE
 40
1
  9
$DISPSILH
 70
    0
  9
$DIMSCALE
 40
2.5
  9
$DIMASZ
 40
2.5
  9
$DIMEXO
 40
0.625
  9
$DIMDLI
 40
3.75
  9
$DIMRND
 40
0
  9
$DIMDLE
 40
0
  9
$DIMEXE
 40
1.25
  9
$DIMTP
 40
0
  9
$DIMTM
 40
0
  9
$DIMTXT
 40
2.5
  9
$DIMCEN
 40
2.5
  9
$DIMTSZ
 40
0
  9
$DIMTOL
 70
    0
  9
$DIMLIM
 70
    0
  9
$DIMTIH
 70
    0
  9
$DIMTOH
 70
    0
  9
$DIMSE1
 70
    0
  9
$DIMSE2
 70
    0
  9
$DIMTAD
 70
    1
  9
$DIMZIN
 70
    8
  9
$DIMBLK
  1

  9
$DIMASO
 70
    1
  9
$DIMSHO
 70
    1
  9
$DIMPOST
  1

  9
$DIMAPOST
  1

  9
$DIMALT
 70
    0
  9
$DIMALTD
 70
    3
  9
$DIMALTF
 40
0.03937
  9
$DIMLFAC
 40
1
  9
$DIMTOFL
 70
    1
  9
$DIMTVP
 40
0
  9
$DIMTIX
 70
    0
  9
$DIMSOXD
 70
    0
  9
$DIMSAH
 70
    0
  9
$DIMBLK1
  1

  9
$DIMBLK2
  1

  9
$DIMSTYLE
  2
STANDARD
  9
$DIMCLRD
 70
    0
  9
$DIMCLRE
 70
    0
  9
$DIMCLRT
 70
    0
  9
$DIMTFAC
 40
1
  9
$DIMGAP
 40
0.625
  9
$DIMJUST
 70
    0
  9
$DIMSD1
 70
    0
  9
$DIMSD2
 70
    0
  9
$DIMTOLJ
 70
    0
  9
$DIMTZIN
 70
    8
  9
$DIMALTZ
 70
    0
  9
$DIMALTTZ
 70
    0
  9
$DIMUPT
 70
    0
  9
$DIMDEC
 70
    2
  9
$DIMTDEC
 70
    2
  9
$DIMALTU
 70
    2
  9
$DIMALTTD
 70
    3
  9
$DIMTXSTY
  7
STANDARD
  9
$DIMAUNIT
 70
    0
  9
$DIMADEC
 70
    0
  9
$DIMALTRND
 40
0
  9
$DIMAZIN
 70
    0
  9
$DIMDSEP
 70
   44
  9
$DIMATFIT
 70
    3
  9
$DIMFRAC
 70
    0
  9
$DIMLDRBLK
  1
STANDARD
  9
$DIMLUNIT
 70
    2
  9
$DIMLWD
 70
   -2
  9
$DIMLWE
 70
   -2
  9
$DIMTMOVE
 70
    0
  9
$DIMFXL
 40
1
  9
$DIMFXLON
 70
    0
  9
$DIMJOGANG
 40
0.7854
  9
$DIMTFILL
 70
    0
  9
$DIMTFILLCLR
 70
    0
  9
$DIMARCSYM
 70
    0
  9
$DIMLTYPE
  6

  9
$DIMLTEX1
  6

  9
$DIMLTEX2
  6

  9
$LUNITS
 70
    2
  9
$LUPREC
 70
    4
  9
$SKETCHINC
 40
1
  9
$FILLETRAD
 40
0
  9
$AUNITS
 70
    0
  9
$AUPREC
 70
    2
  9
$MENU
  1
.
  9
$ELEVATION
 40
0
  9
$PELEVATION
 40
0
  9
$THICKNESS
 40
0
  9
$LIMCHECK
 70
    0
  9
$CHAMFERA
 40
0
  9
$CHAMFERB
 40
0
  9
$CHAMFERC
 40
0
  9
$CHAMFERD
 40
0
  9
$SKPOLY
 70
    0
  9
$USRTIMER
 70
    1
  9
$ANGBASE
 50
0
  9
$ANGDIR
 70
    0
  9
$PDMODE
 70
   34
  9
$PDSIZE
 40
0
  9
$PLINEWID
 40
0
  9
$SPLFRAME
 70
    0
  9
$SPLINETYPE
 70
    2
  9
$SPLINESEGS
 70
    8
  9
$HANDSEED
  5
20000
  9
$SURFTAB1
 70
    6
  9
$SURFTAB2
 70
    6
  9
$SURFTYPE
 70
    6
  9
$SURFU
 70
    6
  9
$SURFV
 70
    6
  9
$UCSBASE
  2

  9
$UCSNAME
  2

  9
$UCSORG
 10
0
 20
0
 30
0
  9
$UCSXDIR
 10
1
 20
0
 30
0
  9
$UCSYDIR
 10
0
 20
1
 30
0
  9
$UCSORTHOREF
  2

  9
$UCSORTHOVIEW
 70
    0
  9
$UCSORGTOP
 10
0
 20
0
 30
0
  9
$UCSORGBOTTOM
 10
0
 20
0
 30
0
  9
$UCSORGLEFT
 10
0
 20
0
 30
0
  9
$UCSORGRIGHT
 10
0
 20
0
 30
0
  9
$UCSORGFRONT
 10
0
 20
0
 30
0
  9
$UCSORGBACK
 10
0
 20
0
 30
0
  9
$PUCSBASE
  2

  9
$PUCSNAME
  2

  9
$PUCSORG
 10
0
 20
0
 30
0
  9
$PUCSXDIR
 10
1
 20
0
 30
0
  9
$PUCSYDIR
 10
0
 20
1
 30
0
  9
$PUCSORTHOREF
  2

  9
$PUCSORTHOVIEW
 70
    0
  9
$PUCSORGTOP
 10
0
 20
0
 30
0
  9
$PUCSORGBOTTOM
 10
0
 20
0
 30
0
  9
$PUCSORGLEFT
 10
0
 20
0
 30
0
  9
$PUCSORGRIGHT
 10
0
 20
0
 30
0
  9
$PUCSORGFRONT
 10
0
 20
0
 30
0
  9
$PUCSORGBACK
 10
0
 20
0
 30
0
  9
$USERI1
 70
    0
  9
$USERI2
 70
    0
  9
$USERI3
 70
    0
  9
$USERI4
 70
    0
  9
$USERI5
 70
    0
  9
$USERR1
 40
0
  9
$USERR2
 40
0
  9
$USERR3
 40
0
  9
$USERR4
 40
0
  9
$USERR5
 40
0
  9
$WORLDVIEW
 70
    1
  9
$SHADEDGE
 70
    3
  9
$SHADEDIF
 70
   70
  9
$TILEMODE
 70
    1
  9
$MAXACTVP
 70
   64
  9
$PINSBASE
 10
0
 20
0
 30
0
  9
$PLIMCHECK
 70
    0
  9
$PEXTMIN
 10
0
 20
0
 30
0
  9
$PEXTMAX
 10
0
 20
0
 30
0
  9
$GRIDMODE
 70
    1
  9
$SNAPSTYLE
 70
    0
  9
$PLIMMIN
 10
0
 20
0
  9
$PLIMMAX
 10
210
 20
297
  9
$UNITMODE
 70
    0
  9
$VISRETAIN
 70
    1
  9
$PLINEGEN
 70
    0
  9
$PSLTSCALE
 70
    1
  9
$TREEDEPTH
 70
 3020
  9
$CMLSTYLE
  2
Standard
  9
$CMLJUST
 70
    0
  9
$CMLSCALE
 40
20
  9
$PROXYGRAPHICS
 70
    1
  9
$MEASUREMENT
 70
    1
  9
$CELWEIGHT
370
   -1
  9
$ENDCAPS
280
    0
  9
$JOINSTYLE
280
    0
  9
$LWDISPLAY
290
    0
  9
$INSUNITS
 70
    4
  9
$HYPERLINKBASE
  1

  9
$STYLESHEET
  1

  9
$XEDIT
290
    1
  9
$CEPSNTYPE
380
    0
  9
$PSTYLEMODE
290
    1
  9
$EXTNAMES
290
    1
  9
$PSVPSCALE
 40
1
  9
$OLESTARTUP
290
    0
  9
$SORTENTS
280
  127
  9
$INDEXCTL
280
    0
  9
$HIDETEXT
280
    1
  9
$XCLIPFRAME
290
    0
  9
$HALOGAP
280
    0
  9
$OBSCOLOR
 70
  257
  9
$OBSLTYPE
280
    0
  9
$INTERSECTIONDISPLAY
280
    0
  9
$INTERSECTIONCOLOR
 70
  257
  9
$DIMASSOC
280
    1
  9
$PROJECTNAME
  1

  9
$CAMERADISPLAY
290
    0
  9
$LENSLENGTH
 40
50
  9
$CAMERAHEIGHT
 40
0
  9
$STEPSPERSEC
 40
2
  9
$STEPSIZE
 40
50
  9
$3DDWFPREC
 40
2
  9
$PSOLWIDTH
 40
5
  9
$PSOLHEIGHT
 40
80
  9
$LOFTANG1
 40
1.570796326794897
  9
$LOFTANG2
 40
1.570796326794897
  9
$LOFTMAG1
 40
0
  9
$LOFTMAG2
 40
0
  9
$LOFTPARAM
 70
    7
  9
$LOFTNORMALS
280
    1
  9
$LATITUDE
 40
1
  9
$LONGITUDE
 40
1
  9
$NORTHDIRECTION
 40
0
  9
$TIMEZONE
 70
-8000
  9
$LIGHTGLYPHDISPLAY
280
    1
  9
$TILEMODELIGHTSYNCH
280
    1
  9
$SOLIDHIST
280
    1
  9
$SHOWHIST
280
    1
  9
$DWFFRAME
280
    2
  9
$DGNFRAME
280
    0
  9
$REALWORLDSCALE
290
    1
  9
$INTERFERECOLOR
 62
    1
  9
$CSHADOW
280
    0
  9
$SHADOWPLANELOCATION
 40
0
  0
ENDSEC
  0
SECTION
  2
CLASSES
  0
ENDSEC
  0
SECTION
  2
TABLES
  0
TABLE
  2
VPORT
  5
8
330
0
100
AcDbSymbolTable
 70
    1
  0
VPORT
  5
31
330
2
100
AcDbSymbolTableRecord
100
AcDbViewportTableRecord
  2
*ACTIVE
 70
    0
 10
0
 20
0
 11
1
 21
1
 12
190.7834101382489
 22
150.9216589861751
 13
0
 23
0
 14
10
 24
10
 15
10
 25
10
 16
0
 26
0
 36
1
 17
0
 27
0
 37
0
 40
204.6082949308756
 41
1.777027027027027
 42
50
 43
0
 44
0
 50
0
 51
0
 71
    0
 72
  100
 73
    1
 74
    3
 75
    0
 76
    1
 77
    0
 78
    0
281
    0
 65
    1
110
0
120
0
130
0
111
1
121
0
131
0
112
0
122
1
132
0
 79
    0
146
0
348
10020
 60
    7
 61
    5
292
1
282
    1
141
0
142
0
 63
  250
421
3358443
  0
ENDTAB
  0
TABLE
  2
LTYPE
  5
5
330
0
100
AcDbSymbolTable
 70
    4
  0
LTYPE
  5
14
330
5
100
AcDbSymbolTableRecord
100
AcDbLinetypeTableRecord
  2
ByBlock
 70
    0
  3

 72
   65
 73
    0
 40
0
  0
LTYPE
  5
15
330
5
100
AcDbSymbolTableRecord
100
AcDbLinetypeTableRecord
  2
ByLayer
 70
    0
  3

 72
   65
 73
    0
 40
0
  0
LTYPE
  5
16
330
5
100
AcDbSymbolTableRecord
100
AcDbLinetypeTableRecord
  2
Continuous
 70
    0
  3
Solid line
 72
   65
 73
    0
 40
0
  0
LTYPE
  5
32
330
5
100
AcDbSymbolTableRecord
100
AcDbLinetypeTableRecord
  2
DOT
 70
    0
  3
Dot . . . . . . . . . . . . . . . . . . . . . .
 72
   65
 73
    2
 40
6.35
 49
0
 74
    0
 49
-6.35
 74
    0
  0
LTYPE
  5
33
330
5
100
AcDbSymbolTableRecord
100
AcDbLinetypeTableRecord
  2
DOTTINY
 70
    0
  3
Dot (.15x) .....................................
 72
   65
 73
    2
 40
0.9525
 49
0
 74
    0
 49
-0.9525
 74
    0
  0
LTYPE
  5
34
330
5
100
AcDbSymbolTableRecord
100
AcDbLinetypeTableRecord
  2
DOT2
 70
    0
  3
Dot (.5x) .....................................
 72
   65
 73
    2
 40
3.175
 49
0
 74
    0
 49
-3.175
 74
    0
  0
LTYPE
  5
35
330
5
100
AcDbSymbolTableRecord
100
AcDbLinetypeTableRecord
  2
DOTX2
 70
    0
  3
Dot (2x) .  .  .  .  .  .  .  .  .  .  .  .  .
 72
   65
 73
    2
 40
12.7
 49
0
 74
    0
 49
-12.7
 74
    0
  0
LTYPE
  5
36
330
5
100
AcDbSymbolTableRecord
100
AcDbLinetypeTableRecord
  2
DASHED
 70
    0
  3
Dashed _ _ _ _ _ _ _ _ _ _ _ _ _ _ _ _ _
 72
   65
 73
    2
 40
19.05
 49
12.7
 74
    0
 49
-6.35
 74
    0
  0
LTYPE
  5
37
330
5
100
AcDbSymbolTableRecord
100
AcDbLinetypeTableRecord
  2
DASHEDTINY
 70
    0
  3
Dashed (.15x) _ _ _ _ _ _ _ _ _ _ _ _ _ _ _ _ _
 72
   65
 73
    2
 40
2.8575
 49
1.905
 74
    0
 49
-0.9525
 74
    0
  0
LTYPE
  5
38
330
5
100
AcDbSymbolTableRecord
100
AcDbLinetypeTableRecord
  2
DASHED2
 70
    0
  3
Dashed (.5x) _ _ _ _ _ _ _ _ _ _ _ _ _ _ _ _ _
 72
   65
 73
    2
 40
9.524999999999999
 49
6.35
 74
    0
 49
-3.175
 74
    0
  0
LTYPE
  5
39
330
5
100
AcDbSymbolTableRecord
100
AcDbLinetypeTableRecord
  2
DASHEDX2
 70
    0
  3
Dashed (2x) ____  ____  ____  ____  ____  ___
 72
   65
 73
    2
 40
38.09999999999999
 49
25.4
 74
    0
 49
-12.7
 74
    0
  0
LTYPE
  5
3A
330
5
100
AcDbSymbolTableRecord
100
AcDbLinetypeTableRecord
  2
DASHDOT
 70
    0
  3
Dash dot __ . __ . __ . __ . __ . __ . __ . __
 72
   65
 73
    4
 40
25.4
 49
12.7
 74
    0
 49
-6.35
 74
    0
 49
0
 74
    0
 49
-6.35
 74
    0
  0
LTYPE
  5
3B
330
5
100
AcDbSymbolTableRecord
100
AcDbLinetypeTableRecord
  2
DASHDOTTINY
 70
    0
  3
Dash dot (.15x) _._._._._._._._._._._._._._._.
 72
   65
 73
    4
 40
3.81
 49
1.905
 74
    0
 49
-0.9525
 74
    0
 49
0
 74
    0
 49
-0.9525
 74
    0
  0
LTYPE
  5
3C
330
5
100
AcDbSymbolTableRecord
100
AcDbLinetypeTableRecord
  2
DASHDOT2
 70
    0
  3
Dash dot (.5x) _._._._._._._._._._._._._._._.
 72
   65
 73
    4
 40
12.7
 49
6.35
 74
    0
 49
-3.175
 74
    0
 49
0
 74
    0
 49
-3.175
 74
    0
  0
LTYPE
  5
3D
330
5
100
AcDbSymbolTableRecord
100
AcDbLinetypeTableRecord
  2
DASHDOTX2
 70
    0
  3
Dash dot (2x) ____  .  ____  .  ____  .  ___
 72
   65
 73
    4
 40
50.8
 49
25.4
 74
    0
 49
-12.7
 74
    0
 49
0
 74
    0
 49
-12.7
 74
    0
  0
LTYPE
  5
3E
330
5
100
AcDbSymbolTableRecord
100
AcDbLinetypeTableRecord
  2
DIVIDE
 70
    0
  3
Divide ____ . . ____ . . ____ . . ____ . . ____
 72
   65
 73
    6
 40
31.75
 49
12.7
 74
    0
 49
-6.35
 74
    0
 49
0
 74
    0
 49
-6.35
 74
    0
 49
0
 74
    0
 49
-6.35
 74
    0
  0
LTYPE
  5
3F
330
5
100
AcDbSymbolTableRecord
100
AcDbLinetypeTableRecord
  2
DIVIDETINY
 70
    0
  3
Divide (.15x) __..__..__..__..__..__..__..__.._
 72
   65
 73
    6
 40
4.7625
 49
1.905
 74
    0
 49
-0.9525
 74
    0
 49
0
 74
    0
 49
-0.9525
 74
    0
 49
0
 74
    0
 49
-0.9525
 74
    0
  0
LTYPE
  5
40
330
5
100
AcDbSymbolTableRecord
100
AcDbLinetypeTableRecord
  2
DIVIDE2
 70
    0
  3
Divide (.5x) __..__..__..__..__..__..__..__.._
 72
   65
 73
    6
 40
15.875
 49
6.35
 74
    0
 49
-3.175
 74
    0
 49
0
 74
    0
 49
-3.175
 74
    0
 49
0
 74
    0
 49
-3.175
 74
    0
  0
LTYPE
  5
41
330
5
100
AcDbSymbolTableRecord
100
AcDbLinetypeTableRecord
  2
DIVIDEX2
 70
    0
  3
Divide (2x) ________  .  .  ________  .  .  _
 72
   65
 73
    6
 40
63.5
 49
25.4
 74
    0
 49
-12.7
 74
    0
 49
0
 74
    0
 49
-12.7
 74
    0
 49
0
 74
    0
 49
-12.7
 74
    0
  0
LTYPE
  5
42
330
5
100
AcDbSymbolTableRecord
100
AcDbLinetypeTableRecord
  2
BORDER
 70
    0
  3
Border __ __ . __ __ . __ __ . __ __ . __ __ .
 72
   65
 73
    6
 40
44.45
 49
12.7
 74
    0
 49
-6.35
 74
    0
 49
12.7
 74
    0
 49
-6.35
 74
    0
 49
0
 74
    0
 49
-6.35
 74
    0
  0
LTYPE
  5
43
330
5
100
AcDbSymbolTableRecord
100
AcDbLinetypeTableRecord
  2
BORDERTINY
 70
    0
  3
Border (.15x) __.__.__.__.__.__.__.__.__.__.__.
 72
   65
 73
    6
 40
6.6675
 49
1.905
 74
    0
 49
-0.9525
 74
    0
 49
1.905
 74
    0
 49
-0.9525
 74
    0
 49
0
 74
    0
 49
-0.9525
 74
    0
  0
LTYPE
  5
44
330
5
100
AcDbSymbolTableRecord
100
AcDbLinetypeTableRecord
  2
BORDER2
 70
    0
  3
Border (.5x) __.__.__.__.__.__.__.__.__.__.__.
 72
   65
 73
    6
 40
22.225
 49
6.35
 74
    0
 49
-3.175
 74
    0
 49
6.35
 74
    0
 49
-3.175
 74
    0
 49
0
 74
    0
 49
-3.175
 74
    0
  0
LTYPE
  5
45
330
5
100
AcDbSymbolTableRecord
100
AcDbLinetypeTableRecord
  2
BORDERX2
 70
    0
  3
Border (2x) ____  ____  .  ____  ____  .  ___
 72
   65
 73
    6
 40
88.89999999999999
 49
25.4
 74
    0
 49
-12.7
 74
    0
 49
25.4
 74
    0
 49
-12.7
 74
    0
 49
0
 74
    0
 49
-12.7
 74
    0
  0
LTYPE
  5
46
330
5
100
AcDbSymbolTableRecord
100
AcDbLinetypeTableRecord
  2
CENTER
 70
    0
  3
Center ____ _ ____ _ ____ _ ____ _ ____ _ ____
 72
   65
 73
    4
 40
50.8
 49
31.75
 74
    0
 49
-6.35
 74
    0
 49
6.35
 74
    0
 49
-6.35
 74
    0
  0
LTYPE
  5
47
330
5
100
AcDbSymbolTableRecord
100
AcDbLinetypeTableRecord
  2
CENTERTINY
 70
    0
  3
Center (.15x) ___ _ ___ _ ___ _ ___ _ ___ _ ___
 72
   65
 73
    4
 40
7.62
 49
4.7625
 74
    0
 49
-0.9525
 74
    0
 49
0.9525
 74
    0
 49
-0.9525
 74
    0
  0
LTYPE
  5
48
330
5
100
AcDbSymbolTableRecord
100
AcDbLinetypeTableRecord
  2
CENTER2
 70
    0
  3
Center (.5x) ___ _ ___ _ ___ _ ___ _ ___ _ ___
 72
   65
 73
    4
 40
28.575
 49
19.05
 74
    0
 49
-3.175
 74
    0
 49
3.175
 74
    0
 49
-3.175
 74
    0
  0
LTYPE
  5
49
330
5
100
AcDbSymbolTableRecord
100
AcDbLinetypeTableRecord
  2
CENTERX2
 70
    0
  3
Center (2x) ________  __  ________  __  _____
 72
   65
 73
    4
 40
101.6
 49
63.5
 74
    0
 49
-12.7
 74
    0
 49
12.7
 74
    0
 49
-12.7
 74
    0
  0
ENDTAB
  0
TABLE
  2
LAYER
  5
2
330
0
100
AcDbSymbolTable
 70
    1
  0
LAYER
  5
10
330
2
100
AcDbSymbolTableRecord
100
AcDbLayerTableRecord
  2
0
 70
    0
 62
    7
  6
CONTINUOUS
370
    0
390
F
  0
LAYER
  5
4A
330
2
100
AcDbSymbolTableRecord
100
AcDbLayerTableRecord
  2
cut
 70
    0
 62
    1
  6
CONTINUOUS
370
    0
390
F
  0
LAYER
  5
4B
330
2
100
AcDbSymbolTableRecord
100
AcDbLayerTableRecord
  2
outline
 70
    0
 62
    5
  6
CONTINUOUS
370
    0
390
F
  0
ENDTAB
  0
TABLE
  2
STYLE
  5
3
330
0
100
AcDbSymbolTable
 70
    3
  0
STYLE
  5
4C
330
2
100
AcDbSymbolTableRecord
100
AcDbTextStyleTableRecord
  2
Standard
 70
    0
 40
0
 41
1
 50
0
 71
    0
 42
1
  3
txt
  4

  0
ENDTAB
  0
TABLE
  2
VIEW
  5
6
330
0
100
AcDbSymbolTable
 70
    0
  0
ENDTAB
  0
TABLE
  2
UCS
  5
7
330
0
100
AcDbSymbolTable
 70
    0
  0
ENDTAB
  0
TABLE
  2
APPID
  5
9
330
0
100
AcDbSymbolTable
 70
    1
  0
APPID
  5
12
330
9
100
AcDbSymbolTableRecord
100
AcDbRegAppTableRecord
  2
ACAD
 70
    0
  0
APPID
  5
4D
330
9
100
AcDbSymbolTableRecord
100
AcDbRegAppTableRecord
  2
LibreCad
 70
    0
  0
ENDTAB
  0
TABLE
  2
DIMSTYLE
  5
A
330
0
100
AcDbSymbolTable
 70
    1
100
AcDbDimStyleTable
 71
    1
  0
DIMSTYLE
105
4E
330
A
100
AcDbSymbolTableRecord
100
AcDbDimStyleTableRecord
  2
Standard
 70
    0
 40
2.5
 41
2.5
 42
0.625
 43
0.38
 44
1.25
 45
0
 46
0
 47
0
 48
0
 49
1
140
2.5
141
0.09
142
0
143
25.4
144
1
145
0
146
1
147
0.625
148
0
 71
    0
 72
    0
 73
    0
 74
    1
 75
    0
 76
    0
 77
    0
 78
    8
 79
    0
170
    0
171
    2
172
    0
173
    0
174
    0
175
    0
176
    0
177
    0
178
    0
179
    0
271
    2
272
    4
273
    2
274
    2
275
    0
276
    0
277
    2
278
   44
279
    0
280
    0
281
    0
282
    0
283
    1
284
    0
285
    0
286
    0
288
    0
289
    3
340
STANDARD
341

371
   -2
372
   -2
  0
ENDTAB
  0
TABLE
  2
BLOCK_RECORD
  5
1
330
0
100
AcDbSymbolTable
 70
    2
  0
BLOCK_RECORD
  5
1F
330
1
100
AcDbSymbolTableRecord
100
AcDbBlockTableRecord
  2
*Model_Space
 70
    0
280
    1
281
    0
  0
BLOCK_RECORD
  5
1E
330
1
100
AcDbSymbolTableRecord
100
AcDbBlockTableRecord
  2
*Paper_Space
 70
    0
280
    1
281
    0
  0
ENDTAB
  0
ENDSEC
  0
SECTION
  2
BLOCKS
  0
BLOCK
  5
20
330
1F
100
AcDbEntity
  8
0
100
AcDbBlockBegin
  2
*Model_Space
 70
    0
 10
0
 20
0
 30
0
  3
*Model_Space
  1

  0
ENDBLK
  5
21
330
1F
100
AcDbEntity
  8
0
100
AcDbBlockEnd
  0
BLOCK
  5
1C
330
1B
100
AcDbEntity
  8
0
100
AcDbBlockBegin
  2
*Paper_Space
 70
    0
 10
0
 20
0
 30
0
  3
*Paper_Space
  1

  0
ENDBLK
  5
1D
330
1F
100
AcDbEntity
  8
0
100
AcDbBlockEnd
  0
ENDSEC
  0
SECTION
  2
ENTITIES
  0
CIRCLE
  5
4F
100
AcDbEntity
  8
outline
  6
ByLayer
 62
  256
370
   -1
100
AcDbCircle
 10
200
 20
200
 40
100
  0
LWPOLYLINE
  5
50
100
AcDbEntity
  8
cut
  6
ByLayer
 62
  256
370
   -1
100
AcDbPolyline
 90
    8
 70
    1
 43
0
 10
147.9523754253346
 20
259.9998764452481
 42
0.2664117458532249
 10
148.0816329482875
 20
260.0745033109196
 42
-0.266411745852816
 10
173.9331375388679
 20
274.9998764452475
 42
0.2664117458530731
 10
174.0623950618202
 20
275.0745033109192
 42
-0.2213467923986823
 10
194.8361660023861
 20
289.5522388059701
 42
0.9439983073668758
 10
194.8016829706826
 20
289.8497495826377
 42
0.2372084154750379
 10
124.7869928524254
 20
249.4267493956345
 42
0.9439983073661806
 10
125.0274032270665
 20
249.2481308258459
 42
-0.2213467923986652
  0
LWPOLYLINE
  5
51
100
AcDbEntity
  8
cut
  6
ByLayer
 62
  256
370
   -1
100
AcDbPolyline
 90
    8
 70
    1
 43
0
 10
225.9376049381789
 20
275.0745033109194
 42
0.2664117458531973
 10
226.0668624611317
 20
274.9998764452478
 42
-0.2664117458528153
 10
251.9183670517122
 20
260.0745033109199
 42
0.266411745852893
 10
252.047624574666
 20
259.9998764452479
 42
-0.221346792398682
 10
274.9725967729339
 20
249.2481308258446
 42
0.9439983073670064
 10
275.2130071475759
 20
249.426749395633
 42
0.237208415475038
 10
205.19831702932
 20
289.8497495826373
 42
0.9439983073663748
 10
205.1638339976158
 20
289.5522388059699
 42
-0.2213467923986646
  0
LWPOLYLINE
  5
52
100
AcDbEntity
  8
cut
  6
ByLayer
 62
  256
370
   -1
100
AcDbPolyline
 90
    6
 70
    1
 43
0
 10
198.6348557024675
 20
287.3369932543254
 42
0.9048750780277792
 10
198.3763406565623
 20
287.4862469856687
 42
-0.2151329367067892
 10
177.0080415274367
 20
275.1492537313434
 42
0.9048750780271193
 10
177.0080415274369
 20
274.8507462686567
 42
-0.2151329367067903
 10
198.3763406565618
 20
262.5137530143314
 42
0.9048750780273884
 10
198.6348557024683
 20
262.6630067456745
 42
-0.2151329367067961
  0
LWPOLYLINE
  5
53
100
AcDbEntity
  8
cut
  6
ByLayer
 62
  256
370
   -1
100
AcDbPolyline
 90
    6
 70
    1
 43
0
 10
197.0111963590313
 20
259.850746268657
 42
0.9048750780274624
 10
197.0111963590307
 20
260.1492537313433
 42
-0.21513293670679
 10
175.6428972299042
 20
272.4862469856681
 42
0.9048750780271479
 10
175.3843821839982
 20
272.336993254325
 42
-0.2151329367067898
 10
175.3843821839985
 20
247.6630067456743
 42
0.9048750780275512
 10
175.6428972299043
 20
247.5137530143308
 42
-0.2151329367067963
  0
LWPOLYLINE
  5
54
100
AcDbEntity
  8
cut
  6
ByLayer
 62
  256
370
   -1
100
AcDbPolyline
 90
    6
 70
    1
 43
0
 10
198.6348557024675
 20
257.3369932543254
 42
0.9048750780277792
 10
198.3763406565623
 20
257.4862469856686
 42
-0.2151329367067896
 10
177.0080415274367
 20
245.1492537313433
 42
0.9048750780271966
 10
177.0080415274369
 20
244.8507462686567
 42
-0.2151329367067902
 10
198.3763406565617
 20
232.5137530143314
 42
0.9048750780277152
 10
198.6348557024683
 20
232.6630067456745
 42
-0.2151329367067963
  0
LWPOLYLINE
  5
55
100
AcDbEntity
  8
cut
  6
ByLayer
 62
  256
370
   -1
100
AcDbPolyline
 90
    6
 70
    1
 43
0
 10
222.9919584725633
 20
244.8507462686567
 42
0.9048750780274964
 10
222.991958472564
 20
245.1492537313434
 42
-0.2151329367067904
 10
201.6236593434382
 20
257.4862469856681
 42
0.9048750780267598
 10
201.365144297532
 20
257.336993254325
 42
-0.2151329367067894
 10
201.3651442975325
 20
232.6630067456746
 42
0.9048750780275534
 10
201.6236593434377
 20
232.5137530143313
 42
-0.2151329367067964
  0
LWPOLYLINE
  5
56
100
AcDbEntity
  8
cut
  6
ByLayer
 62
  256
370
   -1
100
AcDbPolyline
 90
    6
 70
    1
 43
0
 10
224.3571027700957
 20
247.5137530143313
 42
0.9048750780274498
 10
224.6156178160022
 20
247.6630067456746
 42
-0.21513293670679
 10
224.6156178160015
 20
272.3369932543249
 42
0.9048750780268955
 10
224.3571027700951
 20
272.4862469856683
 42
-0.2151329367067894
 10
202.9888036409687
 20
260.1492537313433
 42
0.9048750780276165
 10
202.9888036409694
 20
259.8507462686568
 42
-0.2151329367067963
  0
LWPOLYLINE
  5
57
100
AcDbEntity
  8
cut
  6
ByLayer
 62
  256
370
   -1
100
AcDbPolyline
 90
    6
 70
    1
 43
0
 10
222.9919584725633
 20
274.8507462686568
 42
0.9048750780274964
 10
222.991958472564
 20
275.1492537313435
 42
-0.2151329367067902
 10
201.6236593434382
 20
287.4862469856681
 42
0.9048750780267598
 10
201.365144297532
 20
287.336993254325
 42
-0.2151329367067894
 10
201.3651442975325
 20
262.6630067456746
 42
0.9048750780277275
 10
201.6236593434377
 20
262.5137530143311
 42
-0.2151329367067967
  0
LWPOLYLINE
  5
58
100
AcDbEntity
  8
cut
  6
ByLayer
 62
  256
370
   -1
100
AcDbPolyline
 90
    6
 70
    1
 43
0
 10
197.0111963590313
 20
229.8507462686567
 42
0.9048750780276681
 10
197.0111963590307
 20
230.1492537313437
 42
-0.2151329367067898
 10
175.6428972299043
 20
242.4862469856679
 42
0.9048750780271055
 10
175.3843821839982
 20
242.3369932543248
 42
-0.2151329367067894
 10
175.3843821839985
 20
217.6630067456746
 42
0.9048750780275684
 10
175.6428972299043
 20
217.5137530143313
 42
-0.2151329367067966
  0
LWPOLYLINE
  5
59
100
AcDbEntity
  8
cut
  6
ByLayer
 62
  256
370
   -1
100
AcDbPolyline
 90
    6
 70
    1
 43
0
 10
224.3571027700957
 20
217.5137530143313
 42
0.9048750780277283
 10
224.6156178160022
 20
217.6630067456744
 42
-0.2151329367067896
 10
224.6156178160015
 20
242.3369932543248
 42
0.904875078027197
 10
224.3571027700952
 20
242.4862469856683
 42
-0.2151329367067901
 10
202.9888036409687
 20
230.1492537313433
 42
0.9048750780277793
 10
202.9888036409694
 20
229.8507462686568
 42
-0.2151329367067963
  0
LWPOLYLINE
  5
5A
100
AcDbEntity
  8
cut
  6
ByLayer
 62
  256
370
   -1
100
AcDbPolyline
 90
    6
 70
    1
 43
0
 10
248.9727205860972
 20
229.8507462686567
 42
0.9048750780274964
 10
248.9727205860979
 20
230.1492537313434
 42
-0.2151329367067903
 10
227.6044214569715
 20
242.4862469856683
 42
0.9048750780271728
 10
227.3459064110654
 20
242.3369932543248
 42
-0.2151329367067896
 10
227.3459064110658
 20
217.6630067456746
 42
0.9048750780276222
 10
227.6044214569716
 20
217.5137530143311
 42
-0.2151329367067963
  0
LWPOLYLINE
  5
5B
100
AcDbEntity
  8
cut
  6
ByLayer
 62
  256
370
   -1
100
AcDbPolyline
 90
    6
 70
    1
 43
0
 10
250.3378648836289
 20
232.5137530143313
 42
0.9048750780274294
 10
250.5963799295355
 20
232.6630067456746
 42
-0.2151329367067893
 10
250.5963799295347
 20
257.336993254325
 42
0.9048750780269844
 10
250.3378648836285
 20
257.4862469856683
 42
-0.2151329367067896
 10
228.969565754502
 20
245.1492537313433
 42
0.9048750780276162
 10
228.9695657545027
 20
244.8507462686568
 42
-0.2151329367067961
  0
LWPOLYLINE
  5
5C
100
AcDbEntity
  8
cut
  6
ByLayer
 62
  256
370
   -1
100
AcDbPolyline
 90
    6
 70
    1
 43
0
 10
227.3459064110658
 20
247.6630067456743
 42
0.9048750780276013
 10
227.6044214569715
 20
247.5137530143313
 42
-0.2151329367067898
 10
248.9727205860952
 20
259.850746268657
 42
0.9048750780269993
 10
248.972720586097
 20
260.1492537313432
 42
-0.21513293670679
 10
227.6044214569716
 20
272.4862469856686
 42
0.9048750780272969
 10
227.345906411065
 20
272.3369932543255
 42
-0.2151329367067961
  0
LWPOLYLINE
  5
5D
100
AcDbEntity
  8
cut
  6
ByLayer
 62
  256
370
   -1
100
AcDbPolyline
 90
    6
 70
    1
 43
0
 10
274.9534826996305
 20
244.8507462686567
 42
0.9048750780274365
 10
274.9534826996312
 20
245.1492537313432
 42
-0.21513293670679
 10
253.5851835705034
 20
257.4862469856683
 42
0.9048750780272774
 10
253.3266685245987
 20
257.336993254325
 42
-0.2151329367067894
 10
253.3266685245977
 20
232.6630067456746
 42
0.9048750780277289
 10
253.5851835705049
 20
232.5137530143313
 42
-0.2151329367067963
  0
LWPOLYLINE
  5
5E
100
AcDbEntity
  8
cut
  6
ByLayer
 62
  256
370
   -1
100
AcDbPolyline
 90
    6
 70
    1
 43
0
 10
276.3186269971624
 20
217.513753014331
 42
0.9048750780276636
 10
276.5771420430676
 20
217.6630067456744
 42
-0.21513293670679
 10
276.5771420430668
 20
242.3369932543248
 42
0.9048750780271134
 10
276.3186269971624
 20
242.4862469856682
 42
-0.2151329367067903
 10
254.950327868036
 20
230.1492537313433
 42
0.9048750780275736
 10
254.9503278680366
 20
229.8507462686566
 42
-0.2151329367067961
  0
LWPOLYLINE
  5
5F
100
AcDbEntity
  8
cut
  6
ByLayer
 62
  256
370
   -1
100
AcDbPolyline
 90
    6
 70
    1
 43
0
 10
172.3955785430284
 20
247.5137530143313
 42
0.9048750780275667
 10
172.654093588935
 20
247.6630067456747
 42
-0.2151329367067898
 10
172.6540935889342
 20
272.336993254325
 42
0.9048750780272998
 10
172.395578543028
 20
272.4862469856682
 42
-0.2151329367067894
 10
151.0272794139029
 20
260.1492537313434
 42
0.9048750780278906
 10
151.0272794139022
 20
259.8507462686568
 42
-0.2151329367067961
  0
LWPOLYLINE
  5
60
100
AcDbEntity
  8
cut
  6
ByLayer
 62
  256
370
   -1
100
AcDbPolyline
 90
    6
 70
    1
 43
0
 10
171.0304342454981
 20
244.8507462686569
 42
0.9048750780276079
 10
171.0304342454974
 20
245.1492537313437
 42
-0.2151329367067897
 10
149.662135116371
 20
257.4862469856678
 42
0.9048750780267802
 10
149.4036200704649
 20
257.3369932543247
 42
-0.2151329367067894
 10
149.4036200704653
 20
232.6630067456746
 42
0.9048750780275384
 10
149.662135116371
 20
232.5137530143313
 42
-0.2151329367067963
  0
LWPOLYLINE
  5
61
100
AcDbEntity
  8
cut
  6
ByLayer
 62
  256
370
   -1
100
AcDbPolyline
 90
    6
 70
    1
 43
0
 10
172.6540935889342
 20
242.3369932543254
 42
0.9048750780275316
 10
172.3955785430285
 20
242.486246985669
 42
-0.2151329367067901
 10
151.0272794139048
 20
230.1492537313433
 42
0.9048750780269565
 10
151.027279413903
 20
229.8507462686567
 42
-0.2151329367067901
 10
172.3955785430284
 20
217.5137530143314
 42
0.9048750780276796
 10
172.654093588935
 20
217.6630067456745
 42
-0.2151329367067966
  0
LWPOLYLINE
  5
62
100
AcDbEntity
  8
cut
  6
ByLayer
 62
  256
370
   -1
100
AcDbPolyline
 90
    6
 70
    1
 43
0
 10
146.6733314754023
 20
257.3369932543254
 42
0.9048750780276064
 10
146.4148164294952
 20
257.486246985669
 42
-0.2151329367067901
 10
125.0465173003709
 20
245.1492537313433
 42
0.9048750780270676
 10
125.0465173003697
 20
244.8507462686567
 42
-0.2151329367067901
 10
146.4148164294965
 20
232.5137530143314
 42
0.9048750780276047
 10
146.6733314754017
 20
232.6630067456745
 42
-0.2151329367067964
  0
LWPOLYLINE
  5
63
100
AcDbEntity
  8
cut
  6
ByLayer
 62
  256
370
   -1
100
AcDbPolyline
 90
    6
 70
    1
 43
0
 10
123.6813730028378
 20
242.4862469856687
 42
0.9048750780276402
 10
123.4228579569326
 20
242.3369932543256
 42
-0.2151329367067898
 10
123.4228579569333
 20
217.663006745675
 42
0.9048750780270292
 10
123.6813730028376
 20
217.5137530143319
 42
-0.21513293670679
 10
145.049672131964
 20
229.8507462686567
 42
0.9048750780274113
 10
145.0496721319634
 20
230.1492537313434
 42
-0.2151329367067964
  0
LWPOLYLINE
  5
64
100
AcDbEntity
  8
cut
  6
ByLayer
 62
  256
370
   -1
100
AcDbPolyline
 90
    6
 70
    1
 43
0
 10
146.6733314754023
 20
227.3369932543257
 42
0.9048750780276762
 10
146.4148164294951
 20
227.4862469856687
 42
-0.2151329367067896
 10
125.0465173003709
 20
215.1492537313433
 42
0.9048750780271193
 10
125.0465173003697
 20
214.8507462686567
 42
-0.21513293670679
 10
146.4148164294965
 20
202.5137530143311
 42
0.9048750780276932
 10
146.6733314754017
 20
202.6630067456746
 42
-0.2151329367067964
  0
LWPOLYLINE
  5
65
100
AcDbEntity
  8
cut
  6
ByLayer
 62
  256
370
   -1
100
AcDbPolyline
 90
    6
 70
    1
 43
0
 10
149.662135116371
 20
227.4862469856686
 42
0.9048750780275122
 10
149.4036200704645
 20
227.3369932543256
 42
-0.2151329367067898
 10
149.4036200704653
 20
202.663006745675
 42
0.9048750780271425
 10
149.6621351163715
 20
202.5137530143319
 42
-0.21513293670679
 10
171.030434245498
 20
214.8507462686567
 42
0.9048750780276683
 10
171.0304342454973
 20
215.1492537313434
 42
-0.2151329367067961
  0
LWPOLYLINE
  5
66
100
AcDbEntity
  8
cut
  6
ByLayer
 62
  256
370
   -1
100
AcDbPolyline
 90
    6
 70
    1
 43
0
 10
198.6348557024675
 20
227.3369932543254
 42
0.9048750780275534
 10
198.3763406565623
 20
227.4862469856687
 42
-0.2151329367067898
 10
177.0080415274367
 20
215.1492537313433
 42
0.9048750780271194
 10
177.0080415274369
 20
214.8507462686567
 42
-0.2151329367067902
 10
198.3763406565617
 20
202.5137530143314
 42
0.9048750780277152
 10
198.6348557024683
 20
202.6630067456745
 42
-0.2151329367067963
  0
LWPOLYLINE
  5
67
100
AcDbEntity
  8
cut
  6
ByLayer
 62
  256
370
   -1
100
AcDbPolyline
 90
    6
 70
    1
 43
0
 10
222.9919584725633
 20
214.8507462686567
 42
0.9048750780273253
 10
222.991958472564
 20
215.1492537313434
 42
-0.2151329367067904
 10
201.6236593434382
 20
227.4862469856681
 42
0.9048750780270125
 10
201.365144297532
 20
227.3369932543248
 42
-0.2151329367067894
 10
201.3651442975325
 20
202.6630067456746
 42
0.9048750780275534
 10
201.6236593434377
 20
202.5137530143313
 42
-0.2151329367067964
  0
LWPOLYLINE
  5
68
100
AcDbEntity
  8
cut
  6
ByLayer
 62
  256
370
   -1
100
AcDbPolyline
 90
    6
 70
    1
 43
0
 10
250.3378648836289
 20
202.513753014331
 42
0.904875078027368
 10
250.5963799295355
 20
202.6630067456744
 42
-0.21513293670679
 10
250.5963799295347
 20
227.3369932543248
 42
0.9048750780272639
 10
250.3378648836285
 20
227.4862469856682
 42
-0.2151329367067901
 10
228.969565754502
 20
215.1492537313433
 42
0.9048750780276592
 10
228.9695657545027
 20
214.8507462686566
 42
-0.2151329367067963
  0
LWPOLYLINE
  5
69
100
AcDbEntity
  8
cut
  6
ByLayer
 62
  256
370
   -1
100
AcDbPolyline
 90
    6
 70
    1
 43
0
 10
253.3266685245977
 20
202.6630067456743
 42
0.9048750780274271
 10
253.5851835705049
 20
202.5137530143311
 42
-0.21513293670679
 10
274.9534826996291
 20
214.8507462686567
 42
0.9048750780272824
 10
274.9534826996303
 20
215.1492537313432
 42
-0.2151329367067903
 10
253.5851835705035
 20
227.4862469856686
 42
0.9048750780277101
 10
253.3266685245983
 20
227.3369932543255
 42
-0.2151329367067961
  0
LWPOLYLINE
  5
6A
100
AcDbEntity
  8
cut
  6
ByLayer
 62
  256
370
   -1
100
AcDbPolyline
 90
    6
 70
    1
 43
0
 10
145.0496721319641
 20
199.8507462686569
 42
0.9048750780276081
 10
145.0496721319635
 20
200.1492537313437
 42
-0.21513293670679
 10
123.6813730028392
 20
212.4862469856681
 42
0.904875078027164
 10
123.4228579569329
 20
212.3369932543249
 42
-0.2151329367067896
 10
123.422857956932
 20
187.6630067456746
 42
0.9048750780274952
 10
123.6813730028371
 20
187.5137530143313
 42
-0.2151329367067963
  0
LWPOLYLINE
  5
6B
100
AcDbEntity
  8
cut
  6
ByLayer
 62
  256
370
   -1
100
AcDbPolyline
 90
    6
 70
    1
 43
0
 10
172.6540935889342
 20
212.3369932543257
 42
0.9048750780276013
 10
172.3955785430285
 20
212.4862469856687
 42
-0.2151329367067896
 10
151.0272794139048
 20
200.1492537313431
 42
0.9048750780268022
 10
151.027279413903
 20
199.8507462686567
 42
-0.2151329367067897
 10
172.3955785430284
 20
187.5137530143314
 42
0.9048750780276796
 10
172.654093588935
 20
187.6630067456745
 42
-0.2151329367067964
  0
LWPOLYLINE
  5
6C
100
AcDbEntity
  8
cut
  6
ByLayer
 62
  256
370
   -1
100
AcDbPolyline
 90
    6
 70
    1
 43
0
 10
175.6428972299043
 20
212.4862469856687
 42
0.9048750780277283
 10
175.3843821839978
 20
212.3369932543256
 42
-0.2151329367067896
 10
175.3843821839985
 20
187.6630067456752
 42
0.9048750780270924
 10
175.6428972299048
 20
187.5137530143319
 42
-0.2151329367067898
 10
197.0111963590313
 20
199.8507462686567
 42
0.9048750780277796
 10
197.0111963590306
 20
200.1492537313432
 42
-0.2151329367067964
  0
LWPOLYLINE
  5
6D
100
AcDbEntity
  8
cut
  6
ByLayer
 62
  256
370
   -1
100
AcDbPolyline
 90
    6
 70
    1
 43
0
 10
224.3571027700957
 20
187.5137530143313
 42
0.9048750780277283
 10
224.6156178160022
 20
187.6630067456744
 42
-0.2151329367067896
 10
224.6156178160015
 20
212.3369932543248
 42
0.9048750780271538
 10
224.3571027700952
 20
212.486246985668
 42
-0.2151329367067901
 10
202.9888036409687
 20
200.1492537313433
 42
0.9048750780277709
 10
202.9888036409694
 20
199.8507462686568
 42
-0.2151329367067963
  0
LWPOLYLINE
  5
6E
100
AcDbEntity
  8
cut
  6
ByLayer
 62
  256
370
   -1
100
AcDbPolyline
 90
    6
 70
    1
 43
0
 10
227.3459064110658
 20
187.6630067456743
 42
0.9048750780273228
 10
227.6044214569715
 20
187.5137530143311
 42
-0.2151329367067901
 10
248.9727205860952
 20
199.8507462686569
 42
0.9048750780268878
 10
248.972720586097
 20
200.1492537313433
 42
-0.2151329367067896
 10
227.6044214569716
 20
212.4862469856686
 42
0.9048750780276096
 10
227.345906411065
 20
212.3369932543255
 42
-0.2151329367067964
  0
LWPOLYLINE
  5
6F
100
AcDbEntity
  8
cut
  6
ByLayer
 62
  256
370
   -1
100
AcDbPolyline
 90
    6
 70
    1
 43
0
 10
254.9503278680359
 20
200.1492537313431
 42
0.9048750780274365
 10
254.9503278680365
 20
199.8507462686563
 42
-0.2151329367067901
 10
276.3186269971608
 20
187.5137530143319
 42
0.904875078026983
 10
276.577142043067
 20
187.6630067456751
 42
-0.2151329367067904
 10
276.577142043068
 20
212.3369932543254
 42
0.9048750780275284
 10
276.3186269971628
 20
212.4862469856686
 42
-0.2151329367067964
  0
LWPOLYLINE
  5
70
100
AcDbEntity
  8
cut
  6
ByLayer
 62
  256
370
   -1
100
AcDbPolyline
 90
    6
 70
    1
 43
0
 10
253.3266685245977
 20
172.6630067456743
 42
0.904875078027676
 10
253.5851835705048
 20
172.5137530143313
 42
-0.2151329367067898
 10
274.9534826996291
 20
184.8507462686567
 42
0.9048750780275995
 10
274.9534826996303
 20
185.1492537313432
 42
-0.2151329367067903
 10
253.5851835705035
 20
197.4862469856689
 42
0.904875078027676
 10
253.3266685245983
 20
197.3369932543255
 42
-0.2151329367067961
  0
LWPOLYLINE
  5
71
100
AcDbEntity
  8
cut
  6
ByLayer
 62
  256
370
   -1
100
AcDbPolyline
 90
    6
 70
    1
 43
0
 10
250.337864883629
 20
172.5137530143314
 42
0.9048750780275124
 10
250.5963799295355
 20
172.6630067456744
 42
-0.2151329367067898
 10
250.5963799295347
 20
197.336993254325
 42
0.9048750780271411
 10
250.3378648836285
 20
197.486246985668
 42
-0.2151329367067896
 10
228.969565754502
 20
185.1492537313433
 42
0.9048750780276076
 10
228.9695657545027
 20
184.8507462686568
 42
-0.215132936706796
  0
LWPOLYLINE
  5
72
100
AcDbEntity
  8
cut
  6
ByLayer
 62
  256
370
   -1
100
AcDbPolyline
 90
    6
 70
    1
 43
0
 10
201.3651442975325
 20
172.6630067456746
 42
0.9048750780274621
 10
201.6236593434376
 20
172.5137530143312
 42
-0.2151329367067899
 10
222.9919584725633
 20
184.8507462686567
 42
0.9048750780272052
 10
222.9919584725631
 20
185.1492537313433
 42
-0.2151329367067896
 10
201.6236593434383
 20
197.4862469856686
 42
0.9048750780276644
 10
201.3651442975317
 20
197.3369932543255
 42
-0.2151329367067964
  0
LWPOLYLINE
  5
73
100
AcDbEntity
  8
cut
  6
ByLayer
 62
  256
370
   -1
100
AcDbPolyline
 90
    6
 70
    1
 43
0
 10
177.0080415274367
 20
185.1492537313433
 42
0.9048750780274363
 10
177.008041527436
 20
184.8507462686568
 42
-0.21513293670679
 10
198.3763406565618
 20
172.5137530143319
 42
0.9048750780269827
 10
198.6348557024679
 20
172.6630067456752
 42
-0.2151329367067902
 10
198.6348557024675
 20
197.3369932543254
 42
0.9048750780275534
 10
198.3763406565623
 20
197.4862469856687
 42
-0.2151329367067966
  0
LWPOLYLINE
  5
74
100
AcDbEntity
  8
cut
  6
ByLayer
 62
  256
370
   -1
100
AcDbPolyline
 90
    6
 70
    1
 43
0
 10
149.662135116371
 20
197.4862469856686
 42
0.9048750780276609
 10
149.4036200704645
 20
197.3369932543256
 42
-0.2151329367067901
 10
149.4036200704653
 20
172.663006745675
 42
0.9048750780271598
 10
149.6621351163715
 20
172.5137530143318
 42
-0.2151329367067903
 10
171.030434245498
 20
184.8507462686567
 42
0.9048750780276079
 10
171.0304342454973
 20
185.1492537313432
 42
-0.215132936706796
  0
LWPOLYLINE
  5
75
100
AcDbEntity
  8
cut
  6
ByLayer
 62
  256
370
   -1
100
AcDbPolyline
 90
    6
 70
    1
 43
0
 10
146.6733314754023
 20
197.3369932543257
 42
0.9048750780277056
 10
146.414816429495
 20
197.4862469856687
 42
-0.2151329367067896
 10
125.0465173003709
 20
185.1492537313431
 42
0.9048750780271451
 10
125.0465173003697
 20
184.8507462686567
 42
-0.2151329367067897
 10
146.4148164294965
 20
172.5137530143314
 42
0.9048750780275362
 10
146.6733314754017
 20
172.6630067456746
 42
-0.2151329367067964
  0
LWPOLYLINE
  5
76
100
AcDbEntity
  8
cut
  6
ByLayer
 62
  256
370
   -1
100
AcDbPolyline
 90
    6
 70
    1
 43
0
 10
123.6813730028378
 20
182.486246985669
 42
0.9048750780275349
 10
123.4228579569326
 20
182.3369932543256
 42
-0.2151329367067901
 10
123.4228579569333
 20
157.6630067456752
 42
0.9048750780270274
 10
123.6813730028376
 20
157.5137530143318
 42
-0.2151329367067902
 10
145.049672131964
 20
169.8507462686567
 42
0.9048750780275825
 10
145.0496721319634
 20
170.1492537313434
 42
-0.2151329367067963
  0
LWPOLYLINE
  5
77
100
AcDbEntity
  8
cut
  6
ByLayer
 62
  256
370
   -1
100
AcDbPolyline
 90
    6
 70
    1
 43
0
 10
151.0272794139028
 20
170.1492537313433
 42
0.9048750780274363
 10
151.0272794139021
 20
169.8507462686568
 42
-0.2151329367067898
 10
172.3955785430285
 20
157.5137530143317
 42
0.9048750780271729
 10
172.6540935889346
 20
157.6630067456752
 42
-0.2151329367067902
 10
172.6540935889342
 20
182.3369932543254
 42
0.9048750780276227
 10
172.3955785430284
 20
182.4862469856689
 42
-0.2151329367067966
  0
LWPOLYLINE
  5
78
100
AcDbEntity
  8
cut
  6
ByLayer
 62
  256
370
   -1
100
AcDbPolyline
 90
    6
 70
    1
 43
0
 10
175.6428972299043
 20
182.4862469856687
 42
0.9048750780277283
 10
175.3843821839978
 20
182.3369932543256
 42
-0.2151329367067894
 10
175.3843821839985
 20
157.6630067456752
 42
0.9048750780270924
 10
175.6428972299048
 20
157.5137530143319
 42
-0.2151329367067898
 10
197.0111963590313
 20
169.8507462686567
 42
0.9048750780276683
 10
197.0111963590306
 20
170.1492537313434
 42
-0.2151329367067963
  0
LWPOLYLINE
  5
79
100
AcDbEntity
  8
cut
  6
ByLayer
 62
  256
370
   -1
100
AcDbPolyline
 90
    6
 70
    1
 43
0
 10
202.9888036409687
 20
170.1492537313433
 42
0.9048750780274109
 10
202.9888036409693
 20
169.8507462686566
 42
-0.21513293670679
 10
224.3571027700957
 20
157.5137530143321
 42
0.9048750780270272
 10
224.6156178160018
 20
157.6630067456752
 42
-0.21513293670679
 10
224.6156178160015
 20
182.3369932543254
 42
0.9048750780276469
 10
224.3571027700957
 20
182.4862469856687
 42
-0.2151329367067968
  0
LWPOLYLINE
  5
7A
100
AcDbEntity
  8
cut
  6
ByLayer
 62
  256
370
   -1
100
AcDbPolyline
 90
    6
 70
    1
 43
0
 10
227.3459064110658
 20
157.6630067456743
 42
0.9048750780274101
 10
227.6044214569715
 20
157.513753014331
 42
-0.2151329367067904
 10
248.9727205860952
 20
169.8507462686567
 42
0.904875078026948
 10
248.972720586097
 20
170.1492537313433
 42
-0.2151329367067896
 10
227.6044214569716
 20
182.4862469856686
 42
0.9048750780276096
 10
227.345906411065
 20
182.3369932543255
 42
-0.2151329367067964
  0
LWPOLYLINE
  5
7B
100
AcDbEntity
  8
cut
  6
ByLayer
 62
  256
370
   -1
100
AcDbPolyline
 90
    6
 70
    1
 43
0
 10
276.3186269971624
 20
157.5137530143313
 42
0.9048750780276207
 10
276.5771420430675
 20
157.6630067456744
 42
-0.2151329367067903
 10
276.5771420430665
 20
182.3369932543251
 42
0.904875078026968
 10
276.3186269971624
 20
182.486246985668
 42
-0.2151329367067903
 10
254.950327868036
 20
170.1492537313433
 42
0.9048750780275137
 10
254.9503278680366
 20
169.8507462686568
 42
-0.2151329367067962
  0
LWPOLYLINE
  5
7C
100
AcDbEntity
  8
cut
  6
ByLayer
 62
  256
370
   -1
100
AcDbPolyline
 90
    6
 70
    1
 43
0
 10
253.3266685245977
 20
142.6630067456743
 42
0.9048750780274846
 10
253.5851835705048
 20
142.513753014331
 42
-0.2151329367067902
 10
274.9534826996291
 20
154.8507462686567
 42
0.9048750780272909
 10
274.9534826996303
 20
155.1492537313433
 42
-0.2151329367067902
 10
253.5851835705035
 20
167.4862469856686
 42
0.9048750780276047
 10
253.3266685245983
 20
167.3369932543255
 42
-0.2151329367067966
  0
LWPOLYLINE
  5
7D
100
AcDbEntity
  8
cut
  6
ByLayer
 62
  256
370
   -1
100
AcDbPolyline
 90
    6
 70
    1
 43
0
 10
228.9695657545019
 20
155.1492537313433
 42
0.904875078027582
 10
228.9695657545026
 20
154.8507462686566
 42
-0.2151329367067898
 10
250.337864883629
 20
142.5137530143319
 42
0.9048750780270686
 10
250.5963799295351
 20
142.6630067456752
 42
-0.2151329367067902
 10
250.5963799295347
 20
167.3369932543254
 42
0.9048750780274883
 10
250.337864883629
 20
167.4862469856687
 42
-0.2151329367067968
  0
LWPOLYLINE
  5
7E
100
AcDbEntity
  8
cut
  6
ByLayer
 62
  256
370
   -1
100
AcDbPolyline
 90
    6
 70
    1
 43
0
 10
201.3651442975325
 20
142.6630067456746
 42
0.9048750780274621
 10
201.6236593434376
 20
142.5137530143312
 42
-0.21513293670679
 10
222.9919584725633
 20
154.8507462686567
 42
0.9048750780271964
 10
222.9919584725631
 20
155.1492537313433
 42
-0.2151329367067896
 10
201.6236593434383
 20
167.4862469856686
 42
0.9048750780276644
 10
201.3651442975317
 20
167.3369932543255
 42
-0.2151329367067964
  0
LWPOLYLINE
  5
7F
100
AcDbEntity
  8
cut
  6
ByLayer
 62
  256
370
   -1
100
AcDbPolyline
 90
    6
 70
    1
 43
0
 10
177.0080415274367
 20
155.1492537313433
 42
0.9048750780274363
 10
177.008041527436
 20
154.8507462686568
 42
-0.2151329367067905
 10
198.3763406565618
 20
142.5137530143319
 42
0.9048750780270614
 10
198.6348557024679
 20
142.6630067456752
 42
-0.2151329367067902
 10
198.6348557024675
 20
167.3369932543254
 42
0.9048750780275534
 10
198.3763406565623
 20
167.4862469856687
 42
-0.2151329367067966
  0
LWPOLYLINE
  5
80
100
AcDbEntity
  8
cut
  6
ByLayer
 62
  256
370
   -1
100
AcDbPolyline
 90
    6
 70
    1
 43
0
 10
149.662135116371
 20
167.4862469856686
 42
0.9048750780276609
 10
149.4036200704645
 20
167.3369932543256
 42
-0.2151329367067896
 10
149.4036200704653
 20
142.663006745675
 42
0.9048750780270284
 10
149.6621351163715
 20
142.5137530143319
 42
-0.2151329367067902
 10
171.030434245498
 20
154.8507462686567
 42
0.9048750780276079
 10
171.0304342454973
 20
155.1492537313432
 42
-0.215132936706796
  0
LWPOLYLINE
  5
81
100
AcDbEntity
  8
cut
  6
ByLayer
 62
  256
370
   -1
100
AcDbPolyline
 90
    6
 70
    1
 43
0
 10
125.0465173003696
 20
155.1492537313433
 42
0.9048750780275223
 10
125.0465173003688
 20
154.8507462686568
 42
-0.2151329367067899
 10
146.4148164294966
 20
142.5137530143317
 42
0.9048750780272261
 10
146.6733314754013
 20
142.6630067456752
 42
-0.2151329367067901
 10
146.6733314754023
 20
167.3369932543254
 42
0.9048750780277289
 10
146.4148164294951
 20
167.4862469856687
 42
-0.2151329367067966
  0
LWPOLYLINE
  5
82
100
AcDbEntity
  8
cut
  6
ByLayer
 62
  256
370
   -1
100
AcDbPolyline
 90
    8
 70
    1
 43
0
 10
122.014770487155
 20
184.9253731343287
 42
0.2664117458532287
 10
122.0147704871558
 20
185.0746268656719
 42
-0.2664117458528159
 10
122.014770487155
 20
214.9253731343277
 42
0.2664117458530059
 10
122.0147704871543
 20
215.0746268656712
 42
-0.2213467923986823
 10
119.8635692294522
 20
240.3041079801258
 42
0.9439983073669669
 10
119.5886758231068
 20
240.4230001870047
 42
0.2372084154750376
 10
119.5886758231053
 20
159.5769998129968
 42
0.9439983073664004
 10
119.8635692294507
 20
159.6958920198759
 42
-0.2213467923986644
  0
LWPOLYLINE
  5
83
100
AcDbEntity
  8
cut
  6
ByLayer
 62
  256
370
   -1
100
AcDbPolyline
 90
    8
 70
    1
 43
0
 10
277.985229512845
 20
215.0746268656713
 42
0.2664117458532033
 10
277.9852295128442
 20
214.9253731343281
 42
-0.2664117458528161
 10
277.9852295128449
 20
185.0746268656723
 42
0.2664117458530816
 10
277.9852295128456
 20
184.9253731343288
 42
-0.221346792398682
 10
280.1364307705479
 20
159.6958920198742
 42
0.9439983073670057
 10
280.4113241768932
 20
159.5769998129952
 42
0.237208415475038
 10
280.4113241768946
 20
240.4230001870032
 42
0.943998307366392
 10
280.1364307705492
 20
240.3041079801239
 42
-0.2213467923986652
  0
LWPOLYLINE
  5
84
100
AcDbEntity
  8
cut
  6
ByLayer
 62
  256
370
   -1
100
AcDbPolyline
 90
    8
 70
    1
 43
0
 10
174.0623950618211
 20
124.9254966890806
 42
0.2664117458532069
 10
173.9331375388683
 20
125.0001235547521
 42
-0.2664117458528155
 10
148.0816329482878
 20
139.9254966890801
 42
0.2664117458530258
 10
147.9523754253339
 20
140.000123554752
 42
-0.2213467923986816
 10
125.0274032270661
 20
150.7518691741554
 42
0.9439983073669774
 10
124.7869928524241
 20
150.573250604367
 42
0.2372084154750382
 10
194.80168297068
 20
110.1502504173627
 42
0.943998307366179
 10
194.8361660023843
 20
110.44776119403
 42
-0.2213467923986651
  0
LWPOLYLINE
  5
85
100
AcDbEntity
  8
cut
  6
ByLayer
 62
  256
370
   -1
100
AcDbPolyline
 90
    8
 70
    1
 43
0
 10
252.0476245746654
 20
140.000123554752
 42
0.2664117458532301
 10
251.9183670517125
 20
139.9254966890801
 42
-0.2664117458528159
 10
226.0668624611321
 20
125.0001235547524
 42
0.2664117458530504
 10
225.9376049381797
 20
124.9254966890808
 42
-0.2213467923986813
 10
205.1638339976139
 20
110.4477611940299
 42
0.9439983073669396
 10
205.1983170293173
 20
110.1502504173623
 42
0.237208415475038
 10
275.2130071475746
 20
150.5732506043655
 42
0.9439983073665418
 10
274.9725967729335
 20
150.7518691741541
 42
-0.2213467923986643
  0
LWPOLYLINE
  5
86
100
AcDbEntity
  8
cut
  6
ByLayer
 62
  256
370
   -1
100
AcDbPolyline
 90
    6
 70
    1
 43
0
 10
172.6540935889342
 20
152.3369932543257
 42
0.9048750780274712
 10
172.3955785430285
 20
152.4862469856689
 42
-0.2151329367067898
 10
151.0272794139048
 20
140.1492537313433
 42
0.904875078026948
 10
151.027279413903
 20
139.8507462686567
 42
-0.2151329367067897
 10
172.3955785430284
 20
127.5137530143313
 42
0.9048750780276614
 10
172.654093588935
 20
127.6630067456745
 42
-0.2151329367067968
  0
LWPOLYLINE
  5
87
100
AcDbEntity
  8
cut
  6
ByLayer
 62
  256
370
   -1
100
AcDbPolyline
 90
    6
 70
    1
 43
0
 10
175.6428972299043
 20
152.4862469856687
 42
0.9048750780277283
 10
175.3843821839978
 20
152.3369932543256
 42
-0.2151329367067894
 10
175.3843821839985
 20
127.6630067456752
 42
0.9048750780270971
 10
175.6428972299048
 20
127.5137530143319
 42
-0.2151329367067902
 10
197.0111963590313
 20
139.8507462686567
 42
0.9048750780277796
 10
197.0111963590306
 20
140.1492537313432
 42
-0.2151329367067964
  0
LWPOLYLINE
  5
88
100
AcDbEntity
  8
cut
  6
ByLayer
 62
  256
370
   -1
100
AcDbPolyline
 90
    6
 70
    1
 43
0
 10
202.9888036409687
 20
140.1492537313431
 42
0.9048750780274621
 10
202.9888036409693
 20
139.8507462686568
 42
-0.2151329367067899
 10
224.3571027700957
 20
127.5137530143319
 42
0.9048750780270314
 10
224.6156178160018
 20
127.663006745675
 42
-0.2151329367067901
 10
224.6156178160015
 20
152.3369932543257
 42
0.9048750780276723
 10
224.3571027700957
 20
152.4862469856689
 42
-0.2151329367067971
  0
LWPOLYLINE
  5
89
100
AcDbEntity
  8
cut
  6
ByLayer
 62
  256
370
   -1
100
AcDbPolyline
 90
    6
 70
    1
 43
0
 10
227.6044214569716
 20
152.4862469856687
 42
0.9048750780276967
 10
227.345906411065
 20
152.3369932543255
 42
-0.2151329367067901
 10
227.3459064110658
 20
127.663006745675
 42
0.9048750780270605
 10
227.6044214569721
 20
127.5137530143318
 42
-0.2151329367067895
 10
248.9727205860971
 20
139.8507462686567
 42
0.904875078027694
 10
248.9727205860978
 20
140.1492537313432
 42
-0.2151329367067963
  0
LWPOLYLINE
  5
8A
100
AcDbEntity
  8
cut
  6
ByLayer
 62
  256
370
   -1
100
AcDbPolyline
 90
    6
 70
    1
 43
0
 10
177.0080415274367
 20
125.1492537313433
 42
0.9048750780274619
 10
177.008041527436
 20
124.8507462686567
 42
-0.2151329367067904
 10
198.3763406565618
 20
112.5137530143319
 42
0.9048750780270614
 10
198.6348557024679
 20
112.6630067456752
 42
-0.2151329367067902
 10
198.6348557024675
 20
137.3369932543254
 42
0.9048750780275534
 10
198.3763406565623
 20
137.4862469856687
 42
-0.2151329367067964
  0
LWPOLYLINE
  5
8B
100
AcDbEntity
  8
cut
  6
ByLayer
 62
  256
370
   -1
100
AcDbPolyline
 90
    6
 70
    1
 43
0
 10
201.3651442975325
 20
112.6630067456744
 42
0.9048750780273929
 10
201.6236593434376
 20
112.5137530143312
 42
-0.2151329367067899
 10
222.9919584725633
 20
124.8507462686567
 42
0.9048750780272049
 10
222.9919584725631
 20
125.1492537313433
 42
-0.2151329367067896
 10
201.6236593434383
 20
137.4862469856686
 42
0.9048750780276644
 10
201.3651442975317
 20
137.3369932543255
 42
-0.2151329367067964
  0
ENDSEC
  0
SECTION
  2
OBJECTS
  0
DICTIONARY
  5
C
330
0
100
AcDbDictionary
281
    1
  3
ACAD_GROUP
350
D
  0
DICTIONARY
  5
D
330
C
100
AcDbDictionary
281
    1
  0
ENDSEC
  0
EOF
