 0
SECTION
 2
ENTITIES
  0
LINE
 8
Layer0
10
-15.0
20
3.64285714285714
30
0.0
11
-15.0
21
19.25
31
0.0
  0
LINE
 8
Layer0
10
-1.5
20
40.0
30
0.0
11
-1.5
21
30.75
31
0.0
  0
LINE
 8
Layer0
10
169.0
20
40.0
30
-8.45989944764369e-15
11
167.5
21
40.0
31
-5.63993296509579e-15
  0
LINE
 8
Layer0
10
-13.5
20
1.92857142857143
30
0.0
11
-13.5
21
0.214285714285716
31
0.0
  0
LINE
 8
Layer0
10
-1.5
20
7.75
30
0.0
11
-1.5
21
0.214285714285715
31
0.0
  0
LINE
 8
Layer0
10
-15.0
20
2.14285714285714
30
0.0
11
-13.5
21
1.92857142857143
31
0.0
  0
LINE
 8
Layer0
10
-1.5
20
0.214285714285715
30
0.0
11
0.0
21
0.0
31
0.0
  0
LINE
 8
Layer0
10
-18.0
20
2.57142857142857
30
0.0
11
-16.5
21
2.35714285714286
31
0.0
  0
LINE
 8
Layer0
10
-16.5
20
2.35714285714286
30
0.0
11
-15.0
21
2.14285714285714
31
0.0
  0
LINE
 8
Layer0
10
-13.5
20
1.92857142857143
30
0.0
11
-10.5
21
1.5
31
0.0
  0
LINE
 8
Layer0
10
-15.0
20
40.0
30
0.0
11
-13.5
21
40.0
31
0.0
  0
LINE
 8
Layer0
10
-16.5
20
40.0
30
0.0
11
-15.0
21
40.0
31
0.0
  0
LINE
 8
Layer0
10
-10.5
20
7.75
30
0.0
11
-10.5
21
1.5
31
0.0
  0
LINE
 8
Layer0
10
66.6792147827221
20
21.3060046196006
30
0.0
11
60.0
21
0.0
31
0.0
  0
LINE
 8
Layer0
10
148.0
20
29.25
30
-2.8199664825479e-15
11
148.0
21
10.75
31
-2.8199664825479e-15
  0
LINE
 8
Layer0
10
140.0
20
35.0
30
0.0
11
90.0
21
35.0
31
0.0
  0
LINE
 8
Layer0
10
-10.5
20
9.25
30
0.0
11
-10.5
21
7.75
31
0.0
  0
LINE
 8
Layer0
10
152.5
20
2.78571428571428
30
8.45989944764369e-15
11
152.5
21
19.25
31
8.45989944764369e-15
  0
LINE
 8
Layer0
10
154.0
20
1.28571428571429
30
2.39697151016571e-14
11
154.0
21
0.214285714285716
31
4.79394302033143e-14
  0
LINE
 8
Layer0
10
67.2155720978941
20
22.7680336630078
30
0.0
11
66.6792147827221
21
21.3060046196006
31
0.0
  0
LINE
 8
Layer0
10
68.1120544416647
20
24.041425786673
30
0.0
11
67.2155720978941
21
22.7680336630078
31
0.0
  0
LINE
 8
Layer0
10
140.0
20
5.0
30
0.0
11
140.0
21
35.0
31
0.0
  0
LINE
 8
Layer0
10
5.0
20
35.0
30
0.0
11
5.0
21
5.0
31
0.0
  0
LINE
 8
Layer0
10
-12.0
20
3.21428571428571
30
0.0
11
-12.0
21
19.25
31
0.0
  0
LINE
 8
Layer0
10
55.0
20
35.0
30
0.0
11
5.0
21
35.0
31
0.0
  0
LINE
 8
Layer0
10
-9.0
20
2.78571428571428
30
0.0
11
-9.0
21
19.25
31
0.0
  0
LINE
 8
Layer0
10
-19.5
20
40.0
30
0.0
11
-19.5
21
30.75
31
0.0
  0
LINE
 8
Layer0
10
-19.5
20
7.75
30
0.0
11
-19.5
21
2.78571428571429
31
0.0
  0
LINE
 8
Layer0
10
-3.0
20
38.5
30
0.0
11
-3.0
21
20.75
31
0.0
  0
LINE
 8
Layer0
10
-19.5
20
2.78571428571429
30
0.0
11
-19.5
21
0.214285714285716
31
0.0
  0
LINE
 8
Layer0
10
78.1939501779359
20
21.779359430605
30
0.0
11
85.0
21
0.0
31
0.0
  0
LINE
 8
Layer0
10
-4.5
20
40.0
30
0.0
11
-6.0
21
40.0
31
0.0
  0
LINE
 8
Layer0
10
-3.0
20
40.0
30
0.0
11
-1.5
21
40.0
31
0.0
  0
LINE
 8
Layer0
10
160.0
20
9.25
30
4.51194637207664e-14
11
160.0
21
7.75
31
4.51194637207664e-14
  0
POLYLINE
 8
Layer0
 66
     1
70
    8
 10
0.0
 20
 0.0
 30
0.0
  0
VERTEX
  8
MY3DLAYER
10
163.0
20
2.78571428571429
30
1.69197988952874e-14
 70
     32
  0
VERTEX
  8
MY3DLAYER
10
164.5
20
3.0
30
2.53796983429311e-14
 70
     32
  0
VERTEX
  8
MY3DLAYER
10
164.5
20
2.97015306122449
30
1.18060918184529e-14
 70
     32
  0
VERTEX
  8
MY3DLAYER
10
164.5
20
2.78571428571429
30
1.26898491714655e-14
 70
     32
  0
VERTEX
  8
MY3DLAYER
10
163.0
20
2.57142857142857
30
8.45989944764369e-15
 70
     32
  0
VERTEX
  8
MY3DLAYER
10
163.0
20
2.75816326530612
30
7.91604876886655e-15
 70
     32
  0
VERTEX
  8
MY3DLAYER
10
163.0
20
2.78571428571429
30
1.69197988952874e-14
 70
     32
  0
SEQEND
  0
LINE
 8
Layer0
10
146.5
20
1.92857142857143
30
3.66595642731227e-14
11
146.5
21
19.25
31
3.66595642731227e-14
  0
LINE
 8
Layer0
10
158.5
20
40.0
30
-3.10196313080269e-14
11
157.0
21
40.0
31
4.51194637207664e-14
  0
LINE
 8
Layer0
10
167.5
20
40.0
30
-5.63993296509579e-15
11
166.0
21
40.0
31
3.94795307556706e-14
  0
LINE
 8
Layer0
10
157.0
20
40.0
30
4.51194637207664e-14
11
155.5
21
40.0
31
-2.8199664825479e-15
  0
LINE
 8
Layer0
10
145.0
20
29.25
30
0.0
11
145.0
21
30.75
31
0.0
  0
LINE
 8
Layer0
10
-4.5
20
40.0
30
0.0
11
-3.0
21
40.0
31
0.0
  0
LINE
 8
Layer0
10
148.0
20
0.428571428571425
30
-1.40998324127395e-15
11
148.0
21
0.214285714285716
31
-2.8199664825479e-15
  0
LINE
 8
Layer0
10
164.5
20
4.5
30
2.53796983429311e-14
11
164.5
21
19.25
31
2.53796983429311e-14
  0
LINE
 8
Layer0
10
-38.5
20
40.0
30
0.0
11
-25.5
21
40.0
31
0.0
  0
LINE
 8
Layer0
10
-4.5
20
7.75
30
0.0
11
-4.5
21
0.642857142857143
31
0.0
  0
LINE
 8
Layer0
10
155.5
20
38.5
30
-2.8199664825479e-15
11
155.5
21
20.75
31
-2.8199664825479e-15
  0
LINE
 8
Layer0
10
145.0
20
40.0
30
0.0
11
0.0
21
40.0
31
0.0
  0
LINE
 8
Layer0
10
-10.5
20
29.25
30
0.0
11
-10.5
21
10.75
31
0.0
  0
LINE
 8
Layer0
10
166.0
20
3.0
30
1.97397653778353e-14
11
166.0
21
0.214285714285716
31
3.94795307556706e-14
  0
LINE
 8
Layer0
10
-13.5
20
40.0
30
0.0
11
-13.5
21
30.75
31
0.0
  0
LINE
 8
Layer0
10
-4.5
20
9.25
30
0.0
11
-4.5
21
7.75
31
0.0
  0
LINE
 8
Layer0
10
161.5
20
4.07142857142857
30
8.45989944764369e-15
11
161.5
21
19.25
31
8.45989944764369e-15
  0
LINE
 8
Layer0
10
166.0
20
40.0
30
3.94795307556706e-14
11
166.0
21
30.75
31
3.94795307556706e-14
  0
LINE
 8
Layer0
10
160.0
20
40.0
30
4.51194637207664e-14
11
158.5
21
40.0
31
-3.10196313080269e-14
  0
LINE
 8
Layer0
10
163.0
20
7.75
30
1.69197988952874e-14
11
163.0
21
2.78571428571429
31
1.69197988952874e-14
  0
LINE
 8
Layer0
10
285.0
20
40.0
30
0.0
11
169.0
21
40.0
31
-8.45989944764369e-15
  0
LINE
 8
Layer0
10
145.0
20
9.25
30
0.0
11
145.0
21
10.75
31
0.0
  0
LINE
 8
Layer0
10
157.0
20
40.0
30
4.51194637207664e-14
11
157.0
21
30.75
31
4.51194637207664e-14
  0
LINE
 8
Layer0
10
-140.0
20
20.0
30
0.0
11
-24.0
21
3.42857142857143
31
0.0
  0
LINE
 8
Layer0
10
158.5
20
3.64285714285714
30
-3.10196313080269e-14
11
158.5
21
19.25
31
-3.10196313080269e-14
  0
LINE
 8
Layer0
10
-10.5
20
1.5
30
0.0
11
-10.5
21
0.214285714285716
31
0.0
  0
POLYLINE
 8
Layer0
 66
     1
70
    8
 10
0.0
 20
 0.0
 30
0.0
  0
VERTEX
  8
MY3DLAYER
10
166.0
20
3.21428571428572
30
3.94795307556706e-14
 70
     32
  0
VERTEX
  8
MY3DLAYER
10
167.5
20
3.42857142857143
30
-5.63993296509579e-15
 70
     32
  0
VERTEX
  8
MY3DLAYER
10
167.5
20
3.39413265306122
30
-2.59336203305741e-15
 70
     32
  0
VERTEX
  8
MY3DLAYER
10
167.5
20
3.21428571428571
30
-2.8199664825479e-15
 70
     32
  0
VERTEX
  8
MY3DLAYER
10
166.0
20
3.0
30
1.97397653778353e-14
 70
     32
  0
VERTEX
  8
MY3DLAYER
10
166.0
20
3.18214285714286
30
1.82592829744977e-14
 70
     32
  0
VERTEX
  8
MY3DLAYER
10
166.0
20
3.21428571428572
30
3.94795307556706e-14
 70
     32
  0
SEQEND
  0
LINE
 8
Layer0
10
145.0
20
0.214285714285716
30
0.0
11
148.0
21
0.642857142857143
31
-2.8199664825479e-15
  0
LINE
 8
Layer0
10
-4.5
20
29.25
30
0.0
11
-4.5
21
10.75
31
0.0
  0
LINE
 8
Layer0
10
-18.0
20
1.92857142857142
30
0.0
11
-18.0
21
2.57142857142857
31
0.0
  0
LINE
 8
Layer0
10
-16.5
20
40.0
30
0.0
11
-16.5
21
30.75
31
0.0
  0
LINE
 8
Layer0
10
154.0
20
40.0
30
4.79394302033143e-14
11
152.5
21
40.0
31
8.45989944764369e-15
  0
LINE
 8
Layer0
10
163.0
20
40.0
30
1.69197988952874e-14
11
161.5
21
40.0
31
8.45989944764369e-15
  0
LINE
 8
Layer0
10
164.5
20
40.0
30
2.53796983429311e-14
11
163.0
21
40.0
31
1.69197988952874e-14
  0
POLYLINE
 8
Layer0
 66
     1
70
    8
 10
0.0
 20
 0.0
 30
0.0
  0
VERTEX
  8
MY3DLAYER
10
158.5
20
2.14285714285715
30
-3.10196313080269e-14
 70
     32
  0
VERTEX
  8
MY3DLAYER
10
160.0
20
2.35714285714286
30
3.38395977905748e-14
 70
     32
  0
VERTEX
  8
MY3DLAYER
10
160.0
20
2.14285714285714
30
1.7483792191797e-14
 70
     32
  0
VERTEX
  8
MY3DLAYER
10
158.5
20
1.92857142857142
30
-3.10196313080269e-14
 70
     32
  0
VERTEX
  8
MY3DLAYER
10
158.5
20
2.14285714285715
30
-3.10196313080269e-14
 70
     32
  0
SEQEND
  0
LINE
 8
Layer0
10
166.0
20
40.0
30
3.94795307556706e-14
11
164.5
21
40.0
31
2.53796983429311e-14
  0
LINE
 8
Layer0
10
-13.5
20
7.75
30
0.0
11
-13.5
21
1.92857142857143
31
0.0
  0
LINE
 8
Layer0
10
-16.5
20
2.35714285714286
30
0.0
11
-16.5
21
0.214285714285716
31
0.0
  0
LINE
 8
Layer0
10
-15.0
20
1.92857142857142
30
0.0
11
-15.0
21
2.14285714285714
31
0.0
  0
LINE
 8
Layer0
10
154.0
20
40.0
30
4.79394302033143e-14
11
154.0
21
30.75
31
4.79394302033143e-14
  0
LINE
 8
Layer0
10
167.5
20
1.92857142857142
30
-5.63993296509579e-15
11
167.5
21
3.21428571428571
31
-2.8199664825479e-15
  0
LINE
 8
Layer0
10
166.0
20
7.75
30
3.94795307556706e-14
11
166.0
21
3.21428571428572
31
3.94795307556706e-14
  0
LINE
 8
Layer0
10
157.0
20
1.71428571428572
30
2.25597318603832e-14
11
157.0
21
0.214285714285716
31
4.51194637207664e-14
  0
LINE
 8
Layer0
10
166.0
20
9.25
30
3.94795307556706e-14
11
166.0
21
7.75
31
3.94795307556706e-14
  0
LINE
 8
Layer0
10
152.5
20
40.0
30
8.45989944764369e-15
11
151.0
21
40.0
31
-3.38395977905748e-14
  0
POLYLINE
 8
Layer0
 66
     1
70
    8
 10
0.0
 20
 0.0
 30
0.0
  0
VERTEX
  8
MY3DLAYER
10
161.5
20
2.57142857142857
30
8.45989944764369e-15
 70
     32
  0
VERTEX
  8
MY3DLAYER
10
163.0
20
2.78571428571429
30
1.69197988952874e-14
 70
     32
  0
VERTEX
  8
MY3DLAYER
10
163.0
20
2.75816326530612
30
7.91604876886655e-15
 70
     32
  0
VERTEX
  8
MY3DLAYER
10
163.0
20
2.57142857142857
30
8.45989944764369e-15
 70
     32
  0
VERTEX
  8
MY3DLAYER
10
161.5
20
2.35714285714286
30
4.22994972382185e-15
 70
     32
  0
VERTEX
  8
MY3DLAYER
10
161.5
20
2.57142857142857
30
8.45989944764369e-15
 70
     32
  0
SEQEND
  0
LINE
 8
Layer0
10
145.0
20
10.75
30
0.0
11
145.0
21
29.25
31
0.0
  0
LINE
 8
Layer0
10
148.0
20
40.0
30
-2.8199664825479e-15
11
148.0
21
30.75
31
-2.8199664825479e-15
  0
LINE
 8
Layer0
10
149.5
20
2.35714285714286
30
3.94795307556706e-14
11
149.5
21
19.25
31
3.94795307556706e-14
  0
LINE
 8
Layer0
10
157.0
20
9.25
30
4.51194637207664e-14
11
157.0
21
7.75
31
4.51194637207664e-14
  0
LINE
 8
Layer0
10
161.5
20
38.5
30
8.45989944764369e-15
11
161.5
21
20.75
31
8.45989944764369e-15
  0
POLYLINE
 8
Layer0
 66
     1
70
    8
 10
0.0
 20
 0.0
 30
0.0
  0
VERTEX
  8
MY3DLAYER
10
157.0
20
1.92857142857143
30
4.51194637207664e-14
 70
     32
  0
VERTEX
  8
MY3DLAYER
10
158.5
20
2.14285714285715
30
-3.10196313080269e-14
 70
     32
  0
VERTEX
  8
MY3DLAYER
10
158.5
20
1.92857142857142
30
-3.10196313080269e-14
 70
     32
  0
VERTEX
  8
MY3DLAYER
10
157.0
20
1.71428571428572
30
2.25597318603832e-14
 70
     32
  0
VERTEX
  8
MY3DLAYER
10
157.0
20
1.92857142857143
30
4.51194637207664e-14
 70
     32
  0
SEQEND
  0
POLYLINE
 8
Layer0
 66
     1
70
    8
 10
0.0
 20
 0.0
 30
0.0
  0
VERTEX
  8
MY3DLAYER
10
160.0
20
2.35714285714286
30
3.38395977905748e-14
 70
     32
  0
VERTEX
  8
MY3DLAYER
10
161.5
20
2.57142857142857
30
8.45989944764369e-15
 70
     32
  0
VERTEX
  8
MY3DLAYER
10
161.5
20
2.35714285714286
30
4.22994972382185e-15
 70
     32
  0
VERTEX
  8
MY3DLAYER
10
160.0
20
2.14285714285714
30
1.7483792191797e-14
 70
     32
  0
VERTEX
  8
MY3DLAYER
10
160.0
20
2.35714285714286
30
3.38395977905748e-14
 70
     32
  0
SEQEND
  0
LINE
 8
Layer0
10
69.3075680238129
20
25.0394014217482
30
0.0
11
68.1120544416647
21
24.041425786673
31
0.0
  0
LINE
 8
Layer0
10
75.2680336630078
20
25.2844279021059
30
0.0
11
73.8060046196006
21
25.820785217278
31
0.0
  0
POLYLINE
 8
Layer0
 66
     1
70
    8
 10
0.0
 20
 0.0
 30
0.0
  0
VERTEX
  8
MY3DLAYER
10
151.0
20
1.07142857142857
30
0.0
 70
     32
  0
VERTEX
  8
MY3DLAYER
10
154.0
20
1.5
30
4.79394302033143e-14
 70
     32
  0
VERTEX
  8
MY3DLAYER
10
154.0
20
1.28571428571429
30
2.39697151016571e-14
 70
     32
  0
VERTEX
  8
MY3DLAYER
10
151.0
20
0.857142857142853
30
-4.22994972382191e-15
 70
     32
  0
VERTEX
  8
MY3DLAYER
10
151.0
20
1.07142857142857
30
0.0
 70
     32
  0
SEQEND
  0
LINE
 8
Layer0
10
146.5
20
40.0
30
3.66595642731227e-14
11
145.0
21
40.0
31
0.0
  0
LINE
 8
Layer0
10
-9.0
20
38.5
30
0.0
11
-9.0
21
20.75
31
0.0
  0
LINE
 8
Layer0
10
167.5
20
3.42857142857143
30
-5.63993296509579e-15
11
285.0
21
20.0
31
0.0
  0
LINE
 8
Layer0
10
-18.0
20
40.0
30
0.0
11
-19.5
21
40.0
31
0.0
  0
LINE
 8
Layer0
10
155.5
20
40.0
30
-2.8199664825479e-15
11
154.0
21
40.0
31
4.79394302033143e-14
  0
LINE
 8
Layer0
10
145.0
20
0.214285714285716
30
0.0
11
145.0
21
9.25
31
0.0
  0
LINE
 8
Layer0
10
-13.5
20
9.25
30
0.0
11
-13.5
21
7.75
31
0.0
  0
LINE
 8
Layer0
10
-6.0
20
38.5
30
0.0
11
-6.0
21
20.75
31
0.0
  0
LINE
 8
Layer0
10
151.0
20
40.0
30
-3.38395977905748e-14
11
149.5
21
40.0
31
3.94795307556706e-14
  0
LINE
 8
Layer0
10
151.0
20
0.857142857142853
30
-4.22994972382191e-15
11
151.0
21
0.214285714285716
31
-3.38395977905748e-14
  0
LINE
 8
Layer0
10
-16.5
20
7.75
30
0.0
11
-16.5
21
2.35714285714286
31
0.0
  0
LINE
 8
Layer0
10
160.0
20
7.75
30
4.51194637207664e-14
11
160.0
21
2.35714285714286
31
3.38395977905748e-14
  0
LINE
 8
Layer0
10
-7.5
20
7.75
30
0.0
11
-7.5
21
1.07142857142857
31
0.0
  0
POLYLINE
 8
Layer0
 66
     1
70
    8
 10
0.0
 20
 0.0
 30
0.0
  0
VERTEX
  8
MY3DLAYER
10
148.0
20
0.642857142857143
30
-2.8199664825479e-15
 70
     32
  0
VERTEX
  8
MY3DLAYER
10
151.0
20
1.07142857142857
30
0.0
 70
     32
  0
VERTEX
  8
MY3DLAYER
10
151.0
20
0.857142857142853
30
-4.22994972382191e-15
 70
     32
  0
VERTEX
  8
MY3DLAYER
10
148.0
20
0.428571428571425
30
-1.40998324127395e-15
 70
     32
  0
VERTEX
  8
MY3DLAYER
10
148.0
20
0.642857142857143
30
-2.8199664825479e-15
 70
     32
  0
SEQEND
  0
POLYLINE
 8
Layer0
 66
     1
70
    8
 10
0.0
 20
 0.0
 30
0.0
  0
VERTEX
  8
MY3DLAYER
10
154.0
20
1.5
30
4.79394302033143e-14
 70
     32
  0
VERTEX
  8
MY3DLAYER
10
157.0
20
1.92857142857143
30
4.51194637207664e-14
 70
     32
  0
VERTEX
  8
MY3DLAYER
10
157.0
20
1.71428571428572
30
2.25597318603832e-14
 70
     32
  0
VERTEX
  8
MY3DLAYER
10
154.0
20
1.28571428571429
30
2.39697151016571e-14
 70
     32
  0
VERTEX
  8
MY3DLAYER
10
154.0
20
1.5
30
4.79394302033143e-14
 70
     32
  0
SEQEND
  0
LINE
 8
Layer0
10
-7.5
20
40.0
30
0.0
11
-7.5
21
30.75
31
0.0
  0
LINE
 8
Layer0
10
-6.0
20
40.0
30
0.0
11
-7.5
21
40.0
31
0.0
  0
LINE
 8
Layer0
10
167.5
20
4.92857142857142
30
-5.63993296509579e-15
11
167.5
21
19.25
31
-5.63993296509579e-15
  0
LINE
 8
Layer0
10
151.0
20
40.0
30
-3.38395977905748e-14
11
151.0
21
30.75
31
-3.38395977905748e-14
  0
LINE
 8
Layer0
10
-15.0
20
38.5
30
0.0
11
-15.0
21
20.75
31
0.0
  0
LINE
 8
Layer0
10
-10.5
20
40.0
30
0.0
11
-10.5
21
30.75
31
0.0
  0
LINE
 8
Layer0
10
167.5
20
38.5
30
-5.63993296509579e-15
11
167.5
21
20.75
31
-5.63993296509579e-15
  0
LINE
 8
Layer0
10
163.0
20
2.57142857142857
30
8.45989944764369e-15
11
163.0
21
0.214285714285716
31
1.69197988952874e-14
  0
LINE
 8
Layer0
10
285.0
20
40.0
30
0.0
11
285.0
21
20.0
31
0.0
  0
LINE
 8
Layer0
10
154.0
20
29.25
30
4.79394302033143e-14
11
154.0
21
10.75
31
4.79394302033143e-14
  0
LINE
 8
Layer0
10
163.0
20
9.25000000000001
30
1.69197988952874e-14
11
163.0
21
7.75
31
1.69197988952874e-14
  0
LINE
 8
Layer0
10
151.0
20
7.75
30
-3.38395977905748e-14
11
151.0
21
1.07142857142857
31
0.0
  0
LINE
 8
Layer0
10
160.0
20
40.0
30
4.51194637207664e-14
11
160.0
21
30.75
31
4.51194637207664e-14
  0
LINE
 8
Layer0
10
154.0
20
9.25
30
4.79394302033143e-14
11
154.0
21
7.75
31
4.79394302033143e-14
  0
LINE
 8
Layer0
10
151.0
20
9.25
30
-3.38395977905748e-14
11
151.0
21
7.75
31
-3.38395977905748e-14
  0
LINE
 8
Layer0
10
157.0
20
29.25
30
4.51194637207664e-14
11
157.0
21
10.75
31
4.51194637207664e-14
  0
LINE
 8
Layer0
10
161.5
20
40.0
30
8.45989944764369e-15
11
160.0
21
40.0
31
4.51194637207664e-14
  0
LINE
 8
Layer0
10
151.0
20
29.25
30
-3.38395977905748e-14
11
151.0
21
10.75
31
-3.38395977905748e-14
  0
LINE
 8
Layer0
10
160.0
20
2.14285714285714
30
1.7483792191797e-14
11
160.0
21
0.214285714285716
31
4.51194637207664e-14
  0
LINE
 8
Layer0
10
145.0
20
30.75
30
0.0
11
145.0
21
40.0
31
0.0
  0
LINE
 8
Layer0
10
-16.5
20
40.0
30
0.0
11
-18.0
21
40.0
31
0.0
  0
LINE
 8
Layer0
10
-7.5
20
29.25
30
0.0
11
-7.5
21
10.75
31
0.0
  0
LINE
 8
Layer0
10
148.0
20
7.75
30
-2.8199664825479e-15
11
148.0
21
0.642857142857143
31
-2.8199664825479e-15
  0
LINE
 8
Layer0
10
148.0
20
40.0
30
-2.8199664825479e-15
11
146.5
21
40.0
31
3.66595642731227e-14
  0
LINE
 8
Layer0
10
149.5
20
40.0
30
3.94795307556706e-14
11
148.0
21
40.0
31
-2.8199664825479e-15
  0
LINE
 8
Layer0
10
-16.5
20
9.25
30
0.0
11
-16.5
21
7.75
31
0.0
  0
LINE
 8
Layer0
10
-7.5
20
9.25
30
0.0
11
-7.5
21
7.75
31
0.0
  0
LINE
 8
Layer0
10
90.0
20
35.0
30
0.0
11
90.0
21
5.0
31
0.0
  0
LINE
 8
Layer0
10
-13.5
20
29.25
30
0.0
11
-13.5
21
10.75
31
0.0
  0
POLYLINE
 8
Layer0
 66
     1
70
    8
 10
0.0
 20
 0.0
 30
0.0
  0
VERTEX
  8
MY3DLAYER
10
164.5
20
3.0
30
2.53796983429311e-14
 70
     32
  0
VERTEX
  8
MY3DLAYER
10
166.0
20
3.21428571428572
30
3.94795307556706e-14
 70
     32
  0
VERTEX
  8
MY3DLAYER
10
166.0
20
3.18214285714286
30
1.82592829744977e-14
 70
     32
  0
VERTEX
  8
MY3DLAYER
10
166.0
20
3.0
30
1.97397653778353e-14
 70
     32
  0
VERTEX
  8
MY3DLAYER
10
164.5
20
2.78571428571429
30
1.26898491714655e-14
 70
     32
  0
VERTEX
  8
MY3DLAYER
10
164.5
20
2.97015306122449
30
1.18060918184529e-14
 70
     32
  0
VERTEX
  8
MY3DLAYER
10
164.5
20
3.0
30
2.53796983429311e-14
 70
     32
  0
SEQEND
  0
LINE
 8
Layer0
10
158.5
20
38.5
30
-3.10196313080269e-14
11
158.5
21
20.75
31
-3.10196313080269e-14
  0
LINE
 8
Layer0
10
152.5
20
38.5
30
8.45989944764369e-15
11
152.5
21
20.75
31
8.45989944764369e-15
  0
LINE
 8
Layer0
10
161.5
20
1.92857142857142
30
8.45989944764369e-15
11
161.5
21
2.35714285714286
31
4.22994972382185e-15
  0
LINE
 8
Layer0
10
164.5
20
1.92857142857143
30
2.53796983429311e-14
11
164.5
21
2.78571428571429
31
1.26898491714655e-14
  0
LINE
 8
Layer0
10
163.0
20
40.0
30
1.69197988952874e-14
11
163.0
21
30.75
31
1.69197988952874e-14
  0
LINE
 8
Layer0
10
146.5
20
38.5
30
3.66595642731227e-14
11
146.5
21
20.75
31
3.66595642731227e-14
  0
LINE
 8
Layer0
10
-4.5
20
40.0
30
0.0
11
-4.5
21
30.75
31
0.0
  0
LINE
 8
Layer0
10
164.5
20
38.5
30
2.53796983429311e-14
11
164.5
21
20.75
31
2.53796983429311e-14
  0
LINE
 8
Layer0
10
160.0
20
29.25
30
4.51194637207664e-14
11
160.0
21
10.75
31
4.51194637207664e-14
  0
LINE
 8
Layer0
10
-6.0
20
2.35714285714286
30
0.0
11
-6.0
21
19.25
31
0.0
  0
LINE
 8
Layer0
10
-16.5
20
29.25
30
0.0
11
-16.5
21
10.75
31
0.0
  0
LINE
 8
Layer0
10
166.0
20
29.25
30
3.94795307556706e-14
11
166.0
21
10.75
31
3.94795307556706e-14
  0
LINE
 8
Layer0
10
-18.0
20
38.5
30
0.0
11
-18.0
21
20.75
31
0.0
  0
LINE
 8
Layer0
10
-12.0
20
38.5
30
0.0
11
-12.0
21
20.75
31
0.0
  0
LINE
 8
Layer0
10
154.0
20
7.75
30
4.79394302033143e-14
11
154.0
21
1.5
31
4.79394302033143e-14
  0
LINE
 8
Layer0
10
-19.5
20
2.78571428571429
30
0.0
11
-18.0
21
2.57142857142857
31
0.0
  0
LINE
 8
Layer0
10
-4.5
20
0.642857142857143
30
0.0
11
-1.5
21
0.214285714285715
31
0.0
  0
LINE
 8
Layer0
10
-24.0
20
4.92857142857142
30
0.0
11
-24.0
21
19.25
31
0.0
  0
LINE
 8
Layer0
10
-24.0
20
40.0
30
0.0
11
-22.5
21
40.0
31
0.0
  0
LINE
 8
Layer0
10
-10.5
20
40.0
30
0.0
11
-9.0
21
40.0
31
0.0
  0
LINE
 8
Layer0
10
-1.5
20
9.25
30
0.0
11
-1.5
21
7.75
31
0.0
  0
LINE
 8
Layer0
10
-18.0
20
4.07142857142857
30
0.0
11
-18.0
21
19.25
31
0.0
  0
LINE
 8
Layer0
10
0.0
20
0.0
30
0.0
11
60.0
21
0.0
31
0.0
  0
LINE
 8
Layer0
10
-10.5
20
1.5
30
0.0
11
-7.5
21
1.07142857142857
31
0.0
  0
LINE
 8
Layer0
10
-22.5
20
40.0
30
0.0
11
-22.5
21
30.75
31
0.0
  0
LINE
 8
Layer0
10
-24.0
20
1.92857142857142
30
0.0
11
-24.0
21
3.42857142857143
31
0.0
  0
LINE
 8
Layer0
10
-22.5
20
3.21428571428571
30
0.0
11
-21.0
21
3.0
31
0.0
  0
LINE
 8
Layer0
10
-12.0
20
40.0
30
0.0
11
-13.5
21
40.0
31
0.0
  0
LINE
 8
Layer0
10
-7.5
20
1.07142857142857
30
0.0
11
-4.5
21
0.642857142857143
31
0.0
  0
LINE
 8
Layer0
10
-24.0
20
38.5
30
0.0
11
-24.0
21
20.75
31
0.0
  0
LINE
 8
Layer0
10
-3.0
20
1.92857142857143
30
0.0
11
-3.0
21
19.25
31
0.0
  0
LINE
 8
Layer0
10
-22.5
20
40.0
30
0.0
11
-21.0
21
40.0
31
0.0
  0
LINE
 8
Layer0
10
-25.5
20
40.0
30
0.0
11
-24.0
21
40.0
31
0.0
  0
LINE
 8
Layer0
10
185.0
20
5.71428571428572
30
0.0
11
185.0
21
5.86734693877551
31
0.0
  0
LINE
 8
Layer0
10
0.0
20
40.0
30
0.0
11
0.0
21
0.0
31
0.0
  0
LINE
 8
Layer0
10
-22.5
20
7.75
30
0.0
11
-22.5
21
3.21428571428571
31
0.0
  0
LINE
 8
Layer0
10
73.8060046196006
20
25.820785217278
30
0.0
11
72.2549735196423
21
25.9604656391949
31
0.0
  0
LINE
 8
Layer0
10
76.541425786673
20
24.3879455583353
30
0.0
11
75.2680336630078
21
25.2844279021059
31
0.0
  0
LINE
 8
Layer0
10
72.2549735196423
20
25.9604656391949
30
0.0
11
70.720640569395
21
25.6939501779359
31
0.0
  0
LINE
 8
Layer0
10
78.1939501779359
20
21.779359430605
30
0.0
11
77.5394014217482
21
23.1924319761871
31
0.0
  0
LINE
 8
Layer0
10
77.5394014217482
20
23.1924319761871
30
0.0
11
76.541425786673
21
24.3879455583353
31
0.0
  0
LINE
 8
Layer0
10
70.720640569395
20
25.6939501779359
30
0.0
11
69.3075680238129
21
25.0394014217482
31
0.0
  0
LINE
 8
Layer0
10
-7.5
20
1.07142857142857
30
0.0
11
-7.5
21
0.214285714285716
31
0.0
  0
LINE
 8
Layer0
10
-19.5
20
9.25000000000001
30
0.0
11
-19.5
21
7.75
31
0.0
  0
LINE
 8
Layer0
10
-21.0
20
1.92857142857143
30
0.0
11
-21.0
21
3.0
31
0.0
  0
LINE
 8
Layer0
10
85.0
20
0.0
30
0.0
11
145.0
21
0.0
31
0.0
  0
LINE
 8
Layer0
10
145.0
20
0.214285714285716
30
0.0
11
145.0
21
0.0
31
0.0
  0
LINE
 8
Layer0
10
-1.5
20
40.0
30
0.0
11
0.0
21
40.0
31
0.0
  0
LINE
 8
Layer0
10
5.0
20
5.0
30
0.0
11
55.0
21
5.0
31
0.0
  0
LINE
 8
Layer0
10
-4.5
20
0.642857142857143
30
0.0
11
-4.5
21
0.214285714285716
31
0.0
  0
LINE
 8
Layer0
10
-19.5
20
29.25
30
0.0
11
-19.5
21
10.75
31
0.0
  0
LINE
 8
Layer0
10
-1.5
20
29.25
30
0.0
11
-1.5
21
10.75
31
0.0
  0
LINE
 8
Layer0
10
-22.5
20
3.21428571428571
30
0.0
11
-22.5
21
0.214285714285716
31
0.0
  0
LINE
 8
Layer0
10
-10.5
20
40.0
30
0.0
11
-12.0
21
40.0
31
0.0
  0
LINE
 8
Layer0
10
-24.0
20
3.42857142857143
30
0.0
11
-22.5
21
3.21428571428571
31
0.0
  0
LINE
 8
Layer0
10
-22.5
20
9.25
30
0.0
11
-22.5
21
7.75
31
0.0
  0
LINE
 8
Layer0
10
-22.5
20
29.25
30
0.0
11
-22.5
21
10.75
31
0.0
  0
LINE
 8
Layer0
10
-140.0
20
40.0
30
0.0
11
-140.0
21
20.0
31
0.0
  0
LINE
 8
Layer0
10
-140.0
20
40.0
30
0.0
11
-38.5
21
40.0
31
0.0
  0
LINE
 8
Layer0
10
-21.0
20
38.5
30
0.0
11
-21.0
21
20.75
31
0.0
  0
LINE
 8
Layer0
10
-21.0
20
4.5
30
0.0
11
-21.0
21
19.25
31
0.0
  0
LINE
 8
Layer0
10
-21.0
20
3.0
30
0.0
11
-19.5
21
2.78571428571429
31
0.0
  0
LINE
 8
Layer0
10
-9.0
20
40.0
30
0.0
11
-7.5
21
40.0
31
0.0
  0
LINE
 8
Layer0
10
-21.0
20
40.0
30
0.0
11
-19.5
21
40.0
31
0.0
  0
LINE
 8
Layer0
10
55.0
20
5.0
30
0.0
11
55.0
21
35.0
31
0.0
  0
LINE
 8
Layer0
10
149.5
20
38.5
30
3.94795307556706e-14
11
149.5
21
20.75
31
3.94795307556706e-14
  0
LINE
 8
Layer0
10
155.5
20
3.21428571428572
30
-2.8199664825479e-15
11
155.5
21
19.25
31
-2.8199664825479e-15
  0
LINE
 8
Layer0
10
163.0
20
29.25
30
1.69197988952874e-14
11
163.0
21
10.75
31
1.69197988952874e-14
  0
LINE
 8
Layer0
10
157.0
20
7.75
30
4.51194637207664e-14
11
157.0
21
1.92857142857143
31
4.51194637207664e-14
  0
LINE
 8
Layer0
10
148.0
20
9.25
30
-2.8199664825479e-15
11
148.0
21
7.75
31
-2.8199664825479e-15
  0
LINE
 8
Layer0
10
90.0
20
5.0
30
0.0
11
140.0
21
5.0
31
0.0
 0
ENDSEC
 0
EOF
