  0
SECTION
  2
ENTITIES
  0
LINE
 10
-268.245000
 11
-268.236000
 20
150.679000
 21
152.077000
  0
LINE
 10
-268.236000
 11
-268.180000
 20
152.077000
 21
153.454000
  0
LINE
 10
-268.180000
 11
-268.072000
 20
153.454000
 21
154.806000
  0
LINE
 10
-268.072000
 11
-267.914000
 20
154.806000
 21
156.129000
  0
LINE
 10
-267.914000
 11
-267.703000
 20
156.129000
 21
157.419000
  0
LINE
 10
-267.703000
 11
-267.438000
 20
157.419000
 21
158.670000
  0
LINE
 10
-267.438000
 11
-267.117000
 20
158.670000
 21
159.880000
  0
LINE
 10
-267.117000
 11
-266.740000
 20
159.880000
 21
161.042000
  0
LINE
 10
-266.740000
 11
-266.306000
 20
161.042000
 21
162.154000
  0
LINE
 10
-266.306000
 11
-265.812000
 20
162.154000
 21
163.211000
  0
LINE
 10
-265.812000
 11
-265.258000
 20
163.211000
 21
164.208000
  0
LINE
 10
-265.258000
 11
-264.643000
 20
164.208000
 21
165.141000
  0
LINE
 10
-264.643000
 11
-263.965000
 20
165.141000
 21
166.005000
  0
LINE
 10
-263.965000
 11
-263.222000
 20
166.005000
 21
166.798000
  0
LINE
 10
-263.222000
 11
-262.415000
 20
166.798000
 21
167.513000
  0
LINE
 10
-262.415000
 11
-261.541000
 20
167.513000
 21
168.147000
  0
LINE
 10
-261.541000
 11
-260.598000
 20
168.147000
 21
168.695000
  0
LINE
 10
-260.598000
 11
-259.587000
 20
168.695000
 21
169.153000
  0
LINE
 10
-259.587000
 11
-258.506000
 20
169.153000
 21
169.517000
  0
LINE
 10
-258.506000
 11
-257.353000
 20
169.517000
 21
169.782000
  0
LINE
 10
-257.353000
 11
-256.126000
 20
169.782000
 21
169.945000
  0
LINE
 10
-256.126000
 11
-255.500000
 20
169.945000
 21
169.971000
  0
LINE
 10
-255.500000
 11
-226.810000
 20
169.971000
 21
170.000000
  0
LINE
 10
-226.810000
 11
-223.595000
 20
170.000000
 21
169.996000
  0
LINE
 10
-223.595000
 11
-220.576000
 20
169.996000
 21
169.981000
  0
LINE
 10
-220.576000
 11
-217.745000
 20
169.981000
 21
169.950000
  0
LINE
 10
-217.745000
 11
-215.097000
 20
169.950000
 21
169.901000
  0
LINE
 10
-215.097000
 11
-212.623000
 20
169.901000
 21
169.827000
  0
LINE
 10
-212.623000
 11
-210.316000
 20
169.827000
 21
169.727000
  0
LINE
 10
-210.316000
 11
-208.170000
 20
169.727000
 21
169.594000
  0
LINE
 10
-208.170000
 11
-206.178000
 20
169.594000
 21
169.426000
  0
LINE
 10
-206.178000
 11
-204.332000
 20
169.426000
 21
169.218000
  0
LINE
 10
-204.332000
 11
-202.625000
 20
169.218000
 21
168.965000
  0
LINE
 10
-202.625000
 11
-201.050000
 20
168.965000
 21
168.664000
  0
LINE
 10
-201.050000
 11
-199.601000
 20
168.664000
 21
168.311000
  0
LINE
 10
-199.601000
 11
-198.269000
 20
168.311000
 21
167.902000
  0
LINE
 10
-198.269000
 11
-197.049000
 20
167.902000
 21
167.431000
  0
LINE
 10
-197.049000
 11
-195.933000
 20
167.431000
 21
166.896000
  0
LINE
 10
-195.933000
 11
-194.913000
 20
166.896000
 21
166.292000
  0
LINE
 10
-194.913000
 11
-193.983000
 20
166.292000
 21
165.615000
  0
LINE
 10
-193.983000
 11
-193.137000
 20
165.615000
 21
164.861000
  0
LINE
 10
-193.137000
 11
-192.365000
 20
164.861000
 21
164.025000
  0
LINE
 10
-192.365000
 11
-191.663000
 20
164.025000
 21
163.103000
  0
LINE
 10
-191.663000
 11
-191.024000
 20
163.103000
 21
162.087000
  0
LINE
 10
-191.024000
 11
-190.446000
 20
162.087000
 21
160.963000
  0
LINE
 10
-190.446000
 11
-189.925000
 20
160.963000
 21
159.717000
  0
LINE
 10
-189.925000
 11
-189.459000
 20
159.717000
 21
158.334000
  0
LINE
 10
-189.459000
 11
-189.045000
 20
158.334000
 21
156.802000
  0
LINE
 10
-189.045000
 11
-188.679000
 20
156.802000
 21
155.107000
  0
LINE
 10
-188.679000
 11
-188.359000
 20
155.107000
 21
153.234000
  0
LINE
 10
-188.359000
 11
-188.082000
 20
153.234000
 21
151.170000
  0
LINE
 10
-188.082000
 11
-187.844000
 20
151.170000
 21
148.901000
  0
LINE
 10
-187.844000
 11
-187.644000
 20
148.901000
 21
146.413000
  0
LINE
 10
-187.644000
 11
-187.477000
 20
146.413000
 21
143.692000
  0
LINE
 10
-187.477000
 11
-187.341000
 20
143.692000
 21
140.726000
  0
LINE
 10
-187.341000
 11
-187.232000
 20
140.726000
 21
137.499000
  0
LINE
 10
-187.232000
 11
-187.149000
 20
137.499000
 21
133.998000
  0
LINE
 10
-187.149000
 11
-187.087000
 20
133.998000
 21
130.209000
  0
LINE
 10
-187.087000
 11
-187.045000
 20
130.209000
 21
126.119000
  0
LINE
 10
-187.045000
 11
-187.018000
 20
126.119000
 21
121.713000
  0
LINE
 10
-187.018000
 11
-187.004000
 20
121.713000
 21
116.978000
  0
LINE
 10
-187.004000
 11
-187.000000
 20
116.978000
 21
111.899000
  0
LINE
 10
-187.000000
 11
-187.000000
 20
111.899000
 21
109.460000
  0
LINE
 10
-187.000000
 11
-186.915000
 20
109.460000
 21
106.367000
  0
LINE
 10
-186.915000
 11
-186.662000
 20
106.367000
 21
103.309000
  0
LINE
 10
-186.662000
 11
-186.243000
 20
103.309000
 21
100.289000
  0
LINE
 10
-186.243000
 11
-185.660000
 20
100.289000
 21
97.313000
  0
LINE
 10
-185.660000
 11
-184.914000
 20
97.313000
 21
94.385000
  0
LINE
 10
-184.914000
 11
-184.009000
 20
94.385000
 21
91.510000
  0
LINE
 10
-184.009000
 11
-182.945000
 20
91.510000
 21
88.692000
  0
LINE
 10
-182.945000
 11
-181.726000
 20
88.692000
 21
85.935000
  0
LINE
 10
-181.726000
 11
-180.353000
 20
85.935000
 21
83.245000
  0
LINE
 10
-180.353000
 11
-178.828000
 20
83.245000
 21
80.625000
  0
LINE
 10
-178.828000
 11
-177.154000
 20
80.625000
 21
78.081000
  0
LINE
 10
-177.154000
 11
-175.332000
 20
78.081000
 21
75.616000
  0
LINE
 10
-175.332000
 11
-173.364000
 20
75.616000
 21
73.236000
  0
LINE
 10
-173.364000
 11
-171.253000
 20
73.236000
 21
70.945000
  0
LINE
 10
-171.253000
 11
-169.000000
 20
70.945000
 21
68.747000
  0
LINE
 10
-169.000000
 11
-166.608000
 20
68.747000
 21
66.647000
  0
LINE
 10
-166.608000
 11
-164.079000
 20
66.647000
 21
64.650000
  0
LINE
 10
-164.079000
 11
-161.414000
 20
64.650000
 21
62.760000
  0
LINE
 10
-161.414000
 11
-158.617000
 20
62.760000
 21
60.981000
  0
LINE
 10
-158.617000
 11
-155.688000
 20
60.981000
 21
59.319000
  0
LINE
 10
-155.688000
 11
-152.630000
 20
59.319000
 21
57.777000
  0
LINE
 10
-152.630000
 11
-149.445000
 20
57.777000
 21
56.361000
  0
LINE
 10
-149.445000
 11
-146.135000
 20
56.361000
 21
55.074000
  0
LINE
 10
-146.135000
 11
-142.702000
 20
55.074000
 21
53.922000
  0
LINE
 10
-142.702000
 11
-139.148000
 20
53.922000
 21
52.909000
  0
LINE
 10
-139.148000
 11
-135.476000
 20
52.909000
 21
52.039000
  0
LINE
 10
-135.476000
 11
-131.687000
 20
52.039000
 21
51.317000
  0
LINE
 10
-131.687000
 11
-127.783000
 20
51.317000
 21
50.748000
  0
LINE
 10
-127.783000
 11
-123.767000
 20
50.748000
 21
50.335000
  0
LINE
 10
-123.767000
 11
-119.640000
 20
50.335000
 21
50.085000
  0
LINE
 10
-119.640000
 11
-115.405000
 20
50.085000
 21
50.000000
  0
LINE
 10
-115.405000
 11
-77.000000
 20
50.000000
 21
50.000000
  0
LINE
 10
-77.000000
 11
-77.000000
 20
50.000000
 21
30.000000
  0
LINE
 10
-77.000000
 11
-72.000000
 20
30.000000
 21
30.000000
  0
LINE
 10
-72.000000
 11
-72.000000
 20
30.000000
 21
50.000000
  0
LINE
 10
-72.000000
 11
-65.000000
 20
50.000000
 21
50.000000
  0
LINE
 10
-65.000000
 11
-63.500000
 20
50.000000
 21
49.598000
  0
LINE
 10
-63.500000
 11
-62.402000
 20
49.598000
 21
48.500000
  0
LINE
 10
-62.402000
 11
-62.000000
 20
48.500000
 21
47.000000
  0
LINE
 10
-62.000000
 11
-62.000000
 20
47.000000
 21
13.000000
  0
LINE
 10
-62.000000
 11
-62.402000
 20
13.000000
 21
11.500000
  0
LINE
 10
-62.402000
 11
-63.500000
 20
11.500000
 21
10.402000
  0
LINE
 10
-63.500000
 11
-65.000000
 20
10.402000
 21
10.000000
  0
LINE
 10
-65.000000
 11
-72.000000
 20
10.000000
 21
10.000000
  0
LINE
 10
-72.000000
 11
-72.000000
 20
10.000000
 21
15.000000
  0
LINE
 10
-72.000000
 11
-77.000000
 20
15.000000
 21
15.000000
  0
LINE
 10
-77.000000
 11
-77.000000
 20
15.000000
 21
10.000000
  0
LINE
 10
-77.000000
 11
-224.000000
 20
10.000000
 21
10.000000
  0
LINE
 10
-224.000000
 11
-225.500000
 20
10.000000
 21
10.402000
  0
LINE
 10
-225.500000
 11
-226.598000
 20
10.402000
 21
11.500000
  0
LINE
 10
-226.598000
 11
-227.000000
 20
11.500000
 21
13.000000
  0
LINE
 10
-227.000000
 11
-227.000000
 20
13.000000
 21
150.000000
  0
LINE
 10
-227.000000
 11
-255.500000
 20
150.000000
 21
150.000000
  0
LINE
 10
-255.500000
 11
-255.500000
 20
150.000000
 21
90.788000
  0
LINE
 10
-255.500000
 11
-255.948000
 20
90.788000
 21
89.954000
  0
LINE
 10
-255.948000
 11
-256.890000
 20
89.954000
 21
89.867000
  0
LINE
 10
-256.890000
 11
-257.483000
 20
89.867000
 21
90.604000
  0
LINE
 10
-257.483000
 11
-266.325000
 20
90.604000
 21
137.888000
  0
LINE
 10
-266.325000
 11
-266.700000
 20
137.888000
 21
139.276000
  0
LINE
 10
-266.700000
 11
-267.038000
 20
139.276000
 21
140.682000
  0
LINE
 10
-267.038000
 11
-267.337000
 20
140.682000
 21
142.103000
  0
LINE
 10
-267.337000
 11
-267.596000
 20
142.103000
 21
143.533000
  0
LINE
 10
-267.596000
 11
-267.813000
 20
143.533000
 21
144.969000
  0
LINE
 10
-267.813000
 11
-267.988000
 20
144.969000
 21
146.405000
  0
LINE
 10
-267.988000
 11
-268.119000
 20
146.405000
 21
147.839000
  0
LINE
 10
-268.119000
 11
-268.205000
 20
147.839000
 21
149.265000
  0
LINE
 10
-268.205000
 11
-268.245000
 20
149.265000
 21
150.679000
  0
LINE
 10
-227.000000
 11
-227.000000
 20
-170.000000
 21
-150.000000
  0
LINE
 10
-227.000000
 11
-224.000000
 20
-150.000000
 21
-150.000000
  0
LINE
 10
-224.000000
 11
-224.000000
 20
-150.000000
 21
-130.000000
  0
LINE
 10
-224.000000
 11
-227.000000
 20
-130.000000
 21
-130.000000
  0
LINE
 10
-227.000000
 11
-227.000000
 20
-130.000000
 21
-110.000000
  0
LINE
 10
-227.000000
 11
-224.000000
 20
-110.000000
 21
-110.000000
  0
LINE
 10
-224.000000
 11
-224.000000
 20
-110.000000
 21
-95.000000
  0
LINE
 10
-224.000000
 11
-227.000000
 20
-95.000000
 21
-95.000000
  0
LINE
 10
-227.000000
 11
-227.000000
 20
-95.000000
 21
-75.000000
  0
LINE
 10
-227.000000
 11
-224.000000
 20
-75.000000
 21
-75.000000
  0
LINE
 10
-224.000000
 11
-224.000000
 20
-75.000000
 21
-55.000000
  0
LINE
 10
-224.000000
 11
-227.000000
 20
-55.000000
 21
-55.000000
  0
LINE
 10
-227.000000
 11
-227.000000
 20
-55.000000
 21
-35.000000
  0
LINE
 10
-227.000000
 11
-207.000000
 20
-35.000000
 21
-35.000000
  0
LINE
 10
-207.000000
 11
-207.000000
 20
-35.000000
 21
-29.200000
  0
LINE
 10
-207.000000
 11
-217.000000
 20
-29.200000
 21
-29.200000
  0
LINE
 10
-217.000000
 11
-217.000000
 20
-29.200000
 21
-27.200000
  0
LINE
 10
-217.000000
 11
-216.598000
 20
-27.200000
 21
-25.700000
  0
LINE
 10
-216.598000
 11
-215.500000
 20
-25.700000
 21
-24.602000
  0
LINE
 10
-215.500000
 11
-214.000000
 20
-24.602000
 21
-24.200000
  0
LINE
 10
-214.000000
 11
-190.000000
 20
-24.200000
 21
-24.200000
  0
LINE
 10
-190.000000
 11
-188.500000
 20
-24.200000
 21
-24.602000
  0
LINE
 10
-188.500000
 11
-187.402000
 20
-24.602000
 21
-25.700000
  0
LINE
 10
-187.402000
 11
-187.000000
 20
-25.700000
 21
-27.200000
  0
LINE
 10
-187.000000
 11
-187.000000
 20
-27.200000
 21
-35.000000
  0
LINE
 10
-187.000000
 11
-127.000000
 20
-35.000000
 21
-35.000000
  0
LINE
 10
-127.000000
 11
-127.000000
 20
-35.000000
 21
-29.200000
  0
LINE
 10
-127.000000
 11
-137.000000
 20
-29.200000
 21
-29.200000
  0
LINE
 10
-137.000000
 11
-137.000000
 20
-29.200000
 21
-27.200000
  0
LINE
 10
-137.000000
 11
-136.598000
 20
-27.200000
 21
-25.700000
  0
LINE
 10
-136.598000
 11
-135.500000
 20
-25.700000
 21
-24.602000
  0
LINE
 10
-135.500000
 11
-134.000000
 20
-24.602000
 21
-24.200000
  0
LINE
 10
-134.000000
 11
-110.000000
 20
-24.200000
 21
-24.200000
  0
LINE
 10
-110.000000
 11
-108.500000
 20
-24.200000
 21
-24.602000
  0
LINE
 10
-108.500000
 11
-107.402000
 20
-24.602000
 21
-25.700000
  0
LINE
 10
-107.402000
 11
-107.000000
 20
-25.700000
 21
-27.200000
  0
LINE
 10
-107.000000
 11
-107.000000
 20
-27.200000
 21
-35.000000
  0
LINE
 10
-107.000000
 11
-77.000000
 20
-35.000000
 21
-35.000000
  0
LINE
 10
-77.000000
 11
-77.000000
 20
-35.000000
 21
-65.000000
  0
LINE
 10
-77.000000
 11
-75.000000
 20
-65.000000
 21
-65.000000
  0
LINE
 10
-75.000000
 11
-75.000000
 20
-65.000000
 21
-89.000000
  0
LINE
 10
-75.000000
 11
-77.000000
 20
-89.000000
 21
-89.000000
  0
LINE
 10
-77.000000
 11
-77.000000
 20
-89.000000
 21
-116.000000
  0
LINE
 10
-77.000000
 11
-75.000000
 20
-116.000000
 21
-116.000000
  0
LINE
 10
-75.000000
 11
-75.000000
 20
-116.000000
 21
-140.000000
  0
LINE
 10
-75.000000
 11
-77.000000
 20
-140.000000
 21
-140.000000
  0
LINE
 10
-77.000000
 11
-77.000000
 20
-140.000000
 21
-170.000000
  0
LINE
 10
-77.000000
 11
-107.000000
 20
-170.000000
 21
-170.000000
  0
LINE
 10
-107.000000
 11
-107.000000
 20
-170.000000
 21
-177.800000
  0
LINE
 10
-107.000000
 11
-107.402000
 20
-177.800000
 21
-179.300000
  0
LINE
 10
-107.402000
 11
-108.500000
 20
-179.300000
 21
-180.398000
  0
LINE
 10
-108.500000
 11
-110.000000
 20
-180.398000
 21
-180.800000
  0
LINE
 10
-110.000000
 11
-134.000000
 20
-180.800000
 21
-180.800000
  0
LINE
 10
-134.000000
 11
-135.500000
 20
-180.800000
 21
-180.398000
  0
LINE
 10
-135.500000
 11
-136.598000
 20
-180.398000
 21
-179.300000
  0
LINE
 10
-136.598000
 11
-137.000000
 20
-179.300000
 21
-177.800000
  0
LINE
 10
-137.000000
 11
-137.000000
 20
-177.800000
 21
-175.800000
  0
LINE
 10
-137.000000
 11
-127.000000
 20
-175.800000
 21
-175.800000
  0
LINE
 10
-127.000000
 11
-127.000000
 20
-175.800000
 21
-170.000000
  0
LINE
 10
-127.000000
 11
-187.000000
 20
-170.000000
 21
-170.000000
  0
LINE
 10
-187.000000
 11
-187.000000
 20
-170.000000
 21
-177.800000
  0
LINE
 10
-187.000000
 11
-187.402000
 20
-177.800000
 21
-179.300000
  0
LINE
 10
-187.402000
 11
-188.500000
 20
-179.300000
 21
-180.398000
  0
LINE
 10
-188.500000
 11
-190.000000
 20
-180.398000
 21
-180.800000
  0
LINE
 10
-190.000000
 11
-214.000000
 20
-180.800000
 21
-180.800000
  0
LINE
 10
-214.000000
 11
-215.500000
 20
-180.800000
 21
-180.398000
  0
LINE
 10
-215.500000
 11
-216.598000
 20
-180.398000
 21
-179.300000
  0
LINE
 10
-216.598000
 11
-217.000000
 20
-179.300000
 21
-177.800000
  0
LINE
 10
-217.000000
 11
-217.000000
 20
-177.800000
 21
-175.800000
  0
LINE
 10
-217.000000
 11
-207.000000
 20
-175.800000
 21
-175.800000
  0
LINE
 10
-207.000000
 11
-207.000000
 20
-175.800000
 21
-170.000000
  0
LINE
 10
-207.000000
 11
-227.000000
 20
-170.000000
 21
-170.000000
  0
LINE
 10
-207.000000
 11
-207.000000
 20
19.200000
 21
25.000000
  0
LINE
 10
-207.000000
 11
-177.000000
 20
25.000000
 21
25.000000
  0
LINE
 10
-177.000000
 11
-177.000000
 20
25.000000
 21
19.200000
  0
LINE
 10
-177.000000
 11
-207.000000
 20
19.200000
 21
19.200000
  0
LINE
 10
-127.000000
 11
-127.000000
 20
19.200000
 21
25.000000
  0
LINE
 10
-127.000000
 11
-97.000000
 20
25.000000
 21
25.000000
  0
LINE
 10
-97.000000
 11
-97.000000
 20
25.000000
 21
19.200000
  0
LINE
 10
-97.000000
 11
-127.000000
 20
19.200000
 21
19.200000
  0
LINE
 10
-38.245000
 11
-38.236000
 20
150.679000
 21
152.077000
  0
LINE
 10
-38.236000
 11
-38.180000
 20
152.077000
 21
153.454000
  0
LINE
 10
-38.180000
 11
-38.072000
 20
153.454000
 21
154.806000
  0
LINE
 10
-38.072000
 11
-37.914000
 20
154.806000
 21
156.129000
  0
LINE
 10
-37.914000
 11
-37.703000
 20
156.129000
 21
157.419000
  0
LINE
 10
-37.703000
 11
-37.438000
 20
157.419000
 21
158.670000
  0
LINE
 10
-37.438000
 11
-37.117000
 20
158.670000
 21
159.880000
  0
LINE
 10
-37.117000
 11
-36.740000
 20
159.880000
 21
161.042000
  0
LINE
 10
-36.740000
 11
-36.306000
 20
161.042000
 21
162.154000
  0
LINE
 10
-36.306000
 11
-35.812000
 20
162.154000
 21
163.211000
  0
LINE
 10
-35.812000
 11
-35.258000
 20
163.211000
 21
164.208000
  0
LINE
 10
-35.258000
 11
-34.643000
 20
164.208000
 21
165.141000
  0
LINE
 10
-34.643000
 11
-33.965000
 20
165.141000
 21
166.005000
  0
LINE
 10
-33.965000
 11
-33.222000
 20
166.005000
 21
166.798000
  0
LINE
 10
-33.222000
 11
-32.415000
 20
166.798000
 21
167.513000
  0
LINE
 10
-32.415000
 11
-31.541000
 20
167.513000
 21
168.147000
  0
LINE
 10
-31.541000
 11
-30.598000
 20
168.147000
 21
168.695000
  0
LINE
 10
-30.598000
 11
-29.587000
 20
168.695000
 21
169.153000
  0
LINE
 10
-29.587000
 11
-28.506000
 20
169.153000
 21
169.517000
  0
LINE
 10
-28.506000
 11
-27.353000
 20
169.517000
 21
169.782000
  0
LINE
 10
-27.353000
 11
-26.126000
 20
169.782000
 21
169.945000
  0
LINE
 10
-26.126000
 11
-25.500000
 20
169.945000
 21
169.971000
  0
LINE
 10
-25.500000
 11
3.190000
 20
169.971000
 21
170.000000
  0
LINE
 10
3.190000
 11
6.405000
 20
170.000000
 21
169.996000
  0
LINE
 10
6.405000
 11
9.424000
 20
169.996000
 21
169.981000
  0
LINE
 10
9.424000
 11
12.255000
 20
169.981000
 21
169.950000
  0
LINE
 10
12.255000
 11
14.903000
 20
169.950000
 21
169.901000
  0
LINE
 10
14.903000
 11
17.377000
 20
169.901000
 21
169.827000
  0
LINE
 10
17.377000
 11
19.684000
 20
169.827000
 21
169.727000
  0
LINE
 10
19.684000
 11
21.830000
 20
169.727000
 21
169.594000
  0
LINE
 10
21.830000
 11
23.822000
 20
169.594000
 21
169.426000
  0
LINE
 10
23.822000
 11
25.668000
 20
169.426000
 21
169.218000
  0
LINE
 10
25.668000
 11
27.375000
 20
169.218000
 21
168.965000
  0
LINE
 10
27.375000
 11
28.950000
 20
168.965000
 21
168.664000
  0
LINE
 10
28.950000
 11
30.399000
 20
168.664000
 21
168.311000
  0
LINE
 10
30.399000
 11
31.731000
 20
168.311000
 21
167.902000
  0
LINE
 10
31.731000
 11
32.951000
 20
167.902000
 21
167.431000
  0
LINE
 10
32.951000
 11
34.067000
 20
167.431000
 21
166.896000
  0
LINE
 10
34.067000
 11
35.087000
 20
166.896000
 21
166.292000
  0
LINE
 10
35.087000
 11
36.017000
 20
166.292000
 21
165.615000
  0
LINE
 10
36.017000
 11
36.863000
 20
165.615000
 21
164.861000
  0
LINE
 10
36.863000
 11
37.635000
 20
164.861000
 21
164.025000
  0
LINE
 10
37.635000
 11
38.337000
 20
164.025000
 21
163.103000
  0
LINE
 10
38.337000
 11
38.976000
 20
163.103000
 21
162.087000
  0
LINE
 10
38.976000
 11
39.554000
 20
162.087000
 21
160.963000
  0
LINE
 10
39.554000
 11
40.075000
 20
160.963000
 21
159.717000
  0
LINE
 10
40.075000
 11
40.541000
 20
159.717000
 21
158.334000
  0
LINE
 10
40.541000
 11
40.955000
 20
158.334000
 21
156.802000
  0
LINE
 10
40.955000
 11
41.321000
 20
156.802000
 21
155.107000
  0
LINE
 10
41.321000
 11
41.641000
 20
155.107000
 21
153.234000
  0
LINE
 10
41.641000
 11
41.918000
 20
153.234000
 21
151.170000
  0
LINE
 10
41.918000
 11
42.156000
 20
151.170000
 21
148.901000
  0
LINE
 10
42.156000
 11
42.356000
 20
148.901000
 21
146.413000
  0
LINE
 10
42.356000
 11
42.523000
 20
146.413000
 21
143.692000
  0
LINE
 10
42.523000
 11
42.659000
 20
143.692000
 21
140.726000
  0
LINE
 10
42.659000
 11
42.768000
 20
140.726000
 21
137.499000
  0
LINE
 10
42.768000
 11
42.851000
 20
137.499000
 21
133.998000
  0
LINE
 10
42.851000
 11
42.913000
 20
133.998000
 21
130.209000
  0
LINE
 10
42.913000
 11
42.955000
 20
130.209000
 21
126.119000
  0
LINE
 10
42.955000
 11
42.982000
 20
126.119000
 21
121.713000
  0
LINE
 10
42.982000
 11
42.996000
 20
121.713000
 21
116.978000
  0
LINE
 10
42.996000
 11
43.000000
 20
116.978000
 21
111.899000
  0
LINE
 10
43.000000
 11
43.000000
 20
111.899000
 21
109.460000
  0
LINE
 10
43.000000
 11
43.085000
 20
109.460000
 21
106.367000
  0
LINE
 10
43.085000
 11
43.338000
 20
106.367000
 21
103.309000
  0
LINE
 10
43.338000
 11
43.757000
 20
103.309000
 21
100.289000
  0
LINE
 10
43.757000
 11
44.340000
 20
100.289000
 21
97.313000
  0
LINE
 10
44.340000
 11
45.086000
 20
97.313000
 21
94.385000
  0
LINE
 10
45.086000
 11
45.991000
 20
94.385000
 21
91.510000
  0
LINE
 10
45.991000
 11
47.055000
 20
91.510000
 21
88.692000
  0
LINE
 10
47.055000
 11
48.274000
 20
88.692000
 21
85.935000
  0
LINE
 10
48.274000
 11
49.647000
 20
85.935000
 21
83.245000
  0
LINE
 10
49.647000
 11
51.172000
 20
83.245000
 21
80.625000
  0
LINE
 10
51.172000
 11
52.846000
 20
80.625000
 21
78.081000
  0
LINE
 10
52.846000
 11
54.668000
 20
78.081000
 21
75.616000
  0
LINE
 10
54.668000
 11
56.636000
 20
75.616000
 21
73.236000
  0
LINE
 10
56.636000
 11
58.747000
 20
73.236000
 21
70.945000
  0
LINE
 10
58.747000
 11
61.000000
 20
70.945000
 21
68.747000
  0
LINE
 10
61.000000
 11
63.392000
 20
68.747000
 21
66.647000
  0
LINE
 10
63.392000
 11
65.921000
 20
66.647000
 21
64.650000
  0
LINE
 10
65.921000
 11
68.586000
 20
64.650000
 21
62.760000
  0
LINE
 10
68.586000
 11
71.383000
 20
62.760000
 21
60.981000
  0
LINE
 10
71.383000
 11
74.312000
 20
60.981000
 21
59.319000
  0
LINE
 10
74.312000
 11
77.370000
 20
59.319000
 21
57.777000
  0
LINE
 10
77.370000
 11
80.555000
 20
57.777000
 21
56.361000
  0
LINE
 10
80.555000
 11
83.865000
 20
56.361000
 21
55.074000
  0
LINE
 10
83.865000
 11
87.298000
 20
55.074000
 21
53.922000
  0
LINE
 10
87.298000
 11
90.852000
 20
53.922000
 21
52.909000
  0
LINE
 10
90.852000
 11
94.524000
 20
52.909000
 21
52.039000
  0
LINE
 10
94.524000
 11
98.313000
 20
52.039000
 21
51.317000
  0
LINE
 10
98.313000
 11
102.217000
 20
51.317000
 21
50.748000
  0
LINE
 10
102.217000
 11
106.233000
 20
50.748000
 21
50.335000
  0
LINE
 10
106.233000
 11
110.360000
 20
50.335000
 21
50.085000
  0
LINE
 10
110.360000
 11
114.595000
 20
50.085000
 21
50.000000
  0
LINE
 10
114.595000
 11
153.000000
 20
50.000000
 21
50.000000
  0
LINE
 10
153.000000
 11
153.000000
 20
50.000000
 21
30.000000
  0
LINE
 10
153.000000
 11
158.000000
 20
30.000000
 21
30.000000
  0
LINE
 10
158.000000
 11
158.000000
 20
30.000000
 21
50.000000
  0
LINE
 10
158.000000
 11
165.000000
 20
50.000000
 21
50.000000
  0
LINE
 10
165.000000
 11
166.500000
 20
50.000000
 21
49.598000
  0
LINE
 10
166.500000
 11
167.598000
 20
49.598000
 21
48.500000
  0
LINE
 10
167.598000
 11
168.000000
 20
48.500000
 21
47.000000
  0
LINE
 10
168.000000
 11
168.000000
 20
47.000000
 21
13.000000
  0
LINE
 10
168.000000
 11
167.598000
 20
13.000000
 21
11.500000
  0
LINE
 10
167.598000
 11
166.500000
 20
11.500000
 21
10.402000
  0
LINE
 10
166.500000
 11
165.000000
 20
10.402000
 21
10.000000
  0
LINE
 10
165.000000
 11
158.000000
 20
10.000000
 21
10.000000
  0
LINE
 10
158.000000
 11
158.000000
 20
10.000000
 21
15.000000
  0
LINE
 10
158.000000
 11
153.000000
 20
15.000000
 21
15.000000
  0
LINE
 10
153.000000
 11
153.000000
 20
15.000000
 21
10.000000
  0
LINE
 10
153.000000
 11
6.000000
 20
10.000000
 21
10.000000
  0
LINE
 10
6.000000
 11
4.500000
 20
10.000000
 21
10.402000
  0
LINE
 10
4.500000
 11
3.402000
 20
10.402000
 21
11.500000
  0
LINE
 10
3.402000
 11
3.000000
 20
11.500000
 21
13.000000
  0
LINE
 10
3.000000
 11
3.000000
 20
13.000000
 21
150.000000
  0
LINE
 10
3.000000
 11
-25.500000
 20
150.000000
 21
150.000000
  0
LINE
 10
-25.500000
 11
-25.500000
 20
150.000000
 21
90.788000
  0
LINE
 10
-25.500000
 11
-25.948000
 20
90.788000
 21
89.954000
  0
LINE
 10
-25.948000
 11
-26.890000
 20
89.954000
 21
89.867000
  0
LINE
 10
-26.890000
 11
-27.483000
 20
89.867000
 21
90.604000
  0
LINE
 10
-27.483000
 11
-36.325000
 20
90.604000
 21
137.888000
  0
LINE
 10
-36.325000
 11
-36.700000
 20
137.888000
 21
139.276000
  0
LINE
 10
-36.700000
 11
-37.038000
 20
139.276000
 21
140.682000
  0
LINE
 10
-37.038000
 11
-37.337000
 20
140.682000
 21
142.103000
  0
LINE
 10
-37.337000
 11
-37.596000
 20
142.103000
 21
143.533000
  0
LINE
 10
-37.596000
 11
-37.813000
 20
143.533000
 21
144.969000
  0
LINE
 10
-37.813000
 11
-37.988000
 20
144.969000
 21
146.405000
  0
LINE
 10
-37.988000
 11
-38.119000
 20
146.405000
 21
147.839000
  0
LINE
 10
-38.119000
 11
-38.205000
 20
147.839000
 21
149.265000
  0
LINE
 10
-38.205000
 11
-38.245000
 20
149.265000
 21
150.679000
  0
LINE
 10
10.000000
 11
10.000000
 20
-87.000000
 21
-53.000000
  0
LINE
 10
10.000000
 11
10.402000
 20
-53.000000
 21
-51.500000
  0
LINE
 10
10.402000
 11
11.500000
 20
-51.500000
 21
-50.402000
  0
LINE
 10
11.500000
 11
13.000000
 20
-50.402000
 21
-50.000000
  0
LINE
 10
13.000000
 11
172.000000
 20
-50.000000
 21
-50.000000
  0
LINE
 10
172.000000
 11
173.500000
 20
-50.000000
 21
-50.402000
  0
LINE
 10
173.500000
 11
174.598000
 20
-50.402000
 21
-51.500000
  0
LINE
 10
174.598000
 11
175.000000
 20
-51.500000
 21
-53.000000
  0
LINE
 10
175.000000
 11
175.000000
 20
-53.000000
 21
-87.000000
  0
LINE
 10
175.000000
 11
174.598000
 20
-87.000000
 21
-88.500000
  0
LINE
 10
174.598000
 11
173.500000
 20
-88.500000
 21
-89.598000
  0
LINE
 10
173.500000
 11
172.000000
 20
-89.598000
 21
-90.000000
  0
LINE
 10
172.000000
 11
165.000000
 20
-90.000000
 21
-90.000000
  0
LINE
 10
165.000000
 11
164.500000
 20
-90.000000
 21
-85.000000
  0
LINE
 10
164.500000
 11
165.000000
 20
-85.000000
 21
-85.000000
  0
LINE
 10
165.000000
 11
165.000000
 20
-85.000000
 21
-70.000000
  0
LINE
 10
165.000000
 11
160.000000
 20
-70.000000
 21
-70.000000
  0
LINE
 10
160.000000
 11
160.000000
 20
-70.000000
 21
-90.000000
  0
LINE
 10
160.000000
 11
25.000000
 20
-90.000000
 21
-90.000000
  0
LINE
 10
25.000000
 11
25.000000
 20
-90.000000
 21
-70.000000
  0
LINE
 10
25.000000
 11
20.000000
 20
-70.000000
 21
-70.000000
  0
LINE
 10
20.000000
 11
20.000000
 20
-70.000000
 21
-85.000000
  0
LINE
 10
20.000000
 11
20.500000
 20
-85.000000
 21
-85.000000
  0
LINE
 10
20.500000
 11
20.000000
 20
-85.000000
 21
-90.000000
  0
LINE
 10
20.000000
 11
13.000000
 20
-90.000000
 21
-90.000000
  0
LINE
 10
13.000000
 11
11.500000
 20
-90.000000
 21
-89.598000
  0
LINE
 10
11.500000
 11
10.402000
 20
-89.598000
 21
-88.500000
  0
LINE
 10
10.402000
 11
10.000000
 20
-88.500000
 21
-87.000000
  0
LINE
 10
23.000000
 11
23.000000
 20
19.200000
 21
25.000000
  0
LINE
 10
23.000000
 11
53.000000
 20
25.000000
 21
25.000000
  0
LINE
 10
53.000000
 11
53.000000
 20
25.000000
 21
19.200000
  0
LINE
 10
53.000000
 11
23.000000
 20
19.200000
 21
19.200000
  0
LINE
 10
55.000000
 11
55.000000
 20
-80.800000
 21
-75.000000
  0
LINE
 10
55.000000
 11
79.000000
 20
-75.000000
 21
-75.000000
  0
LINE
 10
79.000000
 11
79.000000
 20
-75.000000
 21
-80.800000
  0
LINE
 10
79.000000
 11
55.000000
 20
-80.800000
 21
-80.800000
  0
LINE
 10
103.000000
 11
103.000000
 20
19.200000
 21
25.000000
  0
LINE
 10
103.000000
 11
133.000000
 20
25.000000
 21
25.000000
  0
LINE
 10
133.000000
 11
133.000000
 20
25.000000
 21
19.200000
  0
LINE
 10
133.000000
 11
103.000000
 20
19.200000
 21
19.200000
  0
LINE
 10
106.000000
 11
106.000000
 20
-80.800000
 21
-75.000000
  0
LINE
 10
106.000000
 11
130.000000
 20
-75.000000
 21
-75.000000
  0
LINE
 10
130.000000
 11
130.000000
 20
-75.000000
 21
-80.800000
  0
LINE
 10
130.000000
 11
106.000000
 20
-80.800000
 21
-80.800000
  0
ENDSEC
  0
EOF
