  0
SECTION
  2
HEADER
  9
$ACADVER
  1
AC1021
  9
$ACADMAINTVER
 70
    25
  9
$DWGCODEPAGE
  3
ANSI_1252
  9
$INSBASE
 10
0.0
 20
0.0
 30
0.0
  9
$EXTMIN
 10
-735.199
 20
-406.818
 30
0.0
  9
$EXTMAX
 10
580.4208
 20
481.4997
 30
0.0
  9
$LIMMIN
 10
0.0
 20
0.0
  9
$LIMMAX
 10
12.0
 20
9.0
  9
$ORTHOMODE
 70
     0
  9
$REGENMODE
 70
     1
  9
$FILLMODE
 70
     1
  9
$QTEXTMODE
 70
     0
  9
$MIRRTEXT
 70
     1
  9
$LTSCALE
 40
1.0
  9
$ATTMODE
 70
     1
  9
$TEXTSIZE
 40
0.2
  9
$TRACEWID
 40
0.05
  9
$TEXTSTYLE
  7
Standard
  9
$CLAYER
  8
0
  9
$CELTYPE
  6
ByLayer
  9
$CECOLOR
 62
   256
  9
$CELTSCALE
 40
1.0
  9
$DISPSILH
 70
     0
  9
$DIMSCALE
 40
1.0
  9
$DIMASZ
 40
0.18
  9
$DIMEXO
 40
0.0625
  9
$DIMDLI
 40
0.38
  9
$DIMRND
 40
0.0
  9
$DIMDLE
 40
0.0
  9
$DIMEXE
 40
0.18
  9
$DIMTP
 40
0.0
  9
$DIMTM
 40
0.0
  9
$DIMTXT
 40
0.18
  9
$DIMCEN
 40
0.09
  9
$DIMTSZ
 40
0.0
  9
$DIMTOL
 70
     0
  9
$DIMLIM
 70
     0
  9
$DIMTIH
 70
     1
  9
$DIMTOH
 70
     1
  9
$DIMSE1
 70
     0
  9
$DIMSE2
 70
     0
  9
$DIMTAD
 70
     0
  9
$DIMZIN
 70
     0
  9
$DIMBLK
  1

  9
$DIMASO
 70
     1
  9
$DIMSHO
 70
     1
  9
$DIMPOST
  1

  9
$DIMAPOST
  1

  9
$DIMALT
 70
     0
  9
$DIMALTD
 70
     2
  9
$DIMALTF
 40
25.4
  9
$DIMLFAC
 40
1.0
  9
$DIMTOFL
 70
     0
  9
$DIMTVP
 40
0.0
  9
$DIMTIX
 70
     0
  9
$DIMSOXD
 70
     0
  9
$DIMSAH
 70
     0
  9
$DIMBLK1
  1

  9
$DIMBLK2
  1

  9
$DIMSTYLE
  2
Standard
  9
$DIMCLRD
 70
     0
  9
$DIMCLRE
 70
     0
  9
$DIMCLRT
 70
     0
  9
$DIMTFAC
 40
1.0
  9
$DIMGAP
 40
0.09
  9
$DIMJUST
 70
     0
  9
$DIMSD1
 70
     0
  9
$DIMSD2
 70
     0
  9
$DIMTOLJ
 70
     1
  9
$DIMTZIN
 70
     0
  9
$DIMALTZ
 70
     0
  9
$DIMALTTZ
 70
     0
  9
$DIMUPT
 70
     0
  9
$DIMDEC
 70
     4
  9
$DIMTDEC
 70
     4
  9
$DIMALTU
 70
     2
  9
$DIMALTTD
 70
     2
  9
$DIMTXSTY
  7
Standard
  9
$DIMAUNIT
 70
     0
  9
$DIMADEC
 70
     0
  9
$DIMALTRND
 40
0.0
  9
$DIMAZIN
 70
     0
  9
$DIMDSEP
 70
    46
  9
$DIMATFIT
 70
     3
  9
$DIMFRAC
 70
     0
  9
$DIMLDRBLK
  1

  9
$DIMLUNIT
 70
     2
  9
$DIMLWD
 70
    -2
  9
$DIMLWE
 70
    -2
  9
$DIMTMOVE
 70
     0
  9
$DIMFXL
 40
1.0
  9
$DIMFXLON
 70
     0
  9
$DIMJOGANG
 40
0.7853981633974483
  9
$DIMTFILL
 70
     0
  9
$DIMTFILLCLR
 70
     0
  9
$DIMARCSYM
 70
     0
  9
$DIMLTYPE
  6

  9
$DIMLTEX1
  6

  9
$DIMLTEX2
  6

  9
$LUNITS
 70
     2
  9
$LUPREC
 70
     4
  9
$SKETCHINC
 40
0.1
  9
$FILLETRAD
 40
0.5
  9
$AUNITS
 70
     0
  9
$AUPREC
 70
     0
  9
$MENU
  1
.
  9
$ELEVATION
 40
0.0
  9
$PELEVATION
 40
0.0
  9
$THICKNESS
 40
0.0
  9
$LIMCHECK
 70
     0
  9
$CHAMFERA
 40
0.5
  9
$CHAMFERB
 40
0.5
  9
$CHAMFERC
 40
1.0
  9
$CHAMFERD
 40
0.0
  9
$SKPOLY
 70
     0
  9
$TDCREATE
 40
2456148.944986088
  9
$TDUCREATE
 40
2456148.861652755
  9
$TDUPDATE
 40
2456148.944986099
  9
$TDUUPDATE
 40
2456148.861652766
  9
$TDINDWG
 40
0.0000000116
  9
$TDUSRTIMER
 40
0.0000000116
  9
$USRTIMER
 70
     1
  9
$ANGBASE
 50
0.0
  9
$ANGDIR
 70
     0
  9
$PDMODE
 70
     0
  9
$PDSIZE
 40
0.0
  9
$PLINEWID
 40
0.0
  9
$SPLFRAME
 70
     0
  9
$SPLINETYPE
 70
     6
  9
$SPLINESEGS
 70
     8
  9
$HANDSEED
  5
EA
  9
$SURFTAB1
 70
     6
  9
$SURFTAB2
 70
     6
  9
$SURFTYPE
 70
     6
  9
$SURFU
 70
     6
  9
$SURFV
 70
     6
  9
$UCSBASE
  2

  9
$UCSNAME
  2

  9
$UCSORG
 10
0.0
 20
0.0
 30
0.0
  9
$UCSXDIR
 10
1.0
 20
0.0
 30
0.0
  9
$UCSYDIR
 10
0.0
 20
1.0
 30
0.0
  9
$UCSORTHOREF
  2

  9
$UCSORTHOVIEW
 70
     0
  9
$UCSORGTOP
 10
0.0
 20
0.0
 30
0.0
  9
$UCSORGBOTTOM
 10
0.0
 20
0.0
 30
0.0
  9
$UCSORGLEFT
 10
0.0
 20
0.0
 30
0.0
  9
$UCSORGRIGHT
 10
0.0
 20
0.0
 30
0.0
  9
$UCSORGFRONT
 10
0.0
 20
0.0
 30
0.0
  9
$UCSORGBACK
 10
0.0
 20
0.0
 30
0.0
  9
$PUCSBASE
  2

  9
$PUCSNAME
  2

  9
$PUCSORG
 10
0.0
 20
0.0
 30
0.0
  9
$PUCSXDIR
 10
1.0
 20
0.0
 30
0.0
  9
$PUCSYDIR
 10
0.0
 20
1.0
 30
0.0
  9
$PUCSORTHOREF
  2

  9
$PUCSORTHOVIEW
 70
     0
  9
$PUCSORGTOP
 10
0.0
 20
0.0
 30
0.0
  9
$PUCSORGBOTTOM
 10
0.0
 20
0.0
 30
0.0
  9
$PUCSORGLEFT
 10
0.0
 20
0.0
 30
0.0
  9
$PUCSORGRIGHT
 10
0.0
 20
0.0
 30
0.0
  9
$PUCSORGFRONT
 10
0.0
 20
0.0
 30
0.0
  9
$PUCSORGBACK
 10
0.0
 20
0.0
 30
0.0
  9
$USERI1
 70
     0
  9
$USERI2
 70
     0
  9
$USERI3
 70
     0
  9
$USERI4
 70
     0
  9
$USERI5
 70
     0
  9
$USERR1
 40
0.0
  9
$USERR2
 40
0.0
  9
$USERR3
 40
0.0
  9
$USERR4
 40
0.0
  9
$USERR5
 40
0.0
  9
$WORLDVIEW
 70
     1
  9
$SHADEDGE
 70
     3
  9
$SHADEDIF
 70
    70
  9
$TILEMODE
 70
     1
  9
$MAXACTVP
 70
    64
  9
$PINSBASE
 10
0.0
 20
0.0
 30
0.0
  9
$PLIMCHECK
 70
     0
  9
$PEXTMIN
 10
1.000000000000000E+20
 20
1.000000000000000E+20
 30
1.000000000000000E+20
  9
$PEXTMAX
 10
-1.000000000000000E+20
 20
-1.000000000000000E+20
 30
-1.000000000000000E+20
  9
$PLIMMIN
 10
0.0
 20
0.0
  9
$PLIMMAX
 10
12.0
 20
9.0
  9
$UNITMODE
 70
     0
  9
$VISRETAIN
 70
     1
  9
$PLINEGEN
 70
     0
  9
$PSLTSCALE
 70
     1
  9
$TREEDEPTH
 70
  3020
  9
$CMLSTYLE
  2
Standard
  9
$CMLJUST
 70
     0
  9
$CMLSCALE
 40
1.0
  9
$PROXYGRAPHICS
 70
     1
  9
$MEASUREMENT
 70
     0
  9
$CELWEIGHT
370
    -1
  9
$ENDCAPS
280
     0
  9
$JOINSTYLE
280
     0
  9
$LWDISPLAY
290
     0
  9
$INSUNITS
 70
     4
  9
$HYPERLINKBASE
  1

  9
$STYLESHEET
  1

  9
$XEDIT
290
     1
  9
$CEPSNTYPE
380
     0
  9
$PSTYLEMODE
290
     1
  9
$FINGERPRINTGUID
  2
{2262F7E8-4630-406A-A1A1-E85CFB64922A}
  9
$VERSIONGUID
  2
{FAEB1C32-E019-11D5-929B-00C0DF256EC4}
  9
$EXTNAMES
290
     1
  9
$PSVPSCALE
 40
0.0
  9
$OLESTARTUP
290
     0
  9
$SORTENTS
280
   127
  9
$INDEXCTL
280
     0
  9
$HIDETEXT
280
     1
  9
$XCLIPFRAME
290
     0
  9
$HALOGAP
280
     0
  9
$OBSCOLOR
 70
   257
  9
$OBSLTYPE
280
     0
  9
$INTERSECTIONDISPLAY
280
     0
  9
$INTERSECTIONCOLOR
 70
   257
  9
$DIMASSOC
280
     2
  9
$PROJECTNAME
  1

  9
$CAMERADISPLAY
290
     0
  9
$LENSLENGTH
 40
50.0
  9
$CAMERAHEIGHT
 40
0.0
  9
$STEPSPERSEC
 40
2.0
  9
$STEPSIZE
 40
6.0
  9
$3DDWFPREC
 40
2.0
  9
$PSOLWIDTH
 40
0.25
  9
$PSOLHEIGHT
 40
4.0
  9
$LOFTANG1
 40
1.570796326794897
  9
$LOFTANG2
 40
1.570796326794897
  9
$LOFTMAG1
 40
0.0
  9
$LOFTMAG2
 40
0.0
  9
$LOFTPARAM
 70
     7
  9
$LOFTNORMALS
280
     1
  9
$LATITUDE
 40
37.795
  9
$LONGITUDE
 40
-122.394
  9
$NORTHDIRECTION
 40
0.0
  9
$TIMEZONE
 70
 -8000
  9
$LIGHTGLYPHDISPLAY
280
     1
  9
$TILEMODELIGHTSYNCH
280
     1
  9
$SOLIDHIST
280
     1
  9
$SHOWHIST
280
     1
  9
$DWFFRAME
280
     2
  9
$DGNFRAME
280
     2
  9
$REALWORLDSCALE
290
     1
  9
$INTERFERECOLOR
 62
   256
  9
$CSHADOW
280
     0
  9
$SHADOWPLANELOCATION
 40
0.0
  0
ENDSEC
  0
SECTION
  2
CLASSES
  0
CLASS
  1
ACDBDICTIONARYWDFLT
  2
AcDbDictionaryWithDefault
  3
ObjectDBX Classes
 90
        0
 91
        4
280
     0
281
     0
  0
CLASS
  1
VISUALSTYLE
  2
AcDbVisualStyle
  3
ObjectDBX Classes
 90
     4095
 91
        4
280
     0
281
     0
  0
CLASS
  1
MATERIAL
  2
AcDbMaterial
  3
ObjectDBX Classes
 90
     1153
 91
        4
280
     0
281
     0
  0
ENDSEC
  0
SECTION
  2
TABLES
  0
TABLE
  2
VPORT
  5
8
330
0
100
AcDbSymbolTable
 70
     1
  0
VPORT
  5
29
330
8
100
AcDbSymbolTableRecord
100
AcDbViewportTableRecord
  2
*Active
 70
     0
 10
0.0
 20
0.0
 11
1.0
 21
1.0
 12
10.42990654205607
 22
4.5
 13
0.0
 23
0.0
 14
0.5
 24
0.5
 15
0.5
 25
0.5
 16
0.0
 26
0.0
 36
1.0
 17
0.0
 27
0.0
 37
0.0
 40
9.0
 41
1.972972972850329
 42
50.0
 43
0.0
 44
0.0
 50
0.0
 51
0.0
 71
     0
 72
   100
 73
     1
 74
     3
 75
     0
 76
     0
 77
     0
 78
     0
281
     0
 65
     1
110
0.0
120
0.0
130
0.0
111
1.0
121
0.0
131
0.0
112
0.0
122
1.0
132
0.0
 79
     0
146
0.0
 60
     3
 61
     5
292
     1
282
     1
141
0.0
142
0.0
 63
   250
  0
ENDTAB
  0
TABLE
  2
LTYPE
  5
5
330
0
100
AcDbSymbolTable
 70
     1
  0
LTYPE
  5
14
330
5
100
AcDbSymbolTableRecord
100
AcDbLinetypeTableRecord
  2
ByBlock
 70
     0
  3

 72
    65
 73
     0
 40
0.0
  0
LTYPE
  5
15
330
5
100
AcDbSymbolTableRecord
100
AcDbLinetypeTableRecord
  2
ByLayer
 70
     0
  3

 72
    65
 73
     0
 40
0.0
  0
LTYPE
  5
16
330
5
100
AcDbSymbolTableRecord
100
AcDbLinetypeTableRecord
  2
Continuous
 70
     0
  3
Solid line
 72
    65
 73
     0
 40
0.0
  0
ENDTAB
  0
TABLE
  2
LAYER
  5
2
330
0
100
AcDbSymbolTable
 70
     2
  0
LAYER
  5
10
330
2
100
AcDbSymbolTableRecord
100
AcDbLayerTableRecord
  2
0
 70
     0
 62
     7
  6
Continuous
370
    -3
390
F
347
3E
  0
LAYER
  5
40
330
2
100
AcDbSymbolTableRecord
100
AcDbLayerTableRecord
  2
Laag 1
 70
     0
 62
     7
  6
Continuous
370
    -3
390
F
347
3E
  0
ENDTAB
  0
TABLE
  2
STYLE
  5
3
330
0
100
AcDbSymbolTable
 70
     1
  0
STYLE
  5
11
330
3
100
AcDbSymbolTableRecord
100
AcDbTextStyleTableRecord
  2
Standard
 70
     0
 40
0.0
 41
1.0
 50
0.0
 71
     0
 42
0.2
  3
txt
  4

  0
ENDTAB
  0
TABLE
  2
VIEW
  5
6
330
0
100
AcDbSymbolTable
 70
     0
  0
ENDTAB
  0
TABLE
  2
UCS
  5
7
330
0
100
AcDbSymbolTable
 70
     0
  0
ENDTAB
  0
TABLE
  2
APPID
  5
9
330
0
100
AcDbSymbolTable
 70
     2
  0
APPID
  5
12
330
9
100
AcDbSymbolTableRecord
100
AcDbRegAppTableRecord
  2
ACAD
 70
     0
  0
APPID
  5
3F
330
9
100
AcDbSymbolTableRecord
100
AcDbRegAppTableRecord
  2
ODA
 70
     0
  0
ENDTAB
  0
TABLE
  2
DIMSTYLE
  5
A
330
0
100
AcDbSymbolTable
 70
     1
100
AcDbDimStyleTable
  0
DIMSTYLE
105
27
330
A
100
AcDbSymbolTableRecord
100
AcDbDimStyleTableRecord
  2
Standard
 70
     0
340
11
  0
ENDTAB
  0
TABLE
  2
BLOCK_RECORD
  5
1
330
0
100
AcDbSymbolTable
 70
     1
  0
BLOCK_RECORD
  5
1F
330
1
100
AcDbSymbolTableRecord
100
AcDbBlockTableRecord
  2
*Model_Space
340
22
 70
     0
280
     1
281
     0
  0
BLOCK_RECORD
  5
1B
330
1
100
AcDbSymbolTableRecord
100
AcDbBlockTableRecord
  2
*Paper_Space
340
1E
 70
     0
280
     1
281
     0
  0
BLOCK_RECORD
  5
23
330
1
100
AcDbSymbolTableRecord
100
AcDbBlockTableRecord
  2
*Paper_Space0
340
26
 70
     0
280
     1
281
     0
  0
ENDTAB
  0
ENDSEC
  0
SECTION
  2
BLOCKS
  0
BLOCK
  5
20
330
1F
100
AcDbEntity
  8
0
100
AcDbBlockBegin
  2
*Model_Space
 70
     0
 10
0.0
 20
0.0
 30
0.0
  3
*Model_Space
  1

  0
ENDBLK
  5
21
330
1F
100
AcDbEntity
  8
0
100
AcDbBlockEnd
  0
BLOCK
  5
1C
330
1B
100
AcDbEntity
 67
     1
  8
0
100
AcDbBlockBegin
  2
*Paper_Space
 70
     0
 10
0.0
 20
0.0
 30
0.0
  3
*Paper_Space
  1

  0
ENDBLK
  5
1D
330
1B
100
AcDbEntity
 67
     1
  8
0
100
AcDbBlockEnd
  0
BLOCK
  5
24
330
23
100
AcDbEntity
  8
0
100
AcDbBlockBegin
  2
*Paper_Space0
 70
     0
 10
0.0
 20
0.0
 30
0.0
  3
*Paper_Space0
  1

  0
ENDBLK
  5
25
330
23
100
AcDbEntity
  8
0
100
AcDbBlockEnd
  0
ENDSEC
  0
SECTION
  2
ENTITIES
  0
SPLINE
  5
41
330
1F
100
AcDbEntity
  8
Laag 1
370
     9
100
AcDbSpline
210
0.0
220
0.0
230
1.0
 70
    24
 71
     3
 72
     8
 73
     4
 74
     0
 42
0.0000000001
 43
0.0000000001
 40
0.0
 40
0.0
 40
0.0
 40
0.0
 40
1.0
 40
1.0
 40
1.0
 40
1.0
 10
426.6731
 20
195.8434
 30
0.0
 10
426.6731
 20
195.8434
 30
0.0
 10
373.6401
 20
248.8764
 30
0.0
 10
373.6401
 20
248.8764
 30
0.0
  0
SPLINE
  5
42
330
1F
100
AcDbEntity
  8
Laag 1
370
     9
100
AcDbSpline
210
0.0
220
0.0
230
1.0
 70
    24
 71
     3
 72
     8
 73
     4
 74
     0
 42
0.0000000001
 43
0.0000000001
 40
0.0
 40
0.0
 40
0.0
 40
0.0
 40
1.0
 40
1.0
 40
1.0
 40
1.0
 10
373.6401
 20
248.8764
 30
0.0
 10
373.6401
 20
248.8764
 30
0.0
 10
366.569
 20
241.8053
 30
0.0
 10
366.569
 20
241.8053
 30
0.0
  0
SPLINE
  5
43
330
1F
100
AcDbEntity
  8
Laag 1
370
     9
100
AcDbSpline
210
0.0
220
0.0
230
1.0
 70
    24
 71
     3
 72
     8
 73
     4
 74
     0
 42
0.0000000001
 43
0.0000000001
 40
0.0
 40
0.0
 40
0.0
 40
0.0
 40
1.0
 40
1.0
 40
1.0
 40
1.0
 10
366.569
 20
241.8053
 30
0.0
 10
366.569
 20
241.8053
 30
0.0
 10
419.602
 20
188.7723
 30
0.0
 10
419.602
 20
188.7723
 30
0.0
  0
SPLINE
  5
44
330
1F
100
AcDbEntity
  8
Laag 1
370
     9
100
AcDbSpline
210
0.0
220
0.0
230
1.0
 70
    24
 71
     3
 72
     8
 73
     4
 74
     0
 42
0.0000000001
 43
0.0000000001
 40
0.0
 40
0.0
 40
0.0
 40
0.0
 40
1.0
 40
1.0
 40
1.0
 40
1.0
 10
419.602
 20
188.7723
 30
0.0
 10
419.602
 20
188.7723
 30
0.0
 10
426.6731
 20
195.8434
 30
0.0
 10
426.6731
 20
195.8434
 30
0.0
  0
SPLINE
  5
45
330
1F
100
AcDbEntity
  8
Laag 1
370
     9
100
AcDbSpline
210
0.0
220
0.0
230
1.0
 70
    27
 71
     3
 72
     8
 73
     4
 74
     0
 42
0.0000000001
 43
0.0000000001
 40
0.0
 40
0.0
 40
0.0
 40
0.0
 40
1.0
 40
1.0
 40
1.0
 40
1.0
 10
426.6731
 20
360.1372
 30
0.0
 10
426.6731
 20
360.1372
 30
0.0
 10
426.6731
 20
360.1372
 30
0.0
 10
426.6731
 20
360.1372
 30
0.0
  0
SPLINE
  5
46
330
1F
100
AcDbEntity
  8
Laag 1
370
     9
100
AcDbSpline
210
0.0
220
0.0
230
1.0
 70
    24
 71
     3
 72
     8
 73
     4
 74
     0
 42
0.0000000001
 43
0.0000000001
 40
0.0
 40
0.0
 40
0.0
 40
0.0
 40
1.0
 40
1.0
 40
1.0
 40
1.0
 10
373.6401
 20
307.1042
 30
0.0
 10
373.6401
 20
307.1042
 30
0.0
 10
426.6731
 20
360.1372
 30
0.0
 10
426.6731
 20
360.1372
 30
0.0
  0
SPLINE
  5
47
330
1F
100
AcDbEntity
  8
Laag 1
370
     9
100
AcDbSpline
210
0.0
220
0.0
230
1.0
 70
    24
 71
     3
 72
     8
 73
     4
 74
     0
 42
0.0000000001
 43
0.0000000001
 40
0.0
 40
0.0
 40
0.0
 40
0.0
 40
1.0
 40
1.0
 40
1.0
 40
1.0
 10
426.6731
 20
360.1372
 30
0.0
 10
426.6731
 20
360.1372
 30
0.0
 10
419.602
 20
367.2083
 30
0.0
 10
419.602
 20
367.2083
 30
0.0
  0
SPLINE
  5
48
330
1F
100
AcDbEntity
  8
Laag 1
370
     9
100
AcDbSpline
210
0.0
220
0.0
230
1.0
 70
    27
 71
     3
 72
     8
 73
     4
 74
     0
 42
0.0000000001
 43
0.0000000001
 40
0.0
 40
0.0
 40
0.0
 40
0.0
 40
1.0
 40
1.0
 40
1.0
 40
1.0
 10
419.602
 20
367.2083
 30
0.0
 10
419.602
 20
367.2083
 30
0.0
 10
419.602
 20
367.2083
 30
0.0
 10
419.602
 20
367.2083
 30
0.0
  0
SPLINE
  5
49
330
1F
100
AcDbEntity
  8
Laag 1
370
     9
100
AcDbSpline
210
0.0
220
0.0
230
1.0
 70
    24
 71
     3
 72
     8
 73
     4
 74
     0
 42
0.0000000001
 43
0.0000000001
 40
0.0
 40
0.0
 40
0.0
 40
0.0
 40
1.0
 40
1.0
 40
1.0
 40
1.0
 10
419.602
 20
367.2083
 30
0.0
 10
419.602
 20
367.2083
 30
0.0
 10
366.569
 20
314.1753
 30
0.0
 10
366.569
 20
314.1753
 30
0.0
  0
SPLINE
  5
4A
330
1F
100
AcDbEntity
  8
Laag 1
370
     9
100
AcDbSpline
210
0.0
220
0.0
230
1.0
 70
    24
 71
     3
 72
     8
 73
     4
 74
     0
 42
0.0000000001
 43
0.0000000001
 40
0.0
 40
0.0
 40
0.0
 40
0.0
 40
1.0
 40
1.0
 40
1.0
 40
1.0
 10
366.569
 20
314.1753
 30
0.0
 10
366.569
 20
314.1753
 30
0.0
 10
373.6401
 20
307.1042
 30
0.0
 10
373.6401
 20
307.1042
 30
0.0
  0
SPLINE
  5
4B
330
1F
100
AcDbEntity
  8
Laag 1
370
     9
100
AcDbSpline
210
0.0
220
0.0
230
1.0
 70
    24
 71
     3
 72
     8
 73
     4
 74
     0
 42
0.0000000001
 43
0.0000000001
 40
0.0
 40
0.0
 40
0.0
 40
0.0
 40
1.0
 40
1.0
 40
1.0
 40
1.0
 10
236.4189
 20
452.9903
 30
0.0
 10
236.4189
 20
452.9903
 30
0.0
 10
135.3826
 20
277.9903
 30
0.0
 10
135.3826
 20
277.9903
 30
0.0
  0
SPLINE
  5
4C
330
1F
100
AcDbEntity
  8
Laag 1
370
     9
100
AcDbSpline
210
0.0
220
0.0
230
1.0
 70
    27
 71
     3
 72
     8
 73
     4
 74
     0
 42
0.0000000001
 43
0.0000000001
 40
0.0
 40
0.0
 40
0.0
 40
0.0
 40
1.0
 40
1.0
 40
1.0
 40
1.0
 10
438.4913
 20
452.9903
 30
0.0
 10
438.4913
 20
452.9903
 30
0.0
 10
438.4913
 20
452.9903
 30
0.0
 10
438.4913
 20
452.9903
 30
0.0
  0
SPLINE
  5
4D
330
1F
100
AcDbEntity
  8
Laag 1
370
     9
100
AcDbSpline
210
0.0
220
0.0
230
1.0
 70
    24
 71
     3
 72
     8
 73
     4
 74
     0
 42
0.0000000001
 43
0.0000000001
 40
0.0
 40
0.0
 40
0.0
 40
0.0
 40
1.0
 40
1.0
 40
1.0
 40
1.0
 10
438.4913
 20
452.9903
 30
0.0
 10
438.4913
 20
452.9903
 30
0.0
 10
236.4189
 20
452.9903
 30
0.0
 10
236.4189
 20
452.9903
 30
0.0
  0
SPLINE
  5
4E
330
1F
100
AcDbEntity
  8
Laag 1
370
     9
100
AcDbSpline
210
0.0
220
0.0
230
1.0
 70
    24
 71
     3
 72
     8
 73
     4
 74
     0
 42
0.0000000001
 43
0.0000000001
 40
0.0
 40
0.0
 40
0.0
 40
0.0
 40
1.0
 40
1.0
 40
1.0
 40
1.0
 10
539.5276
 20
277.9903
 30
0.0
 10
539.5276
 20
277.9903
 30
0.0
 10
438.4913
 20
452.9903
 30
0.0
 10
438.4913
 20
452.9903
 30
0.0
  0
SPLINE
  5
4F
330
1F
100
AcDbEntity
  8
Laag 1
370
     9
100
AcDbSpline
210
0.0
220
0.0
230
1.0
 70
    24
 71
     3
 72
     8
 73
     4
 74
     0
 42
0.0000000001
 43
0.0000000001
 40
0.0
 40
0.0
 40
0.0
 40
0.0
 40
1.0
 40
1.0
 40
1.0
 40
1.0
 10
438.4913
 20
102.9903
 30
0.0
 10
438.4913
 20
102.9903
 30
0.0
 10
539.5276
 20
277.9903
 30
0.0
 10
539.5276
 20
277.9903
 30
0.0
  0
SPLINE
  5
50
330
1F
100
AcDbEntity
  8
Laag 1
370
     9
100
AcDbSpline
210
0.0
220
0.0
230
1.0
 70
    27
 71
     3
 72
     8
 73
     4
 74
     0
 42
0.0000000001
 43
0.0000000001
 40
0.0
 40
0.0
 40
0.0
 40
0.0
 40
1.0
 40
1.0
 40
1.0
 40
1.0
 10
438.4913
 20
102.9903
 30
0.0
 10
438.4913
 20
102.9903
 30
0.0
 10
438.4913
 20
102.9903
 30
0.0
 10
438.4913
 20
102.9903
 30
0.0
  0
SPLINE
  5
51
330
1F
100
AcDbEntity
  8
Laag 1
370
     9
100
AcDbSpline
210
0.0
220
0.0
230
1.0
 70
    24
 71
     3
 72
     8
 73
     4
 74
     0
 42
0.0000000001
 43
0.0000000001
 40
0.0
 40
0.0
 40
0.0
 40
0.0
 40
1.0
 40
1.0
 40
1.0
 40
1.0
 10
236.4189
 20
102.9903
 30
0.0
 10
236.4189
 20
102.9903
 30
0.0
 10
438.4913
 20
102.9903
 30
0.0
 10
438.4913
 20
102.9903
 30
0.0
  0
SPLINE
  5
52
330
1F
100
AcDbEntity
  8
Laag 1
370
     9
100
AcDbSpline
210
0.0
220
0.0
230
1.0
 70
    24
 71
     3
 72
     8
 73
     4
 74
     0
 42
0.0000000001
 43
0.0000000001
 40
0.0
 40
0.0
 40
0.0
 40
0.0
 40
1.0
 40
1.0
 40
1.0
 40
1.0
 10
135.3826
 20
277.9903
 30
0.0
 10
135.3826
 20
277.9903
 30
0.0
 10
236.4189
 20
102.9903
 30
0.0
 10
236.4189
 20
102.9903
 30
0.0
  0
SPLINE
  5
53
330
1F
100
AcDbEntity
  8
Laag 1
370
     9
100
AcDbSpline
210
0.0
220
0.0
230
1.0
 70
    24
 71
     3
 72
     8
 73
     4
 74
     0
 42
0.0000000001
 43
0.0000000001
 40
0.0
 40
0.0
 40
0.0
 40
0.0
 40
1.0
 40
1.0
 40
1.0
 40
1.0
 10
308.3412
 20
314.1753
 30
0.0
 10
308.3412
 20
314.1753
 30
0.0
 10
255.3082
 20
367.2083
 30
0.0
 10
255.3082
 20
367.2083
 30
0.0
  0
SPLINE
  5
54
330
1F
100
AcDbEntity
  8
Laag 1
370
     9
100
AcDbSpline
210
0.0
220
0.0
230
1.0
 70
    24
 71
     3
 72
     8
 73
     4
 74
     0
 42
0.0000000001
 43
0.0000000001
 40
0.0
 40
0.0
 40
0.0
 40
0.0
 40
1.0
 40
1.0
 40
1.0
 40
1.0
 10
255.3082
 20
367.2083
 30
0.0
 10
255.3082
 20
367.2083
 30
0.0
 10
248.2371
 20
360.1372
 30
0.0
 10
248.2371
 20
360.1372
 30
0.0
  0
SPLINE
  5
55
330
1F
100
AcDbEntity
  8
Laag 1
370
     9
100
AcDbSpline
210
0.0
220
0.0
230
1.0
 70
    24
 71
     3
 72
     8
 73
     4
 74
     0
 42
0.0000000001
 43
0.0000000001
 40
0.0
 40
0.0
 40
0.0
 40
0.0
 40
1.0
 40
1.0
 40
1.0
 40
1.0
 10
248.2371
 20
360.1372
 30
0.0
 10
248.2371
 20
360.1372
 30
0.0
 10
301.2701
 20
307.1042
 30
0.0
 10
301.2701
 20
307.1042
 30
0.0
  0
SPLINE
  5
56
330
1F
100
AcDbEntity
  8
Laag 1
370
     9
100
AcDbSpline
210
0.0
220
0.0
230
1.0
 70
    24
 71
     3
 72
     8
 73
     4
 74
     0
 42
0.0000000001
 43
0.0000000001
 40
0.0
 40
0.0
 40
0.0
 40
0.0
 40
1.0
 40
1.0
 40
1.0
 40
1.0
 10
301.2701
 20
307.1042
 30
0.0
 10
301.2701
 20
307.1042
 30
0.0
 10
308.3412
 20
314.1753
 30
0.0
 10
308.3412
 20
314.1753
 30
0.0
  0
SPLINE
  5
57
330
1F
100
AcDbEntity
  8
Laag 1
370
     9
100
AcDbSpline
210
0.0
220
0.0
230
1.0
 70
    24
 71
     3
 72
     8
 73
     4
 74
     0
 42
0.0000000001
 43
0.0000000001
 40
0.0
 40
0.0
 40
0.0
 40
0.0
 40
1.0
 40
1.0
 40
1.0
 40
1.0
 10
308.3412
 20
241.8053
 30
0.0
 10
308.3412
 20
241.8053
 30
0.0
 10
301.2701
 20
248.8764
 30
0.0
 10
301.2701
 20
248.8764
 30
0.0
  0
SPLINE
  5
58
330
1F
100
AcDbEntity
  8
Laag 1
370
     9
100
AcDbSpline
210
0.0
220
0.0
230
1.0
 70
    27
 71
     3
 72
     8
 73
     4
 74
     0
 42
0.0000000001
 43
0.0000000001
 40
0.0
 40
0.0
 40
0.0
 40
0.0
 40
1.0
 40
1.0
 40
1.0
 40
1.0
 10
301.2701
 20
248.8764
 30
0.0
 10
301.2701
 20
248.8764
 30
0.0
 10
301.2701
 20
248.8764
 30
0.0
 10
301.2701
 20
248.8764
 30
0.0
  0
SPLINE
  5
59
330
1F
100
AcDbEntity
  8
Laag 1
370
     9
100
AcDbSpline
210
0.0
220
0.0
230
1.0
 70
    24
 71
     3
 72
     8
 73
     4
 74
     0
 42
0.0000000001
 43
0.0000000001
 40
0.0
 40
0.0
 40
0.0
 40
0.0
 40
1.0
 40
1.0
 40
1.0
 40
1.0
 10
301.2701
 20
248.8764
 30
0.0
 10
301.2701
 20
248.8764
 30
0.0
 10
248.2371
 20
195.8434
 30
0.0
 10
248.2371
 20
195.8434
 30
0.0
  0
SPLINE
  5
5A
330
1F
100
AcDbEntity
  8
Laag 1
370
     9
100
AcDbSpline
210
0.0
220
0.0
230
1.0
 70
    24
 71
     3
 72
     8
 73
     4
 74
     0
 42
0.0000000001
 43
0.0000000001
 40
0.0
 40
0.0
 40
0.0
 40
0.0
 40
1.0
 40
1.0
 40
1.0
 40
1.0
 10
248.2371
 20
195.8434
 30
0.0
 10
248.2371
 20
195.8434
 30
0.0
 10
255.3082
 20
188.7723
 30
0.0
 10
255.3082
 20
188.7723
 30
0.0
  0
SPLINE
  5
5B
330
1F
100
AcDbEntity
  8
Laag 1
370
     9
100
AcDbSpline
210
0.0
220
0.0
230
1.0
 70
    27
 71
     3
 72
     8
 73
     4
 74
     0
 42
0.0000000001
 43
0.0000000001
 40
0.0
 40
0.0
 40
0.0
 40
0.0
 40
1.0
 40
1.0
 40
1.0
 40
1.0
 10
308.3412
 20
241.8053
 30
0.0
 10
308.3412
 20
241.8053
 30
0.0
 10
308.3412
 20
241.8053
 30
0.0
 10
308.3412
 20
241.8053
 30
0.0
  0
SPLINE
  5
5C
330
1F
100
AcDbEntity
  8
Laag 1
370
     9
100
AcDbSpline
210
0.0
220
0.0
230
1.0
 70
    24
 71
     3
 72
     8
 73
     4
 74
     0
 42
0.0000000001
 43
0.0000000001
 40
0.0
 40
0.0
 40
0.0
 40
0.0
 40
1.0
 40
1.0
 40
1.0
 40
1.0
 10
255.3082
 20
188.7723
 30
0.0
 10
255.3082
 20
188.7723
 30
0.0
 10
308.3412
 20
241.8053
 30
0.0
 10
308.3412
 20
241.8053
 30
0.0
  0
SPLINE
  5
5D
330
1F
100
AcDbEntity
  8
Laag 1
370
     9
100
AcDbSpline
210
0.0
220
0.0
230
1.0
 70
    27
 71
     3
 72
     8
 73
     4
 74
     0
 42
0.0000000001
 43
0.0000000001
 40
0.0
 40
0.0
 40
0.0
 40
0.0
 40
1.0
 40
1.0
 40
1.0
 40
1.0
 10
-309.6268
 20
-165.598
 30
0.0
 10
-309.6268
 20
-165.598
 30
0.0
 10
-309.6268
 20
-165.598
 30
0.0
 10
-309.6268
 20
-165.598
 30
0.0
  0
SPLINE
  5
5E
330
1F
100
AcDbEntity
  8
Laag 1
370
     9
100
AcDbSpline
210
0.0
220
0.0
230
1.0
 70
    24
 71
     3
 72
     8
 73
     4
 74
     0
 42
0.0000000001
 43
0.0000000001
 40
0.0
 40
0.0
 40
0.0
 40
0.0
 40
1.0
 40
1.0
 40
1.0
 40
1.0
 10
-309.6268
 20
-165.598
 30
0.0
 10
-309.6268
 20
-165.598
 30
0.0
 10
10.0236
 20
-234.7903
 30
0.0
 10
10.0236
 20
-234.7903
 30
0.0
  0
SPLINE
  5
5F
330
1F
100
AcDbEntity
  8
Laag 1
370
     9
100
AcDbSpline
210
0.0
220
0.0
230
1.0
 70
    27
 71
     3
 72
     8
 73
     4
 74
     0
 42
0.0000000001
 43
0.0000000001
 40
0.0
 40
0.0
 40
0.0
 40
0.0
 40
1.0
 40
1.0
 40
1.0
 40
1.0
 10
10.0236
 20
-165.598
 30
0.0
 10
10.0236
 20
-165.598
 30
0.0
 10
10.0236
 20
-165.598
 30
0.0
 10
10.0236
 20
-165.598
 30
0.0
  0
SPLINE
  5
60
330
1F
100
AcDbEntity
  8
Laag 1
370
     9
100
AcDbSpline
210
0.0
220
0.0
230
1.0
 70
    24
 71
     3
 72
     8
 73
     4
 74
     0
 42
0.0000000001
 43
0.0000000001
 40
0.0
 40
0.0
 40
0.0
 40
0.0
 40
1.0
 40
1.0
 40
1.0
 40
1.0
 10
10.0236
 20
-234.7903
 30
0.0
 10
10.0236
 20
-234.7903
 30
0.0
 10
10.0236
 20
-165.598
 30
0.0
 10
10.0236
 20
-165.598
 30
0.0
  0
SPLINE
  5
61
330
1F
100
AcDbEntity
  8
Laag 1
370
     9
100
AcDbSpline
210
0.0
220
0.0
230
1.0
 70
    27
 71
     3
 72
     8
 73
     4
 74
     0
 42
0.0000000001
 43
0.0000000001
 40
0.0
 40
0.0
 40
0.0
 40
0.0
 40
1.0
 40
1.0
 40
1.0
 40
1.0
 10
-309.6268
 20
-165.598
 30
0.0
 10
-309.6268
 20
-165.598
 30
0.0
 10
-309.6268
 20
-165.598
 30
0.0
 10
-309.6268
 20
-165.598
 30
0.0
  0
SPLINE
  5
62
330
1F
100
AcDbEntity
  8
Laag 1
370
     9
100
AcDbSpline
210
0.0
220
0.0
230
1.0
 70
    24
 71
     3
 72
     8
 73
     4
 74
     0
 42
0.0000000001
 43
0.0000000001
 40
0.0
 40
0.0
 40
0.0
 40
0.0
 40
1.0
 40
1.0
 40
1.0
 40
1.0
 10
10.0236
 20
-165.598
 30
0.0
 10
10.0236
 20
-165.598
 30
0.0
 10
-309.6268
 20
-165.598
 30
0.0
 10
-309.6268
 20
-165.598
 30
0.0
  0
SPLINE
  5
63
330
1F
100
AcDbEntity
  8
Laag 1
370
     9
100
AcDbSpline
210
0.0
220
0.0
230
1.0
 70
    24
 71
     3
 72
     8
 73
     4
 74
     0
 42
0.0000000001
 43
0.0000000001
 40
0.0
 40
0.0
 40
0.0
 40
0.0
 40
1.0
 40
1.0
 40
1.0
 40
1.0
 10
10.0236
 20
3.5943
 30
0.0
 10
10.0236
 20
3.5943
 30
0.0
 10
-309.6268
 20
-65.598
 30
0.0
 10
-309.6268
 20
-65.598
 30
0.0
  0
SPLINE
  5
64
330
1F
100
AcDbEntity
  8
Laag 1
370
     9
100
AcDbSpline
210
0.0
220
0.0
230
1.0
 70
    24
 71
     3
 72
     8
 73
     4
 74
     0
 42
0.0000000001
 43
0.0000000001
 40
0.0
 40
0.0
 40
0.0
 40
0.0
 40
1.0
 40
1.0
 40
1.0
 40
1.0
 10
-309.6268
 20
-65.598
 30
0.0
 10
-309.6268
 20
-65.598
 30
0.0
 10
10.0236
 20
-65.598
 30
0.0
 10
10.0236
 20
-65.598
 30
0.0
  0
SPLINE
  5
65
330
1F
100
AcDbEntity
  8
Laag 1
370
     9
100
AcDbSpline
210
0.0
220
0.0
230
1.0
 70
    24
 71
     3
 72
     8
 73
     4
 74
     0
 42
0.0000000001
 43
0.0000000001
 40
0.0
 40
0.0
 40
0.0
 40
0.0
 40
1.0
 40
1.0
 40
1.0
 40
1.0
 10
10.0236
 20
-65.598
 30
0.0
 10
10.0236
 20
-65.598
 30
0.0
 10
10.0236
 20
3.5943
 30
0.0
 10
10.0236
 20
3.5943
 30
0.0
  0
SPLINE
  5
66
330
1F
100
AcDbEntity
  8
Laag 1
370
     9
100
AcDbSpline
210
0.0
220
0.0
230
1.0
 70
    24
 71
     3
 72
     8
 73
     4
 74
     0
 42
0.0000000001
 43
0.0000000001
 40
0.0
 40
0.0
 40
0.0
 40
0.0
 40
1.0
 40
1.0
 40
1.0
 40
1.0
 10
-680.9764
 20
-296.7715
 30
0.0
 10
-680.9764
 20
-296.7715
 30
0.0
 10
-314.9764
 20
-215.598
 30
0.0
 10
-314.9764
 20
-215.598
 30
0.0
  0
SPLINE
  5
67
330
1F
100
AcDbEntity
  8
Laag 1
370
     9
100
AcDbSpline
210
0.0
220
0.0
230
1.0
 70
    24
 71
     3
 72
     8
 73
     4
 74
     0
 42
0.0000000001
 43
0.0000000001
 40
0.0
 40
0.0
 40
0.0
 40
0.0
 40
1.0
 40
1.0
 40
1.0
 40
1.0
 10
-680.9764
 20
-236.7715
 30
0.0
 10
-680.9764
 20
-236.7715
 30
0.0
 10
-680.9764
 20
-296.7715
 30
0.0
 10
-680.9764
 20
-296.7715
 30
0.0
  0
SPLINE
  5
68
330
1F
100
AcDbEntity
  8
Laag 1
370
     9
100
AcDbSpline
210
0.0
220
0.0
230
1.0
 70
    24
 71
     3
 72
     8
 73
     4
 74
     0
 42
0.0000000001
 43
0.0000000001
 40
0.0
 40
0.0
 40
0.0
 40
0.0
 40
1.0
 40
1.0
 40
1.0
 40
1.0
 10
-689.9764
 20
-236.7715
 30
0.0
 10
-689.9764
 20
-236.7715
 30
0.0
 10
-680.9764
 20
-236.7715
 30
0.0
 10
-680.9764
 20
-236.7715
 30
0.0
  0
SPLINE
  5
69
330
1F
100
AcDbEntity
  8
Laag 1
370
     9
100
AcDbSpline
210
0.0
220
0.0
230
1.0
 70
    24
 71
     3
 72
     8
 73
     4
 74
     0
 42
0.0000000001
 43
0.0000000001
 40
0.0
 40
0.0
 40
0.0
 40
0.0
 40
1.0
 40
1.0
 40
1.0
 40
1.0
 10
-689.9764
 20
-161.7715
 30
0.0
 10
-689.9764
 20
-161.7715
 30
0.0
 10
-689.9764
 20
-236.7715
 30
0.0
 10
-689.9764
 20
-236.7715
 30
0.0
  0
SPLINE
  5
6A
330
1F
100
AcDbEntity
  8
Laag 1
370
     9
100
AcDbSpline
210
0.0
220
0.0
230
1.0
 70
    24
 71
     3
 72
     8
 73
     4
 74
     0
 42
0.0000000001
 43
0.0000000001
 40
0.0
 40
0.0
 40
0.0
 40
0.0
 40
1.0
 40
1.0
 40
1.0
 40
1.0
 10
-680.9764
 20
-161.7715
 30
0.0
 10
-680.9764
 20
-161.7715
 30
0.0
 10
-689.9764
 20
-161.7715
 30
0.0
 10
-689.9764
 20
-161.7715
 30
0.0
  0
SPLINE
  5
6B
330
1F
100
AcDbEntity
  8
Laag 1
370
     9
100
AcDbSpline
210
0.0
220
0.0
230
1.0
 70
    27
 71
     3
 72
     8
 73
     4
 74
     0
 42
0.0000000001
 43
0.0000000001
 40
0.0
 40
0.0
 40
0.0
 40
0.0
 40
1.0
 40
1.0
 40
1.0
 40
1.0
 10
-680.9764
 20
-69.4245
 30
0.0
 10
-680.9764
 20
-69.4245
 30
0.0
 10
-680.9764
 20
-69.4245
 30
0.0
 10
-680.9764
 20
-69.4245
 30
0.0
  0
SPLINE
  5
6C
330
1F
100
AcDbEntity
  8
Laag 1
370
     9
100
AcDbSpline
210
0.0
220
0.0
230
1.0
 70
    24
 71
     3
 72
     8
 73
     4
 74
     0
 42
0.0000000001
 43
0.0000000001
 40
0.0
 40
0.0
 40
0.0
 40
0.0
 40
1.0
 40
1.0
 40
1.0
 40
1.0
 10
-680.9764
 20
-69.4245
 30
0.0
 10
-680.9764
 20
-69.4245
 30
0.0
 10
-680.9764
 20
-161.7715
 30
0.0
 10
-680.9764
 20
-161.7715
 30
0.0
  0
SPLINE
  5
6D
330
1F
100
AcDbEntity
  8
Laag 1
370
     9
100
AcDbSpline
210
0.0
220
0.0
230
1.0
 70
    27
 71
     3
 72
     8
 73
     4
 74
     0
 42
0.0000000001
 43
0.0000000001
 40
0.0
 40
0.0
 40
0.0
 40
0.0
 40
1.0
 40
1.0
 40
1.0
 40
1.0
 10
-689.9764
 20
-69.4245
 30
0.0
 10
-689.9764
 20
-69.4245
 30
0.0
 10
-689.9764
 20
-69.4245
 30
0.0
 10
-689.9764
 20
-69.4245
 30
0.0
  0
SPLINE
  5
6E
330
1F
100
AcDbEntity
  8
Laag 1
370
     9
100
AcDbSpline
210
0.0
220
0.0
230
1.0
 70
    24
 71
     3
 72
     8
 73
     4
 74
     0
 42
0.0000000001
 43
0.0000000001
 40
0.0
 40
0.0
 40
0.0
 40
0.0
 40
1.0
 40
1.0
 40
1.0
 40
1.0
 10
-689.9764
 20
-69.4245
 30
0.0
 10
-689.9764
 20
-69.4245
 30
0.0
 10
-680.9764
 20
-69.4245
 30
0.0
 10
-680.9764
 20
-69.4245
 30
0.0
  0
SPLINE
  5
6F
330
1F
100
AcDbEntity
  8
Laag 1
370
     9
100
AcDbSpline
210
0.0
220
0.0
230
1.0
 70
    27
 71
     3
 72
     8
 73
     4
 74
     0
 42
0.0000000001
 43
0.0000000001
 40
0.0
 40
0.0
 40
0.0
 40
0.0
 40
1.0
 40
1.0
 40
1.0
 40
1.0
 10
-689.9764
 20
5.5755
 30
0.0
 10
-689.9764
 20
5.5755
 30
0.0
 10
-689.9764
 20
5.5755
 30
0.0
 10
-689.9764
 20
5.5755
 30
0.0
  0
SPLINE
  5
70
330
1F
100
AcDbEntity
  8
Laag 1
370
     9
100
AcDbSpline
210
0.0
220
0.0
230
1.0
 70
    24
 71
     3
 72
     8
 73
     4
 74
     0
 42
0.0000000001
 43
0.0000000001
 40
0.0
 40
0.0
 40
0.0
 40
0.0
 40
1.0
 40
1.0
 40
1.0
 40
1.0
 10
-689.9764
 20
5.5755
 30
0.0
 10
-689.9764
 20
5.5755
 30
0.0
 10
-689.9764
 20
-69.4245
 30
0.0
 10
-689.9764
 20
-69.4245
 30
0.0
  0
SPLINE
  5
71
330
1F
100
AcDbEntity
  8
Laag 1
370
     9
100
AcDbSpline
210
0.0
220
0.0
230
1.0
 70
    27
 71
     3
 72
     8
 73
     4
 74
     0
 42
0.0000000001
 43
0.0000000001
 40
0.0
 40
0.0
 40
0.0
 40
0.0
 40
1.0
 40
1.0
 40
1.0
 40
1.0
 10
-689.9764
 20
5.5755
 30
0.0
 10
-689.9764
 20
5.5755
 30
0.0
 10
-689.9764
 20
5.5755
 30
0.0
 10
-689.9764
 20
5.5755
 30
0.0
  0
SPLINE
  5
72
330
1F
100
AcDbEntity
  8
Laag 1
370
     9
100
AcDbSpline
210
0.0
220
0.0
230
1.0
 70
    24
 71
     3
 72
     8
 73
     4
 74
     0
 42
0.0000000001
 43
0.0000000001
 40
0.0
 40
0.0
 40
0.0
 40
0.0
 40
1.0
 40
1.0
 40
1.0
 40
1.0
 10
-680.9764
 20
5.5755
 30
0.0
 10
-680.9764
 20
5.5755
 30
0.0
 10
-689.9764
 20
5.5755
 30
0.0
 10
-689.9764
 20
5.5755
 30
0.0
  0
SPLINE
  5
73
330
1F
100
AcDbEntity
  8
Laag 1
370
     9
100
AcDbSpline
210
0.0
220
0.0
230
1.0
 70
    27
 71
     3
 72
     8
 73
     4
 74
     0
 42
0.0000000001
 43
0.0000000001
 40
0.0
 40
0.0
 40
0.0
 40
0.0
 40
1.0
 40
1.0
 40
1.0
 40
1.0
 10
-680.9764
 20
65.5755
 30
0.0
 10
-680.9764
 20
65.5755
 30
0.0
 10
-680.9764
 20
65.5755
 30
0.0
 10
-680.9764
 20
65.5755
 30
0.0
  0
SPLINE
  5
74
330
1F
100
AcDbEntity
  8
Laag 1
370
     9
100
AcDbSpline
210
0.0
220
0.0
230
1.0
 70
    24
 71
     3
 72
     8
 73
     4
 74
     0
 42
0.0000000001
 43
0.0000000001
 40
0.0
 40
0.0
 40
0.0
 40
0.0
 40
1.0
 40
1.0
 40
1.0
 40
1.0
 10
-680.9764
 20
65.5755
 30
0.0
 10
-680.9764
 20
65.5755
 30
0.0
 10
-680.9764
 20
5.5755
 30
0.0
 10
-680.9764
 20
5.5755
 30
0.0
  0
SPLINE
  5
75
330
1F
100
AcDbEntity
  8
Laag 1
370
     9
100
AcDbSpline
210
0.0
220
0.0
230
1.0
 70
    27
 71
     3
 72
     8
 73
     4
 74
     0
 42
0.0000000001
 43
0.0000000001
 40
0.0
 40
0.0
 40
0.0
 40
0.0
 40
1.0
 40
1.0
 40
1.0
 40
1.0
 10
-680.9764
 20
65.5755
 30
0.0
 10
-680.9764
 20
65.5755
 30
0.0
 10
-680.9764
 20
65.5755
 30
0.0
 10
-680.9764
 20
65.5755
 30
0.0
  0
SPLINE
  5
76
330
1F
100
AcDbEntity
  8
Laag 1
370
     9
100
AcDbSpline
210
0.0
220
0.0
230
1.0
 70
    24
 71
     3
 72
     8
 73
     4
 74
     0
 42
0.0000000001
 43
0.0000000001
 40
0.0
 40
0.0
 40
0.0
 40
0.0
 40
1.0
 40
1.0
 40
1.0
 40
1.0
 10
-314.9764
 20
-15.598
 30
0.0
 10
-314.9764
 20
-15.598
 30
0.0
 10
-680.9764
 20
65.5755
 30
0.0
 10
-680.9764
 20
65.5755
 30
0.0
  0
SPLINE
  5
77
330
1F
100
AcDbEntity
  8
Laag 1
370
     9
100
AcDbSpline
210
0.0
220
0.0
230
1.0
 70
    24
 71
     3
 72
     8
 73
     4
 74
     0
 42
0.0000000001
 43
0.0000000001
 40
0.0
 40
0.0
 40
0.0
 40
0.0
 40
1.0
 40
1.0
 40
1.0
 40
1.0
 10
60.0236
 20
65.5755
 30
0.0
 10
60.0236
 20
65.5755
 30
0.0
 10
-314.9764
 20
-15.598
 30
0.0
 10
-314.9764
 20
-15.598
 30
0.0
  0
SPLINE
  5
78
330
1F
100
AcDbEntity
  8
Laag 1
370
     9
100
AcDbSpline
210
0.0
220
0.0
230
1.0
 70
    24
 71
     3
 72
     8
 73
     4
 74
     0
 42
0.0000000001
 43
0.0000000001
 40
0.0
 40
0.0
 40
0.0
 40
0.0
 40
1.0
 40
1.0
 40
1.0
 40
1.0
 10
60.0236
 20
-110.598
 30
0.0
 10
60.0236
 20
-110.598
 30
0.0
 10
60.0236
 20
65.5755
 30
0.0
 10
60.0236
 20
65.5755
 30
0.0
  0
SPLINE
  5
79
330
1F
100
AcDbEntity
  8
Laag 1
370
     9
100
AcDbSpline
210
0.0
220
0.0
230
1.0
 70
    27
 71
     3
 72
     8
 73
     4
 74
     0
 42
0.0000000001
 43
0.0000000001
 40
0.0
 40
0.0
 40
0.0
 40
0.0
 40
1.0
 40
1.0
 40
1.0
 40
1.0
 10
-315.9764
 20
-110.598
 30
0.0
 10
-315.9764
 20
-110.598
 30
0.0
 10
-315.9764
 20
-110.598
 30
0.0
 10
-315.9764
 20
-110.598
 30
0.0
  0
SPLINE
  5
7A
330
1F
100
AcDbEntity
  8
Laag 1
370
     9
100
AcDbSpline
210
0.0
220
0.0
230
1.0
 70
    24
 71
     3
 72
     8
 73
     4
 74
     0
 42
0.0000000001
 43
0.0000000001
 40
0.0
 40
0.0
 40
0.0
 40
0.0
 40
1.0
 40
1.0
 40
1.0
 40
1.0
 10
-315.9764
 20
-110.598
 30
0.0
 10
-315.9764
 20
-110.598
 30
0.0
 10
60.0236
 20
-110.598
 30
0.0
 10
60.0236
 20
-110.598
 30
0.0
  0
SPLINE
  5
7B
330
1F
100
AcDbEntity
  8
Laag 1
370
     9
100
AcDbSpline
210
0.0
220
0.0
230
1.0
 70
    24
 71
     3
 72
     8
 73
     4
 74
     0
 42
0.0000000001
 43
0.0000000001
 40
0.0
 40
0.0
 40
0.0
 40
0.0
 40
1.0
 40
1.0
 40
1.0
 40
1.0
 10
-315.9764
 20
-120.598
 30
0.0
 10
-315.9764
 20
-120.598
 30
0.0
 10
-315.9764
 20
-110.598
 30
0.0
 10
-315.9764
 20
-110.598
 30
0.0
  0
SPLINE
  5
7C
330
1F
100
AcDbEntity
  8
Laag 1
370
     9
100
AcDbSpline
210
0.0
220
0.0
230
1.0
 70
    27
 71
     3
 72
     8
 73
     4
 74
     0
 42
0.0000000001
 43
0.0000000001
 40
0.0
 40
0.0
 40
0.0
 40
0.0
 40
1.0
 40
1.0
 40
1.0
 40
1.0
 10
-315.9764
 20
-120.598
 30
0.0
 10
-315.9764
 20
-120.598
 30
0.0
 10
-315.9764
 20
-120.598
 30
0.0
 10
-315.9764
 20
-120.598
 30
0.0
  0
SPLINE
  5
7D
330
1F
100
AcDbEntity
  8
Laag 1
370
     9
100
AcDbSpline
210
0.0
220
0.0
230
1.0
 70
    24
 71
     3
 72
     8
 73
     4
 74
     0
 42
0.0000000001
 43
0.0000000001
 40
0.0
 40
0.0
 40
0.0
 40
0.0
 40
1.0
 40
1.0
 40
1.0
 40
1.0
 10
60.0236
 20
-120.598
 30
0.0
 10
60.0236
 20
-120.598
 30
0.0
 10
-315.9764
 20
-120.598
 30
0.0
 10
-315.9764
 20
-120.598
 30
0.0
  0
SPLINE
  5
7E
330
1F
100
AcDbEntity
  8
Laag 1
370
     9
100
AcDbSpline
210
0.0
220
0.0
230
1.0
 70
    27
 71
     3
 72
     8
 73
     4
 74
     0
 42
0.0000000001
 43
0.0000000001
 40
0.0
 40
0.0
 40
0.0
 40
0.0
 40
1.0
 40
1.0
 40
1.0
 40
1.0
 10
60.0236
 20
-120.598
 30
0.0
 10
60.0236
 20
-120.598
 30
0.0
 10
60.0236
 20
-120.598
 30
0.0
 10
60.0236
 20
-120.598
 30
0.0
  0
SPLINE
  5
7F
330
1F
100
AcDbEntity
  8
Laag 1
370
     9
100
AcDbSpline
210
0.0
220
0.0
230
1.0
 70
    24
 71
     3
 72
     8
 73
     4
 74
     0
 42
0.0000000001
 43
0.0000000001
 40
0.0
 40
0.0
 40
0.0
 40
0.0
 40
1.0
 40
1.0
 40
1.0
 40
1.0
 10
60.0236
 20
-296.7715
 30
0.0
 10
60.0236
 20
-296.7715
 30
0.0
 10
60.0236
 20
-120.598
 30
0.0
 10
60.0236
 20
-120.598
 30
0.0
  0
SPLINE
  5
80
330
1F
100
AcDbEntity
  8
Laag 1
370
     9
100
AcDbSpline
210
0.0
220
0.0
230
1.0
 70
    24
 71
     3
 72
     8
 73
     4
 74
     0
 42
0.0000000001
 43
0.0000000001
 40
0.0
 40
0.0
 40
0.0
 40
0.0
 40
1.0
 40
1.0
 40
1.0
 40
1.0
 10
-314.9764
 20
-215.598
 30
0.0
 10
-314.9764
 20
-215.598
 30
0.0
 10
60.0236
 20
-296.7715
 30
0.0
 10
60.0236
 20
-296.7715
 30
0.0
  0
SPLINE
  5
81
330
1F
100
AcDbEntity
  8
Laag 1
370
     9
100
AcDbSpline
210
0.0
220
0.0
230
1.0
 70
    27
 71
     3
 72
     8
 73
     4
 74
     0
 42
0.0000000001
 43
0.0000000001
 40
0.0
 40
0.0
 40
0.0
 40
0.0
 40
1.0
 40
1.0
 40
1.0
 40
1.0
 10
-630.9764
 20
3.2712
 30
0.0
 10
-630.9764
 20
3.2712
 30
0.0
 10
-630.9764
 20
3.2712
 30
0.0
 10
-630.9764
 20
3.2712
 30
0.0
  0
SPLINE
  5
82
330
1F
100
AcDbEntity
  8
Laag 1
370
     9
100
AcDbSpline
210
0.0
220
0.0
230
1.0
 70
    24
 71
     3
 72
     8
 73
     4
 74
     0
 42
0.0000000001
 43
0.0000000001
 40
0.0
 40
0.0
 40
0.0
 40
0.0
 40
1.0
 40
1.0
 40
1.0
 40
1.0
 10
-431.8393
 20
-40.8945
 30
0.0
 10
-431.8393
 20
-40.8945
 30
0.0
 10
-630.9764
 20
3.2712
 30
0.0
 10
-630.9764
 20
3.2712
 30
0.0
  0
SPLINE
  5
83
330
1F
100
AcDbEntity
  8
Laag 1
370
     9
100
AcDbSpline
210
0.0
220
0.0
230
1.0
 70
    27
 71
     3
 72
     8
 73
     4
 74
     0
 42
0.0000000001
 43
0.0000000001
 40
0.0
 40
0.0
 40
0.0
 40
0.0
 40
1.0
 40
1.0
 40
1.0
 40
1.0
 10
-630.9764
 20
3.2712
 30
0.0
 10
-630.9764
 20
3.2712
 30
0.0
 10
-630.9764
 20
3.2712
 30
0.0
 10
-630.9764
 20
3.2712
 30
0.0
  0
SPLINE
  5
84
330
1F
100
AcDbEntity
  8
Laag 1
370
     9
100
AcDbSpline
210
0.0
220
0.0
230
1.0
 70
    24
 71
     3
 72
     8
 73
     4
 74
     0
 42
0.0000000001
 43
0.0000000001
 40
0.0
 40
0.0
 40
0.0
 40
0.0
 40
1.0
 40
1.0
 40
1.0
 40
1.0
 10
-630.9764
 20
3.2712
 30
0.0
 10
-630.9764
 20
3.2712
 30
0.0
 10
-630.9764
 20
-65.598
 30
0.0
 10
-630.9764
 20
-65.598
 30
0.0
  0
SPLINE
  5
85
330
1F
100
AcDbEntity
  8
Laag 1
370
     9
100
AcDbSpline
210
0.0
220
0.0
230
1.0
 70
    27
 71
     3
 72
     8
 73
     4
 74
     0
 42
0.0000000001
 43
0.0000000001
 40
0.0
 40
0.0
 40
0.0
 40
0.0
 40
1.0
 40
1.0
 40
1.0
 40
1.0
 10
-630.9764
 20
-65.598
 30
0.0
 10
-630.9764
 20
-65.598
 30
0.0
 10
-630.9764
 20
-65.598
 30
0.0
 10
-630.9764
 20
-65.598
 30
0.0
  0
SPLINE
  5
86
330
1F
100
AcDbEntity
  8
Laag 1
370
     9
100
AcDbSpline
210
0.0
220
0.0
230
1.0
 70
    24
 71
     3
 72
     8
 73
     4
 74
     0
 42
0.0000000001
 43
0.0000000001
 40
0.0
 40
0.0
 40
0.0
 40
0.0
 40
1.0
 40
1.0
 40
1.0
 40
1.0
 10
-630.9764
 20
-65.598
 30
0.0
 10
-630.9764
 20
-65.598
 30
0.0
 10
-545.9631
 20
-65.598
 30
0.0
 10
-545.9631
 20
-65.598
 30
0.0
  0
SPLINE
  5
87
330
1F
100
AcDbEntity
  8
Laag 1
370
     9
100
AcDbSpline
210
0.0
220
0.0
230
1.0
 70
    24
 71
     3
 72
     8
 73
     4
 74
     0
 42
0.0000000001
 43
0.0000000001
 40
0.0
 40
0.0
 40
0.0
 40
0.0
 40
1.0
 40
1.0
 40
1.0
 40
1.0
 10
-545.9631
 20
-65.598
 30
0.0
 10
-545.9631
 20
-65.598
 30
0.0
 10
-431.8393
 20
-40.8945
 30
0.0
 10
-431.8393
 20
-40.8945
 30
0.0
  0
SPLINE
  5
88
330
1F
100
AcDbEntity
  8
Laag 1
370
     9
100
AcDbSpline
210
0.0
220
0.0
230
1.0
 70
    24
 71
     3
 72
     8
 73
     4
 74
     0
 42
0.0000000001
 43
0.0000000001
 40
0.0
 40
0.0
 40
0.0
 40
0.0
 40
1.0
 40
1.0
 40
1.0
 40
1.0
 10
-545.9631
 20
-165.598
 30
0.0
 10
-545.9631
 20
-165.598
 30
0.0
 10
-630.9764
 20
-165.598
 30
0.0
 10
-630.9764
 20
-165.598
 30
0.0
  0
SPLINE
  5
89
330
1F
100
AcDbEntity
  8
Laag 1
370
     9
100
AcDbSpline
210
0.0
220
0.0
230
1.0
 70
    24
 71
     3
 72
     8
 73
     4
 74
     0
 42
0.0000000001
 43
0.0000000001
 40
0.0
 40
0.0
 40
0.0
 40
0.0
 40
1.0
 40
1.0
 40
1.0
 40
1.0
 10
-630.9764
 20
-165.598
 30
0.0
 10
-630.9764
 20
-165.598
 30
0.0
 10
-630.9764
 20
-234.4672
 30
0.0
 10
-630.9764
 20
-234.4672
 30
0.0
  0
SPLINE
  5
8A
330
1F
100
AcDbEntity
  8
Laag 1
370
     9
100
AcDbSpline
210
0.0
220
0.0
230
1.0
 70
    24
 71
     3
 72
     8
 73
     4
 74
     0
 42
0.0000000001
 43
0.0000000001
 40
0.0
 40
0.0
 40
0.0
 40
0.0
 40
1.0
 40
1.0
 40
1.0
 40
1.0
 10
-630.9764
 20
-234.4672
 30
0.0
 10
-630.9764
 20
-234.4672
 30
0.0
 10
-431.8393
 20
-190.3015
 30
0.0
 10
-431.8393
 20
-190.3015
 30
0.0
  0
SPLINE
  5
8B
330
1F
100
AcDbEntity
  8
Laag 1
370
     9
100
AcDbSpline
210
0.0
220
0.0
230
1.0
 70
    24
 71
     3
 72
     8
 73
     4
 74
     0
 42
0.0000000001
 43
0.0000000001
 40
0.0
 40
0.0
 40
0.0
 40
0.0
 40
1.0
 40
1.0
 40
1.0
 40
1.0
 10
-431.8393
 20
-190.3015
 30
0.0
 10
-431.8393
 20
-190.3015
 30
0.0
 10
-545.9631
 20
-165.598
 30
0.0
 10
-545.9631
 20
-165.598
 30
0.0
  0
SPLINE
  5
8C
330
1F
100
AcDbEntity
  8
Laag 1
370
     9
100
AcDbSpline
210
0.0
220
0.0
230
1.0
 70
    27
 71
     3
 72
     8
 73
     4
 74
     0
 42
0.0000000001
 43
0.0000000001
 40
0.0
 40
0.0
 40
0.0
 40
0.0
 40
1.0
 40
1.0
 40
1.0
 40
1.0
 10
-310.1341
 20
219.8349
 30
0.0
 10
-310.1341
 20
219.8349
 30
0.0
 10
-310.1341
 20
219.8349
 30
0.0
 10
-310.1341
 20
219.8349
 30
0.0
  0
SPLINE
  5
8D
330
1F
100
AcDbEntity
  8
Laag 1
370
     9
100
AcDbSpline
210
0.0
220
0.0
230
1.0
 70
    24
 71
     3
 72
     8
 73
     4
 74
     0
 42
0.0000000001
 43
0.0000000001
 40
0.0
 40
0.0
 40
0.0
 40
0.0
 40
1.0
 40
1.0
 40
1.0
 40
1.0
 10
-310.1341
 20
219.8349
 30
0.0
 10
-310.1341
 20
219.8349
 30
0.0
 10
9.6349
 20
150.6385
 30
0.0
 10
9.6349
 20
150.6385
 30
0.0
  0
SPLINE
  5
8E
330
1F
100
AcDbEntity
  8
Laag 1
370
     9
100
AcDbSpline
210
0.0
220
0.0
230
1.0
 70
    27
 71
     3
 72
     8
 73
     4
 74
     0
 42
0.0000000001
 43
0.0000000001
 40
0.0
 40
0.0
 40
0.0
 40
0.0
 40
1.0
 40
1.0
 40
1.0
 40
1.0
 10
9.6349
 20
219.8349
 30
0.0
 10
9.6349
 20
219.8349
 30
0.0
 10
9.6349
 20
219.8349
 30
0.0
 10
9.6349
 20
219.8349
 30
0.0
  0
SPLINE
  5
8F
330
1F
100
AcDbEntity
  8
Laag 1
370
     9
100
AcDbSpline
210
0.0
220
0.0
230
1.0
 70
    24
 71
     3
 72
     8
 73
     4
 74
     0
 42
0.0000000001
 43
0.0000000001
 40
0.0
 40
0.0
 40
0.0
 40
0.0
 40
1.0
 40
1.0
 40
1.0
 40
1.0
 10
9.6349
 20
150.6385
 30
0.0
 10
9.6349
 20
150.6385
 30
0.0
 10
9.6349
 20
219.8349
 30
0.0
 10
9.6349
 20
219.8349
 30
0.0
  0
SPLINE
  5
90
330
1F
100
AcDbEntity
  8
Laag 1
370
     9
100
AcDbSpline
210
0.0
220
0.0
230
1.0
 70
    27
 71
     3
 72
     8
 73
     4
 74
     0
 42
0.0000000001
 43
0.0000000001
 40
0.0
 40
0.0
 40
0.0
 40
0.0
 40
1.0
 40
1.0
 40
1.0
 40
1.0
 10
-310.1341
 20
219.8349
 30
0.0
 10
-310.1341
 20
219.8349
 30
0.0
 10
-310.1341
 20
219.8349
 30
0.0
 10
-310.1341
 20
219.8349
 30
0.0
  0
SPLINE
  5
91
330
1F
100
AcDbEntity
  8
Laag 1
370
     9
100
AcDbSpline
210
0.0
220
0.0
230
1.0
 70
    24
 71
     3
 72
     8
 73
     4
 74
     0
 42
0.0000000001
 43
0.0000000001
 40
0.0
 40
0.0
 40
0.0
 40
0.0
 40
1.0
 40
1.0
 40
1.0
 40
1.0
 10
9.6349
 20
219.8349
 30
0.0
 10
9.6349
 20
219.8349
 30
0.0
 10
-310.1341
 20
219.8349
 30
0.0
 10
-310.1341
 20
219.8349
 30
0.0
  0
SPLINE
  5
92
330
1F
100
AcDbEntity
  8
Laag 1
370
     9
100
AcDbSpline
210
0.0
220
0.0
230
1.0
 70
    24
 71
     3
 72
     8
 73
     4
 74
     0
 42
0.0000000001
 43
0.0000000001
 40
0.0
 40
0.0
 40
0.0
 40
0.0
 40
1.0
 40
1.0
 40
1.0
 40
1.0
 10
9.6349
 20
389.0228
 30
0.0
 10
9.6349
 20
389.0228
 30
0.0
 10
-309.886
 20
319.8349
 30
0.0
 10
-309.886
 20
319.8349
 30
0.0
  0
SPLINE
  5
93
330
1F
100
AcDbEntity
  8
Laag 1
370
     9
100
AcDbSpline
210
0.0
220
0.0
230
1.0
 70
    24
 71
     3
 72
     8
 73
     4
 74
     0
 42
0.0000000001
 43
0.0000000001
 40
0.0
 40
0.0
 40
0.0
 40
0.0
 40
1.0
 40
1.0
 40
1.0
 40
1.0
 10
-309.886
 20
319.8349
 30
0.0
 10
-309.886
 20
319.8349
 30
0.0
 10
9.6349
 20
319.8349
 30
0.0
 10
9.6349
 20
319.8349
 30
0.0
  0
SPLINE
  5
94
330
1F
100
AcDbEntity
  8
Laag 1
370
     9
100
AcDbSpline
210
0.0
220
0.0
230
1.0
 70
    24
 71
     3
 72
     8
 73
     4
 74
     0
 42
0.0000000001
 43
0.0000000001
 40
0.0
 40
0.0
 40
0.0
 40
0.0
 40
1.0
 40
1.0
 40
1.0
 40
1.0
 10
9.6349
 20
319.8349
 30
0.0
 10
9.6349
 20
319.8349
 30
0.0
 10
9.6349
 20
389.0228
 30
0.0
 10
9.6349
 20
389.0228
 30
0.0
  0
SPLINE
  5
95
330
1F
100
AcDbEntity
  8
Laag 1
370
     9
100
AcDbSpline
210
0.0
220
0.0
230
1.0
 70
    24
 71
     3
 72
     8
 73
     4
 74
     0
 42
0.0000000001
 43
0.0000000001
 40
0.0
 40
0.0
 40
0.0
 40
0.0
 40
1.0
 40
1.0
 40
1.0
 40
1.0
 10
-681.3651
 20
88.6614
 30
0.0
 10
-681.3651
 20
88.6614
 30
0.0
 10
-315.3651
 20
169.8097
 30
0.0
 10
-315.3651
 20
169.8097
 30
0.0
  0
SPLINE
  5
96
330
1F
100
AcDbEntity
  8
Laag 1
370
     9
100
AcDbSpline
210
0.0
220
0.0
230
1.0
 70
    24
 71
     3
 72
     8
 73
     4
 74
     0
 42
0.0000000001
 43
0.0000000001
 40
0.0
 40
0.0
 40
0.0
 40
0.0
 40
1.0
 40
1.0
 40
1.0
 40
1.0
 10
-681.3651
 20
148.6614
 30
0.0
 10
-681.3651
 20
148.6614
 30
0.0
 10
-681.3651
 20
88.6614
 30
0.0
 10
-681.3651
 20
88.6614
 30
0.0
  0
SPLINE
  5
97
330
1F
100
AcDbEntity
  8
Laag 1
370
     9
100
AcDbSpline
210
0.0
220
0.0
230
1.0
 70
    24
 71
     3
 72
     8
 73
     4
 74
     0
 42
0.0000000001
 43
0.0000000001
 40
0.0
 40
0.0
 40
0.0
 40
0.0
 40
1.0
 40
1.0
 40
1.0
 40
1.0
 10
-690.3651
 20
148.6614
 30
0.0
 10
-690.3651
 20
148.6614
 30
0.0
 10
-681.3651
 20
148.6614
 30
0.0
 10
-681.3651
 20
148.6614
 30
0.0
  0
SPLINE
  5
98
330
1F
100
AcDbEntity
  8
Laag 1
370
     9
100
AcDbSpline
210
0.0
220
0.0
230
1.0
 70
    24
 71
     3
 72
     8
 73
     4
 74
     0
 42
0.0000000001
 43
0.0000000001
 40
0.0
 40
0.0
 40
0.0
 40
0.0
 40
1.0
 40
1.0
 40
1.0
 40
1.0
 10
-690.3651
 20
223.6614
 30
0.0
 10
-690.3651
 20
223.6614
 30
0.0
 10
-690.3651
 20
148.6614
 30
0.0
 10
-690.3651
 20
148.6614
 30
0.0
  0
SPLINE
  5
99
330
1F
100
AcDbEntity
  8
Laag 1
370
     9
100
AcDbSpline
210
0.0
220
0.0
230
1.0
 70
    24
 71
     3
 72
     8
 73
     4
 74
     0
 42
0.0000000001
 43
0.0000000001
 40
0.0
 40
0.0
 40
0.0
 40
0.0
 40
1.0
 40
1.0
 40
1.0
 40
1.0
 10
-681.3651
 20
223.6614
 30
0.0
 10
-681.3651
 20
223.6614
 30
0.0
 10
-690.3651
 20
223.6614
 30
0.0
 10
-690.3651
 20
223.6614
 30
0.0
  0
SPLINE
  5
9A
330
1F
100
AcDbEntity
  8
Laag 1
370
     9
100
AcDbSpline
210
0.0
220
0.0
230
1.0
 70
    24
 71
     3
 72
     8
 73
     4
 74
     0
 42
0.0000000001
 43
0.0000000001
 40
0.0
 40
0.0
 40
0.0
 40
0.0
 40
1.0
 40
1.0
 40
1.0
 40
1.0
 10
-681.3651
 20
264.8349
 30
0.0
 10
-681.3651
 20
264.8349
 30
0.0
 10
-681.3651
 20
223.6614
 30
0.0
 10
-681.3651
 20
223.6614
 30
0.0
  0
SPLINE
  5
9B
330
1F
100
AcDbEntity
  8
Laag 1
370
     9
100
AcDbSpline
210
0.0
220
0.0
230
1.0
 70
    27
 71
     3
 72
     8
 73
     4
 74
     0
 42
0.0000000001
 43
0.0000000001
 40
0.0
 40
0.0
 40
0.0
 40
0.0
 40
1.0
 40
1.0
 40
1.0
 40
1.0
 10
-681.3651
 20
264.8349
 30
0.0
 10
-681.3651
 20
264.8349
 30
0.0
 10
-681.3651
 20
264.8349
 30
0.0
 10
-681.3651
 20
264.8349
 30
0.0
  0
SPLINE
  5
9C
330
1F
100
AcDbEntity
  8
Laag 1
370
     9
100
AcDbSpline
210
0.0
220
0.0
230
1.0
 70
    24
 71
     3
 72
     8
 73
     4
 74
     0
 42
0.0000000001
 43
0.0000000001
 40
0.0
 40
0.0
 40
0.0
 40
0.0
 40
1.0
 40
1.0
 40
1.0
 40
1.0
 10
-314.3651
 20
264.8349
 30
0.0
 10
-314.3651
 20
264.8349
 30
0.0
 10
-681.3651
 20
264.8349
 30
0.0
 10
-681.3651
 20
264.8349
 30
0.0
  0
SPLINE
  5
9D
330
1F
100
AcDbEntity
  8
Laag 1
370
     9
100
AcDbSpline
210
0.0
220
0.0
230
1.0
 70
    24
 71
     3
 72
     8
 73
     4
 74
     0
 42
0.0000000001
 43
0.0000000001
 40
0.0
 40
0.0
 40
0.0
 40
0.0
 40
1.0
 40
1.0
 40
1.0
 40
1.0
 10
-314.3651
 20
274.8349
 30
0.0
 10
-314.3651
 20
274.8349
 30
0.0
 10
-314.3651
 20
264.8349
 30
0.0
 10
-314.3651
 20
264.8349
 30
0.0
  0
SPLINE
  5
9E
330
1F
100
AcDbEntity
  8
Laag 1
370
     9
100
AcDbSpline
210
0.0
220
0.0
230
1.0
 70
    27
 71
     3
 72
     8
 73
     4
 74
     0
 42
0.0000000001
 43
0.0000000001
 40
0.0
 40
0.0
 40
0.0
 40
0.0
 40
1.0
 40
1.0
 40
1.0
 40
1.0
 10
-681.3651
 20
274.8349
 30
0.0
 10
-681.3651
 20
274.8349
 30
0.0
 10
-681.3651
 20
274.8349
 30
0.0
 10
-681.3651
 20
274.8349
 30
0.0
  0
SPLINE
  5
9F
330
1F
100
AcDbEntity
  8
Laag 1
370
     9
100
AcDbSpline
210
0.0
220
0.0
230
1.0
 70
    24
 71
     3
 72
     8
 73
     4
 74
     0
 42
0.0000000001
 43
0.0000000001
 40
0.0
 40
0.0
 40
0.0
 40
0.0
 40
1.0
 40
1.0
 40
1.0
 40
1.0
 10
-681.3651
 20
274.8349
 30
0.0
 10
-681.3651
 20
274.8349
 30
0.0
 10
-314.3651
 20
274.8349
 30
0.0
 10
-314.3651
 20
274.8349
 30
0.0
  0
SPLINE
  5
A0
330
1F
100
AcDbEntity
  8
Laag 1
370
     9
100
AcDbSpline
210
0.0
220
0.0
230
1.0
 70
    27
 71
     3
 72
     8
 73
     4
 74
     0
 42
0.0000000001
 43
0.0000000001
 40
0.0
 40
0.0
 40
0.0
 40
0.0
 40
1.0
 40
1.0
 40
1.0
 40
1.0
 10
-681.3651
 20
316.0084
 30
0.0
 10
-681.3651
 20
316.0084
 30
0.0
 10
-681.3651
 20
316.0084
 30
0.0
 10
-681.3651
 20
316.0084
 30
0.0
  0
SPLINE
  5
A1
330
1F
100
AcDbEntity
  8
Laag 1
370
     9
100
AcDbSpline
210
0.0
220
0.0
230
1.0
 70
    24
 71
     3
 72
     8
 73
     4
 74
     0
 42
0.0000000001
 43
0.0000000001
 40
0.0
 40
0.0
 40
0.0
 40
0.0
 40
1.0
 40
1.0
 40
1.0
 40
1.0
 10
-681.3651
 20
316.0084
 30
0.0
 10
-681.3651
 20
316.0084
 30
0.0
 10
-681.3651
 20
274.8349
 30
0.0
 10
-681.3651
 20
274.8349
 30
0.0
  0
SPLINE
  5
A2
330
1F
100
AcDbEntity
  8
Laag 1
370
     9
100
AcDbSpline
210
0.0
220
0.0
230
1.0
 70
    27
 71
     3
 72
     8
 73
     4
 74
     0
 42
0.0000000001
 43
0.0000000001
 40
0.0
 40
0.0
 40
0.0
 40
0.0
 40
1.0
 40
1.0
 40
1.0
 40
1.0
 10
-690.3651
 20
316.0084
 30
0.0
 10
-690.3651
 20
316.0084
 30
0.0
 10
-690.3651
 20
316.0084
 30
0.0
 10
-690.3651
 20
316.0084
 30
0.0
  0
SPLINE
  5
A3
330
1F
100
AcDbEntity
  8
Laag 1
370
     9
100
AcDbSpline
210
0.0
220
0.0
230
1.0
 70
    24
 71
     3
 72
     8
 73
     4
 74
     0
 42
0.0000000001
 43
0.0000000001
 40
0.0
 40
0.0
 40
0.0
 40
0.0
 40
1.0
 40
1.0
 40
1.0
 40
1.0
 10
-690.3651
 20
316.0084
 30
0.0
 10
-690.3651
 20
316.0084
 30
0.0
 10
-681.3651
 20
316.0084
 30
0.0
 10
-681.3651
 20
316.0084
 30
0.0
  0
SPLINE
  5
A4
330
1F
100
AcDbEntity
  8
Laag 1
370
     9
100
AcDbSpline
210
0.0
220
0.0
230
1.0
 70
    27
 71
     3
 72
     8
 73
     4
 74
     0
 42
0.0000000001
 43
0.0000000001
 40
0.0
 40
0.0
 40
0.0
 40
0.0
 40
1.0
 40
1.0
 40
1.0
 40
1.0
 10
-690.3651
 20
390.9084
 30
0.0
 10
-690.3651
 20
390.9084
 30
0.0
 10
-690.3651
 20
390.9084
 30
0.0
 10
-690.3651
 20
390.9084
 30
0.0
  0
SPLINE
  5
A5
330
1F
100
AcDbEntity
  8
Laag 1
370
     9
100
AcDbSpline
210
0.0
220
0.0
230
1.0
 70
    24
 71
     3
 72
     8
 73
     4
 74
     0
 42
0.0000000001
 43
0.0000000001
 40
0.0
 40
0.0
 40
0.0
 40
0.0
 40
1.0
 40
1.0
 40
1.0
 40
1.0
 10
-690.3651
 20
390.9084
 30
0.0
 10
-690.3651
 20
390.9084
 30
0.0
 10
-690.3651
 20
316.0084
 30
0.0
 10
-690.3651
 20
316.0084
 30
0.0
  0
SPLINE
  5
A6
330
1F
100
AcDbEntity
  8
Laag 1
370
     9
100
AcDbSpline
210
0.0
220
0.0
230
1.0
 70
    27
 71
     3
 72
     8
 73
     4
 74
     0
 42
0.0000000001
 43
0.0000000001
 40
0.0
 40
0.0
 40
0.0
 40
0.0
 40
1.0
 40
1.0
 40
1.0
 40
1.0
 10
-690.3651
 20
390.9084
 30
0.0
 10
-690.3651
 20
390.9084
 30
0.0
 10
-690.3651
 20
390.9084
 30
0.0
 10
-690.3651
 20
390.9084
 30
0.0
  0
SPLINE
  5
A7
330
1F
100
AcDbEntity
  8
Laag 1
370
     9
100
AcDbSpline
210
0.0
220
0.0
230
1.0
 70
    24
 71
     3
 72
     8
 73
     4
 74
     0
 42
0.0000000001
 43
0.0000000001
 40
0.0
 40
0.0
 40
0.0
 40
0.0
 40
1.0
 40
1.0
 40
1.0
 40
1.0
 10
-681.3651
 20
390.9084
 30
0.0
 10
-681.3651
 20
390.9084
 30
0.0
 10
-690.3651
 20
390.9084
 30
0.0
 10
-690.3651
 20
390.9084
 30
0.0
  0
SPLINE
  5
A8
330
1F
100
AcDbEntity
  8
Laag 1
370
     9
100
AcDbSpline
210
0.0
220
0.0
230
1.0
 70
    27
 71
     3
 72
     8
 73
     4
 74
     0
 42
0.0000000001
 43
0.0000000001
 40
0.0
 40
0.0
 40
0.0
 40
0.0
 40
1.0
 40
1.0
 40
1.0
 40
1.0
 10
-681.3651
 20
450.9084
 30
0.0
 10
-681.3651
 20
450.9084
 30
0.0
 10
-681.3651
 20
450.9084
 30
0.0
 10
-681.3651
 20
450.9084
 30
0.0
  0
SPLINE
  5
A9
330
1F
100
AcDbEntity
  8
Laag 1
370
     9
100
AcDbSpline
210
0.0
220
0.0
230
1.0
 70
    24
 71
     3
 72
     8
 73
     4
 74
     0
 42
0.0000000001
 43
0.0000000001
 40
0.0
 40
0.0
 40
0.0
 40
0.0
 40
1.0
 40
1.0
 40
1.0
 40
1.0
 10
-681.3651
 20
450.9084
 30
0.0
 10
-681.3651
 20
450.9084
 30
0.0
 10
-681.3651
 20
390.9084
 30
0.0
 10
-681.3651
 20
390.9084
 30
0.0
  0
SPLINE
  5
AA
330
1F
100
AcDbEntity
  8
Laag 1
370
     9
100
AcDbSpline
210
0.0
220
0.0
230
1.0
 70
    24
 71
     3
 72
     8
 73
     4
 74
     0
 42
0.0000000001
 43
0.0000000001
 40
0.0
 40
0.0
 40
0.0
 40
0.0
 40
1.0
 40
1.0
 40
1.0
 40
1.0
 10
-315.3542
 20
369.8096
 30
0.0
 10
-315.3542
 20
369.8096
 30
0.0
 10
-681.3651
 20
450.9084
 30
0.0
 10
-681.3651
 20
450.9084
 30
0.0
  0
SPLINE
  5
AB
330
1F
100
AcDbEntity
  8
Laag 1
370
     9
100
AcDbSpline
210
0.0
220
0.0
230
1.0
 70
    24
 71
     3
 72
     8
 73
     4
 74
     0
 42
0.0000000001
 43
0.0000000001
 40
0.0
 40
0.0
 40
0.0
 40
0.0
 40
1.0
 40
1.0
 40
1.0
 40
1.0
 10
59.6349
 20
451.0084
 30
0.0
 10
59.6349
 20
451.0084
 30
0.0
 10
-315.3542
 20
369.8096
 30
0.0
 10
-315.3542
 20
369.8096
 30
0.0
  0
SPLINE
  5
AC
330
1F
100
AcDbEntity
  8
Laag 1
370
     9
100
AcDbSpline
210
0.0
220
0.0
230
1.0
 70
    27
 71
     3
 72
     8
 73
     4
 74
     0
 42
0.0000000001
 43
0.0000000001
 40
0.0
 40
0.0
 40
0.0
 40
0.0
 40
1.0
 40
1.0
 40
1.0
 40
1.0
 10
59.6349
 20
451.0084
 30
0.0
 10
59.6349
 20
451.0084
 30
0.0
 10
59.6349
 20
451.0084
 30
0.0
 10
59.6349
 20
451.0084
 30
0.0
  0
SPLINE
  5
AD
330
1F
100
AcDbEntity
  8
Laag 1
370
     9
100
AcDbSpline
210
0.0
220
0.0
230
1.0
 70
    24
 71
     3
 72
     8
 73
     4
 74
     0
 42
0.0000000001
 43
0.0000000001
 40
0.0
 40
0.0
 40
0.0
 40
0.0
 40
1.0
 40
1.0
 40
1.0
 40
1.0
 10
59.6349
 20
88.6614
 30
0.0
 10
59.6349
 20
88.6614
 30
0.0
 10
59.6349
 20
451.0084
 30
0.0
 10
59.6349
 20
451.0084
 30
0.0
  0
SPLINE
  5
AE
330
1F
100
AcDbEntity
  8
Laag 1
370
     9
100
AcDbSpline
210
0.0
220
0.0
230
1.0
 70
    24
 71
     3
 72
     8
 73
     4
 74
     0
 42
0.0000000001
 43
0.0000000001
 40
0.0
 40
0.0
 40
0.0
 40
0.0
 40
1.0
 40
1.0
 40
1.0
 40
1.0
 10
-315.3651
 20
169.8097
 30
0.0
 10
-315.3651
 20
169.8097
 30
0.0
 10
59.6349
 20
88.6614
 30
0.0
 10
59.6349
 20
88.6614
 30
0.0
  0
SPLINE
  5
AF
330
1F
100
AcDbEntity
  8
Laag 1
370
     9
100
AcDbSpline
210
0.0
220
0.0
230
1.0
 70
    27
 71
     3
 72
     8
 73
     4
 74
     0
 42
0.0000000001
 43
0.0000000001
 40
0.0
 40
0.0
 40
0.0
 40
0.0
 40
1.0
 40
1.0
 40
1.0
 40
1.0
 10
-631.3651
 20
388.6169
 30
0.0
 10
-631.3651
 20
388.6169
 30
0.0
 10
-631.3651
 20
388.6169
 30
0.0
 10
-631.3651
 20
388.6169
 30
0.0
  0
SPLINE
  5
B0
330
1F
100
AcDbEntity
  8
Laag 1
370
     9
100
AcDbSpline
210
0.0
220
0.0
230
1.0
 70
    24
 71
     3
 72
     8
 73
     4
 74
     0
 42
0.0000000001
 43
0.0000000001
 40
0.0
 40
0.0
 40
0.0
 40
0.0
 40
1.0
 40
1.0
 40
1.0
 40
1.0
 10
-432.2483
 20
344.4977
 30
0.0
 10
-432.2483
 20
344.4977
 30
0.0
 10
-631.3651
 20
388.6169
 30
0.0
 10
-631.3651
 20
388.6169
 30
0.0
  0
SPLINE
  5
B1
330
1F
100
AcDbEntity
  8
Laag 1
370
     9
100
AcDbSpline
210
0.0
220
0.0
230
1.0
 70
    27
 71
     3
 72
     8
 73
     4
 74
     0
 42
0.0000000001
 43
0.0000000001
 40
0.0
 40
0.0
 40
0.0
 40
0.0
 40
1.0
 40
1.0
 40
1.0
 40
1.0
 10
-631.3651
 20
388.6169
 30
0.0
 10
-631.3651
 20
388.6169
 30
0.0
 10
-631.3651
 20
388.6169
 30
0.0
 10
-631.3651
 20
388.6169
 30
0.0
  0
SPLINE
  5
B2
330
1F
100
AcDbEntity
  8
Laag 1
370
     9
100
AcDbSpline
210
0.0
220
0.0
230
1.0
 70
    24
 71
     3
 72
     8
 73
     4
 74
     0
 42
0.0000000001
 43
0.0000000001
 40
0.0
 40
0.0
 40
0.0
 40
0.0
 40
1.0
 40
1.0
 40
1.0
 40
1.0
 10
-631.3651
 20
388.6169
 30
0.0
 10
-631.3651
 20
388.6169
 30
0.0
 10
-631.3651
 20
319.8349
 30
0.0
 10
-631.3651
 20
319.8349
 30
0.0
  0
SPLINE
  5
B3
330
1F
100
AcDbEntity
  8
Laag 1
370
     9
100
AcDbSpline
210
0.0
220
0.0
230
1.0
 70
    27
 71
     3
 72
     8
 73
     4
 74
     0
 42
0.0000000001
 43
0.0000000001
 40
0.0
 40
0.0
 40
0.0
 40
0.0
 40
1.0
 40
1.0
 40
1.0
 40
1.0
 10
-631.3651
 20
319.8349
 30
0.0
 10
-631.3651
 20
319.8349
 30
0.0
 10
-631.3651
 20
319.8349
 30
0.0
 10
-631.3651
 20
319.8349
 30
0.0
  0
SPLINE
  5
B4
330
1F
100
AcDbEntity
  8
Laag 1
370
     9
100
AcDbSpline
210
0.0
220
0.0
230
1.0
 70
    24
 71
     3
 72
     8
 73
     4
 74
     0
 42
0.0000000001
 43
0.0000000001
 40
0.0
 40
0.0
 40
0.0
 40
0.0
 40
1.0
 40
1.0
 40
1.0
 40
1.0
 10
-631.3651
 20
319.8349
 30
0.0
 10
-631.3651
 20
319.8349
 30
0.0
 10
-546.1453
 20
319.8349
 30
0.0
 10
-546.1453
 20
319.8349
 30
0.0
  0
SPLINE
  5
B5
330
1F
100
AcDbEntity
  8
Laag 1
370
     9
100
AcDbSpline
210
0.0
220
0.0
230
1.0
 70
    24
 71
     3
 72
     8
 73
     4
 74
     0
 42
0.0000000001
 43
0.0000000001
 40
0.0
 40
0.0
 40
0.0
 40
0.0
 40
1.0
 40
1.0
 40
1.0
 40
1.0
 10
-546.1453
 20
319.8349
 30
0.0
 10
-546.1453
 20
319.8349
 30
0.0
 10
-432.2483
 20
344.4977
 30
0.0
 10
-432.2483
 20
344.4977
 30
0.0
  0
SPLINE
  5
B6
330
1F
100
AcDbEntity
  8
Laag 1
370
     9
100
AcDbSpline
210
0.0
220
0.0
230
1.0
 70
    24
 71
     3
 72
     8
 73
     4
 74
     0
 42
0.0000000001
 43
0.0000000001
 40
0.0
 40
0.0
 40
0.0
 40
0.0
 40
1.0
 40
1.0
 40
1.0
 40
1.0
 10
-546.5407
 20
219.8349
 30
0.0
 10
-546.5407
 20
219.8349
 30
0.0
 10
-631.3651
 20
219.8349
 30
0.0
 10
-631.3651
 20
219.8349
 30
0.0
  0
SPLINE
  5
B7
330
1F
100
AcDbEntity
  8
Laag 1
370
     9
100
AcDbSpline
210
0.0
220
0.0
230
1.0
 70
    24
 71
     3
 72
     8
 73
     4
 74
     0
 42
0.0000000001
 43
0.0000000001
 40
0.0
 40
0.0
 40
0.0
 40
0.0
 40
1.0
 40
1.0
 40
1.0
 40
1.0
 10
-631.3651
 20
219.8349
 30
0.0
 10
-631.3651
 20
219.8349
 30
0.0
 10
-631.3651
 20
150.9615
 30
0.0
 10
-631.3651
 20
150.9615
 30
0.0
  0
SPLINE
  5
B8
330
1F
100
AcDbEntity
  8
Laag 1
370
     9
100
AcDbSpline
210
0.0
220
0.0
230
1.0
 70
    24
 71
     3
 72
     8
 73
     4
 74
     0
 42
0.0000000001
 43
0.0000000001
 40
0.0
 40
0.0
 40
0.0
 40
0.0
 40
1.0
 40
1.0
 40
1.0
 40
1.0
 10
-631.3651
 20
150.9615
 30
0.0
 10
-631.3651
 20
150.9615
 30
0.0
 10
-432.2627
 20
195.1057
 30
0.0
 10
-432.2627
 20
195.1057
 30
0.0
  0
SPLINE
  5
B9
330
1F
100
AcDbEntity
  8
Laag 1
370
     9
100
AcDbSpline
210
0.0
220
0.0
230
1.0
 70
    24
 71
     3
 72
     8
 73
     4
 74
     0
 42
0.0000000001
 43
0.0000000001
 40
0.0
 40
0.0
 40
0.0
 40
0.0
 40
1.0
 40
1.0
 40
1.0
 40
1.0
 10
-432.2627
 20
195.1057
 30
0.0
 10
-432.2627
 20
195.1057
 30
0.0
 10
-546.5407
 20
219.8349
 30
0.0
 10
-546.5407
 20
219.8349
 30
0.0
  0
LWPOLYLINE
  5
BA
330
1F
100
AcDbEntity
  8
Laag 1
 62
   175
370
    70
100
AcDbPolyline
 90
        5
 70
     1
 43
0.0
 10
-734.8462
 20
-398.623
 10
90.1434
 20
-398.623
 10
90.1434
 20
481.1468
 10
-734.8462
 20
481.1468
 10
-734.8462
 20
-398.623
  0
SPLINE
  5
BB
330
1F
100
AcDbEntity
  8
Laag 1
 62
   175
100
AcDbSpline
210
0.0
220
0.0
230
1.0
 70
    11
 71
     3
 72
    28
 73
    24
 74
     0
 42
0.0000000001
 43
0.0000000001
 40
0.0
 40
0.0
 40
0.0
 40
0.0
 40
0.1428571428571428
 40
0.1428571428571428
 40
0.1428571428571428
 40
0.1428571428571428
 40
0.2857142857142857
 40
0.2857142857142857
 40
0.2857142857142857
 40
0.2857142857142857
 40
0.4285714285714285
 40
0.4285714285714285
 40
0.4285714285714285
 40
0.4285714285714285
 40
0.5714285714285714
 40
0.5714285714285714
 40
0.5714285714285714
 40
0.5714285714285714
 40
0.7142857142857143
 40
0.7142857142857143
 40
0.7142857142857143
 40
0.7142857142857143
 40
1.0
 40
1.0
 40
1.0
 40
1.0
 10
-702.1288
 20
-369.6194
 30
0.0
 10
-702.1288
 20
-369.6194
 30
0.0
 10
-702.1288
 20
-344.5722
 30
0.0
 10
-702.1288
 20
-344.5722
 30
0.0
 10
-702.1288
 20
-344.5722
 30
0.0
 10
-702.1288
 20
-344.5722
 30
0.0
 10
-697.0311
 20
-344.5722
 30
0.0
 10
-697.0311
 20
-344.5722
 30
0.0
 10
-697.0311
 20
-344.5722
 30
0.0
 10
-697.0311
 20
-344.5722
 30
0.0
 10
-697.0311
 20
-365.3626
 30
0.0
 10
-697.0311
 20
-365.3626
 30
0.0
 10
-697.0311
 20
-365.3626
 30
0.0
 10
-697.0311
 20
-365.3626
 30
0.0
 10
-684.3547
 20
-365.3626
 30
0.0
 10
-684.3547
 20
-365.3626
 30
0.0
 10
-684.3547
 20
-365.3626
 30
0.0
 10
-684.3547
 20
-365.3626
 30
0.0
 10
-684.3547
 20
-369.6194
 30
0.0
 10
-684.3547
 20
-369.6194
 30
0.0
 10
-684.3547
 20
-369.6194
 30
0.0
 10
-684.3547
 20
-369.6194
 30
0.0
 10
-702.1288
 20
-369.6194
 30
0.0
 10
-702.1288
 20
-369.6194
 30
0.0
  0
SPLINE
  5
BC
330
1F
100
AcDbEntity
  8
Laag 1
 62
   175
100
AcDbSpline
210
0.0
220
0.0
230
1.0
 70
    11
 71
     3
 72
    60
 73
    56
 74
     0
 42
0.0000000001
 43
0.0000000001
 40
0.0
 40
0.0
 40
0.0
 40
0.0
 40
0.0666666666666667
 40
0.0666666666666667
 40
0.0666666666666667
 40
0.0666666666666667
 40
0.1333333333333333
 40
0.1333333333333333
 40
0.1333333333333333
 40
0.1333333333333333
 40
0.2
 40
0.2
 40
0.2
 40
0.2
 40
0.2666666666666667
 40
0.2666666666666667
 40
0.2666666666666667
 40
0.2666666666666667
 40
0.3333333333333333
 40
0.3333333333333333
 40
0.3333333333333333
 40
0.3333333333333333
 40
0.4
 40
0.4
 40
0.4
 40
0.4
 40
0.4666666666666667
 40
0.4666666666666667
 40
0.4666666666666667
 40
0.4666666666666667
 40
0.5333333333333333
 40
0.5333333333333333
 40
0.5333333333333333
 40
0.5333333333333333
 40
0.6
 40
0.6
 40
0.6
 40
0.6
 40
0.6666666666666666
 40
0.6666666666666666
 40
0.6666666666666666
 40
0.6666666666666666
 40
0.7333333333333333
 40
0.7333333333333333
 40
0.7333333333333333
 40
0.7333333333333333
 40
0.8
 40
0.8
 40
0.8
 40
0.8
 40
0.8666666666666667
 40
0.8666666666666667
 40
0.8666666666666667
 40
0.8666666666666667
 40
1.0
 40
1.0
 40
1.0
 40
1.0
 10
-670.1613
 20
-363.7986
 30
0.0
 10
-670.1613
 20
-363.7986
 30
0.0
 10
-665.3341
 20
-364.6041
 30
0.0
 10
-665.3341
 20
-364.6041
 30
0.0
 10
-665.3341
 20
-364.6041
 30
0.0
 10
-665.9574
 20
-366.3739
 30
0.0
 10
-666.9334
 20
-367.7203
 30
0.0
 10
-668.2739
 20
-368.6434
 30
0.0
 10
-668.2739
 20
-368.6434
 30
0.0
 10
-669.6086
 20
-369.5724
 30
0.0
 10
-671.2843
 20
-370.031
 30
0.0
 10
-673.2951
 20
-370.031
 30
0.0
 10
-673.2951
 20
-370.031
 30
0.0
 10
-676.476
 20
-370.031
 30
0.0
 10
-678.8279
 20
-368.9962
 30
0.0
 10
-680.3566
 20
-366.9148
 30
0.0
 10
-680.3566
 20
-366.9148
 30
0.0
 10
-681.5619
 20
-365.2508
 30
0.0
 10
-682.1675
 20
-363.1459
 30
0.0
 10
-682.1675
 20
-360.6118
 30
0.0
 10
-682.1675
 20
-360.6118
 30
0.0
 10
-682.1675
 20
-357.5779
 30
0.0
 10
-681.3737
 20
-355.2026
 30
0.0
 10
-679.7862
 20
-353.4857
 30
0.0
 10
-679.7862
 20
-353.4857
 30
0.0
 10
-678.2046
 20
-351.7689
 30
0.0
 10
-676.1997
 20
-350.9105
 30
0.0
 10
-673.7773
 20
-350.9105
 30
0.0
 10
-673.7773
 20
-350.9105
 30
0.0
 10
-671.055
 20
-350.9105
 30
0.0
 10
-668.9089
 20
-351.81
 30
0.0
 10
-667.3332
 20
-353.6092
 30
0.0
 10
-667.3332
 20
-353.6092
 30
0.0
 10
-665.7633
 20
-355.4084
 30
0.0
 10
-665.0108
 20
-358.16
 30
0.0
 10
-665.0754
 20
-361.8701
 30
0.0
 10
-665.0754
 20
-361.8701
 30
0.0
 10
-665.0754
 20
-361.8701
 30
0.0
 10
-677.2051
 20
-361.8701
 30
0.0
 10
-677.2051
 20
-361.8701
 30
0.0
 10
-677.2051
 20
-361.8701
 30
0.0
 10
-677.1698
 20
-363.3047
 30
0.0
 10
-676.7817
 20
-364.4218
 30
0.0
 10
-676.035
 20
-365.2156
 30
0.0
 10
-676.035
 20
-365.2156
 30
0.0
 10
-675.2883
 20
-366.0152
 30
0.0
 10
-674.3535
 20
-366.415
 30
0.0
 10
-673.2422
 20
-366.415
 30
0.0
 10
-673.2422
 20
-366.415
 30
0.0
 10
-672.4837
 20
-366.415
 30
0.0
 10
-671.8487
 20
-366.2092
 30
0.0
 10
-671.3313
 20
-365.7976
 30
0.0
 10
-671.3313
 20
-365.7976
 30
0.0
 10
-670.8139
 20
-365.3802
 30
0.0
 10
-670.42
 20
-364.7158
 30
0.0
 10
-670.1613
 20
-363.7986
 30
0.0
  0
SPLINE
  5
BD
330
1F
100
AcDbEntity
  8
Laag 1
 62
   175
100
AcDbSpline
210
0.0
220
0.0
230
1.0
 70
    11
 71
     3
 72
    24
 73
    20
 74
     0
 42
0.0000000001
 43
0.0000000001
 40
0.0
 40
0.0
 40
0.0
 40
0.0
 40
0.1666666666666667
 40
0.1666666666666667
 40
0.1666666666666667
 40
0.1666666666666667
 40
0.3333333333333333
 40
0.3333333333333333
 40
0.3333333333333333
 40
0.3333333333333333
 40
0.5
 40
0.5
 40
0.5
 40
0.5
 40
0.6666666666666666
 40
0.6666666666666666
 40
0.6666666666666666
 40
0.6666666666666666
 40
1.0
 40
1.0
 40
1.0
 40
1.0
 10
-669.885
 20
-358.9067
 30
0.0
 10
-669.9202
 20
-357.5015
 30
0.0
 10
-670.2789
 20
-356.4373
 30
0.0
 10
-670.9668
 20
-355.7082
 30
0.0
 10
-670.9668
 20
-355.7082
 30
0.0
 10
-671.6547
 20
-354.9792
 30
0.0
 10
-672.4955
 20
-354.6146
 30
0.0
 10
-673.4833
 20
-354.6146
 30
0.0
 10
-673.4833
 20
-354.6146
 30
0.0
 10
-674.5416
 20
-354.6146
 30
0.0
 10
-675.4118
 20
-355.0027
 30
0.0
 10
-676.0997
 20
-355.7729
 30
0.0
 10
-676.0997
 20
-355.7729
 30
0.0
 10
-676.7876
 20
-356.5373
 30
0.0
 10
-677.1286
 20
-357.5838
 30
0.0
 10
-677.1169
 20
-358.9067
 30
0.0
 10
-677.1169
 20
-358.9067
 30
0.0
 10
-677.1169
 20
-358.9067
 30
0.0
 10
-669.885
 20
-358.9067
 30
0.0
 10
-669.885
 20
-358.9067
 30
0.0
  0
SPLINE
  5
BE
330
1F
100
AcDbEntity
  8
Laag 1
 62
   175
100
AcDbSpline
210
0.0
220
0.0
230
1.0
 70
    11
 71
     3
 72
    96
 73
    92
 74
     0
 42
0.0000000001
 43
0.0000000001
 40
0.0
 40
0.0
 40
0.0
 40
0.0
 40
0.0416666666666667
 40
0.0416666666666667
 40
0.0416666666666667
 40
0.0416666666666667
 40
0.0833333333333333
 40
0.0833333333333333
 40
0.0833333333333333
 40
0.0833333333333333
 40
0.125
 40
0.125
 40
0.125
 40
0.125
 40
0.1666666666666667
 40
0.1666666666666667
 40
0.1666666666666667
 40
0.1666666666666667
 40
0.2083333333333333
 40
0.2083333333333333
 40
0.2083333333333333
 40
0.2083333333333333
 40
0.25
 40
0.25
 40
0.25
 40
0.25
 40
0.2916666666666667
 40
0.2916666666666667
 40
0.2916666666666667
 40
0.2916666666666667
 40
0.3333333333333333
 40
0.3333333333333333
 40
0.3333333333333333
 40
0.3333333333333333
 40
0.375
 40
0.375
 40
0.375
 40
0.375
 40
0.4166666666666667
 40
0.4166666666666667
 40
0.4166666666666667
 40
0.4166666666666667
 40
0.4583333333333333
 40
0.4583333333333333
 40
0.4583333333333333
 40
0.4583333333333333
 40
0.5
 40
0.5
 40
0.5
 40
0.5
 40
0.5416666666666666
 40
0.5416666666666666
 40
0.5416666666666666
 40
0.5416666666666666
 40
0.5833333333333334
 40
0.5833333333333334
 40
0.5833333333333334
 40
0.5833333333333334
 40
0.625
 40
0.625
 40
0.625
 40
0.625
 40
0.6666666666666666
 40
0.6666666666666666
 40
0.6666666666666666
 40
0.6666666666666666
 40
0.7083333333333334
 40
0.7083333333333334
 40
0.7083333333333334
 40
0.7083333333333334
 40
0.75
 40
0.75
 40
0.75
 40
0.75
 40
0.7916666666666666
 40
0.7916666666666666
 40
0.7916666666666666
 40
0.7916666666666666
 40
0.8333333333333334
 40
0.8333333333333334
 40
0.8333333333333334
 40
0.8333333333333334
 40
0.875
 40
0.875
 40
0.875
 40
0.875
 40
0.9166666666666666
 40
0.9166666666666666
 40
0.9166666666666666
 40
0.9166666666666666
 40
1.0
 40
1.0
 40
1.0
 40
1.0
 10
-661.577
 20
-370.8247
 30
0.0
 10
-661.577
 20
-370.8247
 30
0.0
 10
-656.0502
 20
-371.495
 30
0.0
 10
-656.0502
 20
-371.495
 30
0.0
 10
-656.0502
 20
-371.495
 30
0.0
 10
-655.9561
 20
-372.1418
 30
0.0
 10
-655.7445
 20
-372.5827
 30
0.0
 10
-655.4152
 20
-372.8238
 30
0.0
 10
-655.4152
 20
-372.8238
 30
0.0
 10
-654.9566
 20
-373.1707
 30
0.0
 10
-654.2275
 20
-373.3412
 30
0.0
 10
-653.2456
 20
-373.3412
 30
0.0
 10
-653.2456
 20
-373.3412
 30
0.0
 10
-651.9815
 20
-373.3412
 30
0.0
 10
-651.0349
 20
-373.153
 30
0.0
 10
-650.3999
 20
-372.7709
 30
0.0
 10
-650.3999
 20
-372.7709
 30
0.0
 10
-649.9766
 20
-372.5181
 30
0.0
 10
-649.6532
 20
-372.1124
 30
0.0
 10
-649.4356
 20
-371.5479
 30
0.0
 10
-649.4356
 20
-371.5479
 30
0.0
 10
-649.2886
 20
-371.1481
 30
0.0
 10
-649.2122
 20
-370.4073
 30
0.0
 10
-649.2122
 20
-369.3254
 30
0.0
 10
-649.2122
 20
-369.3254
 30
0.0
 10
-649.2122
 20
-369.3254
 30
0.0
 10
-649.2122
 20
-366.6561
 30
0.0
 10
-649.2122
 20
-366.6561
 30
0.0
 10
-649.2122
 20
-366.6561
 30
0.0
 10
-650.6586
 20
-368.6316
 30
0.0
 10
-652.4871
 20
-369.6194
 30
0.0
 10
-654.692
 20
-369.6194
 30
0.0
 10
-654.692
 20
-369.6194
 30
0.0
 10
-657.1497
 20
-369.6194
 30
0.0
 10
-659.0958
 20
-368.5787
 30
0.0
 10
-660.5305
 20
-366.5032
 30
0.0
 10
-660.5305
 20
-366.5032
 30
0.0
 10
-661.6535
 20
-364.8569
 30
0.0
 10
-662.2179
 20
-362.8167
 30
0.0
 10
-662.2179
 20
-360.3708
 30
0.0
 10
-662.2179
 20
-360.3708
 30
0.0
 10
-662.2179
 20
-357.3016
 30
0.0
 10
-661.4771
 20
-354.9615
 30
0.0
 10
-660.0013
 20
-353.3387
 30
0.0
 10
-660.0013
 20
-353.3387
 30
0.0
 10
-658.5255
 20
-351.7218
 30
0.0
 10
-656.6911
 20
-350.9105
 30
0.0
 10
-654.498
 20
-350.9105
 30
0.0
 10
-654.498
 20
-350.9105
 30
0.0
 10
-652.2402
 20
-350.9105
 30
0.0
 10
-650.3705
 20
-351.9041
 30
0.0
 10
-648.9006
 20
-353.8914
 30
0.0
 10
-648.9006
 20
-353.8914
 30
0.0
 10
-648.9006
 20
-353.8914
 30
0.0
 10
-648.9006
 20
-351.3279
 30
0.0
 10
-648.9006
 20
-351.3279
 30
0.0
 10
-648.9006
 20
-351.3279
 30
0.0
 10
-648.9006
 20
-351.3279
 30
0.0
 10
-644.3733
 20
-351.3279
 30
0.0
 10
-644.3733
 20
-351.3279
 30
0.0
 10
-644.3733
 20
-351.3279
 30
0.0
 10
-644.3733
 20
-351.3279
 30
0.0
 10
-644.3733
 20
-367.7438
 30
0.0
 10
-644.3733
 20
-367.7438
 30
0.0
 10
-644.3733
 20
-367.7438
 30
0.0
 10
-644.3733
 20
-369.9016
 30
0.0
 10
-644.5497
 20
-371.5126
 30
0.0
 10
-644.9083
 20
-372.5827
 30
0.0
 10
-644.9083
 20
-372.5827
 30
0.0
 10
-645.2611
 20
-373.6528
 30
0.0
 10
-645.7609
 20
-374.4877
 30
0.0
 10
-646.4017
 20
-375.0992
 30
0.0
 10
-646.4017
 20
-375.0992
 30
0.0
 10
-647.0485
 20
-375.7048
 30
0.0
 10
-647.9069
 20
-376.1811
 30
0.0
 10
-648.977
 20
-376.5279
 30
0.0
 10
-648.977
 20
-376.5279
 30
0.0
 10
-650.053
 20
-376.869
 30
0.0
 10
-651.4112
 20
-377.0454
 30
0.0
 10
-653.0516
 20
-377.0454
 30
0.0
 10
-653.0516
 20
-377.0454
 30
0.0
 10
-656.156
 20
-377.0454
 30
0.0
 10
-658.355
 20
-376.5103
 30
0.0
 10
-659.6485
 20
-375.452
 30
0.0
 10
-659.6485
 20
-375.452
 30
0.0
 10
-660.9479
 20
-374.3878
 30
0.0
 10
-661.5947
 20
-373.0413
 30
0.0
 10
-661.5947
 20
-371.4127
 30
0.0
 10
-661.5947
 20
-371.4127
 30
0.0
 10
-661.5947
 20
-371.2481
 30
0.0
 10
-661.5888
 20
-371.054
 30
0.0
 10
-661.577
 20
-370.8247
 30
0.0
  0
SPLINE
  5
BF
330
1F
100
AcDbEntity
  8
Laag 1
 62
   175
100
AcDbSpline
210
0.0
220
0.0
230
1.0
 70
    11
 71
     3
 72
    36
 73
    32
 74
     0
 42
0.0000000001
 43
0.0000000001
 40
0.0
 40
0.0
 40
0.0
 40
0.0
 40
0.1111111111111111
 40
0.1111111111111111
 40
0.1111111111111111
 40
0.1111111111111111
 40
0.2222222222222222
 40
0.2222222222222222
 40
0.2222222222222222
 40
0.2222222222222222
 40
0.3333333333333333
 40
0.3333333333333333
 40
0.3333333333333333
 40
0.3333333333333333
 40
0.4444444444444444
 40
0.4444444444444444
 40
0.4444444444444444
 40
0.4444444444444444
 40
0.5555555555555556
 40
0.5555555555555556
 40
0.5555555555555556
 40
0.5555555555555556
 40
0.6666666666666666
 40
0.6666666666666666
 40
0.6666666666666666
 40
0.6666666666666666
 40
0.7777777777777778
 40
0.7777777777777778
 40
0.7777777777777778
 40
0.7777777777777778
 40
1.0
 40
1.0
 40
1.0
 40
1.0
 10
-657.2555
 20
-360.0944
 30
0.0
 10
-657.2555
 20
-362.0347
 30
0.0
 10
-656.8792
 20
-363.4576
 30
0.0
 10
-656.1266
 20
-364.3571
 30
0.0
 10
-656.1266
 20
-364.3571
 30
0.0
 10
-655.374
 20
-365.2567
 30
0.0
 10
-654.4509
 20
-365.7095
 30
0.0
 10
-653.3456
 20
-365.7095
 30
0.0
 10
-653.3456
 20
-365.7095
 30
0.0
 10
-652.1638
 20
-365.7095
 30
0.0
 10
-651.1642
 20
-365.245
 30
0.0
 10
-650.347
 20
-364.3219
 30
0.0
 10
-650.347
 20
-364.3219
 30
0.0
 10
-649.5356
 20
-363.3988
 30
0.0
 10
-649.124
 20
-362.0288
 30
0.0
 10
-649.124
 20
-360.212
 30
0.0
 10
-649.124
 20
-360.212
 30
0.0
 10
-649.124
 20
-358.3188
 30
0.0
 10
-649.5179
 20
-356.9135
 30
0.0
 10
-650.2999
 20
-355.9963
 30
0.0
 10
-650.2999
 20
-355.9963
 30
0.0
 10
-651.076
 20
-355.0732
 30
0.0
 10
-652.0638
 20
-354.6146
 30
0.0
 10
-653.2574
 20
-354.6146
 30
0.0
 10
-653.2574
 20
-354.6146
 30
0.0
 10
-654.4215
 20
-354.6146
 30
0.0
 10
-655.374
 20
-355.0673
 30
0.0
 10
-656.1266
 20
-355.9669
 30
0.0
 10
-656.1266
 20
-355.9669
 30
0.0
 10
-656.8792
 20
-356.8724
 30
0.0
 10
-657.2555
 20
-358.2423
 30
0.0
 10
-657.2555
 20
-360.0944
 30
0.0
  0
SPLINE
  5
C0
330
1F
100
AcDbEntity
  8
Laag 1
 62
   175
100
AcDbSpline
210
0.0
220
0.0
230
1.0
 70
    11
 71
     3
 72
   108
 73
   104
 74
     0
 42
0.0000000001
 43
0.0000000001
 40
0.0
 40
0.0
 40
0.0
 40
0.0
 40
0.037037037037037
 40
0.037037037037037
 40
0.037037037037037
 40
0.037037037037037
 40
0.0740740740740741
 40
0.0740740740740741
 40
0.0740740740740741
 40
0.0740740740740741
 40
0.1111111111111111
 40
0.1111111111111111
 40
0.1111111111111111
 40
0.1111111111111111
 40
0.1481481481481481
 40
0.1481481481481481
 40
0.1481481481481481
 40
0.1481481481481481
 40
0.1851851851851852
 40
0.1851851851851852
 40
0.1851851851851852
 40
0.1851851851851852
 40
0.2222222222222222
 40
0.2222222222222222
 40
0.2222222222222222
 40
0.2222222222222222
 40
0.2592592592592592
 40
0.2592592592592592
 40
0.2592592592592592
 40
0.2592592592592592
 40
0.2962962962962963
 40
0.2962962962962963
 40
0.2962962962962963
 40
0.2962962962962963
 40
0.3333333333333333
 40
0.3333333333333333
 40
0.3333333333333333
 40
0.3333333333333333
 40
0.3703703703703703
 40
0.3703703703703703
 40
0.3703703703703703
 40
0.3703703703703703
 40
0.4074074074074074
 40
0.4074074074074074
 40
0.4074074074074074
 40
0.4074074074074074
 40
0.4444444444444444
 40
0.4444444444444444
 40
0.4444444444444444
 40
0.4444444444444444
 40
0.4814814814814815
 40
0.4814814814814815
 40
0.4814814814814815
 40
0.4814814814814815
 40
0.5185185185185185
 40
0.5185185185185185
 40
0.5185185185185185
 40
0.5185185185185185
 40
0.5555555555555556
 40
0.5555555555555556
 40
0.5555555555555556
 40
0.5555555555555556
 40
0.5925925925925926
 40
0.5925925925925926
 40
0.5925925925925926
 40
0.5925925925925926
 40
0.6296296296296297
 40
0.6296296296296297
 40
0.6296296296296297
 40
0.6296296296296297
 40
0.6666666666666666
 40
0.6666666666666666
 40
0.6666666666666666
 40
0.6666666666666666
 40
0.7037037037037037
 40
0.7037037037037037
 40
0.7037037037037037
 40
0.7037037037037037
 40
0.7407407407407407
 40
0.7407407407407407
 40
0.7407407407407407
 40
0.7407407407407407
 40
0.7777777777777778
 40
0.7777777777777778
 40
0.7777777777777778
 40
0.7777777777777778
 40
0.8148148148148148
 40
0.8148148148148148
 40
0.8148148148148148
 40
0.8148148148148148
 40
0.8518518518518519
 40
0.8518518518518519
 40
0.8518518518518519
 40
0.8518518518518519
 40
0.8888888888888888
 40
0.8888888888888888
 40
0.8888888888888888
 40
0.8888888888888888
 40
0.9259259259259259
 40
0.9259259259259259
 40
0.9259259259259259
 40
0.9259259259259259
 40
1.0
 40
1.0
 40
1.0
 40
1.0
 10
-641.2865
 20
-364.3983
 30
0.0
 10
-641.2865
 20
-364.3983
 30
0.0
 10
-636.4299
 20
-363.6575
 30
0.0
 10
-636.4299
 20
-363.6575
 30
0.0
 10
-636.4299
 20
-363.6575
 30
0.0
 10
-636.2241
 20
-364.5982
 30
0.0
 10
-635.8067
 20
-365.3155
 30
0.0
 10
-635.1717
 20
-365.8035
 30
0.0
 10
-635.1717
 20
-365.8035
 30
0.0
 10
-634.5426
 20
-366.2915
 30
0.0
 10
-633.6606
 20
-366.5385
 30
0.0
 10
-632.52
 20
-366.5385
 30
0.0
 10
-632.52
 20
-366.5385
 30
0.0
 10
-631.2676
 20
-366.5385
 30
0.0
 10
-630.3269
 20
-366.3092
 30
0.0
 10
-629.6977
 20
-365.8447
 30
0.0
 10
-629.6977
 20
-365.8447
 30
0.0
 10
-629.2685
 20
-365.5272
 30
0.0
 10
-629.0569
 20
-365.0921
 30
0.0
 10
-629.0569
 20
-364.5571
 30
0.0
 10
-629.0569
 20
-364.5571
 30
0.0
 10
-629.0569
 20
-364.1866
 30
0.0
 10
-629.1745
 20
-363.8809
 30
0.0
 10
-629.4038
 20
-363.6398
 30
0.0
 10
-629.4038
 20
-363.6398
 30
0.0
 10
-629.6448
 20
-363.4105
 30
0.0
 10
-630.1858
 20
-363.1989
 30
0.0
 10
-631.0207
 20
-363.0048
 30
0.0
 10
-631.0207
 20
-363.0048
 30
0.0
 10
-634.9247
 20
-362.1464
 30
0.0
 10
-637.4
 20
-361.3585
 30
0.0
 10
-638.4466
 20
-360.6471
 30
0.0
 10
-638.4466
 20
-360.6471
 30
0.0
 10
-639.893
 20
-359.6593
 30
0.0
 10
-640.6162
 20
-358.2835
 30
0.0
 10
-640.6162
 20
-356.5255
 30
0.0
 10
-640.6162
 20
-356.5255
 30
0.0
 10
-640.6162
 20
-354.9439
 30
0.0
 10
-639.993
 20
-353.6092
 30
0.0
 10
-638.7406
 20
-352.5332
 30
0.0
 10
-638.7406
 20
-352.5332
 30
0.0
 10
-637.4882
 20
-351.4514
 30
0.0
 10
-635.548
 20
-350.9105
 30
0.0
 10
-632.9198
 20
-350.9105
 30
0.0
 10
-632.9198
 20
-350.9105
 30
0.0
 10
-630.4151
 20
-350.9105
 30
0.0
 10
-628.5512
 20
-351.322
 30
0.0
 10
-627.3341
 20
-352.1334
 30
0.0
 10
-627.3341
 20
-352.1334
 30
0.0
 10
-626.1171
 20
-352.9507
 30
0.0
 10
-625.2822
 20
-354.156
 30
0.0
 10
-624.8235
 20
-355.7553
 30
0.0
 10
-624.8235
 20
-355.7553
 30
0.0
 10
-624.8235
 20
-355.7553
 30
0.0
 10
-629.3861
 20
-356.596
 30
0.0
 10
-629.3861
 20
-356.596
 30
0.0
 10
-629.3861
 20
-356.596
 30
0.0
 10
-629.5802
 20
-355.8846
 30
0.0
 10
-629.9506
 20
-355.3378
 30
0.0
 10
-630.4974
 20
-354.9615
 30
0.0
 10
-630.4974
 20
-354.9615
 30
0.0
 10
-631.0442
 20
-354.5793
 30
0.0
 10
-631.8203
 20
-354.3912
 30
0.0
 10
-632.8316
 20
-354.3912
 30
0.0
 10
-632.8316
 20
-354.3912
 30
0.0
 10
-634.1075
 20
-354.3912
 30
0.0
 10
-635.0188
 20
-354.5676
 30
0.0
 10
-635.5715
 20
-354.9262
 30
0.0
 10
-635.5715
 20
-354.9262
 30
0.0
 10
-635.936
 20
-355.1791
 30
0.0
 10
-636.1183
 20
-355.5083
 30
0.0
 10
-636.1183
 20
-355.9081
 30
0.0
 10
-636.1183
 20
-355.9081
 30
0.0
 10
-636.1183
 20
-356.255
 30
0.0
 10
-635.9595
 20
-356.5431
 30
0.0
 10
-635.6362
 20
-356.7842
 30
0.0
 10
-635.6362
 20
-356.7842
 30
0.0
 10
-635.2011
 20
-357.1076
 30
0.0
 10
-633.6959
 20
-357.5603
 30
0.0
 10
-631.1147
 20
-358.1483
 30
0.0
 10
-631.1147
 20
-358.1483
 30
0.0
 10
-628.5395
 20
-358.7303
 30
0.0
 10
-626.7403
 20
-359.4477
 30
0.0
 10
-625.7172
 20
-360.3002
 30
0.0
 10
-625.7172
 20
-360.3002
 30
0.0
 10
-624.706
 20
-361.1645
 30
0.0
 10
-624.2003
 20
-362.364
 30
0.0
 10
-624.2003
 20
-363.8985
 30
0.0
 10
-624.2003
 20
-363.8985
 30
0.0
 10
-624.2003
 20
-365.5742
 30
0.0
 10
-624.9
 20
-367.0206
 30
0.0
 10
-626.3052
 20
-368.2259
 30
0.0
 10
-626.3052
 20
-368.2259
 30
0.0
 10
-627.7046
 20
-369.4313
 30
0.0
 10
-629.7742
 20
-370.031
 30
0.0
 10
-632.52
 20
-370.031
 30
0.0
 10
-632.52
 20
-370.031
 30
0.0
 10
-635.0129
 20
-370.031
 30
0.0
 10
-636.9826
 20
-369.5253
 30
0.0
 10
-638.4407
 20
-368.514
 30
0.0
 10
-638.4407
 20
-368.514
 30
0.0
 10
-639.893
 20
-367.5086
 30
0.0
 10
-640.8396
 20
-366.1328
 30
0.0
 10
-641.2865
 20
-364.3983
 30
0.0
  0
LWPOLYLINE
  5
C1
330
1F
100
AcDbEntity
  8
Laag 1
 62
   175
370
    70
100
AcDbPolyline
 90
        5
 70
     1
 43
0.0
 10
121.2912
 20
-4.9287
 10
580.0678
 20
-4.9287
 10
580.0678
 20
478.4613
 10
121.2912
 20
478.4613
 10
121.2912
 20
-4.9287
  0
SPLINE
  5
C2
330
1F
100
AcDbEntity
  8
Laag 1
 62
   175
100
AcDbSpline
210
0.0
220
0.0
230
1.0
 70
    11
 71
     3
 72
   124
 73
   120
 74
     0
 42
0.0000000001
 43
0.0000000001
 40
0.0
 40
0.0
 40
0.0
 40
0.0
 40
0.032258064516129
 40
0.032258064516129
 40
0.032258064516129
 40
0.032258064516129
 40
0.0645161290322581
 40
0.0645161290322581
 40
0.0645161290322581
 40
0.0645161290322581
 40
0.0967741935483871
 40
0.0967741935483871
 40
0.0967741935483871
 40
0.0967741935483871
 40
0.1290322580645161
 40
0.1290322580645161
 40
0.1290322580645161
 40
0.1290322580645161
 40
0.1612903225806452
 40
0.1612903225806452
 40
0.1612903225806452
 40
0.1612903225806452
 40
0.1935483870967742
 40
0.1935483870967742
 40
0.1935483870967742
 40
0.1935483870967742
 40
0.2258064516129032
 40
0.2258064516129032
 40
0.2258064516129032
 40
0.2258064516129032
 40
0.2580645161290323
 40
0.2580645161290323
 40
0.2580645161290323
 40
0.2580645161290323
 40
0.2903225806451613
 40
0.2903225806451613
 40
0.2903225806451613
 40
0.2903225806451613
 40
0.3225806451612903
 40
0.3225806451612903
 40
0.3225806451612903
 40
0.3225806451612903
 40
0.3548387096774194
 40
0.3548387096774194
 40
0.3548387096774194
 40
0.3548387096774194
 40
0.3870967741935484
 40
0.3870967741935484
 40
0.3870967741935484
 40
0.3870967741935484
 40
0.4193548387096774
 40
0.4193548387096774
 40
0.4193548387096774
 40
0.4193548387096774
 40
0.4516129032258064
 40
0.4516129032258064
 40
0.4516129032258064
 40
0.4516129032258064
 40
0.4838709677419355
 40
0.4838709677419355
 40
0.4838709677419355
 40
0.4838709677419355
 40
0.5161290322580645
 40
0.5161290322580645
 40
0.5161290322580645
 40
0.5161290322580645
 40
0.5483870967741935
 40
0.5483870967741935
 40
0.5483870967741935
 40
0.5483870967741935
 40
0.5806451612903226
 40
0.5806451612903226
 40
0.5806451612903226
 40
0.5806451612903226
 40
0.6129032258064516
 40
0.6129032258064516
 40
0.6129032258064516
 40
0.6129032258064516
 40
0.6451612903225806
 40
0.6451612903225806
 40
0.6451612903225806
 40
0.6451612903225806
 40
0.6774193548387096
 40
0.6774193548387096
 40
0.6774193548387096
 40
0.6774193548387096
 40
0.7096774193548387
 40
0.7096774193548387
 40
0.7096774193548387
 40
0.7096774193548387
 40
0.7419354838709677
 40
0.7419354838709677
 40
0.7419354838709677
 40
0.7419354838709677
 40
0.7741935483870968
 40
0.7741935483870968
 40
0.7741935483870968
 40
0.7741935483870968
 40
0.8064516129032258
 40
0.8064516129032258
 40
0.8064516129032258
 40
0.8064516129032258
 40
0.8387096774193549
 40
0.8387096774193549
 40
0.8387096774193549
 40
0.8387096774193549
 40
0.8709677419354839
 40
0.8709677419354839
 40
0.8709677419354839
 40
0.8709677419354839
 40
0.9032258064516129
 40
0.9032258064516129
 40
0.9032258064516129
 40
0.9032258064516129
 40
0.9354838709677419
 40
0.9354838709677419
 40
0.9354838709677419
 40
0.9354838709677419
 40
1.0
 40
1.0
 40
1.0
 40
1.0
 10
138.0782
 20
27.4547
 30
0.0
 10
138.0782
 20
27.4547
 30
0.0
 10
143.0406
 20
27.9427
 30
0.0
 10
143.0406
 20
27.9427
 30
0.0
 10
143.0406
 20
27.9427
 30
0.0
 10
143.3346
 20
26.2729
 30
0.0
 10
143.9402
 20
25.05
 30
0.0
 10
144.8574
 20
24.268
 30
0.0
 10
144.8574
 20
24.268
 30
0.0
 10
145.7687
 20
23.4919
 30
0.0
 10
146.9976
 20
23.0979
 30
0.0
 10
148.5498
 20
23.0979
 30
0.0
 10
148.5498
 20
23.0979
 30
0.0
 10
150.1902
 20
23.0979
 30
0.0
 10
151.4308
 20
23.4448
 30
0.0
 10
152.2598
 20
24.1445
 30
0.0
 10
152.2598
 20
24.1445
 30
0.0
 10
153.0947
 20
24.8383
 30
0.0
 10
153.5122
 20
25.6497
 30
0.0
 10
153.5122
 20
26.5787
 30
0.0
 10
153.5122
 20
26.5787
 30
0.0
 10
153.5122
 20
27.1784
 30
0.0
 10
153.3358
 20
27.684
 30
0.0
 10
152.983
 20
28.1015
 30
0.0
 10
152.983
 20
28.1015
 30
0.0
 10
152.6361
 20
28.5248
 30
0.0
 10
152.0246
 20
28.8894
 30
0.0
 10
151.1486
 20
29.1951
 30
0.0
 10
151.1486
 20
29.1951
 30
0.0
 10
150.5547
 20
29.4068
 30
0.0
 10
149.1907
 20
29.7713
 30
0.0
 10
147.0681
 20
30.3005
 30
0.0
 10
147.0681
 20
30.3005
 30
0.0
 10
144.3341
 20
30.9766
 30
0.0
 10
142.4173
 20
31.8115
 30
0.0
 10
141.3178
 20
32.7993
 30
0.0
 10
141.3178
 20
32.7993
 30
0.0
 10
139.7656
 20
34.1869
 30
0.0
 10
138.9895
 20
35.8802
 30
0.0
 10
138.9895
 20
37.8793
 30
0.0
 10
138.9895
 20
37.8793
 30
0.0
 10
138.9895
 20
39.1669
 30
0.0
 10
139.3541
 20
40.3664
 30
0.0
 10
140.0831
 20
41.4894
 30
0.0
 10
140.0831
 20
41.4894
 30
0.0
 10
140.8122
 20
42.6065
 30
0.0
 10
141.8646
 20
43.459
 30
0.0
 10
143.2346
 20
44.047
 30
0.0
 10
143.2346
 20
44.047
 30
0.0
 10
144.6104
 20
44.6291
 30
0.0
 10
146.2626
 20
44.9231
 30
0.0
 10
148.2029
 20
44.9231
 30
0.0
 10
148.2029
 20
44.9231
 30
0.0
 10
151.3779
 20
44.9231
 30
0.0
 10
153.7591
 20
44.2293
 30
0.0
 10
155.3642
 20
42.8417
 30
0.0
 10
155.3642
 20
42.8417
 30
0.0
 10
156.9635
 20
41.4482
 30
0.0
 10
157.8043
 20
39.5961
 30
0.0
 10
157.8866
 20
37.2737
 30
0.0
 10
157.8866
 20
37.2737
 30
0.0
 10
157.8866
 20
37.2737
 30
0.0
 10
152.789
 20
37.0503
 30
0.0
 10
152.789
 20
37.0503
 30
0.0
 10
152.789
 20
37.0503
 30
0.0
 10
152.5714
 20
38.3497
 30
0.0
 10
152.1011
 20
39.2845
 30
0.0
 10
151.3837
 20
39.849
 30
0.0
 10
151.3837
 20
39.849
 30
0.0
 10
150.6664
 20
40.4193
 30
0.0
 10
149.5905
 20
40.7015
 30
0.0
 10
148.1558
 20
40.7015
 30
0.0
 10
148.1558
 20
40.7015
 30
0.0
 10
146.6742
 20
40.7015
 30
0.0
 10
145.51
 20
40.4016
 30
0.0
 10
144.6751
 20
39.7902
 30
0.0
 10
144.6751
 20
39.7902
 30
0.0
 10
144.1342
 20
39.4021
 30
0.0
 10
143.8637
 20
38.8788
 30
0.0
 10
143.8637
 20
38.2262
 30
0.0
 10
143.8637
 20
38.2262
 30
0.0
 10
143.8637
 20
37.6265
 30
0.0
 10
144.1165
 20
37.1149
 30
0.0
 10
144.6222
 20
36.6916
 30
0.0
 10
144.6222
 20
36.6916
 30
0.0
 10
145.2631
 20
36.1507
 30
0.0
 10
146.827
 20
35.5862
 30
0.0
 10
149.3082
 20
35.0042
 30
0.0
 10
149.3082
 20
35.0042
 30
0.0
 10
151.7894
 20
34.4162
 30
0.0
 10
153.6239
 20
33.8106
 30
0.0
 10
154.8116
 20
33.1874
 30
0.0
 10
154.8116
 20
33.1874
 30
0.0
 10
155.9992
 20
32.5582
 30
0.0
 10
156.9282
 20
31.7057
 30
0.0
 10
157.6044
 20
30.618
 30
0.0
 10
157.6044
 20
30.618
 30
0.0
 10
158.2747
 20
29.5302
 30
0.0
 10
158.6098
 20
28.1897
 30
0.0
 10
158.6098
 20
26.5963
 30
0.0
 10
158.6098
 20
26.5963
 30
0.0
 10
158.6098
 20
25.1499
 30
0.0
 10
158.21
 20
23.7917
 30
0.0
 10
157.4045
 20
22.5335
 30
0.0
 10
157.4045
 20
22.5335
 30
0.0
 10
156.599
 20
21.2694
 30
0.0
 10
155.4642
 20
20.3286
 30
0.0
 10
153.9943
 20
19.7171
 30
0.0
 10
153.9943
 20
19.7171
 30
0.0
 10
152.5244
 20
19.0998
 30
0.0
 10
150.69
 20
18.794
 30
0.0
 10
148.4969
 20
18.794
 30
0.0
 10
148.4969
 20
18.794
 30
0.0
 10
145.3042
 20
18.794
 30
0.0
 10
142.8524
 20
19.529
 30
0.0
 10
141.1415
 20
21.0048
 30
0.0
 10
141.1415
 20
21.0048
 30
0.0
 10
139.4305
 20
22.4806
 30
0.0
 10
138.4074
 20
24.6325
 30
0.0
 10
138.0782
 20
27.4547
 30
0.0
  0
SPLINE
  5
C3
330
1F
100
AcDbEntity
  8
Laag 1
 62
   175
100
AcDbSpline
210
0.0
220
0.0
230
1.0
 70
    11
 71
     3
 72
    60
 73
    56
 74
     0
 42
0.0000000001
 43
0.0000000001
 40
0.0
 40
0.0
 40
0.0
 40
0.0
 40
0.0666666666666667
 40
0.0666666666666667
 40
0.0666666666666667
 40
0.0666666666666667
 40
0.1333333333333333
 40
0.1333333333333333
 40
0.1333333333333333
 40
0.1333333333333333
 40
0.2
 40
0.2
 40
0.2
 40
0.2
 40
0.2666666666666667
 40
0.2666666666666667
 40
0.2666666666666667
 40
0.2666666666666667
 40
0.3333333333333333
 40
0.3333333333333333
 40
0.3333333333333333
 40
0.3333333333333333
 40
0.4
 40
0.4
 40
0.4
 40
0.4
 40
0.4666666666666667
 40
0.4666666666666667
 40
0.4666666666666667
 40
0.4666666666666667
 40
0.5333333333333333
 40
0.5333333333333333
 40
0.5333333333333333
 40
0.5333333333333333
 40
0.6
 40
0.6
 40
0.6
 40
0.6
 40
0.6666666666666666
 40
0.6666666666666666
 40
0.6666666666666666
 40
0.6666666666666666
 40
0.7333333333333333
 40
0.7333333333333333
 40
0.7333333333333333
 40
0.7333333333333333
 40
0.8
 40
0.8
 40
0.8
 40
0.8
 40
0.8666666666666667
 40
0.8666666666666667
 40
0.8666666666666667
 40
0.8666666666666667
 40
1.0
 40
1.0
 40
1.0
 40
1.0
 10
173.4558
 20
25.0617
 30
0.0
 10
173.4558
 20
25.0617
 30
0.0
 10
178.283
 20
24.2562
 30
0.0
 10
178.283
 20
24.2562
 30
0.0
 10
178.283
 20
24.2562
 30
0.0
 10
177.6597
 20
22.4864
 30
0.0
 10
176.6837
 20
21.14
 30
0.0
 10
175.3432
 20
20.2169
 30
0.0
 10
175.3432
 20
20.2169
 30
0.0
 10
174.0085
 20
19.2879
 30
0.0
 10
172.3328
 20
18.8293
 30
0.0
 10
170.322
 20
18.8293
 30
0.0
 10
170.322
 20
18.8293
 30
0.0
 10
167.1411
 20
18.8293
 30
0.0
 10
164.7892
 20
19.8641
 30
0.0
 10
163.2605
 20
21.9455
 30
0.0
 10
163.2605
 20
21.9455
 30
0.0
 10
162.0552
 20
23.6095
 30
0.0
 10
161.4496
 20
25.7144
 30
0.0
 10
161.4496
 20
28.2485
 30
0.0
 10
161.4496
 20
28.2485
 30
0.0
 10
161.4496
 20
31.2824
 30
0.0
 10
162.2434
 20
33.6577
 30
0.0
 10
163.8309
 20
35.3746
 30
0.0
 10
163.8309
 20
35.3746
 30
0.0
 10
165.4125
 20
37.0914
 30
0.0
 10
167.4174
 20
37.9498
 30
0.0
 10
169.8398
 20
37.9498
 30
0.0
 10
169.8398
 20
37.9498
 30
0.0
 10
172.5621
 20
37.9498
 30
0.0
 10
174.7082
 20
37.0503
 30
0.0
 10
176.2839
 20
35.2511
 30
0.0
 10
176.2839
 20
35.2511
 30
0.0
 10
177.8538
 20
33.4519
 30
0.0
 10
178.6063
 20
30.7003
 30
0.0
 10
178.5417
 20
26.9902
 30
0.0
 10
178.5417
 20
26.9902
 30
0.0
 10
178.5417
 20
26.9902
 30
0.0
 10
166.412
 20
26.9902
 30
0.0
 10
166.412
 20
26.9902
 30
0.0
 10
166.412
 20
26.9902
 30
0.0
 10
166.4473
 20
25.5556
 30
0.0
 10
166.8354
 20
24.4385
 30
0.0
 10
167.5821
 20
23.6447
 30
0.0
 10
167.5821
 20
23.6447
 30
0.0
 10
168.3288
 20
22.8451
 30
0.0
 10
169.2636
 20
22.4453
 30
0.0
 10
170.3749
 20
22.4453
 30
0.0
 10
170.3749
 20
22.4453
 30
0.0
 10
171.1334
 20
22.4453
 30
0.0
 10
171.7684
 20
22.6511
 30
0.0
 10
172.2858
 20
23.0627
 30
0.0
 10
172.2858
 20
23.0627
 30
0.0
 10
172.8032
 20
23.4801
 30
0.0
 10
173.1971
 20
24.1445
 30
0.0
 10
173.4558
 20
25.0617
 30
0.0
  0
SPLINE
  5
C4
330
1F
100
AcDbEntity
  8
Laag 1
 62
   175
100
AcDbSpline
210
0.0
220
0.0
230
1.0
 70
    11
 71
     3
 72
    24
 73
    20
 74
     0
 42
0.0000000001
 43
0.0000000001
 40
0.0
 40
0.0
 40
0.0
 40
0.0
 40
0.1666666666666667
 40
0.1666666666666667
 40
0.1666666666666667
 40
0.1666666666666667
 40
0.3333333333333333
 40
0.3333333333333333
 40
0.3333333333333333
 40
0.3333333333333333
 40
0.5
 40
0.5
 40
0.5
 40
0.5
 40
0.6666666666666666
 40
0.6666666666666666
 40
0.6666666666666666
 40
0.6666666666666666
 40
1.0
 40
1.0
 40
1.0
 40
1.0
 10
173.7321
 20
29.9536
 30
0.0
 10
173.6969
 20
31.3588
 30
0.0
 10
173.3382
 20
32.423
 30
0.0
 10
172.6503
 20
33.1521
 30
0.0
 10
172.6503
 20
33.1521
 30
0.0
 10
171.9624
 20
33.8811
 30
0.0
 10
171.1216
 20
34.2457
 30
0.0
 10
170.1338
 20
34.2457
 30
0.0
 10
170.1338
 20
34.2457
 30
0.0
 10
169.0755
 20
34.2457
 30
0.0
 10
168.2053
 20
33.8576
 30
0.0
 10
167.5174
 20
33.0874
 30
0.0
 10
167.5174
 20
33.0874
 30
0.0
 10
166.8295
 20
32.323
 30
0.0
 10
166.4885
 20
31.2765
 30
0.0
 10
166.5002
 20
29.9536
 30
0.0
 10
166.5002
 20
29.9536
 30
0.0
 10
166.5002
 20
29.9536
 30
0.0
 10
173.7321
 20
29.9536
 30
0.0
 10
173.7321
 20
29.9536
 30
0.0
  0
SPLINE
  5
C5
330
1F
100
AcDbEntity
  8
Laag 1
 62
   175
100
AcDbSpline
210
0.0
220
0.0
230
1.0
 70
    11
 71
     3
 72
   104
 73
   100
 74
     0
 42
0.0000000001
 43
0.0000000001
 40
0.0
 40
0.0
 40
0.0
 40
0.0
 40
0.0384615384615385
 40
0.0384615384615385
 40
0.0384615384615385
 40
0.0384615384615385
 40
0.0769230769230769
 40
0.0769230769230769
 40
0.0769230769230769
 40
0.0769230769230769
 40
0.1153846153846154
 40
0.1153846153846154
 40
0.1153846153846154
 40
0.1153846153846154
 40
0.1538461538461539
 40
0.1538461538461539
 40
0.1538461538461539
 40
0.1538461538461539
 40
0.1923076923076923
 40
0.1923076923076923
 40
0.1923076923076923
 40
0.1923076923076923
 40
0.2307692307692308
 40
0.2307692307692308
 40
0.2307692307692308
 40
0.2307692307692308
 40
0.2692307692307692
 40
0.2692307692307692
 40
0.2692307692307692
 40
0.2692307692307692
 40
0.3076923076923077
 40
0.3076923076923077
 40
0.3076923076923077
 40
0.3076923076923077
 40
0.3461538461538461
 40
0.3461538461538461
 40
0.3461538461538461
 40
0.3461538461538461
 40
0.3846153846153846
 40
0.3846153846153846
 40
0.3846153846153846
 40
0.3846153846153846
 40
0.4230769230769231
 40
0.4230769230769231
 40
0.4230769230769231
 40
0.4230769230769231
 40
0.4615384615384616
 40
0.4615384615384616
 40
0.4615384615384616
 40
0.4615384615384616
 40
0.5
 40
0.5
 40
0.5
 40
0.5
 40
0.5384615384615384
 40
0.5384615384615384
 40
0.5384615384615384
 40
0.5384615384615384
 40
0.5769230769230769
 40
0.5769230769230769
 40
0.5769230769230769
 40
0.5769230769230769
 40
0.6153846153846154
 40
0.6153846153846154
 40
0.6153846153846154
 40
0.6153846153846154
 40
0.6538461538461539
 40
0.6538461538461539
 40
0.6538461538461539
 40
0.6538461538461539
 40
0.6923076923076923
 40
0.6923076923076923
 40
0.6923076923076923
 40
0.6923076923076923
 40
0.7307692307692307
 40
0.7307692307692307
 40
0.7307692307692307
 40
0.7307692307692307
 40
0.7692307692307693
 40
0.7692307692307693
 40
0.7692307692307693
 40
0.7692307692307693
 40
0.8076923076923077
 40
0.8076923076923077
 40
0.8076923076923077
 40
0.8076923076923077
 40
0.8461538461538461
 40
0.8461538461538461
 40
0.8461538461538461
 40
0.8461538461538461
 40
0.8846153846153846
 40
0.8846153846153846
 40
0.8846153846153846
 40
0.8846153846153846
 40
0.9230769230769231
 40
0.9230769230769231
 40
0.9230769230769231
 40
0.9230769230769231
 40
1.0
 40
1.0
 40
1.0
 40
1.0
 10
186.1029
 20
31.9526
 30
0.0
 10
186.1029
 20
31.9526
 30
0.0
 10
181.7108
 20
32.7464
 30
0.0
 10
181.7108
 20
32.7464
 30
0.0
 10
181.7108
 20
32.7464
 30
0.0
 10
182.2047
 20
34.5161
 30
0.0
 10
183.0514
 20
35.8214
 30
0.0
 10
184.2567
 20
36.674
 30
0.0
 10
184.2567
 20
36.674
 30
0.0
 10
185.4679
 20
37.5206
 30
0.0
 10
187.2553
 20
37.9498
 30
0.0
 10
189.6306
 20
37.9498
 30
0.0
 10
189.6306
 20
37.9498
 30
0.0
 10
191.7943
 20
37.9498
 30
0.0
 10
193.3995
 20
37.6911
 30
0.0
 10
194.4578
 20
37.1796
 30
0.0
 10
194.4578
 20
37.1796
 30
0.0
 10
195.5103
 20
36.6681
 30
0.0
 10
196.257
 20
36.0213
 30
0.0
 10
196.6862
 20
35.2335
 30
0.0
 10
196.6862
 20
35.2335
 30
0.0
 10
197.1154
 20
34.4456
 30
0.0
 10
197.3329
 20
33.0051
 30
0.0
 10
197.3329
 20
30.9002
 30
0.0
 10
197.3329
 20
30.9002
 30
0.0
 10
197.3329
 20
30.9002
 30
0.0
 10
197.28
 20
25.2499
 30
0.0
 10
197.28
 20
25.2499
 30
0.0
 10
197.28
 20
25.2499
 30
0.0
 10
197.28
 20
23.6447
 30
0.0
 10
197.3565
 20
22.4571
 30
0.0
 10
197.5152
 20
21.6927
 30
0.0
 10
197.5152
 20
21.6927
 30
0.0
 10
197.6681
 20
20.9342
 30
0.0
 10
197.9621
 20
20.1111
 30
0.0
 10
198.3854
 20
19.2409
 30
0.0
 10
198.3854
 20
19.2409
 30
0.0
 10
198.3854
 20
19.2409
 30
0.0
 10
193.5935
 20
19.2409
 30
0.0
 10
193.5935
 20
19.2409
 30
0.0
 10
193.5935
 20
19.2409
 30
0.0
 10
193.47
 20
19.5643
 30
0.0
 10
193.3113
 20
20.0405
 30
0.0
 10
193.129
 20
20.6696
 30
0.0
 10
193.129
 20
20.6696
 30
0.0
 10
193.0526
 20
20.9577
 30
0.0
 10
192.9938
 20
21.1459
 30
0.0
 10
192.9585
 20
21.24
 30
0.0
 10
192.9585
 20
21.24
 30
0.0
 10
192.1295
 20
20.4345
 30
0.0
 10
191.2475
 20
19.8347
 30
0.0
 10
190.3068
 20
19.429
 30
0.0
 10
190.3068
 20
19.429
 30
0.0
 10
189.3661
 20
19.0292
 30
0.0
 10
188.3607
 20
18.8293
 30
0.0
 10
187.2906
 20
18.8293
 30
0.0
 10
187.2906
 20
18.8293
 30
0.0
 10
185.4091
 20
18.8293
 30
0.0
 10
183.9215
 20
19.3409
 30
0.0
 10
182.8397
 20
20.358
 30
0.0
 10
182.8397
 20
20.358
 30
0.0
 10
181.752
 20
21.3811
 30
0.0
 10
181.211
 20
22.6746
 30
0.0
 10
181.211
 20
24.2386
 30
0.0
 10
181.211
 20
24.2386
 30
0.0
 10
181.211
 20
25.2675
 30
0.0
 10
181.458
 20
26.1906
 30
0.0
 10
181.9519
 20
27.002
 30
0.0
 10
181.9519
 20
27.002
 30
0.0
 10
182.4458
 20
27.8134
 30
0.0
 10
183.1396
 20
28.4307
 30
0.0
 10
184.0274
 20
28.86
 30
0.0
 10
184.0274
 20
28.86
 30
0.0
 10
184.9152
 20
29.2892
 30
0.0
 10
186.2028
 20
29.6655
 30
0.0
 10
187.8785
 20
29.9888
 30
0.0
 10
187.8785
 20
29.9888
 30
0.0
 10
190.1363
 20
30.4122
 30
0.0
 10
191.7062
 20
30.812
 30
0.0
 10
192.5763
 20
31.1765
 30
0.0
 10
192.5763
 20
31.1765
 30
0.0
 10
192.5763
 20
31.1765
 30
0.0
 10
192.5763
 20
31.6587
 30
0.0
 10
192.5763
 20
31.6587
 30
0.0
 10
192.5763
 20
31.6587
 30
0.0
 10
192.5763
 20
32.5935
 30
0.0
 10
192.347
 20
33.252
 30
0.0
 10
191.8884
 20
33.6518
 30
0.0
 10
191.8884
 20
33.6518
 30
0.0
 10
191.4298
 20
34.0458
 30
0.0
 10
190.5655
 20
34.2457
 30
0.0
 10
189.2896
 20
34.2457
 30
0.0
 10
189.2896
 20
34.2457
 30
0.0
 10
188.4253
 20
34.2457
 30
0.0
 10
187.7551
 20
34.0752
 30
0.0
 10
187.2729
 20
33.7342
 30
0.0
 10
187.2729
 20
33.7342
 30
0.0
 10
186.7908
 20
33.399
 30
0.0
 10
186.4027
 20
32.8052
 30
0.0
 10
186.1029
 20
31.9526
 30
0.0
  0
SPLINE
  5
C6
330
1F
100
AcDbEntity
  8
Laag 1
 62
   175
100
AcDbSpline
210
0.0
220
0.0
230
1.0
 70
    11
 71
     3
 72
    40
 73
    36
 74
     0
 42
0.0000000001
 43
0.0000000001
 40
0.0
 40
0.0
 40
0.0
 40
0.0
 40
0.1
 40
0.1
 40
0.1
 40
0.1
 40
0.2
 40
0.2
 40
0.2
 40
0.2
 40
0.3
 40
0.3
 40
0.3
 40
0.3
 40
0.4
 40
0.4
 40
0.4
 40
0.4
 40
0.5
 40
0.5
 40
0.5
 40
0.5
 40
0.6
 40
0.6
 40
0.6
 40
0.6
 40
0.7
 40
0.7
 40
0.7
 40
0.7
 40
0.8
 40
0.8
 40
0.8
 40
0.8
 40
1.0
 40
1.0
 40
1.0
 40
1.0
 10
192.5763
 20
28.025
 30
0.0
 10
191.959
 20
27.8193
 30
0.0
 10
190.9771
 20
27.5723
 30
0.0
 10
189.6306
 20
27.2842
 30
0.0
 10
189.6306
 20
27.2842
 30
0.0
 10
188.2901
 20
26.9961
 30
0.0
 10
187.414
 20
26.7139
 30
0.0
 10
186.9966
 20
26.4434
 30
0.0
 10
186.9966
 20
26.4434
 30
0.0
 10
186.3675
 20
25.9907
 30
0.0
 10
186.05
 20
25.4263
 30
0.0
 10
186.05
 20
24.7383
 30
0.0
 10
186.05
 20
24.7383
 30
0.0
 10
186.05
 20
24.0563
 30
0.0
 10
186.3028
 20
23.4742
 30
0.0
 10
186.8084
 20
22.9803
 30
0.0
 10
186.8084
 20
22.9803
 30
0.0
 10
187.3141
 20
22.4864
 30
0.0
 10
187.955
 20
22.2395
 30
0.0
 10
188.7369
 20
22.2395
 30
0.0
 10
188.7369
 20
22.2395
 30
0.0
 10
189.613
 20
22.2395
 30
0.0
 10
190.442
 20
22.5276
 30
0.0
 10
191.2358
 20
23.0979
 30
0.0
 10
191.2358
 20
23.0979
 30
0.0
 10
191.8237
 20
23.533
 30
0.0
 10
192.2059
 20
24.0681
 30
0.0
 10
192.3882
 20
24.7031
 30
0.0
 10
192.3882
 20
24.7031
 30
0.0
 10
192.5175
 20
25.1146
 30
0.0
 10
192.5763
 20
25.9025
 30
0.0
 10
192.5763
 20
27.0608
 30
0.0
 10
192.5763
 20
27.0608
 30
0.0
 10
192.5763
 20
27.0608
 30
0.0
 10
192.5763
 20
28.025
 30
0.0
 10
192.5763
 20
28.025
 30
0.0
  0
SPLINE
  5
C7
330
1F
100
AcDbEntity
  8
Laag 1
 62
   175
100
AcDbSpline
210
0.0
220
0.0
230
1.0
 70
    11
 71
     3
 72
    88
 73
    84
 74
     0
 42
0.0000000001
 43
0.0000000001
 40
0.0
 40
0.0
 40
0.0
 40
0.0
 40
0.0454545454545455
 40
0.0454545454545455
 40
0.0454545454545455
 40
0.0454545454545455
 40
0.0909090909090909
 40
0.0909090909090909
 40
0.0909090909090909
 40
0.0909090909090909
 40
0.1363636363636364
 40
0.1363636363636364
 40
0.1363636363636364
 40
0.1363636363636364
 40
0.1818181818181818
 40
0.1818181818181818
 40
0.1818181818181818
 40
0.1818181818181818
 40
0.2272727272727273
 40
0.2272727272727273
 40
0.2272727272727273
 40
0.2272727272727273
 40
0.2727272727272727
 40
0.2727272727272727
 40
0.2727272727272727
 40
0.2727272727272727
 40
0.3181818181818182
 40
0.3181818181818182
 40
0.3181818181818182
 40
0.3181818181818182
 40
0.3636363636363636
 40
0.3636363636363636
 40
0.3636363636363636
 40
0.3636363636363636
 40
0.4090909090909091
 40
0.4090909090909091
 40
0.4090909090909091
 40
0.4090909090909091
 40
0.4545454545454545
 40
0.4545454545454545
 40
0.4545454545454545
 40
0.4545454545454545
 40
0.5
 40
0.5
 40
0.5
 40
0.5
 40
0.5454545454545454
 40
0.5454545454545454
 40
0.5454545454545454
 40
0.5454545454545454
 40
0.5909090909090909
 40
0.5909090909090909
 40
0.5909090909090909
 40
0.5909090909090909
 40
0.6363636363636364
 40
0.6363636363636364
 40
0.6363636363636364
 40
0.6363636363636364
 40
0.6818181818181818
 40
0.6818181818181818
 40
0.6818181818181818
 40
0.6818181818181818
 40
0.7272727272727273
 40
0.7272727272727273
 40
0.7272727272727273
 40
0.7272727272727273
 40
0.7727272727272727
 40
0.7727272727272727
 40
0.7727272727272727
 40
0.7727272727272727
 40
0.8181818181818182
 40
0.8181818181818182
 40
0.8181818181818182
 40
0.8181818181818182
 40
0.8636363636363636
 40
0.8636363636363636
 40
0.8636363636363636
 40
0.8636363636363636
 40
0.9090909090909091
 40
0.9090909090909091
 40
0.9090909090909091
 40
0.9090909090909091
 40
1.0
 40
1.0
 40
1.0
 40
1.0
 10
210.4915
 20
37.5324
 30
0.0
 10
210.4915
 20
37.5324
 30
0.0
 10
210.4915
 20
33.6754
 30
0.0
 10
210.4915
 20
33.6754
 30
0.0
 10
210.4915
 20
33.6754
 30
0.0
 10
210.4915
 20
33.6754
 30
0.0
 10
207.1872
 20
33.6754
 30
0.0
 10
207.1872
 20
33.6754
 30
0.0
 10
207.1872
 20
33.6754
 30
0.0
 10
207.1872
 20
33.6754
 30
0.0
 10
207.1872
 20
26.3023
 30
0.0
 10
207.1872
 20
26.3023
 30
0.0
 10
207.1872
 20
26.3023
 30
0.0
 10
207.1872
 20
24.8089
 30
0.0
 10
207.2166
 20
23.9387
 30
0.0
 10
207.2813
 20
23.6918
 30
0.0
 10
207.2813
 20
23.6918
 30
0.0
 10
207.346
 20
23.4448
 30
0.0
 10
207.4871
 20
23.2449
 30
0.0
 10
207.7105
 20
23.0803
 30
0.0
 10
207.7105
 20
23.0803
 30
0.0
 10
207.9339
 20
22.9215
 30
0.0
 10
208.2103
 20
22.8392
 30
0.0
 10
208.5278
 20
22.8392
 30
0.0
 10
208.5278
 20
22.8392
 30
0.0
 10
208.9805
 20
22.8392
 30
0.0
 10
209.6272
 20
22.998
 30
0.0
 10
210.4798
 20
23.3037
 30
0.0
 10
210.4798
 20
23.3037
 30
0.0
 10
210.4798
 20
23.3037
 30
0.0
 10
210.8914
 20
19.5525
 30
0.0
 10
210.8914
 20
19.5525
 30
0.0
 10
210.8914
 20
19.5525
 30
0.0
 10
209.7625
 20
19.0704
 30
0.0
 10
208.4925
 20
18.8293
 30
0.0
 10
207.0637
 20
18.8293
 30
0.0
 10
207.0637
 20
18.8293
 30
0.0
 10
206.1935
 20
18.8293
 30
0.0
 10
205.4057
 20
18.9763
 30
0.0
 10
204.706
 20
19.2644
 30
0.0
 10
204.706
 20
19.2644
 30
0.0
 10
204.0063
 20
19.5584
 30
0.0
 10
203.4948
 20
19.9406
 30
0.0
 10
203.1655
 20
20.4051
 30
0.0
 10
203.1655
 20
20.4051
 30
0.0
 10
202.8363
 20
20.8696
 30
0.0
 10
202.6129
 20
21.4987
 30
0.0
 10
202.4835
 20
22.2924
 30
0.0
 10
202.4835
 20
22.2924
 30
0.0
 10
202.3836
 20
22.851
 30
0.0
 10
202.3306
 20
23.9916
 30
0.0
 10
202.3306
 20
25.7026
 30
0.0
 10
202.3306
 20
25.7026
 30
0.0
 10
202.3306
 20
25.7026
 30
0.0
 10
202.3306
 20
33.6754
 30
0.0
 10
202.3306
 20
33.6754
 30
0.0
 10
202.3306
 20
33.6754
 30
0.0
 10
202.3306
 20
33.6754
 30
0.0
 10
200.1081
 20
33.6754
 30
0.0
 10
200.1081
 20
33.6754
 30
0.0
 10
200.1081
 20
33.6754
 30
0.0
 10
200.1081
 20
33.6754
 30
0.0
 10
200.1081
 20
37.5324
 30
0.0
 10
200.1081
 20
37.5324
 30
0.0
 10
200.1081
 20
37.5324
 30
0.0
 10
200.1081
 20
37.5324
 30
0.0
 10
202.3306
 20
37.5324
 30
0.0
 10
202.3306
 20
37.5324
 30
0.0
 10
202.3306
 20
37.5324
 30
0.0
 10
202.3306
 20
37.5324
 30
0.0
 10
202.3306
 20
41.1719
 30
0.0
 10
202.3306
 20
41.1719
 30
0.0
 10
202.3306
 20
41.1719
 30
0.0
 10
202.3306
 20
41.1719
 30
0.0
 10
207.1872
 20
43.9941
 30
0.0
 10
207.1872
 20
43.9941
 30
0.0
 10
207.1872
 20
43.9941
 30
0.0
 10
207.1872
 20
43.9941
 30
0.0
 10
207.1872
 20
37.5324
 30
0.0
 10
207.1872
 20
37.5324
 30
0.0
 10
207.1872
 20
37.5324
 30
0.0
 10
207.1872
 20
37.5324
 30
0.0
 10
210.4915
 20
37.5324
 30
0.0
 10
210.4915
 20
37.5324
 30
0.0
  0
ENDSEC
  0
SECTION
  2
OBJECTS
  0
DICTIONARY
  5
C
330
0
100
AcDbDictionary
281
     1
  3
ACAD_GROUP
350
D
  3
ACAD_LAYOUT
350
1A
  3
ACAD_MATERIAL
350
3B
  3
ACAD_MLEADERSTYLE
350
E9
  3
ACAD_MLINESTYLE
350
17
  3
ACAD_PLOTSETTINGS
350
19
  3
ACAD_PLOTSTYLENAME
350
E
  3
ACAD_TABLESTYLE
350
E8
  3
ACAD_VISUALSTYLE
350
2A
  0
DICTIONARY
  5
D
102
{ACAD_REACTORS
330
C
102
}
330
C
100
AcDbDictionary
281
     1
  0
DICTIONARY
  5
1A
102
{ACAD_REACTORS
330
C
102
}
330
C
100
AcDbDictionary
281
     1
  3
Layout1
350
1E
  3
Layout2
350
26
  3
Model
350
22
  0
DICTIONARY
  5
3B
102
{ACAD_REACTORS
330
C
102
}
330
C
100
AcDbDictionary
281
     1
  3
ByBlock
350
3D
  3
ByLayer
350
3C
  3
Global
350
3E
  0
DICTIONARY
  5
E9
102
{ACAD_REACTORS
330
C
102
}
330
C
100
AcDbDictionary
281
     1
  0
DICTIONARY
  5
17
102
{ACAD_REACTORS
330
C
102
}
330
C
100
AcDbDictionary
281
     1
  3
Standard
350
18
  0
DICTIONARY
  5
19
102
{ACAD_REACTORS
330
C
102
}
330
C
100
AcDbDictionary
281
     1
  0
ACDBDICTIONARYWDFLT
  5
E
102
{ACAD_REACTORS
330
C
102
}
330
C
100
AcDbDictionary
281
     1
  3
Normal
350
F
100
AcDbDictionaryWithDefault
340
F
  0
DICTIONARY
  5
E8
102
{ACAD_REACTORS
330
C
102
}
330
C
100
AcDbDictionary
281
     1
  0
DICTIONARY
  5
2A
102
{ACAD_REACTORS
330
C
102
}
330
C
100
AcDbDictionary
281
     1
  3
2dWireframe
350
2F
  3
3D Hidden
350
31
  3
3dWireframe
350
30
  3
Basic
350
32
  3
Brighten
350
36
  3
ColorChange
350
3A
  3
Conceptual
350
34
  3
Dim
350
35
  3
Facepattern
350
39
  3
Flat
350
2B
  3
FlatWithEdges
350
2C
  3
Gouraud
350
2D
  3
GouraudWithEdges
350
2E
  3
Linepattern
350
38
  3
Realistic
350
33
  3
Thicken
350
37
  0
LAYOUT
  5
1E
102
{ACAD_REACTORS
330
1A
102
}
330
1A
100
AcDbPlotSettings
  1

  2
none_device
  4

  6

 40
0.0
 41
0.0
 42
0.0
 43
0.0
 44
0.0
 45
0.0
 46
0.0
 47
0.0
 48
0.0
 49
0.0
140
0.0
141
0.0
142
1.0
143
1.0
 70
   688
 72
     0
 73
     0
 74
     5
  7

 75
    16
 76
     0
 77
     2
 78
   300
147
1.0
148
0.0
149
0.0
100
AcDbLayout
  1
Layout1
 70
     1
 71
     1
 10
0.0
 20
0.0
 11
12.0
 21
9.0
 12
0.0
 22
0.0
 32
0.0
 14
1.000000000000000E+20
 24
1.000000000000000E+20
 34
1.000000000000000E+20
 15
-1.000000000000000E+20
 25
-1.000000000000000E+20
 35
-1.000000000000000E+20
146
0.0
 13
0.0
 23
0.0
 33
0.0
 16
1.0
 26
0.0
 36
0.0
 17
0.0
 27
1.0
 37
0.0
 76
     0
330
1B
  0
LAYOUT
  5
26
102
{ACAD_REACTORS
330
1A
102
}
330
1A
100
AcDbPlotSettings
  1

  2
none_device
  4

  6

 40
0.0
 41
0.0
 42
0.0
 43
0.0
 44
0.0
 45
0.0
 46
0.0
 47
0.0
 48
0.0
 49
0.0
140
0.0
141
0.0
142
1.0
143
1.0
 70
   688
 72
     0
 73
     0
 74
     5
  7

 75
    16
 76
     0
 77
     2
 78
   300
147
1.0
148
0.0
149
0.0
100
AcDbLayout
  1
Layout2
 70
     1
 71
     2
 10
0.0
 20
0.0
 11
0.0
 21
0.0
 12
0.0
 22
0.0
 32
0.0
 14
0.0
 24
0.0
 34
0.0
 15
0.0
 25
0.0
 35
0.0
146
0.0
 13
0.0
 23
0.0
 33
0.0
 16
1.0
 26
0.0
 36
0.0
 17
0.0
 27
1.0
 37
0.0
 76
     0
330
23
  0
LAYOUT
  5
22
102
{ACAD_REACTORS
330
1A
102
}
330
1A
100
AcDbPlotSettings
  1

  2
none_device
  4

  6

 40
0.0
 41
0.0
 42
0.0
 43
0.0
 44
0.0
 45
0.0
 46
0.0
 47
0.0
 48
0.0
 49
0.0
140
0.0
141
0.0
142
1.0
143
1.0
 70
  1712
 72
     0
 73
     0
 74
     0
  7

 75
     0
 76
     0
 77
     2
 78
   300
147
1.0
148
0.0
149
0.0
100
AcDbLayout
  1
Model
 70
     1
 71
     0
 10
0.0
 20
0.0
 11
12.0
 21
9.0
 12
0.0
 22
0.0
 32
0.0
 14
-735.199
 24
-406.818
 34
0.0
 15
580.4208
 25
481.4997
 35
0.0
146
0.0
 13
0.0
 23
0.0
 33
0.0
 16
1.0
 26
0.0
 36
0.0
 17
0.0
 27
1.0
 37
0.0
 76
     0
330
1F
331
29
  0
MATERIAL
  5
3D
102
{ACAD_REACTORS
330
3B
102
}
330
3B
100
AcDbMaterial
  1
ByBlock
 72
     1
 94
      127
  0
MATERIAL
  5
3C
102
{ACAD_REACTORS
330
3B
102
}
330
3B
100
AcDbMaterial
  1
ByLayer
 72
     1
 94
      127
  0
MATERIAL
  5
3E
102
{ACAD_REACTORS
330
3B
102
}
330
3B
100
AcDbMaterial
  1
Global
 72
     1
 94
      127
  0
MLINESTYLE
  5
18
102
{ACAD_REACTORS
330
17
102
}
330
17
100
AcDbMlineStyle
  2
Standard
 70
     0
  3

 62
   256
 51
90.0
 52
90.0
 71
     2
 49
0.5
 62
   256
  6
BYLAYER
 49
-0.5
 62
   256
  6
BYLAYER
  0
ACDBPLACEHOLDER
  5
F
102
{ACAD_REACTORS
330
E
102
}
330
E
  0
VISUALSTYLE
  5
2F
102
{ACAD_REACTORS
330
2A
102
}
102
{ACAD_XDICTIONARY
360
D0
102
}
330
2A
100
AcDbVisualStyle
  2
2dWireframe
 70
     4
 71
     0
 72
     2
 73
     0
 90
        0
 40
-0.6
 41
-30.0
 62
     5
 63
     7
421
 16777215
 74
     1
 91
        4
 64
     7
 65
   257
 75
     1
175
     1
 42
1.0
 92
        0
 66
   257
 43
1.0
 76
     1
 77
     6
 78
     2
 67
     7
 79
     5
170
     0
171
     0
290
     0
174
     0
 93
        1
 44
0.0
173
     0
291
     0
 45
0.0
  0
VISUALSTYLE
  5
31
102
{ACAD_REACTORS
330
2A
102
}
102
{ACAD_XDICTIONARY
360
D4
102
}
330
2A
100
AcDbVisualStyle
  2
3D Hidden
 70
     6
 71
     1
 72
     2
 73
     2
 90
        0
 40
-0.6
 41
-30.0
 62
     5
 63
     7
421
 16777215
 74
     2
 91
        2
 64
     7
 65
   257
 75
     2
175
     1
 42
40.0
 92
        0
 66
   257
 43
1.0
 76
     1
 77
     6
 78
     2
 67
     7
 79
     3
170
     0
171
     0
290
     0
174
     0
 93
        1
 44
0.0
173
     0
291
     0
 45
0.0
  0
VISUALSTYLE
  5
30
102
{ACAD_REACTORS
330
2A
102
}
102
{ACAD_XDICTIONARY
360
D2
102
}
330
2A
100
AcDbVisualStyle
  2
3dWireframe
 70
     5
 71
     0
 72
     2
 73
     0
 90
        0
 40
-0.6
 41
-30.0
 62
     5
 63
     7
421
 16777215
 74
     1
 91
        4
 64
     7
 65
   257
 75
     1
175
     1
 42
1.0
 92
        0
 66
   257
 43
1.0
 76
     1
 77
     6
 78
     2
 67
     7
 79
     5
170
     0
171
     0
290
     0
174
     0
 93
        1
 44
0.0
173
     0
291
     0
 45
0.0
  0
VISUALSTYLE
  5
32
102
{ACAD_REACTORS
330
2A
102
}
102
{ACAD_XDICTIONARY
360
D6
102
}
330
2A
100
AcDbVisualStyle
  2
Basic
 70
     7
 71
     1
 72
     0
 73
     1
 90
        0
 40
-0.6
 41
-30.0
 62
     5
 63
     7
421
 16777215
 74
     0
 91
        4
 64
     7
 65
   257
 75
     1
175
     1
 42
1.0
 92
        8
 66
     7
 43
1.0
 76
     1
 77
     6
 78
     2
 67
     7
 79
     5
170
     0
171
     0
290
     0
174
     0
 93
        1
 44
0.0
173
     0
291
     1
 45
0.0
  0
VISUALSTYLE
  5
36
102
{ACAD_REACTORS
330
2A
102
}
102
{ACAD_XDICTIONARY
360
DE
102
}
330
2A
100
AcDbVisualStyle
  2
Brighten
 70
    12
 71
     2
 72
     2
 73
     0
 90
        0
 40
-0.6
 41
-30.0
 62
     5
 63
     7
421
 16777215
 74
     1
 91
        4
 64
     7
 65
   257
 75
     1
175
     1
 42
1.0
 92
        8
 66
     7
 43
1.0
 76
     1
 77
     6
 78
     2
 67
     7
 79
     5
170
     0
171
     0
290
     0
174
     0
 93
        1
 44
50.0
173
     0
291
     1
 45
0.0
  0
VISUALSTYLE
  5
3A
102
{ACAD_REACTORS
330
2A
102
}
102
{ACAD_XDICTIONARY
360
E6
102
}
330
2A
100
AcDbVisualStyle
  2
ColorChange
 70
    16
 71
     2
 72
     2
 73
     3
 90
        0
 40
-0.6
 41
-30.0
 62
     5
 63
     8
421
  8421504
 74
     1
 91
        4
 64
     7
 65
   257
 75
     1
175
     1
 42
1.0
 92
        8
 66
     8
424
  8421504
 43
1.0
 76
     1
 77
     6
 78
     2
 67
     7
 79
     5
170
     0
171
     0
290
     0
174
     0
 93
        1
 44
0.0
173
     0
291
     1
 45
0.0
  0
VISUALSTYLE
  5
34
102
{ACAD_REACTORS
330
2A
102
}
102
{ACAD_XDICTIONARY
360
DA
102
}
330
2A
100
AcDbVisualStyle
  2
Conceptual
 70
     9
 71
     3
 72
     2
 73
     0
 90
        0
 40
-0.6
 41
-30.0
 62
     5
 63
     7
421
 16777215
 74
     2
 91
        2
 64
     7
 65
   257
 75
     1
175
     1
 42
40.0
 92
        8
 66
     7
 43
1.0
 76
     1
 77
     6
 78
     2
 67
     7
 79
     3
170
     0
171
     0
290
     0
174
     0
 93
        1
 44
0.0
173
     0
291
     0
 45
0.0
  0
VISUALSTYLE
  5
35
102
{ACAD_REACTORS
330
2A
102
}
102
{ACAD_XDICTIONARY
360
DC
102
}
330
2A
100
AcDbVisualStyle
  2
Dim
 70
    11
 71
     2
 72
     2
 73
     0
 90
        0
 40
-0.6
 41
-30.0
 62
     5
 63
     7
421
 16777215
 74
     1
 91
        4
 64
     7
 65
   257
 75
     1
175
     1
 42
1.0
 92
        8
 66
     7
 43
1.0
 76
     1
 77
     6
 78
     2
 67
     7
 79
     5
170
     0
171
     0
290
     0
174
     0
 93
        1
 44
-50.0
173
     0
291
     1
 45
0.0
  0
VISUALSTYLE
  5
39
102
{ACAD_REACTORS
330
2A
102
}
102
{ACAD_XDICTIONARY
360
E4
102
}
330
2A
100
AcDbVisualStyle
  2
Facepattern
 70
    15
 71
     2
 72
     2
 73
     0
 90
        0
 40
-0.6
 41
-30.0
 62
     5
 63
     7
421
 16777215
 74
     1
 91
        4
 64
     7
 65
   257
 75
     1
175
     1
 42
1.0
 92
        8
 66
     7
 43
1.0
 76
     1
 77
     6
 78
     2
 67
     7
 79
     5
170
     0
171
     0
290
     0
174
     0
 93
        1
 44
0.0
173
     0
291
     1
 45
0.0
  0
VISUALSTYLE
  5
2B
102
{ACAD_REACTORS
330
2A
102
}
102
{ACAD_XDICTIONARY
360
C8
102
}
330
2A
100
AcDbVisualStyle
  2
Flat
 70
     0
 71
     2
 72
     1
 73
     1
 90
        2
 40
-0.6
 41
30.0
 62
     5
 63
     7
421
 16777215
 74
     0
 91
        4
 64
     7
 65
   257
 75
     1
175
     1
 42
1.0
 92
        8
 66
     7
 43
1.0
 76
     1
 77
     6
 78
     2
 67
     7
 79
     5
170
     0
171
     0
290
     0
174
     0
 93
       13
 44
0.0
173
     0
291
     1
 45
0.0
  0
VISUALSTYLE
  5
2C
102
{ACAD_REACTORS
330
2A
102
}
102
{ACAD_XDICTIONARY
360
CA
102
}
330
2A
100
AcDbVisualStyle
  2
FlatWithEdges
 70
     1
 71
     2
 72
     1
 73
     1
 90
        2
 40
-0.6
 41
30.0
 62
     5
 63
     7
421
 16777215
 74
     1
 91
        4
 64
     7
 65
   257
 75
     1
175
     1
 42
1.0
 92
        0
 66
   257
 43
1.0
 76
     1
 77
     6
 78
     2
 67
     7
 79
     5
170
     0
171
     0
290
     0
174
     0
 93
       13
 44
0.0
173
     0
291
     1
 45
0.0
  0
VISUALSTYLE
  5
2D
102
{ACAD_REACTORS
330
2A
102
}
102
{ACAD_XDICTIONARY
360
CC
102
}
330
2A
100
AcDbVisualStyle
  2
Gouraud
 70
     2
 71
     2
 72
     2
 73
     1
 90
        2
 40
-0.6
 41
30.0
 62
     5
 63
     7
421
 16777215
 74
     0
 91
        4
 64
     7
 65
   257
 75
     1
175
     1
 42
1.0
 92
        0
 66
     7
 43
1.0
 76
     1
 77
     6
 78
     2
 67
     7
 79
     5
170
     0
171
     0
290
     0
174
     0
 93
       13
 44
0.0
173
     0
291
     1
 45
0.0
  0
VISUALSTYLE
  5
2E
102
{ACAD_REACTORS
330
2A
102
}
102
{ACAD_XDICTIONARY
360
CE
102
}
330
2A
100
AcDbVisualStyle
  2
GouraudWithEdges
 70
     3
 71
     2
 72
     2
 73
     1
 90
        2
 40
-0.6
 41
30.0
 62
     5
 63
     7
421
 16777215
 74
     1
 91
        4
 64
     7
 65
   257
 75
     1
175
     1
 42
1.0
 92
        0
 66
   257
 43
1.0
 76
     1
 77
     6
 78
     2
 67
     7
 79
     5
170
     0
171
     0
290
     0
174
     0
 93
       13
 44
0.0
173
     0
291
     1
 45
0.0
  0
VISUALSTYLE
  5
38
102
{ACAD_REACTORS
330
2A
102
}
102
{ACAD_XDICTIONARY
360
E2
102
}
330
2A
100
AcDbVisualStyle
  2
Linepattern
 70
    14
 71
     2
 72
     2
 73
     0
 90
        0
 40
-0.6
 41
-30.0
 62
     5
 63
     7
421
 16777215
 74
     1
 91
        4
 64
     7
 65
   257
 75
     7
175
     7
 42
1.0
 92
        8
 66
     7
 43
1.0
 76
     1
 77
     6
 78
     2
 67
     7
 79
     5
170
     0
171
     0
290
     0
174
     0
 93
        1
 44
0.0
173
     0
291
     1
 45
0.0
  0
VISUALSTYLE
  5
33
102
{ACAD_REACTORS
330
2A
102
}
102
{ACAD_XDICTIONARY
360
D8
102
}
330
2A
100
AcDbVisualStyle
  2
Realistic
 70
     8
 71
     2
 72
     2
 73
     0
 90
        0
 40
-0.6
 41
-30.0
 62
     5
 63
     7
421
 16777215
 74
     1
 91
        0
 64
     7
 65
   257
 75
     1
175
     1
 42
1.0
 92
        8
 66
     8
424
  7895160
 43
1.0
 76
     1
 77
     6
 78
     2
 67
     7
 79
     5
170
     0
171
     0
290
     0
174
     0
 93
       13
 44
0.0
173
     0
291
     0
 45
0.0
  0
VISUALSTYLE
  5
37
102
{ACAD_REACTORS
330
2A
102
}
102
{ACAD_XDICTIONARY
360
E0
102
}
330
2A
100
AcDbVisualStyle
  2
Thicken
 70
    13
 71
     2
 72
     2
 73
     0
 90
        0
 40
-0.6
 41
-30.0
 62
     5
 63
     7
421
 16777215
 74
     1
 91
        4
 64
     7
 65
   257
 75
     1
175
     1
 42
1.0
 92
       12
 66
     7
 43
1.0
 76
     1
 77
     6
 78
     2
 67
     7
 79
     5
170
     0
171
     0
290
     0
174
     0
 93
        1
 44
0.0
173
     0
291
     1
 45
0.0
  0
DICTIONARY
  5
D0
330
2F
100
AcDbDictionary
280
     1
281
     1
  3
ACAD_XREC_ROUNDTRIP
360
D1
  0
DICTIONARY
  5
D4
330
31
100
AcDbDictionary
280
     1
281
     1
  3
ACAD_XREC_ROUNDTRIP
360
D5
  0
DICTIONARY
  5
D2
330
30
100
AcDbDictionary
280
     1
281
     1
  3
ACAD_XREC_ROUNDTRIP
360
D3
  0
DICTIONARY
  5
D6
330
32
100
AcDbDictionary
280
     1
281
     1
  3
ACAD_XREC_ROUNDTRIP
360
D7
  0
DICTIONARY
  5
DE
330
36
100
AcDbDictionary
280
     1
281
     1
  3
ACAD_XREC_ROUNDTRIP
360
DF
  0
DICTIONARY
  5
E6
330
3A
100
AcDbDictionary
280
     1
281
     1
  3
ACAD_XREC_ROUNDTRIP
360
E7
  0
DICTIONARY
  5
DA
330
34
100
AcDbDictionary
280
     1
281
     1
  3
ACAD_XREC_ROUNDTRIP
360
DB
  0
DICTIONARY
  5
DC
330
35
100
AcDbDictionary
280
     1
281
     1
  3
ACAD_XREC_ROUNDTRIP
360
DD
  0
DICTIONARY
  5
E4
330
39
100
AcDbDictionary
280
     1
281
     1
  3
ACAD_XREC_ROUNDTRIP
360
E5
  0
DICTIONARY
  5
C8
330
2B
100
AcDbDictionary
280
     1
281
     1
  3
ACAD_XREC_ROUNDTRIP
360
C9
  0
DICTIONARY
  5
CA
330
2C
100
AcDbDictionary
280
     1
281
     1
  3
ACAD_XREC_ROUNDTRIP
360
CB
  0
DICTIONARY
  5
CC
330
2D
100
AcDbDictionary
280
     1
281
     1
  3
ACAD_XREC_ROUNDTRIP
360
CD
  0
DICTIONARY
  5
CE
330
2E
100
AcDbDictionary
280
     1
281
     1
  3
ACAD_XREC_ROUNDTRIP
360
CF
  0
DICTIONARY
  5
E2
330
38
100
AcDbDictionary
280
     1
281
     1
  3
ACAD_XREC_ROUNDTRIP
360
E3
  0
DICTIONARY
  5
D8
330
33
100
AcDbDictionary
280
     1
281
     1
  3
ACAD_XREC_ROUNDTRIP
360
D9
  0
DICTIONARY
  5
E0
330
37
100
AcDbDictionary
280
     1
281
     1
  3
ACAD_XREC_ROUNDTRIP
360
E1
  0
XRECORD
  5
D1
102
{ACAD_REACTORS
330
D0
102
}
330
D0
100
AcDbXrecord
280
     1
102
RTVSPropertyOp0
 70
     1
102
RTVSPropertyOp1
 70
     1
102
RTVSPropertyOp2
 70
     1
102
RTVSPropertyOp3
 70
     1
102
RTVSPropertyOp4
 70
     1
102
RTVSPropertyOp5
 70
     1
102
RTVSPropertyOp6
 70
     1
102
RTVSPropertyOp7
 70
     1
102
RTVSPropertyOp8
 70
     1
102
RTVSPropertyOp9
 70
     1
102
RTVSPropertyOp10
 70
     1
102
RTVSPropertyOp11
 70
     1
102
RTVSPropertyOp12
 70
     1
102
RTVSPropertyOp13
 70
     1
102
RTVSPropertyOp14
 70
     1
102
RTVSPropertyOp15
 70
     1
102
RTVSPropertyOp16
 70
     1
102
RTVSPropertyOp17
 70
     1
102
RTVSPropertyOp18
 70
     1
102
RTVSPropertyOp19
 70
     1
102
RTVSPropertyOp20
 70
     1
102
RTVSPropertyOp21
 70
     1
102
RTVSPropertyOp22
 70
     1
102
RTVSPropertyOp23
 70
     1
102
RTVSPropertyOp24
 70
     1
102
RTVSPropertyOp25
 70
     1
102
RTVSPropertyOp26
 70
     1
102
RTVSPropertyOp27
 70
     1
  0
XRECORD
  5
D5
102
{ACAD_REACTORS
330
D4
102
}
330
D4
100
AcDbXrecord
280
     1
102
RTVSPropertyOp0
 70
     1
102
RTVSPropertyOp1
 70
     1
102
RTVSPropertyOp2
 70
     1
102
RTVSPropertyOp3
 70
     1
102
RTVSPropertyOp4
 70
     1
102
RTVSPropertyOp5
 70
     1
102
RTVSPropertyOp6
 70
     1
102
RTVSPropertyOp7
 70
     1
102
RTVSPropertyOp8
 70
     1
102
RTVSPropertyOp9
 70
     1
102
RTVSPropertyOp10
 70
     1
102
RTVSPropertyOp11
 70
     1
102
RTVSPropertyOp12
 70
     1
102
RTVSPropertyOp13
 70
     1
102
RTVSPropertyOp14
 70
     1
102
RTVSPropertyOp15
 70
     1
102
RTVSPropertyOp16
 70
     1
102
RTVSPropertyOp17
 70
     1
102
RTVSPropertyOp18
 70
     1
102
RTVSPropertyOp19
 70
     1
102
RTVSPropertyOp20
 70
     1
102
RTVSPropertyOp21
 70
     1
102
RTVSPropertyOp22
 70
     1
102
RTVSPropertyOp23
 70
     1
102
RTVSPropertyOp24
 70
     1
102
RTVSPropertyOp25
 70
     1
102
RTVSPropertyOp26
 70
     1
102
RTVSPropertyOp27
 70
     1
  0
XRECORD
  5
D3
102
{ACAD_REACTORS
330
D2
102
}
330
D2
100
AcDbXrecord
280
     1
102
RTVSPropertyOp0
 70
     1
102
RTVSPropertyOp1
 70
     1
102
RTVSPropertyOp2
 70
     1
102
RTVSPropertyOp3
 70
     1
102
RTVSPropertyOp4
 70
     1
102
RTVSPropertyOp5
 70
     1
102
RTVSPropertyOp6
 70
     1
102
RTVSPropertyOp7
 70
     1
102
RTVSPropertyOp8
 70
     1
102
RTVSPropertyOp9
 70
     1
102
RTVSPropertyOp10
 70
     1
102
RTVSPropertyOp11
 70
     1
102
RTVSPropertyOp12
 70
     1
102
RTVSPropertyOp13
 70
     1
102
RTVSPropertyOp14
 70
     1
102
RTVSPropertyOp15
 70
     1
102
RTVSPropertyOp16
 70
     1
102
RTVSPropertyOp17
 70
     1
102
RTVSPropertyOp18
 70
     1
102
RTVSPropertyOp19
 70
     1
102
RTVSPropertyOp20
 70
     1
102
RTVSPropertyOp21
 70
     1
102
RTVSPropertyOp22
 70
     1
102
RTVSPropertyOp23
 70
     1
102
RTVSPropertyOp24
 70
     1
102
RTVSPropertyOp25
 70
     1
102
RTVSPropertyOp26
 70
     1
102
RTVSPropertyOp27
 70
     1
  0
XRECORD
  5
D7
102
{ACAD_REACTORS
330
D6
102
}
330
D6
100
AcDbXrecord
280
     1
102
RTVSPropertyOp0
 70
     1
102
RTVSPropertyOp1
 70
     1
102
RTVSPropertyOp2
 70
     1
102
RTVSPropertyOp3
 70
     1
102
RTVSPropertyOp4
 70
     1
102
RTVSPropertyOp5
 70
     1
102
RTVSPropertyOp6
 70
     1
102
RTVSPropertyOp7
 70
     1
102
RTVSPropertyOp8
 70
     1
102
RTVSPropertyOp9
 70
     1
102
RTVSPropertyOp10
 70
     1
102
RTVSPropertyOp11
 70
     1
102
RTVSPropertyOp12
 70
     1
102
RTVSPropertyOp13
 70
     1
102
RTVSPropertyOp14
 70
     1
102
RTVSPropertyOp15
 70
     1
102
RTVSPropertyOp16
 70
     1
102
RTVSPropertyOp17
 70
     1
102
RTVSPropertyOp18
 70
     1
102
RTVSPropertyOp19
 70
     1
102
RTVSPropertyOp20
 70
     1
102
RTVSPropertyOp21
 70
     1
102
RTVSPropertyOp22
 70
     1
102
RTVSPropertyOp23
 70
     1
102
RTVSPropertyOp24
 70
     1
102
RTVSPropertyOp25
 70
     1
102
RTVSPropertyOp26
 70
     1
102
RTVSPropertyOp27
 70
     1
  0
XRECORD
  5
DF
102
{ACAD_REACTORS
330
DE
102
}
330
DE
100
AcDbXrecord
280
     1
102
RTVSPropertyOp0
 70
     1
102
RTVSPropertyOp1
 70
     1
102
RTVSPropertyOp2
 70
     1
102
RTVSPropertyOp3
 70
     1
102
RTVSPropertyOp4
 70
     1
102
RTVSPropertyOp5
 70
     1
102
RTVSPropertyOp6
 70
     1
102
RTVSPropertyOp7
 70
     1
102
RTVSPropertyOp8
 70
     1
102
RTVSPropertyOp9
 70
     1
102
RTVSPropertyOp10
 70
     1
102
RTVSPropertyOp11
 70
     1
102
RTVSPropertyOp12
 70
     1
102
RTVSPropertyOp13
 70
     1
102
RTVSPropertyOp14
 70
     1
102
RTVSPropertyOp15
 70
     1
102
RTVSPropertyOp16
 70
     1
102
RTVSPropertyOp17
 70
     1
102
RTVSPropertyOp18
 70
     1
102
RTVSPropertyOp19
 70
     1
102
RTVSPropertyOp20
 70
     1
102
RTVSPropertyOp21
 70
     1
102
RTVSPropertyOp22
 70
     1
102
RTVSPropertyOp23
 70
     1
102
RTVSPropertyOp24
 70
     1
102
RTVSPropertyOp25
 70
     1
102
RTVSPropertyOp26
 70
     1
102
RTVSPropertyOp27
 70
     1
  0
XRECORD
  5
E7
102
{ACAD_REACTORS
330
E6
102
}
330
E6
100
AcDbXrecord
280
     1
102
RTVSPropertyOp0
 70
     1
102
RTVSPropertyOp1
 70
     1
102
RTVSPropertyOp2
 70
     1
102
RTVSPropertyOp3
 70
     1
102
RTVSPropertyOp4
 70
     1
102
RTVSPropertyOp5
 70
     1
102
RTVSPropertyOp6
 70
     1
102
RTVSPropertyOp7
 70
     1
102
RTVSPropertyOp8
 70
     1
102
RTVSPropertyOp9
 70
     1
102
RTVSPropertyOp10
 70
     1
102
RTVSPropertyOp11
 70
     1
102
RTVSPropertyOp12
 70
     1
102
RTVSPropertyOp13
 70
     1
102
RTVSPropertyOp14
 70
     1
102
RTVSPropertyOp15
 70
     1
102
RTVSPropertyOp16
 70
     1
102
RTVSPropertyOp17
 70
     1
102
RTVSPropertyOp18
 70
     1
102
RTVSPropertyOp19
 70
     1
102
RTVSPropertyOp20
 70
     1
102
RTVSPropertyOp21
 70
     1
102
RTVSPropertyOp22
 70
     1
102
RTVSPropertyOp23
 70
     1
102
RTVSPropertyOp24
 70
     1
102
RTVSPropertyOp25
 70
     1
102
RTVSPropertyOp26
 70
     1
102
RTVSPropertyOp27
 70
     1
  0
XRECORD
  5
DB
102
{ACAD_REACTORS
330
DA
102
}
330
DA
100
AcDbXrecord
280
     1
102
RTVSPropertyOp0
 70
     1
102
RTVSPropertyOp1
 70
     1
102
RTVSPropertyOp2
 70
     1
102
RTVSPropertyOp3
 70
     1
102
RTVSPropertyOp4
 70
     1
102
RTVSPropertyOp5
 70
     1
102
RTVSPropertyOp6
 70
     1
102
RTVSPropertyOp7
 70
     1
102
RTVSPropertyOp8
 70
     1
102
RTVSPropertyOp9
 70
     1
102
RTVSPropertyOp10
 70
     1
102
RTVSPropertyOp11
 70
     1
102
RTVSPropertyOp12
 70
     1
102
RTVSPropertyOp13
 70
     1
102
RTVSPropertyOp14
 70
     1
102
RTVSPropertyOp15
 70
     1
102
RTVSPropertyOp16
 70
     1
102
RTVSPropertyOp17
 70
     1
102
RTVSPropertyOp18
 70
     1
102
RTVSPropertyOp19
 70
     1
102
RTVSPropertyOp20
 70
     1
102
RTVSPropertyOp21
 70
     1
102
RTVSPropertyOp22
 70
     1
102
RTVSPropertyOp23
 70
     1
102
RTVSPropertyOp24
 70
     1
102
RTVSPropertyOp25
 70
     1
102
RTVSPropertyOp26
 70
     1
102
RTVSPropertyOp27
 70
     1
  0
XRECORD
  5
DD
102
{ACAD_REACTORS
330
DC
102
}
330
DC
100
AcDbXrecord
280
     1
102
RTVSPropertyOp0
 70
     1
102
RTVSPropertyOp1
 70
     1
102
RTVSPropertyOp2
 70
     1
102
RTVSPropertyOp3
 70
     1
102
RTVSPropertyOp4
 70
     1
102
RTVSPropertyOp5
 70
     1
102
RTVSPropertyOp6
 70
     1
102
RTVSPropertyOp7
 70
     1
102
RTVSPropertyOp8
 70
     1
102
RTVSPropertyOp9
 70
     1
102
RTVSPropertyOp10
 70
     1
102
RTVSPropertyOp11
 70
     1
102
RTVSPropertyOp12
 70
     1
102
RTVSPropertyOp13
 70
     1
102
RTVSPropertyOp14
 70
     1
102
RTVSPropertyOp15
 70
     1
102
RTVSPropertyOp16
 70
     1
102
RTVSPropertyOp17
 70
     1
102
RTVSPropertyOp18
 70
     1
102
RTVSPropertyOp19
 70
     1
102
RTVSPropertyOp20
 70
     1
102
RTVSPropertyOp21
 70
     1
102
RTVSPropertyOp22
 70
     1
102
RTVSPropertyOp23
 70
     1
102
RTVSPropertyOp24
 70
     1
102
RTVSPropertyOp25
 70
     1
102
RTVSPropertyOp26
 70
     1
102
RTVSPropertyOp27
 70
     1
  0
XRECORD
  5
E5
102
{ACAD_REACTORS
330
E4
102
}
330
E4
100
AcDbXrecord
280
     1
102
RTVSPropertyOp0
 70
     1
102
RTVSPropertyOp1
 70
     1
102
RTVSPropertyOp2
 70
     1
102
RTVSPropertyOp3
 70
     1
102
RTVSPropertyOp4
 70
     1
102
RTVSPropertyOp5
 70
     1
102
RTVSPropertyOp6
 70
     1
102
RTVSPropertyOp7
 70
     1
102
RTVSPropertyOp8
 70
     1
102
RTVSPropertyOp9
 70
     1
102
RTVSPropertyOp10
 70
     1
102
RTVSPropertyOp11
 70
     1
102
RTVSPropertyOp12
 70
     1
102
RTVSPropertyOp13
 70
     1
102
RTVSPropertyOp14
 70
     1
102
RTVSPropertyOp15
 70
     1
102
RTVSPropertyOp16
 70
     1
102
RTVSPropertyOp17
 70
     1
102
RTVSPropertyOp18
 70
     1
102
RTVSPropertyOp19
 70
     1
102
RTVSPropertyOp20
 70
     1
102
RTVSPropertyOp21
 70
     1
102
RTVSPropertyOp22
 70
     1
102
RTVSPropertyOp23
 70
     1
102
RTVSPropertyOp24
 70
     1
102
RTVSPropertyOp25
 70
     1
102
RTVSPropertyOp26
 70
     1
102
RTVSPropertyOp27
 70
     1
  0
XRECORD
  5
C9
102
{ACAD_REACTORS
330
C8
102
}
330
C8
100
AcDbXrecord
280
     1
102
RTVSPropertyOp0
 70
     1
102
RTVSPropertyOp1
 70
     1
102
RTVSPropertyOp2
 70
     1
102
RTVSPropertyOp3
 70
     1
102
RTVSPropertyOp4
 70
     1
102
RTVSPropertyOp5
 70
     1
102
RTVSPropertyOp6
 70
     1
102
RTVSPropertyOp7
 70
     1
102
RTVSPropertyOp8
 70
     1
102
RTVSPropertyOp9
 70
     1
102
RTVSPropertyOp10
 70
     1
102
RTVSPropertyOp11
 70
     1
102
RTVSPropertyOp12
 70
     1
102
RTVSPropertyOp13
 70
     1
102
RTVSPropertyOp14
 70
     1
102
RTVSPropertyOp15
 70
     1
102
RTVSPropertyOp16
 70
     1
102
RTVSPropertyOp17
 70
     1
102
RTVSPropertyOp18
 70
     1
102
RTVSPropertyOp19
 70
     1
102
RTVSPropertyOp20
 70
     1
102
RTVSPropertyOp21
 70
     1
102
RTVSPropertyOp22
 70
     1
102
RTVSPropertyOp23
 70
     1
102
RTVSPropertyOp24
 70
     1
102
RTVSPropertyOp25
 70
     1
102
RTVSPropertyOp26
 70
     1
102
RTVSPropertyOp27
 70
     1
  0
XRECORD
  5
CB
102
{ACAD_REACTORS
330
CA
102
}
330
CA
100
AcDbXrecord
280
     1
102
RTVSPropertyOp0
 70
     1
102
RTVSPropertyOp1
 70
     1
102
RTVSPropertyOp2
 70
     1
102
RTVSPropertyOp3
 70
     1
102
RTVSPropertyOp4
 70
     1
102
RTVSPropertyOp5
 70
     1
102
RTVSPropertyOp6
 70
     1
102
RTVSPropertyOp7
 70
     1
102
RTVSPropertyOp8
 70
     1
102
RTVSPropertyOp9
 70
     1
102
RTVSPropertyOp10
 70
     1
102
RTVSPropertyOp11
 70
     1
102
RTVSPropertyOp12
 70
     1
102
RTVSPropertyOp13
 70
     1
102
RTVSPropertyOp14
 70
     1
102
RTVSPropertyOp15
 70
     1
102
RTVSPropertyOp16
 70
     1
102
RTVSPropertyOp17
 70
     1
102
RTVSPropertyOp18
 70
     1
102
RTVSPropertyOp19
 70
     1
102
RTVSPropertyOp20
 70
     1
102
RTVSPropertyOp21
 70
     1
102
RTVSPropertyOp22
 70
     1
102
RTVSPropertyOp23
 70
     1
102
RTVSPropertyOp24
 70
     1
102
RTVSPropertyOp25
 70
     1
102
RTVSPropertyOp26
 70
     1
102
RTVSPropertyOp27
 70
     1
  0
XRECORD
  5
CD
102
{ACAD_REACTORS
330
CC
102
}
330
CC
100
AcDbXrecord
280
     1
102
RTVSPropertyOp0
 70
     1
102
RTVSPropertyOp1
 70
     1
102
RTVSPropertyOp2
 70
     1
102
RTVSPropertyOp3
 70
     1
102
RTVSPropertyOp4
 70
     1
102
RTVSPropertyOp5
 70
     1
102
RTVSPropertyOp6
 70
     1
102
RTVSPropertyOp7
 70
     1
102
RTVSPropertyOp8
 70
     1
102
RTVSPropertyOp9
 70
     1
102
RTVSPropertyOp10
 70
     1
102
RTVSPropertyOp11
 70
     1
102
RTVSPropertyOp12
 70
     1
102
RTVSPropertyOp13
 70
     1
102
RTVSPropertyOp14
 70
     1
102
RTVSPropertyOp15
 70
     1
102
RTVSPropertyOp16
 70
     1
102
RTVSPropertyOp17
 70
     1
102
RTVSPropertyOp18
 70
     1
102
RTVSPropertyOp19
 70
     1
102
RTVSPropertyOp20
 70
     1
102
RTVSPropertyOp21
 70
     1
102
RTVSPropertyOp22
 70
     1
102
RTVSPropertyOp23
 70
     1
102
RTVSPropertyOp24
 70
     1
102
RTVSPropertyOp25
 70
     1
102
RTVSPropertyOp26
 70
     1
102
RTVSPropertyOp27
 70
     1
  0
XRECORD
  5
CF
102
{ACAD_REACTORS
330
CE
102
}
330
CE
100
AcDbXrecord
280
     1
102
RTVSPropertyOp0
 70
     1
102
RTVSPropertyOp1
 70
     1
102
RTVSPropertyOp2
 70
     1
102
RTVSPropertyOp3
 70
     1
102
RTVSPropertyOp4
 70
     1
102
RTVSPropertyOp5
 70
     1
102
RTVSPropertyOp6
 70
     1
102
RTVSPropertyOp7
 70
     1
102
RTVSPropertyOp8
 70
     1
102
RTVSPropertyOp9
 70
     1
102
RTVSPropertyOp10
 70
     1
102
RTVSPropertyOp11
 70
     1
102
RTVSPropertyOp12
 70
     1
102
RTVSPropertyOp13
 70
     1
102
RTVSPropertyOp14
 70
     1
102
RTVSPropertyOp15
 70
     1
102
RTVSPropertyOp16
 70
     1
102
RTVSPropertyOp17
 70
     1
102
RTVSPropertyOp18
 70
     1
102
RTVSPropertyOp19
 70
     1
102
RTVSPropertyOp20
 70
     1
102
RTVSPropertyOp21
 70
     1
102
RTVSPropertyOp22
 70
     1
102
RTVSPropertyOp23
 70
     1
102
RTVSPropertyOp24
 70
     1
102
RTVSPropertyOp25
 70
     1
102
RTVSPropertyOp26
 70
     1
102
RTVSPropertyOp27
 70
     1
  0
XRECORD
  5
E3
102
{ACAD_REACTORS
330
E2
102
}
330
E2
100
AcDbXrecord
280
     1
102
RTVSPropertyOp0
 70
     1
102
RTVSPropertyOp1
 70
     1
102
RTVSPropertyOp2
 70
     1
102
RTVSPropertyOp3
 70
     1
102
RTVSPropertyOp4
 70
     1
102
RTVSPropertyOp5
 70
     1
102
RTVSPropertyOp6
 70
     1
102
RTVSPropertyOp7
 70
     1
102
RTVSPropertyOp8
 70
     1
102
RTVSPropertyOp9
 70
     1
102
RTVSPropertyOp10
 70
     1
102
RTVSPropertyOp11
 70
     1
102
RTVSPropertyOp12
 70
     1
102
RTVSPropertyOp13
 70
     1
102
RTVSPropertyOp14
 70
     1
102
RTVSPropertyOp15
 70
     1
102
RTVSPropertyOp16
 70
     1
102
RTVSPropertyOp17
 70
     1
102
RTVSPropertyOp18
 70
     1
102
RTVSPropertyOp19
 70
     1
102
RTVSPropertyOp20
 70
     1
102
RTVSPropertyOp21
 70
     1
102
RTVSPropertyOp22
 70
     1
102
RTVSPropertyOp23
 70
     1
102
RTVSPropertyOp24
 70
     1
102
RTVSPropertyOp25
 70
     1
102
RTVSPropertyOp26
 70
     1
102
RTVSPropertyOp27
 70
     1
  0
XRECORD
  5
D9
102
{ACAD_REACTORS
330
D8
102
}
330
D8
100
AcDbXrecord
280
     1
102
RTVSPropertyOp0
 70
     1
102
RTVSPropertyOp1
 70
     1
102
RTVSPropertyOp2
 70
     1
102
RTVSPropertyOp3
 70
     1
102
RTVSPropertyOp4
 70
     1
102
RTVSPropertyOp5
 70
     1
102
RTVSPropertyOp6
 70
     1
102
RTVSPropertyOp7
 70
     1
102
RTVSPropertyOp8
 70
     1
102
RTVSPropertyOp9
 70
     1
102
RTVSPropertyOp10
 70
     1
102
RTVSPropertyOp11
 70
     1
102
RTVSPropertyOp12
 70
     1
102
RTVSPropertyOp13
 70
     1
102
RTVSPropertyOp14
 70
     1
102
RTVSPropertyOp15
 70
     1
102
RTVSPropertyOp16
 70
     1
102
RTVSPropertyOp17
 70
     1
102
RTVSPropertyOp18
 70
     1
102
RTVSPropertyOp19
 70
     1
102
RTVSPropertyOp20
 70
     1
102
RTVSPropertyOp21
 70
     1
102
RTVSPropertyOp22
 70
     1
102
RTVSPropertyOp23
 70
     1
102
RTVSPropertyOp24
 70
     1
102
RTVSPropertyOp25
 70
     1
102
RTVSPropertyOp26
 70
     1
102
RTVSPropertyOp27
 70
     1
  0
XRECORD
  5
E1
102
{ACAD_REACTORS
330
E0
102
}
330
E0
100
AcDbXrecord
280
     1
102
RTVSPropertyOp0
 70
     1
102
RTVSPropertyOp1
 70
     1
102
RTVSPropertyOp2
 70
     1
102
RTVSPropertyOp3
 70
     1
102
RTVSPropertyOp4
 70
     1
102
RTVSPropertyOp5
 70
     1
102
RTVSPropertyOp6
 70
     1
102
RTVSPropertyOp7
 70
     1
102
RTVSPropertyOp8
 70
     1
102
RTVSPropertyOp9
 70
     1
102
RTVSPropertyOp10
 70
     1
102
RTVSPropertyOp11
 70
     1
102
RTVSPropertyOp12
 70
     1
102
RTVSPropertyOp13
 70
     1
102
RTVSPropertyOp14
 70
     1
102
RTVSPropertyOp15
 70
     1
102
RTVSPropertyOp16
 70
     1
102
RTVSPropertyOp17
 70
     1
102
RTVSPropertyOp18
 70
     1
102
RTVSPropertyOp19
 70
     1
102
RTVSPropertyOp20
 70
     1
102
RTVSPropertyOp21
 70
     1
102
RTVSPropertyOp22
 70
     1
102
RTVSPropertyOp23
 70
     1
102
RTVSPropertyOp24
 70
     1
102
RTVSPropertyOp25
 70
     1
102
RTVSPropertyOp26
 70
     1
102
RTVSPropertyOp27
 70
     1
  0
ENDSEC
  0
EOF
