  0
SECTION
  2
HEADER
  9
$ACADVER
  1
AC1009
  9
$DWGCODEPAGE
  3
ansi_1252
  9
$INSBASE
 10
0.0
 20
0.0
 30
0.0
  9
$EXTMIN
 10
5.969732937685563
 20
5.545725336213536
 30
0.0
  9
$EXTMAX
 10
491.7694859762585
 20
311.9528189910979
 30
0.0
  9
$LIMMIN
 10
0.0
 20
0.0
  9
$LIMMAX
 10
420.0
 20
297.0
  9
$ORTHOMODE
 70
     0
  9
$REGENMODE
 70
     1
  9
$FILLMODE
 70
     1
  9
$QTEXTMODE
 70
     0
  9
$MIRRTEXT
 70
     0
  9
$DRAGMODE
 70
     2
  9
$LTSCALE
 40
1.0
  9
$OSMODE
 70
  4791
  9
$ATTMODE
 70
     1
  9
$TEXTSIZE
 40
2.5
  9
$TRACEWID
 40
1.0
  9
$TEXTSTYLE
  7
STANDARD
  9
$CLAYER
  8
0
  9
$CELTYPE
  6
BYLAYER
  9
$CECOLOR
 62
   256
  9
$DIMSCALE
 40
1.0
  9
$DIMASZ
 40
2.5
  9
$DIMEXO
 40
0.625
  9
$DIMDLI
 40
3.75
  9
$DIMRND
 40
0.0
  9
$DIMDLE
 40
0.0
  9
$DIMEXE
 40
1.25
  9
$DIMTP
 40
0.0
  9
$DIMTM
 40
0.0
  9
$DIMTXT
 40
2.5
  9
$DIMCEN
 40
2.5
  9
$DIMTSZ
 40
0.0
  9
$DIMTOL
 70
     0
  9
$DIMLIM
 70
     0
  9
$DIMTIH
 70
     0
  9
$DIMTOH
 70
     0
  9
$DIMSE1
 70
     0
  9
$DIMSE2
 70
     0
  9
$DIMTAD
 70
     1
  9
$DIMZIN
 70
     8
  9
$DIMBLK
  1

  9
$DIMASO
 70
     1
  9
$DIMSHO
 70
     1
  9
$DIMPOST
  1

  9
$DIMAPOST
  1

  9
$DIMALT
 70
     0
  9
$DIMALTD
 70
     3
  9
$DIMALTF
 40
0.03937007874016
  9
$DIMLFAC
 40
1.0
  9
$DIMTOFL
 70
     1
  9
$DIMTVP
 40
0.0
  9
$DIMTIX
 70
     0
  9
$DIMSOXD
 70
     0
  9
$DIMSAH
 70
     0
  9
$DIMBLK1
  1

  9
$DIMBLK2
  1

  9
$DIMSTYLE
  2
ISO-25
  9
$DIMCLRD
 70
     0
  9
$DIMCLRE
 70
     0
  9
$DIMCLRT
 70
     0
  9
$DIMTFAC
 40
1.0
  9
$DIMGAP
 40
0.625
  9
$LUNITS
 70
     2
  9
$LUPREC
 70
     3
  9
$SKETCHINC
 40
1.0
  9
$FILLETRAD
 40
10.0
  9
$AUNITS
 70
     0
  9
$AUPREC
 70
     0
  9
$MENU
  1
.
  9
$ELEVATION
 40
0.0
  9
$PELEVATION
 40
0.0
  9
$THICKNESS
 40
0.0
  9
$LIMCHECK
 70
     0
  9
$CHAMFERA
 40
10.0
  9
$CHAMFERB
 40
10.0
  9
$SKPOLY
 70
     0
  9
$TDCREATE
 40
2455022.720692847
  9
$TDUPDATE
 40
2458295.512385718
  9
$TDINDWG
 40
0.0022932755
  9
$TDUSRTIMER
 40
0.0022938773
  9
$USRTIMER
 70
     1
  9
$ANGBASE
 50
0.0
  9
$ANGDIR
 70
     0
  9
$PDMODE
 70
     0
  9
$PDSIZE
 40
0.0
  9
$PLINEWID
 40
0.0
  9
$COORDS
 70
     1
  9
$SPLFRAME
 70
     0
  9
$SPLINETYPE
 70
     6
  9
$SPLINESEGS
 70
     8
  9
$ATTDIA
 70
     0
  9
$ATTREQ
 70
     1
  9
$HANDLING
 70
     1
  9
$HANDSEED
  5
623
  9
$SURFTAB1
 70
     6
  9
$SURFTAB2
 70
     6
  9
$SURFTYPE
 70
     6
  9
$SURFU
 70
     6
  9
$SURFV
 70
     6
  9
$UCSNAME
  2

  9
$UCSORG
 10
0.0
 20
0.0
 30
0.0
  9
$UCSXDIR
 10
1.0
 20
0.0
 30
0.0
  9
$UCSYDIR
 10
0.0
 20
1.0
 30
0.0
  9
$PUCSNAME
  2

  9
$PUCSORG
 10
0.0
 20
0.0
 30
0.0
  9
$PUCSXDIR
 10
1.0
 20
0.0
 30
0.0
  9
$PUCSYDIR
 10
0.0
 20
1.0
 30
0.0
  9
$USERI1
 70
     0
  9
$USERI2
 70
     0
  9
$USERI3
 70
     0
  9
$USERI4
 70
     0
  9
$USERI5
 70
     0
  9
$USERR1
 40
0.0
  9
$USERR2
 40
0.0
  9
$USERR3
 40
0.0
  9
$USERR4
 40
0.0
  9
$USERR5
 40
0.0
  9
$WORLDVIEW
 70
     1
  9
$SHADEDGE
 70
     3
  9
$SHADEDIF
 70
    70
  9
$TILEMODE
 70
     1
  9
$MAXACTVP
 70
    64
  9
$PLIMCHECK
 70
     0
  9
$PEXTMIN
 10
1.000000000000000E+20
 20
1.000000000000000E+20
 30
1.000000000000000E+20
  9
$PEXTMAX
 10
-1.000000000000000E+20
 20
-1.000000000000000E+20
 30
-1.000000000000000E+20
  9
$PLIMMIN
 10
0.0
 20
0.0
  9
$PLIMMAX
 10
0.0
 20
0.0
  9
$UNITMODE
 70
     0
  9
$VISRETAIN
 70
     1
  9
$PLINEGEN
 70
     0
  9
$PSLTSCALE
 70
     1
  0
ENDSEC
  0
SECTION
  2
TABLES
  0
TABLE
  2
VPORT
 70
     1
  0
VPORT
  2
*ACTIVE
 70
     0
 10
0.0
 20
0.0
 11
1.0
 21
1.0
 12
287.5440546363306
 22
157.7875879892813
 13
0.0
 23
0.0
 14
10.0
 24
10.0
 15
10.0
 25
10.0
 16
0.0
 26
0.0
 36
1.0
 17
-134.1869158878504
 27
0.0
 37
0.0
 40
752.3437500000005
 41
2.192878338278932
 42
50.0
 43
0.0
 44
0.0
 50
0.0
 51
0.0
 71
    16
 72
  1000
 73
     1
 74
     3
 75
     0
 76
     0
 77
     0
 78
     0
  0
ENDTAB
  0
TABLE
  2
LTYPE
 70
     1
  0
LTYPE
  2
CONTINUOUS
 70
     0
  3
Solid line
 72
    65
 73
     0
 40
0.0
  0
ENDTAB
  0
TABLE
  2
LAYER
 70
     3
  0
LAYER
  2
0
 70
     0
 62
     7
  6
CONTINUOUS
  0
LAYER
  2
TALL_1
 70
     0
 62
     4
  6
CONTINUOUS
  0
LAYER
  2
NO_IMPRES
 70
     0
 62
     5
  6
CONTINUOUS
  0
ENDTAB
  0
TABLE
  2
STYLE
 70
     2
  0
STYLE
  2
STANDARD
 70
     0
 40
0.0
 41
1.0
 50
0.0
 71
     0
 42
2.5
  3
arial.ttf
  4

  0
STYLE
  2
ANNOTATIVE
 70
     0
 40
0.0
 41
1.0
 50
0.0
 71
     0
 42
2.5
  3
arial.ttf
  4

  0
ENDTAB
  0
TABLE
  2
VIEW
 70
     0
  0
ENDTAB
  0
TABLE
  2
UCS
 70
     0
  0
ENDTAB
  0
TABLE
  2
APPID
 70
     4
  0
APPID
  2
ACAD
 70
     0
  0
APPID
  2
ACADANNOTATIVE
 70
     0
  0
APPID
  2
ACAECLAYERSTANDARD
 70
     0
  0
APPID
  2
PLOTTRANSPARENCY
 70
     0
  0
ENDTAB
  0
TABLE
  2
DIMSTYLE
 70
     2
  0
DIMSTYLE
  2
ISO-25
 70
     0
  3

  4

  5

  6

  7

 40
1.0
 41
2.5
 42
0.625
 43
3.75
 44
1.25
 45
0.0
 46
0.0
 47
0.0
 48
0.0
140
2.5
141
2.5
142
0.0
143
0.03937007874016
144
1.0
145
0.0
146
1.0
147
0.625
 71
     0
 72
     0
 73
     0
 74
     0
 75
     0
 76
     0
 77
     1
 78
     8
170
     0
171
     3
172
     1
173
     0
174
     0
175
     0
176
     0
177
     0
178
     0
  0
DIMSTYLE
  2
ANNOTATIVE
 70
     0
  3

  4

  5

  6

  7

 40
0.0
 41
2.5
 42
0.625
 43
3.75
 44
1.25
 45
0.0
 46
0.0
 47
0.0
 48
0.0
140
2.5
141
2.5
142
0.0
143
0.03937007874016
144
1.0
145
0.0
146
1.0
147
0.625
 71
     0
 72
     0
 73
     0
 74
     0
 75
     0
 76
     0
 77
     1
 78
     8
170
     0
171
     3
172
     1
173
     0
174
     0
175
     0
176
     0
177
     0
178
     0
  0
ENDTAB
  0
ENDSEC
  0
SECTION
  2
BLOCKS
  0
BLOCK
  8
0
  2
$MODEL_SPACE
 70
     0
 10
0.0
 20
0.0
 30
0.0
  3
$MODEL_SPACE
  1

  0
ENDBLK
  5
21
  8
0
  0
BLOCK
 67
     1
  8
0
  2
$PAPER_SPACE
 70
     0
 10
0.0
 20
0.0
 30
0.0
  3
$PAPER_SPACE
  1

  0
ENDBLK
  5
1D
 67
     1
  8
0
  0
ENDSEC
  0
SECTION
  2
ENTITIES
  0
POLYLINE
  5
1D6
  8
0
 66
     1
 10
0.0
 20
0.0
 30
0.0
 70
     1
  0
VERTEX
  5
4D1
  8
0
 10
167.7684426674006
 20
289.3534316878943
 30
0.0
 42
-0.4142135623730998
  0
VERTEX
  5
4D2
  8
0
 10
171.7684426674008
 20
285.3534316878943
 30
0.0
  0
VERTEX
  5
4D3
  8
0
 10
171.7684426674008
 20
123.3534316878943
 30
0.0
 42
-0.4142135623731014
  0
VERTEX
  5
4D4
  8
0
 10
167.7684426674006
 20
119.3534316878943
 30
0.0
  0
VERTEX
  5
4D5
  8
0
 10
130.7684426674008
 20
119.3534316878943
 30
0.0
 42
-0.4142135623731014
  0
VERTEX
  5
4D6
  8
0
 10
126.7684426674008
 20
123.3534316878943
 30
0.0
  0
VERTEX
  5
4D7
  8
0
 10
126.7684426674008
 20
285.3534316878943
 30
0.0
 42
-0.4142135623730995
  0
VERTEX
  5
4D8
  8
0
 10
130.7684426674008
 20
289.3534316878943
 30
0.0
  0
SEQEND
  5
5F7
  8
0
  0
LINE
  5
1D7
  8
TALL_1
 10
154.2684426674008
 20
176.3534316878943
 30
0.0
 11
154.2684426674008
 21
173.3534316878943
 31
0.0
  0
LINE
  5
1D8
  8
TALL_1
 10
154.2684426674008
 20
173.3534316878943
 30
0.0
 11
144.2684426674006
 21
173.3534316878943
 31
0.0
  0
LINE
  5
1D9
  8
TALL_1
 10
144.2684426674006
 20
173.3534316878943
 30
0.0
 11
144.2684426674006
 21
176.3534316878943
 31
0.0
  0
LINE
  5
1DA
  8
TALL_1
 10
149.2684426674008
 20
176.3534316878943
 30
0.0
 11
154.2684426674008
 21
176.3534316878943
 31
0.0
  0
LINE
  5
1DB
  8
TALL_1
 10
144.2684426674006
 20
176.3534316878943
 30
0.0
 11
149.2684426674006
 21
176.3534316878943
 31
0.0
  0
LINE
  5
1DC
  8
TALL_1
 10
154.2684426674008
 20
140.3534316878945
 30
0.0
 11
154.2684426674008
 21
137.3534316878945
 31
0.0
  0
LINE
  5
1DD
  8
TALL_1
 10
154.2684426674008
 20
137.3534316878945
 30
0.0
 11
144.2684426674006
 21
137.3534316878945
 31
0.0
  0
LINE
  5
1DE
  8
TALL_1
 10
144.2684426674006
 20
137.3534316878945
 30
0.0
 11
144.2684426674006
 21
140.3534316878945
 31
0.0
  0
LINE
  5
1DF
  8
TALL_1
 10
149.2684426674008
 20
140.3534316878945
 30
0.0
 11
154.2684426674008
 21
140.3534316878945
 31
0.0
  0
LINE
  5
1E0
  8
TALL_1
 10
144.2684426674006
 20
140.3534316878945
 30
0.0
 11
149.2684426674006
 21
140.3534316878945
 31
0.0
  0
LINE
  5
1E1
  8
TALL_1
 10
154.2684426674008
 20
232.3534316878943
 30
0.0
 11
154.2684426674008
 21
235.3534316878943
 31
0.0
  0
LINE
  5
1E2
  8
TALL_1
 10
154.2684426674008
 20
235.3534316878943
 30
0.0
 11
144.2684426674006
 21
235.3534316878943
 31
0.0
  0
LINE
  5
1E3
  8
TALL_1
 10
144.2684426674006
 20
235.3534316878943
 30
0.0
 11
144.2684426674006
 21
232.3534316878943
 31
0.0
  0
LINE
  5
1E4
  8
TALL_1
 10
149.2684426674008
 20
232.3534316878943
 30
0.0
 11
154.2684426674008
 21
232.3534316878943
 31
0.0
  0
LINE
  5
1E5
  8
TALL_1
 10
144.2684426674006
 20
232.3534316878943
 30
0.0
 11
149.2684426674006
 21
232.3534316878943
 31
0.0
  0
LINE
  5
1E6
  8
TALL_1
 10
154.2684426674008
 20
268.3534316878943
 30
0.0
 11
154.2684426674008
 21
271.3534316878943
 31
0.0
  0
LINE
  5
1E7
  8
TALL_1
 10
154.2684426674008
 20
271.3534316878943
 30
0.0
 11
144.2684426674006
 21
271.3534316878943
 31
0.0
  0
LINE
  5
1E8
  8
TALL_1
 10
144.2684426674006
 20
271.3534316878943
 30
0.0
 11
144.2684426674006
 21
268.3534316878943
 31
0.0
  0
LINE
  5
1E9
  8
TALL_1
 10
149.2684426674008
 20
268.3534316878943
 30
0.0
 11
154.2684426674008
 21
268.3534316878943
 31
0.0
  0
LINE
  5
1EA
  8
TALL_1
 10
144.2684426674006
 20
268.3534316878943
 30
0.0
 11
149.2684426674006
 21
268.3534316878943
 31
0.0
  0
LINE
  5
1EB
  8
TALL_1
 10
157.2684426674008
 20
211.3534316878943
 30
0.0
 11
157.2684426674008
 21
214.3534316878943
 31
0.0
  0
LINE
  5
1EC
  8
TALL_1
 10
157.2684426674008
 20
214.3534316878943
 30
0.0
 11
141.2684426674006
 21
214.3534316878943
 31
0.0
  0
LINE
  5
1ED
  8
TALL_1
 10
141.2684426674006
 20
214.3534316878943
 30
0.0
 11
141.2684426674006
 21
211.3534316878943
 31
0.0
  0
LINE
  5
1EE
  8
TALL_1
 10
149.5184426674008
 20
211.3534316878943
 30
0.0
 11
157.2684426674008
 21
211.3534316878943
 31
0.0
  0
LINE
  5
1EF
  8
TALL_1
 10
141.2684426674006
 20
211.3534316878943
 30
0.0
 11
149.5184426674006
 21
211.3534316878943
 31
0.0
  0
LINE
  5
1F0
  8
TALL_1
 10
157.2684426674008
 20
197.3534316878943
 30
0.0
 11
157.2684426674008
 21
194.3534316878943
 31
0.0
  0
LINE
  5
1F1
  8
TALL_1
 10
157.2684426674008
 20
194.3534316878943
 30
0.0
 11
141.2684426674006
 21
194.3534316878943
 31
0.0
  0
LINE
  5
1F2
  8
TALL_1
 10
141.2684426674006
 20
194.3534316878943
 30
0.0
 11
141.2684426674006
 21
197.3534316878943
 31
0.0
  0
LINE
  5
1F3
  8
TALL_1
 10
149.5184426674008
 20
197.3534316878943
 30
0.0
 11
157.2684426674008
 21
197.3534316878943
 31
0.0
  0
LINE
  5
1F4
  8
TALL_1
 10
141.2684426674006
 20
197.3534316878943
 30
0.0
 11
149.5184426674006
 21
197.3534316878943
 31
0.0
  0
LINE
  5
1F5
  8
TALL_1
 10
205.3455536191308
 20
161.3534316878943
 30
0.0
 11
205.3455536191308
 21
158.3534316878943
 31
0.0
  0
LINE
  5
1F6
  8
TALL_1
 10
205.3455536191308
 20
158.3534316878943
 30
0.0
 11
195.345553619131
 21
158.3534316878945
 31
0.0
  0
LINE
  5
1F7
  8
TALL_1
 10
195.345553619131
 20
158.3534316878945
 30
0.0
 11
195.345553619131
 21
161.3534316878945
 31
0.0
  0
LINE
  5
1F8
  8
TALL_1
 10
200.345553619131
 20
161.3534316878943
 30
0.0
 11
205.3455536191308
 21
161.3534316878943
 31
0.0
  0
LINE
  5
1F9
  8
TALL_1
 10
195.345553619131
 20
161.3534316878945
 30
0.0
 11
200.345553619131
 21
161.3534316878943
 31
0.0
  0
LINE
  5
1FA
  8
TALL_1
 10
205.3455536191308
 20
125.3534316878943
 30
0.0
 11
205.3455536191308
 21
122.3534316878943
 31
0.0
  0
LINE
  5
1FB
  8
TALL_1
 10
205.3455536191308
 20
122.3534316878943
 30
0.0
 11
195.345553619131
 21
122.3534316878945
 31
0.0
  0
LINE
  5
1FC
  8
TALL_1
 10
195.345553619131
 20
122.3534316878945
 30
0.0
 11
195.345553619131
 21
125.3534316878945
 31
0.0
  0
LINE
  5
1FD
  8
TALL_1
 10
200.345553619131
 20
125.3534316878943
 30
0.0
 11
205.3455536191308
 21
125.3534316878943
 31
0.0
  0
LINE
  5
1FE
  8
TALL_1
 10
195.345553619131
 20
125.3534316878945
 30
0.0
 11
200.345553619131
 21
125.3534316878943
 31
0.0
  0
LINE
  5
1FF
  8
TALL_1
 10
205.3455536191308
 20
217.353431687894
 30
0.0
 11
205.3455536191308
 21
220.353431687894
 31
0.0
  0
LINE
  5
200
  8
TALL_1
 10
205.3455536191308
 20
220.353431687894
 30
0.0
 11
195.345553619131
 21
220.3534316878943
 31
0.0
  0
LINE
  5
201
  8
TALL_1
 10
195.345553619131
 20
220.3534316878943
 30
0.0
 11
195.345553619131
 21
217.3534316878943
 31
0.0
  0
LINE
  5
202
  8
TALL_1
 10
200.345553619131
 20
217.353431687894
 30
0.0
 11
205.3455536191308
 21
217.353431687894
 31
0.0
  0
LINE
  5
203
  8
TALL_1
 10
195.345553619131
 20
217.3534316878943
 30
0.0
 11
200.345553619131
 21
217.353431687894
 31
0.0
  0
LINE
  5
204
  8
TALL_1
 10
205.3455536191308
 20
253.353431687894
 30
0.0
 11
205.3455536191308
 21
256.353431687894
 31
0.0
  0
LINE
  5
205
  8
TALL_1
 10
205.3455536191308
 20
256.353431687894
 30
0.0
 11
195.345553619131
 21
256.3534316878943
 31
0.0
  0
LINE
  5
206
  8
TALL_1
 10
195.345553619131
 20
256.3534316878943
 30
0.0
 11
195.345553619131
 21
253.3534316878943
 31
0.0
  0
LINE
  5
207
  8
TALL_1
 10
200.345553619131
 20
253.353431687894
 30
0.0
 11
205.3455536191308
 21
253.353431687894
 31
0.0
  0
LINE
  5
208
  8
TALL_1
 10
195.345553619131
 20
253.3534316878943
 30
0.0
 11
200.345553619131
 21
253.353431687894
 31
0.0
  0
ARC
  5
209
  8
0
 10
218.845553619131
 20
285.353431687894
 30
0.0
 40
3.999999999999958
 50
0.0
 51
90.0
  0
LINE
  5
20A
  8
0
 10
222.8455536191308
 20
285.353431687894
 30
0.0
 11
222.8455536191308
 21
93.35343168789427
 31
0.0
  0
ARC
  5
20B
  8
0
 10
218.845553619131
 20
93.35343168789404
 30
0.0
 40
3.999999999999948
 50
270.0
 51
0.0
  0
LINE
  5
20C
  8
0
 10
218.845553619131
 20
89.35343168789427
 30
0.0
 11
181.845553619131
 21
89.3534316878945
 31
0.0
  0
ARC
  5
20D
  8
0
 10
181.8455536191308
 20
93.35343168789427
 30
0.0
 40
3.999999999999948
 50
180.0
 51
270.0000000000032
  0
LINE
  5
20E
  8
0
 10
177.845553619131
 20
93.3534316878945
 30
0.0
 11
177.845553619131
 21
285.3534316878943
 31
0.0
  0
ARC
  5
20F
  8
0
 10
181.845553619131
 20
285.3534316878943
 30
0.0
 40
3.999999999999963
 50
90.0
 51
179.9999999999967
  0
LINE
  5
210
  8
0
 10
181.845553619131
 20
289.3534316878943
 30
0.0
 11
218.845553619131
 21
289.353431687894
 31
0.0
  0
LINE
  5
211
  8
0
 10
174.7684426674006
 20
70.85343168789427
 30
0.0
 11
171.7684426674008
 21
70.85343168789427
 31
0.0
  0
LINE
  5
212
  8
0
 10
174.7684426674006
 20
80.85343168789427
 30
0.0
 11
174.7684426674006
 21
70.85343168789427
 31
0.0
  0
LINE
  5
213
  8
0
 10
171.7684426674006
 20
80.85343168789427
 30
0.0
 11
174.7684426674006
 21
80.85343168789427
 31
0.0
  0
LINE
  5
214
  8
0
 10
171.7684426674006
 20
80.85343168789427
 30
0.0
 11
171.7684426674006
 21
88.35343168789427
 31
0.0
  0
POLYLINE
  5
215
  8
TALL_1
 66
     1
 10
0.0
 20
0.0
 30
0.0
 70
     1
  0
VERTEX
  5
4D9
  8
TALL_1
 10
166.7684426674006
 20
83.35343168789427
 30
0.0
  0
VERTEX
  5
4DA
  8
TALL_1
 10
166.7684426674006
 20
68.35343168789427
 30
0.0
  0
VERTEX
  5
4DB
  8
TALL_1
 10
131.7684426674006
 20
68.35343168789427
 30
0.0
  0
VERTEX
  5
4DC
  8
TALL_1
 10
131.7684426674006
 20
83.35343168789427
 30
0.0
  0
SEQEND
  5
5F8
  8
TALL_1
  0
LINE
  5
216
  8
0
 10
126.7684426674008
 20
80.85343168789427
 30
0.0
 11
123.7684426674008
 21
80.85343168789427
 31
0.0
  0
LINE
  5
217
  8
0
 10
123.7684426674008
 20
80.85343168789427
 30
0.0
 11
123.7684426674008
 21
70.85343168789427
 31
0.0
  0
LINE
  5
218
  8
0
 10
123.7684426674008
 20
70.85343168789427
 30
0.0
 11
126.7684426674008
 21
70.85343168789427
 31
0.0
  0
LINE
  5
219
  8
0
 10
126.7684426674008
 20
70.85343168789427
 30
0.0
 11
126.7684426674008
 21
63.35343168789427
 31
0.0
  0
LINE
  5
21A
  8
0
 10
126.7684426674008
 20
80.85343168789427
 30
0.0
 11
126.7684426674008
 21
88.35343168789427
 31
0.0
  0
LINE
  5
21B
  8
0
 10
126.7684426674008
 20
88.35343168789427
 30
0.0
 11
171.7684426674008
 21
88.35343168789427
 31
0.0
  0
LINE
  5
21C
  8
0
 10
171.7684426674008
 20
70.85343168789427
 30
0.0
 11
171.7684426674008
 21
63.35343168789427
 31
0.0
  0
LINE
  5
21D
  8
0
 10
171.7684426674008
 20
63.35343168789427
 30
0.0
 11
126.7684426674008
 21
63.35343168789427
 31
0.0
  0
LINE
  5
21E
  8
0
 10
174.7684426674006
 20
42.85343168789427
 30
0.0
 11
171.7684426674008
 21
42.85343168789427
 31
0.0
  0
LINE
  5
21F
  8
0
 10
174.7684426674006
 20
52.85343168789427
 30
0.0
 11
174.7684426674006
 21
42.85343168789427
 31
0.0
  0
LINE
  5
220
  8
0
 10
171.7684426674006
 20
52.85343168789427
 30
0.0
 11
174.7684426674006
 21
52.85343168789427
 31
0.0
  0
LINE
  5
221
  8
0
 10
171.7684426674006
 20
52.85343168789427
 30
0.0
 11
171.7684426674006
 21
60.35343168789427
 31
0.0
  0
POLYLINE
  5
222
  8
TALL_1
 66
     1
 10
0.0
 20
0.0
 30
0.0
 70
     1
  0
VERTEX
  5
4DD
  8
TALL_1
 10
166.7684426674006
 20
55.35343168789427
 30
0.0
  0
VERTEX
  5
4DE
  8
TALL_1
 10
166.7684426674006
 20
40.35343168789427
 30
0.0
  0
VERTEX
  5
4DF
  8
TALL_1
 10
131.7684426674006
 20
40.35343168789427
 30
0.0
  0
VERTEX
  5
4E0
  8
TALL_1
 10
131.7684426674006
 20
55.35343168789427
 30
0.0
  0
SEQEND
  5
5F9
  8
TALL_1
  0
LINE
  5
223
  8
0
 10
126.7684426674008
 20
52.85343168789427
 30
0.0
 11
123.7684426674008
 21
52.85343168789427
 31
0.0
  0
LINE
  5
224
  8
0
 10
123.7684426674008
 20
52.85343168789427
 30
0.0
 11
123.7684426674008
 21
42.85343168789427
 31
0.0
  0
LINE
  5
225
  8
0
 10
123.7684426674008
 20
42.85343168789427
 30
0.0
 11
126.7684426674008
 21
42.85343168789427
 31
0.0
  0
LINE
  5
226
  8
0
 10
126.7684426674008
 20
42.85343168789427
 30
0.0
 11
126.7684426674008
 21
35.35343168789427
 31
0.0
  0
LINE
  5
227
  8
0
 10
126.7684426674008
 20
52.85343168789427
 30
0.0
 11
126.7684426674008
 21
60.35343168789427
 31
0.0
  0
LINE
  5
228
  8
0
 10
126.7684426674008
 20
60.35343168789427
 30
0.0
 11
171.7684426674008
 21
60.35343168789427
 31
0.0
  0
LINE
  5
229
  8
0
 10
171.7684426674008
 20
42.85343168789427
 30
0.0
 11
171.7684426674008
 21
35.35343168789427
 31
0.0
  0
LINE
  5
22A
  8
0
 10
171.7684426674008
 20
35.35343168789427
 30
0.0
 11
126.7684426674008
 21
35.35343168789427
 31
0.0
  0
LINE
  5
22B
  8
0
 10
174.7684426674006
 20
14.85343168789427
 30
0.0
 11
171.7684426674008
 21
14.85343168789427
 31
0.0
  0
LINE
  5
22C
  8
0
 10
174.7684426674006
 20
24.85343168789427
 30
0.0
 11
174.7684426674006
 21
14.85343168789427
 31
0.0
  0
LINE
  5
22D
  8
0
 10
171.7684426674006
 20
24.85343168789427
 30
0.0
 11
174.7684426674006
 21
24.85343168789427
 31
0.0
  0
LINE
  5
22E
  8
0
 10
171.7684426674006
 20
24.85343168789427
 30
0.0
 11
171.7684426674006
 21
32.35343168789427
 31
0.0
  0
POLYLINE
  5
22F
  8
TALL_1
 66
     1
 10
0.0
 20
0.0
 30
0.0
 70
     1
  0
VERTEX
  5
4E1
  8
TALL_1
 10
166.7684426674006
 20
27.35343168789427
 30
0.0
  0
VERTEX
  5
4E2
  8
TALL_1
 10
166.7684426674006
 20
12.35343168789427
 30
0.0
  0
VERTEX
  5
4E3
  8
TALL_1
 10
131.7684426674006
 20
12.35343168789427
 30
0.0
  0
VERTEX
  5
4E4
  8
TALL_1
 10
131.7684426674006
 20
27.35343168789427
 30
0.0
  0
SEQEND
  5
5FA
  8
TALL_1
  0
LINE
  5
230
  8
0
 10
126.7684426674008
 20
24.85343168789427
 30
0.0
 11
123.7684426674008
 21
24.85343168789427
 31
0.0
  0
LINE
  5
231
  8
0
 10
123.7684426674008
 20
24.85343168789427
 30
0.0
 11
123.7684426674008
 21
14.85343168789427
 31
0.0
  0
LINE
  5
232
  8
0
 10
123.7684426674008
 20
14.85343168789427
 30
0.0
 11
126.7684426674008
 21
14.85343168789427
 31
0.0
  0
LINE
  5
233
  8
0
 10
126.7684426674008
 20
14.85343168789427
 30
0.0
 11
126.7684426674008
 21
7.353431687894272
 31
0.0
  0
LINE
  5
234
  8
0
 10
126.7684426674008
 20
24.85343168789427
 30
0.0
 11
126.7684426674008
 21
32.35343168789427
 31
0.0
  0
LINE
  5
235
  8
0
 10
126.7684426674008
 20
32.35343168789427
 30
0.0
 11
171.7684426674008
 21
32.35343168789427
 31
0.0
  0
LINE
  5
236
  8
0
 10
171.7684426674008
 20
14.85343168789427
 30
0.0
 11
171.7684426674008
 21
7.353431687894272
 31
0.0
  0
LINE
  5
237
  8
0
 10
171.7684426674008
 20
7.353431687894272
 30
0.0
 11
126.7684426674008
 21
7.353431687894272
 31
0.0
  0
LINE
  5
238
  8
0
 10
174.7684426674006
 20
98.85343168789427
 30
0.0
 11
171.7684426674008
 21
98.85343168789427
 31
0.0
  0
LINE
  5
239
  8
0
 10
174.7684426674006
 20
108.8534316878943
 30
0.0
 11
174.7684426674006
 21
98.85343168789427
 31
0.0
  0
LINE
  5
23A
  8
0
 10
171.7684426674006
 20
108.8534316878943
 30
0.0
 11
174.7684426674006
 21
108.8534316878943
 31
0.0
  0
LINE
  5
23B
  8
0
 10
171.7684426674006
 20
108.8534316878943
 30
0.0
 11
171.7684426674006
 21
116.3534316878943
 31
0.0
  0
POLYLINE
  5
23C
  8
TALL_1
 66
     1
 10
0.0
 20
0.0
 30
0.0
 70
     1
  0
VERTEX
  5
4E5
  8
TALL_1
 10
166.7684426674006
 20
111.3534316878943
 30
0.0
  0
VERTEX
  5
4E6
  8
TALL_1
 10
166.7684426674006
 20
96.35343168789427
 30
0.0
  0
VERTEX
  5
4E7
  8
TALL_1
 10
131.7684426674006
 20
96.35343168789427
 30
0.0
  0
VERTEX
  5
4E8
  8
TALL_1
 10
131.7684426674006
 20
111.3534316878943
 30
0.0
  0
SEQEND
  5
5FB
  8
TALL_1
  0
LINE
  5
23D
  8
0
 10
126.7684426674008
 20
108.8534316878943
 30
0.0
 11
123.7684426674008
 21
108.8534316878943
 31
0.0
  0
LINE
  5
23E
  8
0
 10
123.7684426674008
 20
108.8534316878943
 30
0.0
 11
123.7684426674008
 21
98.85343168789427
 31
0.0
  0
LINE
  5
23F
  8
0
 10
123.7684426674008
 20
98.85343168789427
 30
0.0
 11
126.7684426674008
 21
98.85343168789427
 31
0.0
  0
LINE
  5
240
  8
0
 10
126.7684426674008
 20
98.85343168789427
 30
0.0
 11
126.7684426674008
 21
91.35343168789427
 31
0.0
  0
LINE
  5
241
  8
0
 10
126.7684426674008
 20
108.8534316878943
 30
0.0
 11
126.7684426674008
 21
116.3534316878943
 31
0.0
  0
LINE
  5
242
  8
0
 10
126.7684426674008
 20
116.3534316878943
 30
0.0
 11
171.7684426674008
 21
116.3534316878943
 31
0.0
  0
LINE
  5
243
  8
0
 10
171.7684426674008
 20
98.85343168789427
 30
0.0
 11
171.7684426674008
 21
91.35343168789427
 31
0.0
  0
LINE
  5
244
  8
0
 10
171.7684426674008
 20
91.35343168789427
 30
0.0
 11
126.7684426674008
 21
91.35343168789427
 31
0.0
  0
ARC
  5
245
  8
0
 10
89.76844266740082
 20
284.3534316878943
 30
0.0
 40
1.999999999999973
 50
0.0
 51
90.0
  0
POLYLINE
  5
246
  8
0
 66
     1
 10
0.0
 20
0.0
 30
0.0
  0
VERTEX
  5
4E9
  8
0
 10
85.76844266740082
 20
222.3534316878943
 30
0.0
  0
VERTEX
  5
4EA
  8
0
 10
84.44800246725859
 20
229.5785904034449
 30
0.0
  0
VERTEX
  5
4EB
  8
0
 10
83.81531766740082
 20
236.8846816878943
 30
0.0
  0
VERTEX
  5
4EC
  8
0
 10
84.01170777698408
 20
239.3441769279636
 30
0.0
  0
VERTEX
  5
4ED
  8
0
 10
84.5118608806603
 20
241.7853365867445
 30
0.0
  0
VERTEX
  5
4EE
  8
0
 10
85.01492098762051
 20
244.2265549311576
 30
0.0
  0
VERTEX
  5
4EF
  8
0
 10
85.2200321070558
 20
246.686226228124
 30
0.0
  0
VERTEX
  5
4F0
  8
0
 10
85.01670632021447
 20
247.470525479574
 30
0.0
  0
VERTEX
  5
4F1
  8
0
 10
84.55680112913129
 20
248.1834216398879
 30
0.0
  0
VERTEX
  5
4F2
  8
0
 10
83.58820009836964
 20
249.6171643124044
 30
0.0
  0
VERTEX
  5
4F3
  8
0
 10
82.87781766740082
 20
252.3534316878943
 30
0.0
  0
SEQEND
  5
5FC
  8
0
  0
POLYLINE
  5
247
  8
0
 66
     1
 10
0.0
 20
0.0
 30
0.0
  0
VERTEX
  5
4F4
  8
0
 10
91.76844266740082
 20
222.3534316878943
 30
0.0
  0
VERTEX
  5
4F5
  8
0
 10
93.08888286754282
 20
229.5785904034449
 30
0.0
  0
VERTEX
  5
4F6
  8
0
 10
93.72156766740059
 20
236.8846816878943
 30
0.0
  0
VERTEX
  5
4F7
  8
0
 10
93.52517755781733
 20
239.3441769279636
 30
0.0
  0
VERTEX
  5
4F8
  8
0
 10
93.02502445414112
 20
241.7853365867445
 30
0.0
  0
VERTEX
  5
4F9
  8
0
 10
92.5219643471809
 20
244.2265549311576
 30
0.0
  0
VERTEX
  5
4FA
  8
0
 10
92.31685322774561
 20
246.686226228124
 30
0.0
  0
VERTEX
  5
4FB
  8
0
 10
92.52017901458694
 20
247.470525479574
 30
0.0
  0
VERTEX
  5
4FC
  8
0
 10
92.9800842056699
 20
248.1834216398879
 30
0.0
  0
VERTEX
  5
4FD
  8
0
 10
93.94868523643177
 20
249.6171643124044
 30
0.0
  0
VERTEX
  5
4FE
  8
0
 10
94.65906766740082
 20
252.3534316878943
 30
0.0
  0
SEQEND
  5
5FD
  8
0
  0
ARC
  5
248
  8
0
 10
89.76844266740082
 20
222.3534316878943
 30
0.0
 40
1.999999999999971
 50
270.0
 51
0.0
  0
ARC
  5
249
  8
0
 10
87.76844266740082
 20
222.3534316878943
 30
0.0
 40
2.000000000000018
 50
180.0
 51
270.0
  0
ARC
  5
24A
  8
0
 10
87.76844266740082
 20
284.3534316878943
 30
0.0
 40
1.999999999999992
 50
90.0
 51
180.0
  0
LINE
  5
24B
  8
0
 10
87.76844266740082
 20
286.3534316878943
 30
0.0
 11
89.76844266740082
 21
286.3534316878943
 31
0.0
  0
ARC
  5
24C
  8
0
 10
89.47554944858726
 20
253.3534316878943
 30
0.0
 40
6.673085092854645
 50
171.3814343328839
 51
188.6185656671162
  0
LINE
  5
24D
  8
0
 10
87.76844266740082
 20
220.3534316878943
 30
0.0
 11
89.76844266740082
 21
220.3534316878943
 31
0.0
  0
ARC
  5
24E
  8
0
 10
88.76844266740082
 20
253.3534316878943
 30
0.0
 40
5.974902751562145
 50
350.3652490534585
 51
9.634750946541521
  0
POLYLINE
  5
24F
  8
0
 66
     1
 10
0.0
 20
0.0
 30
0.0
  0
VERTEX
  5
4FF
  8
0
 10
85.76844266740082
 20
284.3534316878943
 30
0.0
  0
VERTEX
  5
500
  8
0
 10
84.44800246725859
 20
277.1282729723434
 30
0.0
  0
VERTEX
  5
501
  8
0
 10
83.81531766740082
 20
269.8221816878943
 30
0.0
  0
VERTEX
  5
502
  8
0
 10
84.01170777698408
 20
267.3626864478249
 30
0.0
  0
VERTEX
  5
503
  8
0
 10
84.5118608806603
 20
264.921526789044
 30
0.0
  0
VERTEX
  5
504
  8
0
 10
85.01492098762051
 20
262.4803084446307
 30
0.0
  0
VERTEX
  5
505
  8
0
 10
85.2200321070558
 20
260.0206371476643
 30
0.0
  0
VERTEX
  5
506
  8
0
 10
85.01670632021447
 20
259.2363378962143
 30
0.0
  0
VERTEX
  5
507
  8
0
 10
84.55680112913129
 20
258.5234417359006
 30
0.0
  0
VERTEX
  5
508
  8
0
 10
83.58820009836964
 20
257.0896990633842
 30
0.0
  0
VERTEX
  5
509
  8
0
 10
82.87781766740082
 20
254.3534316878943
 30
0.0
  0
SEQEND
  5
5FE
  8
0
  0
POLYLINE
  5
250
  8
0
 66
     1
 10
0.0
 20
0.0
 30
0.0
  0
VERTEX
  5
50A
  8
0
 10
91.76844266740082
 20
284.3534316878943
 30
0.0
  0
VERTEX
  5
50B
  8
0
 10
93.08888286754282
 20
277.1282729723434
 30
0.0
  0
VERTEX
  5
50C
  8
0
 10
93.72156766740059
 20
269.8221816878943
 30
0.0
  0
VERTEX
  5
50D
  8
0
 10
93.52517755781733
 20
267.3626864478249
 30
0.0
  0
VERTEX
  5
50E
  8
0
 10
93.02502445414112
 20
264.921526789044
 30
0.0
  0
VERTEX
  5
50F
  8
0
 10
92.5219643471809
 20
262.4803084446307
 30
0.0
  0
VERTEX
  5
510
  8
0
 10
92.31685322774561
 20
260.0206371476643
 30
0.0
  0
VERTEX
  5
511
  8
0
 10
92.52017901458694
 20
259.2363378962143
 30
0.0
  0
VERTEX
  5
512
  8
0
 10
92.9800842056699
 20
258.5234417359006
 30
0.0
  0
VERTEX
  5
513
  8
0
 10
93.94868523643177
 20
257.0896990633842
 30
0.0
  0
VERTEX
  5
514
  8
0
 10
94.65906766740082
 20
254.3534316878943
 30
0.0
  0
SEQEND
  5
5FF
  8
0
  0
CIRCLE
  5
251
  8
TALL_1
 10
88.76844266740082
 20
253.3534316878943
 30
0.0
 40
1.899999999999999
  0
POLYLINE
  5
252
  8
0
 66
     1
 10
0.0
 20
0.0
 30
0.0
  0
VERTEX
  5
515
  8
0
 10
79.72798336217889
 20
228.5584205003909
 30
0.0
  0
VERTEX
  5
516
  8
0
 10
79.75678532137195
 20
232.307942881748
 30
0.0
  0
VERTEX
  5
517
  8
0
 10
79.18935043275647
 20
236.0824655068877
 30
0.0
  0
VERTEX
  5
518
  8
0
 10
77.95360087833538
 20
239.6430694053431
 30
0.0
  0
VERTEX
  5
519
  8
0
 10
75.97745884011184
 20
242.7508356066471
 30
0.0
  0
VERTEX
  5
51A
  8
0
 10
73.05183666488225
 20
245.418716214697
 30
0.0
  0
VERTEX
  5
51B
  8
0
 10
69.55006911859883
 20
247.4275509901699
 30
0.0
  0
VERTEX
  5
51C
  8
0
 10
65.71291998241682
 20
248.8530937664909
 30
0.0
  0
VERTEX
  5
51D
  8
0
 10
61.78115303749124
 20
249.7710983770858
 30
0.0
  0
SEQEND
  5
600
  8
0
  0
POLYLINE
  5
253
  8
0
 66
     1
 10
0.0
 20
0.0
 30
0.0
  0
VERTEX
  5
51E
  8
0
 10
79.72798336217889
 20
228.5584205003909
 30
0.0
 42
-0.3441507457324505
  0
VERTEX
  5
51F
  8
0
 10
74.87727079933043
 20
224.7710983770858
 30
0.0
  0
VERTEX
  5
520
  8
0
 10
37.78115303749124
 20
224.7710983770858
 30
0.0
  0
VERTEX
  5
521
  8
0
 10
37.78115303749124
 20
249.7710983770858
 30
0.0
  0
VERTEX
  5
522
  8
0
 10
40.78115303749124
 20
249.7710983770858
 30
0.0
  0
VERTEX
  5
523
  8
0
 10
40.78115303749124
 20
237.2710983770858
 30
0.0
  0
VERTEX
  5
524
  8
0
 10
46.78115303749101
 20
237.2710983770858
 30
0.0
  0
VERTEX
  5
525
  8
0
 10
46.78115303749101
 20
249.7710983770858
 30
0.0
  0
VERTEX
  5
526
  8
0
 10
61.78115303749124
 20
249.7710983770858
 30
0.0
  0
SEQEND
  5
601
  8
0
  0
LINE
  5
254
  8
0
 10
72.76844266740059
 20
40.56443967777318
 30
0.0
 11
72.76844266740059
 21
7.353431687894272
 31
0.0
  0
LINE
  5
255
  8
0
 10
72.76844266740059
 20
7.353431687894272
 30
0.0
 11
77.89344266740059
 21
7.353431687894272
 31
0.0
  0
LINE
  5
256
  8
0
 10
81.64344266740082
 20
7.353431687894272
 30
0.0
 11
88.76844266740059
 21
7.353431687894272
 31
0.0
  0
POLYLINE
  5
257
  8
0
 66
     1
 10
0.0
 20
0.0
 30
0.0
  0
VERTEX
  5
527
  8
0
 10
77.89344266740059
 20
7.336201780415422
 30
0.0
  0
VERTEX
  5
528
  8
0
 10
77.89344266740059
 20
10.33620178041542
 30
0.0
  0
VERTEX
  5
529
  8
0
 10
81.64344266740082
 20
10.33620178041542
 30
0.0
  0
VERTEX
  5
52A
  8
0
 10
81.64344266740082
 20
7.336201780415422
 30
0.0
  0
SEQEND
  5
602
  8
0
  0
POLYLINE
  5
258
  8
0
 66
     1
 10
0.0
 20
0.0
 30
0.0
  0
VERTEX
  5
52B
  8
0
 10
94.6084503802073
 20
13.62292114491743
 30
0.0
  0
VERTEX
  5
52C
  8
0
 10
92.41546085657697
 20
15.67006475230005
 30
0.0
  0
VERTEX
  5
52D
  8
0
 10
95.31558096703534
 20
18.77679991077662
 30
0.0
  0
VERTEX
  5
52E
  8
0
 10
97.50857049066568
 20
16.72965630339399
 30
0.0
  0
SEQEND
  5
603
  8
0
  0
LINE
  5
259
  8
0
 10
69.76844266740082
 20
194.3534316878943
 30
0.0
 11
72.76844266740059
 21
194.3534316878943
 31
0.0
  0
LINE
  5
25A
  8
0
 10
69.76844266740082
 20
202.3534316878943
 30
0.0
 11
69.76844266740082
 21
194.3534316878943
 31
0.0
  0
LINE
  5
25B
  8
0
 10
64.76844266740082
 20
202.3534316878943
 30
0.0
 11
69.76844266740082
 21
202.3534316878943
 31
0.0
  0
LINE
  5
25C
  8
0
 10
64.76844266740082
 20
184.3534316878943
 30
0.0
 11
72.76844266740059
 21
161.3534316878943
 31
0.0
  0
LINE
  5
25D
  8
0
 10
64.76844266740082
 20
202.3534316878943
 30
0.0
 11
64.76844266740082
 21
184.3534316878943
 31
0.0
  0
LINE
  5
25E
  8
0
 10
77.76844266740082
 20
209.3534316878943
 30
0.0
 11
102.7684426674008
 21
67.35343168789427
 31
0.0
  0
LINE
  5
25F
  8
0
 10
72.76844266740059
 20
209.3534316878943
 30
0.0
 11
77.76844266740082
 21
209.3534316878943
 31
0.0
  0
LINE
  5
260
  8
0
 10
72.76844266740059
 20
194.3534316878943
 30
0.0
 11
72.76844266740059
 21
209.3534316878943
 31
0.0
  0
LINE
  5
261
  8
0
 10
102.7684426674008
 20
52.35343168789427
 30
0.0
 11
102.7684426674008
 21
67.35343168789427
 31
0.0
  0
POLYLINE
  5
262
  8
0
 66
     1
 10
0.0
 20
0.0
 30
0.0
  0
VERTEX
  5
52F
  8
0
 10
102.7684426674008
 20
37.35343168789427
 30
0.0
  0
VERTEX
  5
530
  8
0
 10
114.7684426674008
 20
37.35343168789427
 30
0.0
  0
VERTEX
  5
531
  8
0
 10
119.7684426674008
 20
42.85343168789427
 30
0.0
  0
VERTEX
  5
532
  8
0
 10
119.7684426674008
 20
46.85343168789427
 30
0.0
  0
VERTEX
  5
533
  8
0
 10
114.7684426674008
 20
52.35343168789427
 30
0.0
  0
VERTEX
  5
534
  8
0
 10
102.768442667401
 20
52.35343168789427
 30
0.0
  0
SEQEND
  5
604
  8
0
  0
CIRCLE
  5
263
  8
TALL_1
 10
114.7684426674008
 20
44.85343168789427
 30
0.0
 40
2.75
  0
LINE
  5
264
  8
0
 10
102.7684426674008
 20
22.35343168789427
 30
0.0
 11
102.7684426674008
 21
37.35343168789427
 31
0.0
  0
LINE
  5
265
  8
0
 10
75.86924593055406
 20
40.48248095107647
 30
0.0
 11
72.86924593055406
 21
40.48248095107647
 31
0.0
  0
LINE
  5
266
  8
0
 10
75.86924593055406
 20
46.48248095107647
 30
0.0
 11
75.86924593055406
 21
40.48248095107647
 31
0.0
  0
LINE
  5
267
  8
0
 10
72.86924593055406
 20
46.48248095107647
 30
0.0
 11
75.86924593055406
 21
46.48248095107647
 31
0.0
  0
LINE
  5
268
  8
0
 10
72.76844266740059
 20
161.3534316878943
 30
0.0
 11
72.76844266740059
 21
46.41932515152439
 31
0.0
  0
LINE
  5
269
  8
0
 10
97.37469788728518
 20
16.57441942348487
 30
0.0
 11
102.7684426674008
 21
22.35343168789427
 31
0.0
  0
LINE
  5
26A
  8
0
 10
88.76844266740059
 20
7.353431687894272
 30
0.0
 11
94.63628328935366
 21
13.6404037828438
 31
0.0
  0
POLYLINE
  5
26B
  8
0
 66
     1
 10
0.0
 20
0.0
 30
0.0
 70
     1
  0
VERTEX
  5
535
  8
0
 10
201.0216926196157
 20
10.65300503998401
 30
0.0
  0
VERTEX
  5
536
  8
0
 10
184.0216926196162
 20
10.65300503998401
 30
0.0
 42
-0.4142135623731029
  0
VERTEX
  5
537
  8
0
 10
180.0216926196159
 20
14.65300503998401
 30
0.0
  0
VERTEX
  5
538
  8
0
 10
180.0216926196159
 20
37.65300503998401
 30
0.0
  0
VERTEX
  5
539
  8
0
 10
190.0216926196159
 20
37.65300503998401
 30
0.0
  0
VERTEX
  5
53A
  8
0
 10
190.0216926196159
 20
40.65300503998401
 30
0.0
  0
VERTEX
  5
53B
  8
0
 10
180.0216926196159
 20
40.65300503998401
 30
0.0
  0
VERTEX
  5
53C
  8
0
 10
180.0216926196159
 20
55.65300503998401
 30
0.0
  0
VERTEX
  5
53D
  8
0
 10
190.0216926196159
 20
55.65300503998401
 30
0.0
  0
VERTEX
  5
53E
  8
0
 10
190.0216926196159
 20
58.65300503998401
 30
0.0
  0
VERTEX
  5
53F
  8
0
 10
180.0216926196159
 20
58.65300503998401
 30
0.0
  0
VERTEX
  5
540
  8
0
 10
180.0216926196159
 20
81.65300503998401
 30
0.0
 42
-0.4142135623730927
  0
VERTEX
  5
541
  8
0
 10
184.0216926196159
 20
85.65300503998401
 30
0.0
  0
VERTEX
  5
542
  8
0
 10
201.0216926196157
 20
85.65300503998401
 30
0.0
 42
-0.4142135623730968
  0
VERTEX
  5
543
  8
0
 10
205.0216926196157
 20
81.65300503998401
 30
0.0
  0
VERTEX
  5
544
  8
0
 10
205.0216926196159
 20
49.65300503998401
 30
0.0
  0
VERTEX
  5
545
  8
0
 10
192.5216926196159
 20
49.65300503998401
 30
0.0
  0
VERTEX
  5
546
  8
0
 10
192.5216926196159
 20
46.65300503998401
 30
0.0
  0
VERTEX
  5
547
  8
0
 10
205.0216926196159
 20
46.65300503998401
 30
0.0
  0
VERTEX
  5
548
  8
0
 10
205.0216926196159
 20
14.65300503998401
 30
0.0
 42
-0.4142135623730983
  0
SEQEND
  5
605
  8
0
  0
LINE
  5
26C
  8
0
 10
100.1284775668591
 20
282.0795111830106
 30
0.0
 11
103.1284775668591
 21
282.0795111830106
 31
0.0
  0
LINE
  5
26D
  8
0
 10
100.1284775668591
 20
288.0795111830106
 30
0.0
 11
100.1284775668591
 21
282.0795111830106
 31
0.0
  0
LINE
  5
26E
  8
0
 10
103.1284775668591
 20
288.0795111830106
 30
0.0
 11
100.1284775668591
 21
288.0795111830106
 31
0.0
  0
LINE
  5
26F
  8
0
 10
121.1284775668591
 20
282.0795111830106
 30
0.0
 11
118.1284775668591
 21
282.0795111830106
 31
0.0
  0
LINE
  5
270
  8
0
 10
121.1284775668591
 20
288.0795111830106
 30
0.0
 11
121.1284775668591
 21
282.0795111830106
 31
0.0
  0
LINE
  5
271
  8
0
 10
118.1284775668591
 20
288.0795111830106
 30
0.0
 11
121.1284775668591
 21
288.0795111830106
 31
0.0
  0
LINE
  5
272
  8
0
 10
103.1284775668591
 20
288.0795111830106
 30
0.0
 11
118.1284775668591
 21
288.0795111830106
 31
0.0
  0
LINE
  5
273
  8
0
 10
109.1284775668591
 20
119.0795111830106
 30
0.0
 11
103.1284775668591
 21
119.0795111830106
 31
0.0
  0
POLYLINE
  5
274
  8
0
 66
     1
 10
0.0
 20
0.0
 30
0.0
  0
VERTEX
  5
549
  8
0
 10
118.1284775668591
 20
282.0795111830106
 30
0.0
  0
VERTEX
  5
54A
  8
0
 10
118.1284775668591
 20
119.0795111830106
 30
0.0
  0
VERTEX
  5
54B
  8
0
 10
112.1284775668591
 20
119.0795111830106
 30
0.0
  0
SEQEND
  5
606
  8
0
  0
LINE
  5
275
  8
0
 10
110.6284775668591
 20
134.0795111830106
 30
0.0
 11
109.1284775668591
 21
134.0795111830106
 31
0.0
  0
LINE
  5
276
  8
0
 10
109.1284775668591
 20
134.0795111830106
 30
0.0
 11
109.1284775668591
 21
119.0795111830106
 31
0.0
  0
LINE
  5
277
  8
0
 10
110.6284775668591
 20
134.0795111830106
 30
0.0
 11
112.1284775668591
 21
134.0795111830106
 31
0.0
  0
LINE
  5
278
  8
0
 10
112.1284775668591
 20
134.0795111830106
 30
0.0
 11
112.1284775668591
 21
119.0795111830106
 31
0.0
  0
POLYLINE
  5
279
  8
0
 66
     1
 10
0.0
 20
0.0
 30
0.0
  0
VERTEX
  5
54C
  8
0
 10
103.1284775668591
 20
119.0795111830106
 30
0.0
  0
VERTEX
  5
54D
  8
0
 10
103.1284775668591
 20
282.0795111830106
 30
0.0
  0
SEQEND
  5
607
  8
0
  0
CIRCLE
  5
27A
  8
0
 10
64.54779690514138
 20
214.1178964011967
 30
0.0
 40
4.999999999999999
  0
CIRCLE
  5
27B
  8
TALL_1
 10
64.54779690514138
 20
214.1178964011967
 30
0.0
 40
1.999999999999999
  0
CIRCLE
  5
27C
  8
0
 10
92.09185019720908
 20
191.9252529572466
 30
0.0
 40
8.5
  0
CIRCLE
  5
27D
  8
0
 10
92.09185019720908
 20
210.2321318211768
 30
0.0
 40
8.5
  0
POLYLINE
  5
27E
  8
TALL_1
 66
     1
 10
0.0
 20
0.0
 30
0.0
 70
     1
  0
VERTEX
  5
54E
  8
TALL_1
 10
93.34185019720886
 20
190.6752529572466
 30
0.0
  0
VERTEX
  5
54F
  8
TALL_1
 10
90.59185019720908
 20
190.6752529572466
 30
0.0
  0
VERTEX
  5
550
  8
TALL_1
 10
90.59185019720886
 20
193.4252529572466
 30
0.0
  0
VERTEX
  5
551
  8
TALL_1
 10
93.34185019720886
 20
193.4252529572466
 30
0.0
  0
SEQEND
  5
608
  8
TALL_1
  0
POLYLINE
  5
27F
  8
TALL_1
 66
     1
 10
0.0
 20
0.0
 30
0.0
 70
     1
  0
VERTEX
  5
552
  8
TALL_1
 10
93.34185019720886
 20
208.9821318211768
 30
0.0
  0
VERTEX
  5
553
  8
TALL_1
 10
90.59185019720908
 20
208.9821318211768
 30
0.0
  0
VERTEX
  5
554
  8
TALL_1
 10
90.59185019720886
 20
211.7321318211768
 30
0.0
  0
VERTEX
  5
555
  8
TALL_1
 10
93.34185019720886
 20
211.7321318211768
 30
0.0
  0
SEQEND
  5
609
  8
TALL_1
  0
LINE
  5
280
  8
0
 10
79.10548021448781
 20
246.9259020567024
 30
0.0
 11
77.10548021448781
 21
246.9259020567024
 31
0.0
  0
LINE
  5
281
  8
0
 10
77.10548021448781
 20
246.9259020567024
 30
0.0
 11
77.10548021448781
 21
251.4259020567024
 31
0.0
  0
LINE
  5
282
  8
0
 10
79.10548021448781
 20
246.9259020567024
 30
0.0
 11
79.10548021448781
 21
251.4259020567024
 31
0.0
  0
LINE
  5
283
  8
0
 10
79.60548021448759
 20
272.9259020567024
 30
0.0
 11
79.60548021448759
 21
251.4259020567024
 31
0.0
  0
LINE
  5
284
  8
0
 10
79.60548021448759
 20
251.4259020567024
 30
0.0
 11
79.10548021448781
 21
251.4259020567024
 31
0.0
  0
LINE
  5
285
  8
0
 10
76.60548021448781
 20
251.4259020567024
 30
0.0
 11
76.60548021448781
 21
272.9259020567024
 31
0.0
  0
LINE
  5
286
  8
0
 10
76.60548021448781
 20
251.4259020567024
 30
0.0
 11
77.10548021448781
 21
251.4259020567024
 31
0.0
  0
LINE
  5
287
  8
0
 10
79.60548021448759
 20
272.9259020567024
 30
0.0
 11
79.10548021448781
 21
272.9259020567024
 31
0.0
  0
LINE
  5
288
  8
0
 10
76.60548021448781
 20
272.9259020567024
 30
0.0
 11
77.10548021448781
 21
272.9259020567024
 31
0.0
  0
LINE
  5
289
  8
0
 10
77.10548021448781
 20
277.4259020567024
 30
0.0
 11
77.10548021448781
 21
272.9259020567024
 31
0.0
  0
LINE
  5
28A
  8
0
 10
77.10548021448781
 20
277.4259020567024
 30
0.0
 11
79.10548021448781
 21
277.4259020567024
 31
0.0
  0
LINE
  5
28B
  8
0
 10
79.10548021448781
 20
277.4259020567024
 30
0.0
 11
79.10548021448781
 21
272.9259020567024
 31
0.0
  0
LINE
  5
28C
  8
0
 10
68.87786154043116
 20
252.607197349343
 30
0.0
 11
64.87786154043138
 21
252.607197349343
 31
0.0
  0
LINE
  5
28D
  8
0
 10
68.87786154043116
 20
255.607197349343
 30
0.0
 11
68.87786154043116
 21
252.607197349343
 31
0.0
  0
LINE
  5
28E
  8
0
 10
64.87786154043138
 20
252.607197349343
 30
0.0
 11
64.87786154043138
 21
255.607197349343
 31
0.0
  0
LINE
  5
28F
  8
0
 10
64.87786154043138
 20
270.607197349343
 30
0.0
 11
64.87786154043138
 21
273.607197349343
 31
0.0
  0
LINE
  5
290
  8
0
 10
64.87786154043138
 20
273.607197349343
 30
0.0
 11
68.87786154043116
 21
273.607197349343
 31
0.0
  0
LINE
  5
291
  8
0
 10
68.87786154043116
 20
273.607197349343
 30
0.0
 11
68.87786154043116
 21
270.607197349343
 31
0.0
  0
LINE
  5
292
  8
0
 10
68.87786154043116
 20
270.607197349343
 30
0.0
 11
74.03866755116306
 21
270.607197349343
 31
0.0
  0
LINE
  5
293
  8
0
 10
74.03866755116306
 20
270.607197349343
 30
0.0
 11
74.13107420321072
 21
270.607197349343
 31
0.0
  0
LINE
  5
294
  8
0
 10
68.87786154043116
 20
255.607197349343
 30
0.0
 11
74.03866755116306
 21
255.607197349343
 31
0.0
  0
LINE
  5
295
  8
0
 10
74.03866755116306
 20
255.607197349343
 30
0.0
 11
74.03866755116306
 21
270.607197349343
 31
0.0
  0
LINE
  5
296
  8
0
 10
64.87786154043138
 20
270.607197349343
 30
0.0
 11
58.34417391671505
 21
270.607197349343
 31
0.0
  0
LINE
  5
297
  8
0
 10
64.87786154043138
 20
255.607197349343
 30
0.0
 11
58.34417391671505
 21
255.607197349343
 31
0.0
  0
LINE
  5
298
  8
0
 10
58.34417391671505
 20
255.607197349343
 30
0.0
 11
58.34417391671505
 21
270.607197349343
 31
0.0
  0
LINE
  5
299
  8
0
 10
55.27125400570768
 20
270.2013905427258
 30
0.0
 11
48.77125400570745
 21
270.2013905427258
 31
0.0
  0
LINE
  5
29A
  8
0
 10
48.77125400570745
 20
270.2013905427258
 30
0.0
 11
48.77125400570745
 21
273.2013905427258
 31
0.0
  0
LINE
  5
29B
  8
0
 10
48.77125400570745
 20
273.2013905427258
 30
0.0
 11
44.77125400570768
 21
273.2013905427258
 31
0.0
  0
LINE
  5
29C
  8
0
 10
44.77125400570768
 20
273.2013905427258
 30
0.0
 11
44.77125400570768
 21
270.2013905427258
 31
0.0
  0
LINE
  5
29D
  8
0
 10
44.77125400570768
 20
270.2013905427258
 30
0.0
 11
39.27125400570768
 21
270.2013905427258
 31
0.0
  0
LINE
  5
29E
  8
0
 10
39.27125400570768
 20
270.2013905427258
 30
0.0
 11
39.27125400570768
 21
255.2013905427258
 31
0.0
  0
LINE
  5
29F
  8
0
 10
39.27125400570768
 20
255.2013905427258
 30
0.0
 11
44.77125400570768
 21
255.2013905427258
 31
0.0
  0
LINE
  5
2A0
  8
0
 10
44.77125400570768
 20
255.2013905427258
 30
0.0
 11
44.77125400570768
 21
252.2013905427258
 31
0.0
  0
LINE
  5
2A1
  8
0
 10
44.77125400570768
 20
252.2013905427258
 30
0.0
 11
48.77125400570745
 21
252.2013905427258
 31
0.0
  0
LINE
  5
2A2
  8
0
 10
48.77125400570745
 20
252.2013905427258
 30
0.0
 11
48.77125400570745
 21
255.2013905427258
 31
0.0
  0
LINE
  5
2A3
  8
0
 10
48.77125400570745
 20
255.2013905427258
 30
0.0
 11
55.27125400570768
 21
255.2013905427258
 31
0.0
  0
CIRCLE
  5
2A4
  8
TALL_1
 10
46.77125400570745
 20
262.7013905427258
 30
0.0
 40
3.28085653747874
  0
LINE
  5
2A5
  8
0
 10
55.27125400570768
 20
270.2013905427258
 30
0.0
 11
55.27125400570768
 21
255.2013905427258
 31
0.0
  0
LINE
  5
2A6
  8
0
 10
35.08661917444502
 20
39.91440428588032
 30
0.0
 11
53.03623186596442
 21
39.91440428588032
 31
0.0
  0
LINE
  5
2A7
  8
0
 10
52.96973293768556
 20
10.68748173674419
 30
0.0
 11
47.84473293768556
 21
10.68748173674419
 31
0.0
  0
LINE
  5
2A8
  8
0
 10
44.09473293768556
 20
10.68748173674419
 30
0.0
 11
36.96973293768556
 21
10.68748173674419
 31
0.0
  0
POLYLINE
  5
2A9
  8
0
 66
     1
 10
0.0
 20
0.0
 30
0.0
  0
VERTEX
  5
556
  8
0
 10
47.84473293768556
 20
10.67025182926534
 30
0.0
  0
VERTEX
  5
557
  8
0
 10
47.84473293768556
 20
13.67025182926534
 30
0.0
  0
VERTEX
  5
558
  8
0
 10
44.09473293768556
 20
13.67025182926534
 30
0.0
  0
VERTEX
  5
559
  8
0
 10
44.09473293768556
 20
10.67025182926534
 30
0.0
  0
SEQEND
  5
60A
  8
0
  0
POLYLINE
  5
2AA
  8
0
 66
     1
 10
0.0
 20
0.0
 30
0.0
  0
VERTEX
  5
55A
  8
0
 10
31.12972522487908
 20
16.95697119376734
 30
0.0
  0
VERTEX
  5
55B
  8
0
 10
33.32271474850941
 20
19.00411480114997
 30
0.0
  0
VERTEX
  5
55C
  8
0
 10
30.42259463805104
 20
22.11084995962653
 30
0.0
  0
VERTEX
  5
55D
  8
0
 10
28.22960511442071
 20
20.06370635224391
 30
0.0
  0
SEQEND
  5
60B
  8
0
  0
LINE
  5
2AB
  8
0
 10
55.96973293768556
 20
197.6874817367442
 30
0.0
 11
52.96973293768556
 21
197.6874817367442
 31
0.0
  0
LINE
  5
2AC
  8
0
 10
55.96973293768556
 20
205.6874817367442
 30
0.0
 11
55.96973293768556
 21
197.6874817367442
 31
0.0
  0
LINE
  5
2AD
  8
0
 10
60.96973293768556
 20
205.6874817367442
 30
0.0
 11
55.96973293768556
 21
205.6874817367442
 31
0.0
  0
LINE
  5
2AE
  8
0
 10
60.96973293768556
 20
187.6874817367442
 30
0.0
 11
52.96973293768556
 21
164.6874817367442
 31
0.0
  0
LINE
  5
2AF
  8
0
 10
60.96973293768556
 20
205.6874817367442
 30
0.0
 11
60.96973293768556
 21
187.6874817367442
 31
0.0
  0
LINE
  5
2B0
  8
0
 10
47.96973293768556
 20
212.6874817367442
 30
0.0
 11
22.96973293768556
 21
70.68748173674419
 31
0.0
  0
LINE
  5
2B1
  8
0
 10
52.96973293768556
 20
212.6874817367442
 30
0.0
 11
47.96973293768556
 21
212.6874817367442
 31
0.0
  0
LINE
  5
2B2
  8
0
 10
52.96973293768556
 20
197.6874817367442
 30
0.0
 11
52.96973293768556
 21
212.6874817367442
 31
0.0
  0
LINE
  5
2B3
  8
0
 10
22.96973293768556
 20
55.68748173674419
 30
0.0
 11
22.96973293768556
 21
70.68748173674419
 31
0.0
  0
POLYLINE
  5
2B4
  8
0
 66
     1
 10
0.0
 20
0.0
 30
0.0
  0
VERTEX
  5
55E
  8
0
 10
22.96973293768556
 20
40.68748173674419
 30
0.0
  0
VERTEX
  5
55F
  8
0
 10
10.96973293768556
 20
40.68748173674419
 30
0.0
  0
VERTEX
  5
560
  8
0
 10
5.969732937685563
 20
46.18748173674419
 30
0.0
  0
VERTEX
  5
561
  8
0
 10
5.969732937685563
 20
50.18748173674419
 30
0.0
  0
VERTEX
  5
562
  8
0
 10
10.96973293768534
 20
55.68748173674419
 30
0.0
  0
VERTEX
  5
563
  8
0
 10
22.96973293768534
 20
55.68748173674419
 30
0.0
  0
SEQEND
  5
60C
  8
0
  0
CIRCLE
  5
2B5
  8
TALL_1
 10
10.96973293768556
 20
48.18748173674419
 30
0.0
 40
2.75
  0
LINE
  5
2B6
  8
0
 10
22.96973293768556
 20
25.68748173674419
 30
0.0
 11
22.96973293768556
 21
40.68748173674419
 31
0.0
  0
LINE
  5
2B7
  8
0
 10
49.8689296745321
 20
43.81653099992639
 30
0.0
 11
52.8689296745321
 21
43.81653099992639
 31
0.0
  0
LINE
  5
2B8
  8
0
 10
49.8689296745321
 20
49.81653099992639
 30
0.0
 11
49.8689296745321
 21
43.81653099992639
 31
0.0
  0
LINE
  5
2B9
  8
0
 10
52.8689296745321
 20
49.81653099992639
 30
0.0
 11
49.8689296745321
 21
49.81653099992639
 31
0.0
  0
LINE
  5
2BA
  8
0
 10
52.96973293768556
 20
164.6874817367442
 30
0.0
 11
52.96973293768556
 21
49.75337520037431
 31
0.0
  0
LINE
  5
2BB
  8
TALL_1
 10
47.96973293768556
 20
140.6874817367442
 30
0.0
 11
47.96973293768556
 21
128.6874817367442
 31
0.0
  0
LINE
  5
2BC
  8
TALL_1
 10
47.96973293768556
 20
128.6874817367442
 30
0.0
 11
41.96973293768556
 21
128.6874817367442
 31
0.0
  0
LINE
  5
2BD
  8
TALL_1
 10
41.96973293768556
 20
128.6874817367442
 30
0.0
 11
41.96973293768556
 21
140.6874817367442
 31
0.0
  0
LINE
  5
2BE
  8
TALL_1
 10
41.96973293768556
 20
140.6874817367442
 30
0.0
 11
47.96973293768556
 21
140.6874817367442
 31
0.0
  0
LINE
  5
2BF
  8
0
 10
53.03623186596442
 20
30.98478913379574
 30
0.0
 11
35.08661917444502
 21
30.91440428588032
 31
0.0
  0
LINE
  5
2C0
  8
0
 10
35.08661917444502
 20
30.91440428588032
 30
0.0
 11
35.08661917444502
 21
39.91440428588032
 31
0.0
  0
LINE
  5
2C1
  8
0
 10
28.3634777178012
 20
19.90846947233479
 30
0.0
 11
22.96973293768556
 21
25.68748173674419
 31
0.0
  0
LINE
  5
2C2
  8
0
 10
36.96973293768556
 20
10.68748173674419
 30
0.0
 11
31.1018923157325
 21
16.97445383169372
 31
0.0
  0
LINE
  5
2C3
  8
0
 10
52.96973293768556
 20
30.98452837513548
 30
0.0
 11
52.96973293768556
 21
10.68748173674419
 31
0.0
  0
LINE
  5
2C4
  8
0
 10
52.96973293768556
 20
43.8984897266231
 30
0.0
 11
52.96973293768556
 21
39.91440428588032
 31
0.0
  0
TEXT
  5
2C5
  8
0
  6
CONTINUOUS
 10
90.28522255192874
 20
299.7488189910979
 30
0.0
 40
12.0
  1
CON MOTOR
  0
POLYLINE
  5
3DD
  8
0
 66
     1
 10
0.0
 20
0.0
 30
0.0
 70
     1
  0
VERTEX
  5
564
  8
0
 10
436.6923750245281
 20
287.5629552436924
 30
0.0
 42
-0.4142135623730998
  0
VERTEX
  5
565
  8
0
 10
440.6923750245283
 20
283.5629552436924
 30
0.0
  0
VERTEX
  5
566
  8
0
 10
440.6923750245283
 20
121.5629552436924
 30
0.0
 42
-0.4142135623731014
  0
VERTEX
  5
567
  8
0
 10
436.6923750245281
 20
117.5629552436924
 30
0.0
  0
VERTEX
  5
568
  8
0
 10
399.6923750245283
 20
117.5629552436924
 30
0.0
 42
-0.4142135623731014
  0
VERTEX
  5
569
  8
0
 10
395.6923750245283
 20
121.5629552436924
 30
0.0
  0
VERTEX
  5
56A
  8
0
 10
395.6923750245283
 20
283.5629552436924
 30
0.0
 42
-0.4142135623730995
  0
VERTEX
  5
56B
  8
0
 10
399.6923750245283
 20
287.5629552436924
 30
0.0
  0
SEQEND
  5
60D
  8
0
  0
LINE
  5
3DE
  8
TALL_1
 10
423.1923750245283
 20
174.5629552436924
 30
0.0
 11
423.1923750245283
 21
171.5629552436924
 31
0.0
  0
LINE
  5
3DF
  8
TALL_1
 10
423.1923750245283
 20
171.5629552436924
 30
0.0
 11
413.1923750245281
 21
171.5629552436924
 31
0.0
  0
LINE
  5
3E0
  8
TALL_1
 10
413.1923750245281
 20
171.5629552436924
 30
0.0
 11
413.1923750245281
 21
174.5629552436924
 31
0.0
  0
LINE
  5
3E1
  8
TALL_1
 10
418.1923750245283
 20
174.5629552436924
 30
0.0
 11
423.1923750245283
 21
174.5629552436924
 31
0.0
  0
LINE
  5
3E2
  8
TALL_1
 10
413.1923750245281
 20
174.5629552436924
 30
0.0
 11
418.1923750245281
 21
174.5629552436924
 31
0.0
  0
LINE
  5
3E3
  8
TALL_1
 10
423.1923750245283
 20
138.5629552436926
 30
0.0
 11
423.1923750245283
 21
135.5629552436926
 31
0.0
  0
LINE
  5
3E4
  8
TALL_1
 10
423.1923750245283
 20
135.5629552436926
 30
0.0
 11
413.1923750245281
 21
135.5629552436926
 31
0.0
  0
LINE
  5
3E5
  8
TALL_1
 10
413.1923750245281
 20
135.5629552436926
 30
0.0
 11
413.1923750245281
 21
138.5629552436926
 31
0.0
  0
LINE
  5
3E6
  8
TALL_1
 10
418.1923750245283
 20
138.5629552436926
 30
0.0
 11
423.1923750245283
 21
138.5629552436926
 31
0.0
  0
LINE
  5
3E7
  8
TALL_1
 10
413.1923750245281
 20
138.5629552436926
 30
0.0
 11
418.1923750245281
 21
138.5629552436926
 31
0.0
  0
LINE
  5
3E8
  8
TALL_1
 10
423.1923750245283
 20
230.5629552436924
 30
0.0
 11
423.1923750245283
 21
233.5629552436924
 31
0.0
  0
LINE
  5
3E9
  8
TALL_1
 10
423.1923750245283
 20
233.5629552436924
 30
0.0
 11
413.1923750245281
 21
233.5629552436924
 31
0.0
  0
LINE
  5
3EA
  8
TALL_1
 10
413.1923750245281
 20
233.5629552436924
 30
0.0
 11
413.1923750245281
 21
230.5629552436924
 31
0.0
  0
LINE
  5
3EB
  8
TALL_1
 10
418.1923750245283
 20
230.5629552436924
 30
0.0
 11
423.1923750245283
 21
230.5629552436924
 31
0.0
  0
LINE
  5
3EC
  8
TALL_1
 10
413.1923750245281
 20
230.5629552436924
 30
0.0
 11
418.1923750245281
 21
230.5629552436924
 31
0.0
  0
LINE
  5
3ED
  8
TALL_1
 10
423.1923750245283
 20
266.5629552436924
 30
0.0
 11
423.1923750245283
 21
269.5629552436924
 31
0.0
  0
LINE
  5
3EE
  8
TALL_1
 10
423.1923750245283
 20
269.5629552436924
 30
0.0
 11
413.1923750245281
 21
269.5629552436924
 31
0.0
  0
LINE
  5
3EF
  8
TALL_1
 10
413.1923750245281
 20
269.5629552436924
 30
0.0
 11
413.1923750245281
 21
266.5629552436924
 31
0.0
  0
LINE
  5
3F0
  8
TALL_1
 10
418.1923750245283
 20
266.5629552436924
 30
0.0
 11
423.1923750245283
 21
266.5629552436924
 31
0.0
  0
LINE
  5
3F1
  8
TALL_1
 10
413.1923750245281
 20
266.5629552436924
 30
0.0
 11
418.1923750245281
 21
266.5629552436924
 31
0.0
  0
LINE
  5
3F2
  8
TALL_1
 10
426.1923750245283
 20
209.5629552436924
 30
0.0
 11
426.1923750245283
 21
212.5629552436924
 31
0.0
  0
LINE
  5
3F3
  8
TALL_1
 10
426.1923750245283
 20
212.5629552436924
 30
0.0
 11
410.1923750245281
 21
212.5629552436924
 31
0.0
  0
LINE
  5
3F4
  8
TALL_1
 10
410.1923750245281
 20
212.5629552436924
 30
0.0
 11
410.1923750245281
 21
209.5629552436924
 31
0.0
  0
LINE
  5
3F5
  8
TALL_1
 10
418.4423750245283
 20
209.5629552436924
 30
0.0
 11
426.1923750245283
 21
209.5629552436924
 31
0.0
  0
LINE
  5
3F6
  8
TALL_1
 10
410.1923750245281
 20
209.5629552436924
 30
0.0
 11
418.4423750245281
 21
209.5629552436924
 31
0.0
  0
LINE
  5
3F7
  8
TALL_1
 10
426.1923750245283
 20
195.5629552436924
 30
0.0
 11
426.1923750245283
 21
192.5629552436924
 31
0.0
  0
LINE
  5
3F8
  8
TALL_1
 10
426.1923750245283
 20
192.5629552436924
 30
0.0
 11
410.1923750245281
 21
192.5629552436924
 31
0.0
  0
LINE
  5
3F9
  8
TALL_1
 10
410.1923750245281
 20
192.5629552436924
 30
0.0
 11
410.1923750245281
 21
195.5629552436924
 31
0.0
  0
LINE
  5
3FA
  8
TALL_1
 10
418.4423750245283
 20
195.5629552436924
 30
0.0
 11
426.1923750245283
 21
195.5629552436924
 31
0.0
  0
LINE
  5
3FB
  8
TALL_1
 10
410.1923750245281
 20
195.5629552436924
 30
0.0
 11
418.4423750245281
 21
195.5629552436924
 31
0.0
  0
LINE
  5
3FC
  8
TALL_1
 10
474.2694859762583
 20
159.5629552436924
 30
0.0
 11
474.2694859762583
 21
156.5629552436924
 31
0.0
  0
LINE
  5
3FD
  8
TALL_1
 10
474.2694859762583
 20
156.5629552436924
 30
0.0
 11
464.2694859762585
 21
156.5629552436926
 31
0.0
  0
LINE
  5
3FE
  8
TALL_1
 10
464.2694859762585
 20
156.5629552436926
 30
0.0
 11
464.2694859762585
 21
159.5629552436926
 31
0.0
  0
LINE
  5
3FF
  8
TALL_1
 10
469.2694859762585
 20
159.5629552436924
 30
0.0
 11
474.2694859762583
 21
159.5629552436924
 31
0.0
  0
LINE
  5
400
  8
TALL_1
 10
464.2694859762585
 20
159.5629552436926
 30
0.0
 11
469.2694859762585
 21
159.5629552436924
 31
0.0
  0
LINE
  5
401
  8
TALL_1
 10
474.2694859762583
 20
123.5629552436924
 30
0.0
 11
474.2694859762583
 21
120.5629552436924
 31
0.0
  0
LINE
  5
402
  8
TALL_1
 10
474.2694859762583
 20
120.5629552436924
 30
0.0
 11
464.2694859762585
 21
120.5629552436926
 31
0.0
  0
LINE
  5
403
  8
TALL_1
 10
464.2694859762585
 20
120.5629552436926
 30
0.0
 11
464.2694859762585
 21
123.5629552436926
 31
0.0
  0
LINE
  5
404
  8
TALL_1
 10
469.2694859762585
 20
123.5629552436924
 30
0.0
 11
474.2694859762583
 21
123.5629552436924
 31
0.0
  0
LINE
  5
405
  8
TALL_1
 10
464.2694859762585
 20
123.5629552436926
 30
0.0
 11
469.2694859762585
 21
123.5629552436924
 31
0.0
  0
LINE
  5
406
  8
TALL_1
 10
474.2694859762583
 20
215.5629552436922
 30
0.0
 11
474.2694859762583
 21
218.5629552436922
 31
0.0
  0
LINE
  5
407
  8
TALL_1
 10
474.2694859762583
 20
218.5629552436922
 30
0.0
 11
464.2694859762585
 21
218.5629552436924
 31
0.0
  0
LINE
  5
408
  8
TALL_1
 10
464.2694859762585
 20
218.5629552436924
 30
0.0
 11
464.2694859762585
 21
215.5629552436924
 31
0.0
  0
LINE
  5
409
  8
TALL_1
 10
469.2694859762585
 20
215.5629552436922
 30
0.0
 11
474.2694859762583
 21
215.5629552436922
 31
0.0
  0
LINE
  5
40A
  8
TALL_1
 10
464.2694859762585
 20
215.5629552436924
 30
0.0
 11
469.2694859762585
 21
215.5629552436922
 31
0.0
  0
LINE
  5
40B
  8
TALL_1
 10
474.2694859762583
 20
251.5629552436922
 30
0.0
 11
474.2694859762583
 21
254.5629552436922
 31
0.0
  0
LINE
  5
40C
  8
TALL_1
 10
474.2694859762583
 20
254.5629552436922
 30
0.0
 11
464.2694859762585
 21
254.5629552436924
 31
0.0
  0
LINE
  5
40D
  8
TALL_1
 10
464.2694859762585
 20
254.5629552436924
 30
0.0
 11
464.2694859762585
 21
251.5629552436924
 31
0.0
  0
LINE
  5
40E
  8
TALL_1
 10
469.2694859762585
 20
251.5629552436922
 30
0.0
 11
474.2694859762583
 21
251.5629552436922
 31
0.0
  0
LINE
  5
40F
  8
TALL_1
 10
464.2694859762585
 20
251.5629552436924
 30
0.0
 11
469.2694859762585
 21
251.5629552436922
 31
0.0
  0
ARC
  5
410
  8
0
 10
487.7694859762585
 20
283.5629552436922
 30
0.0
 40
3.999999999999958
 50
0.0
 51
90.0
  0
LINE
  5
411
  8
0
 10
491.7694859762583
 20
283.5629552436922
 30
0.0
 11
491.7694859762583
 21
91.56295524369239
 31
0.0
  0
ARC
  5
412
  8
0
 10
487.7694859762585
 20
91.56295524369216
 30
0.0
 40
3.999999999999948
 50
270.0
 51
0.0
  0
LINE
  5
413
  8
0
 10
487.7694859762585
 20
87.56295524369239
 30
0.0
 11
450.7694859762585
 21
87.56295524369261
 31
0.0
  0
ARC
  5
414
  8
0
 10
450.7694859762583
 20
91.56295524369239
 30
0.0
 40
3.999999999999948
 50
180.0
 51
270.0000000000032
  0
LINE
  5
415
  8
0
 10
446.7694859762585
 20
91.56295524369261
 30
0.0
 11
446.7694859762585
 21
283.5629552436924
 31
0.0
  0
ARC
  5
416
  8
0
 10
450.7694859762585
 20
283.5629552436924
 30
0.0
 40
3.999999999999963
 50
90.0
 51
179.9999999999967
  0
LINE
  5
417
  8
0
 10
450.7694859762585
 20
287.5629552436924
 30
0.0
 11
487.7694859762585
 21
287.5629552436922
 31
0.0
  0
LINE
  5
418
  8
0
 10
443.6923750245281
 20
69.06295524369239
 30
0.0
 11
440.6923750245283
 21
69.06295524369239
 31
0.0
  0
LINE
  5
419
  8
0
 10
443.6923750245281
 20
79.06295524369239
 30
0.0
 11
443.6923750245281
 21
69.06295524369239
 31
0.0
  0
LINE
  5
41A
  8
0
 10
440.6923750245281
 20
79.06295524369239
 30
0.0
 11
443.6923750245281
 21
79.06295524369239
 31
0.0
  0
LINE
  5
41B
  8
0
 10
440.6923750245281
 20
79.06295524369239
 30
0.0
 11
440.6923750245281
 21
86.56295524369239
 31
0.0
  0
POLYLINE
  5
41C
  8
TALL_1
 66
     1
 10
0.0
 20
0.0
 30
0.0
 70
     1
  0
VERTEX
  5
56C
  8
TALL_1
 10
435.6923750245281
 20
81.56295524369239
 30
0.0
  0
VERTEX
  5
56D
  8
TALL_1
 10
435.6923750245281
 20
66.56295524369239
 30
0.0
  0
VERTEX
  5
56E
  8
TALL_1
 10
400.6923750245281
 20
66.56295524369239
 30
0.0
  0
VERTEX
  5
56F
  8
TALL_1
 10
400.6923750245281
 20
81.56295524369239
 30
0.0
  0
SEQEND
  5
60E
  8
TALL_1
  0
LINE
  5
41D
  8
0
 10
395.6923750245283
 20
79.06295524369239
 30
0.0
 11
392.6923750245283
 21
79.06295524369239
 31
0.0
  0
LINE
  5
41E
  8
0
 10
392.6923750245283
 20
79.06295524369239
 30
0.0
 11
392.6923750245283
 21
69.06295524369239
 31
0.0
  0
LINE
  5
41F
  8
0
 10
392.6923750245283
 20
69.06295524369239
 30
0.0
 11
395.6923750245283
 21
69.06295524369239
 31
0.0
  0
LINE
  5
420
  8
0
 10
395.6923750245283
 20
69.06295524369239
 30
0.0
 11
395.6923750245283
 21
61.56295524369239
 31
0.0
  0
LINE
  5
421
  8
0
 10
395.6923750245283
 20
79.06295524369239
 30
0.0
 11
395.6923750245283
 21
86.56295524369239
 31
0.0
  0
LINE
  5
422
  8
0
 10
395.6923750245283
 20
86.56295524369239
 30
0.0
 11
440.6923750245283
 21
86.56295524369239
 31
0.0
  0
LINE
  5
423
  8
0
 10
440.6923750245283
 20
69.06295524369239
 30
0.0
 11
440.6923750245283
 21
61.56295524369239
 31
0.0
  0
LINE
  5
424
  8
0
 10
440.6923750245283
 20
61.56295524369239
 30
0.0
 11
395.6923750245283
 21
61.56295524369239
 31
0.0
  0
LINE
  5
425
  8
0
 10
443.6923750245281
 20
41.06295524369239
 30
0.0
 11
440.6923750245283
 21
41.06295524369239
 31
0.0
  0
LINE
  5
426
  8
0
 10
443.6923750245281
 20
51.06295524369239
 30
0.0
 11
443.6923750245281
 21
41.06295524369239
 31
0.0
  0
LINE
  5
427
  8
0
 10
440.6923750245281
 20
51.06295524369239
 30
0.0
 11
443.6923750245281
 21
51.06295524369239
 31
0.0
  0
LINE
  5
428
  8
0
 10
440.6923750245281
 20
51.06295524369239
 30
0.0
 11
440.6923750245281
 21
58.56295524369239
 31
0.0
  0
POLYLINE
  5
429
  8
TALL_1
 66
     1
 10
0.0
 20
0.0
 30
0.0
 70
     1
  0
VERTEX
  5
570
  8
TALL_1
 10
435.6923750245281
 20
53.56295524369239
 30
0.0
  0
VERTEX
  5
571
  8
TALL_1
 10
435.6923750245281
 20
38.56295524369239
 30
0.0
  0
VERTEX
  5
572
  8
TALL_1
 10
400.6923750245281
 20
38.56295524369239
 30
0.0
  0
VERTEX
  5
573
  8
TALL_1
 10
400.6923750245281
 20
53.56295524369239
 30
0.0
  0
SEQEND
  5
60F
  8
TALL_1
  0
LINE
  5
42A
  8
0
 10
395.6923750245283
 20
51.06295524369239
 30
0.0
 11
392.6923750245283
 21
51.06295524369239
 31
0.0
  0
LINE
  5
42B
  8
0
 10
392.6923750245283
 20
51.06295524369239
 30
0.0
 11
392.6923750245283
 21
41.06295524369239
 31
0.0
  0
LINE
  5
42C
  8
0
 10
392.6923750245283
 20
41.06295524369239
 30
0.0
 11
395.6923750245283
 21
41.06295524369239
 31
0.0
  0
LINE
  5
42D
  8
0
 10
395.6923750245283
 20
41.06295524369239
 30
0.0
 11
395.6923750245283
 21
33.56295524369239
 31
0.0
  0
LINE
  5
42E
  8
0
 10
395.6923750245283
 20
51.06295524369239
 30
0.0
 11
395.6923750245283
 21
58.56295524369239
 31
0.0
  0
LINE
  5
42F
  8
0
 10
395.6923750245283
 20
58.56295524369239
 30
0.0
 11
440.6923750245283
 21
58.56295524369239
 31
0.0
  0
LINE
  5
430
  8
0
 10
440.6923750245283
 20
41.06295524369239
 30
0.0
 11
440.6923750245283
 21
33.56295524369239
 31
0.0
  0
LINE
  5
431
  8
0
 10
440.6923750245283
 20
33.56295524369239
 30
0.0
 11
395.6923750245283
 21
33.56295524369239
 31
0.0
  0
LINE
  5
432
  8
0
 10
443.6923750245281
 20
13.06295524369239
 30
0.0
 11
440.6923750245283
 21
13.06295524369239
 31
0.0
  0
LINE
  5
433
  8
0
 10
443.6923750245281
 20
23.06295524369239
 30
0.0
 11
443.6923750245281
 21
13.06295524369239
 31
0.0
  0
LINE
  5
434
  8
0
 10
440.6923750245281
 20
23.06295524369239
 30
0.0
 11
443.6923750245281
 21
23.06295524369239
 31
0.0
  0
LINE
  5
435
  8
0
 10
440.6923750245281
 20
23.06295524369239
 30
0.0
 11
440.6923750245281
 21
30.56295524369239
 31
0.0
  0
POLYLINE
  5
436
  8
TALL_1
 66
     1
 10
0.0
 20
0.0
 30
0.0
 70
     1
  0
VERTEX
  5
574
  8
TALL_1
 10
435.6923750245281
 20
25.56295524369239
 30
0.0
  0
VERTEX
  5
575
  8
TALL_1
 10
435.6923750245281
 20
10.56295524369239
 30
0.0
  0
VERTEX
  5
576
  8
TALL_1
 10
400.6923750245281
 20
10.56295524369239
 30
0.0
  0
VERTEX
  5
577
  8
TALL_1
 10
400.6923750245281
 20
25.56295524369239
 30
0.0
  0
SEQEND
  5
610
  8
TALL_1
  0
LINE
  5
437
  8
0
 10
395.6923750245283
 20
23.06295524369239
 30
0.0
 11
392.6923750245283
 21
23.06295524369239
 31
0.0
  0
LINE
  5
438
  8
0
 10
392.6923750245283
 20
23.06295524369239
 30
0.0
 11
392.6923750245283
 21
13.06295524369239
 31
0.0
  0
LINE
  5
439
  8
0
 10
392.6923750245283
 20
13.06295524369239
 30
0.0
 11
395.6923750245283
 21
13.06295524369239
 31
0.0
  0
LINE
  5
43A
  8
0
 10
395.6923750245283
 20
13.06295524369239
 30
0.0
 11
395.6923750245283
 21
5.562955243692386
 31
0.0
  0
LINE
  5
43B
  8
0
 10
395.6923750245283
 20
23.06295524369239
 30
0.0
 11
395.6923750245283
 21
30.56295524369239
 31
0.0
  0
LINE
  5
43C
  8
0
 10
395.6923750245283
 20
30.56295524369239
 30
0.0
 11
440.6923750245283
 21
30.56295524369239
 31
0.0
  0
LINE
  5
43D
  8
0
 10
440.6923750245283
 20
13.06295524369239
 30
0.0
 11
440.6923750245283
 21
5.562955243692386
 31
0.0
  0
LINE
  5
43E
  8
0
 10
440.6923750245283
 20
5.562955243692386
 30
0.0
 11
395.6923750245283
 21
5.562955243692386
 31
0.0
  0
LINE
  5
43F
  8
0
 10
443.6923750245281
 20
97.06295524369239
 30
0.0
 11
440.6923750245283
 21
97.06295524369239
 31
0.0
  0
LINE
  5
440
  8
0
 10
443.6923750245281
 20
107.0629552436924
 30
0.0
 11
443.6923750245281
 21
97.06295524369239
 31
0.0
  0
LINE
  5
441
  8
0
 10
440.6923750245281
 20
107.0629552436924
 30
0.0
 11
443.6923750245281
 21
107.0629552436924
 31
0.0
  0
LINE
  5
442
  8
0
 10
440.6923750245281
 20
107.0629552436924
 30
0.0
 11
440.6923750245281
 21
114.5629552436924
 31
0.0
  0
POLYLINE
  5
443
  8
TALL_1
 66
     1
 10
0.0
 20
0.0
 30
0.0
 70
     1
  0
VERTEX
  5
578
  8
TALL_1
 10
435.6923750245281
 20
109.5629552436924
 30
0.0
  0
VERTEX
  5
579
  8
TALL_1
 10
435.6923750245281
 20
94.56295524369239
 30
0.0
  0
VERTEX
  5
57A
  8
TALL_1
 10
400.6923750245281
 20
94.56295524369239
 30
0.0
  0
VERTEX
  5
57B
  8
TALL_1
 10
400.6923750245281
 20
109.5629552436924
 30
0.0
  0
SEQEND
  5
611
  8
TALL_1
  0
LINE
  5
444
  8
0
 10
395.6923750245283
 20
107.0629552436924
 30
0.0
 11
392.6923750245283
 21
107.0629552436924
 31
0.0
  0
LINE
  5
445
  8
0
 10
392.6923750245283
 20
107.0629552436924
 30
0.0
 11
392.6923750245283
 21
97.06295524369239
 31
0.0
  0
LINE
  5
446
  8
0
 10
392.6923750245283
 20
97.06295524369239
 30
0.0
 11
395.6923750245283
 21
97.06295524369239
 31
0.0
  0
LINE
  5
447
  8
0
 10
395.6923750245283
 20
97.06295524369239
 30
0.0
 11
395.6923750245283
 21
89.56295524369239
 31
0.0
  0
LINE
  5
448
  8
0
 10
395.6923750245283
 20
107.0629552436924
 30
0.0
 11
395.6923750245283
 21
114.5629552436924
 31
0.0
  0
LINE
  5
449
  8
0
 10
395.6923750245283
 20
114.5629552436924
 30
0.0
 11
440.6923750245283
 21
114.5629552436924
 31
0.0
  0
LINE
  5
44A
  8
0
 10
440.6923750245283
 20
97.06295524369239
 30
0.0
 11
440.6923750245283
 21
89.56295524369239
 31
0.0
  0
LINE
  5
44B
  8
0
 10
440.6923750245283
 20
89.56295524369239
 30
0.0
 11
395.6923750245283
 21
89.56295524369239
 31
0.0
  0
ARC
  5
44C
  8
0
 10
358.6923750245283
 20
282.5629552436924
 30
0.0
 40
1.999999999999973
 50
0.0
 51
90.0
  0
POLYLINE
  5
44D
  8
0
 66
     1
 10
0.0
 20
0.0
 30
0.0
  0
VERTEX
  5
57C
  8
0
 10
354.6923750245283
 20
220.5629552436924
 30
0.0
  0
VERTEX
  5
57D
  8
0
 10
353.3719348243861
 20
227.788113959243
 30
0.0
  0
VERTEX
  5
57E
  8
0
 10
352.7392500245283
 20
235.0942052436924
 30
0.0
  0
VERTEX
  5
57F
  8
0
 10
352.9356401341116
 20
237.5537004837618
 30
0.0
  0
VERTEX
  5
580
  8
0
 10
353.4357932377878
 20
239.9948601425426
 30
0.0
  0
VERTEX
  5
581
  8
0
 10
353.938853344748
 20
242.4360784869557
 30
0.0
  0
VERTEX
  5
582
  8
0
 10
354.1439644641833
 20
244.8957497839222
 30
0.0
  0
VERTEX
  5
583
  8
0
 10
353.940638677342
 20
245.6800490353721
 30
0.0
  0
VERTEX
  5
584
  8
0
 10
353.4807334862588
 20
246.392945195686
 30
0.0
  0
VERTEX
  5
585
  8
0
 10
352.5121324554971
 20
247.8266878682025
 30
0.0
  0
VERTEX
  5
586
  8
0
 10
351.8017500245283
 20
250.5629552436924
 30
0.0
  0
SEQEND
  5
612
  8
0
  0
POLYLINE
  5
44E
  8
0
 66
     1
 10
0.0
 20
0.0
 30
0.0
  0
VERTEX
  5
587
  8
0
 10
360.6923750245283
 20
220.5629552436924
 30
0.0
  0
VERTEX
  5
588
  8
0
 10
362.0128152246703
 20
227.788113959243
 30
0.0
  0
VERTEX
  5
589
  8
0
 10
362.6455000245281
 20
235.0942052436924
 30
0.0
  0
VERTEX
  5
58A
  8
0
 10
362.4491099149448
 20
237.5537004837618
 30
0.0
  0
VERTEX
  5
58B
  8
0
 10
361.9489568112686
 20
239.9948601425426
 30
0.0
  0
VERTEX
  5
58C
  8
0
 10
361.4458967043084
 20
242.4360784869557
 30
0.0
  0
VERTEX
  5
58D
  8
0
 10
361.2407855848731
 20
244.8957497839222
 30
0.0
  0
VERTEX
  5
58E
  8
0
 10
361.4441113717144
 20
245.6800490353721
 30
0.0
  0
VERTEX
  5
58F
  8
0
 10
361.9040165627974
 20
246.392945195686
 30
0.0
  0
VERTEX
  5
590
  8
0
 10
362.8726175935593
 20
247.8266878682025
 30
0.0
  0
VERTEX
  5
591
  8
0
 10
363.5830000245283
 20
250.5629552436924
 30
0.0
  0
SEQEND
  5
613
  8
0
  0
ARC
  5
44F
  8
0
 10
358.6923750245283
 20
220.5629552436924
 30
0.0
 40
1.999999999999971
 50
270.0
 51
0.0
  0
ARC
  5
450
  8
0
 10
356.6923750245283
 20
220.5629552436924
 30
0.0
 40
2.000000000000018
 50
180.0
 51
270.0
  0
ARC
  5
451
  8
0
 10
356.6923750245283
 20
282.5629552436924
 30
0.0
 40
1.999999999999992
 50
90.0
 51
180.0
  0
LINE
  5
452
  8
0
 10
356.6923750245283
 20
284.5629552436924
 30
0.0
 11
358.6923750245283
 21
284.5629552436924
 31
0.0
  0
ARC
  5
453
  8
0
 10
358.3994818057147
 20
251.5629552436924
 30
0.0
 40
6.673085092854645
 50
171.3814343328839
 51
188.6185656671161
  0
LINE
  5
454
  8
0
 10
356.6923750245283
 20
218.5629552436924
 30
0.0
 11
358.6923750245283
 21
218.5629552436924
 31
0.0
  0
ARC
  5
455
  8
0
 10
357.6923750245283
 20
251.5629552436924
 30
0.0
 40
5.974902751562145
 50
350.3652490534585
 51
9.634750946541498
  0
POLYLINE
  5
456
  8
0
 66
     1
 10
0.0
 20
0.0
 30
0.0
  0
VERTEX
  5
592
  8
0
 10
354.6923750245283
 20
282.5629552436924
 30
0.0
  0
VERTEX
  5
593
  8
0
 10
353.3719348243861
 20
275.3377965281416
 30
0.0
  0
VERTEX
  5
594
  8
0
 10
352.7392500245283
 20
268.0317052436924
 30
0.0
  0
VERTEX
  5
595
  8
0
 10
352.9356401341116
 20
265.572210003623
 30
0.0
  0
VERTEX
  5
596
  8
0
 10
353.4357932377878
 20
263.1310503448422
 30
0.0
  0
VERTEX
  5
597
  8
0
 10
353.938853344748
 20
260.6898320004289
 30
0.0
  0
VERTEX
  5
598
  8
0
 10
354.1439644641833
 20
258.2301607034624
 30
0.0
  0
VERTEX
  5
599
  8
0
 10
353.940638677342
 20
257.4458614520124
 30
0.0
  0
VERTEX
  5
59A
  8
0
 10
353.4807334862588
 20
256.7329652916987
 30
0.0
  0
VERTEX
  5
59B
  8
0
 10
352.5121324554971
 20
255.2992226191823
 30
0.0
  0
VERTEX
  5
59C
  8
0
 10
351.8017500245283
 20
252.5629552436924
 30
0.0
  0
SEQEND
  5
614
  8
0
  0
POLYLINE
  5
457
  8
0
 66
     1
 10
0.0
 20
0.0
 30
0.0
  0
VERTEX
  5
59D
  8
0
 10
360.6923750245283
 20
282.5629552436924
 30
0.0
  0
VERTEX
  5
59E
  8
0
 10
362.0128152246703
 20
275.3377965281416
 30
0.0
  0
VERTEX
  5
59F
  8
0
 10
362.6455000245281
 20
268.0317052436924
 30
0.0
  0
VERTEX
  5
5A0
  8
0
 10
362.4491099149448
 20
265.572210003623
 30
0.0
  0
VERTEX
  5
5A1
  8
0
 10
361.9489568112686
 20
263.1310503448422
 30
0.0
  0
VERTEX
  5
5A2
  8
0
 10
361.4458967043084
 20
260.6898320004289
 30
0.0
  0
VERTEX
  5
5A3
  8
0
 10
361.2407855848731
 20
258.2301607034624
 30
0.0
  0
VERTEX
  5
5A4
  8
0
 10
361.4441113717144
 20
257.4458614520124
 30
0.0
  0
VERTEX
  5
5A5
  8
0
 10
361.9040165627974
 20
256.7329652916987
 30
0.0
  0
VERTEX
  5
5A6
  8
0
 10
362.8726175935593
 20
255.2992226191823
 30
0.0
  0
VERTEX
  5
5A7
  8
0
 10
363.5830000245283
 20
252.5629552436924
 30
0.0
  0
SEQEND
  5
615
  8
0
  0
CIRCLE
  5
458
  8
TALL_1
 10
357.6923750245283
 20
251.5629552436924
 30
0.0
 40
1.899999999999999
  0
POLYLINE
  5
459
  8
0
 66
     1
 10
0.0
 20
0.0
 30
0.0
  0
VERTEX
  5
5A8
  8
0
 10
348.6519157193064
 20
226.767944056189
 30
0.0
  0
VERTEX
  5
5A9
  8
0
 10
348.6807176784994
 20
230.5174664375461
 30
0.0
  0
VERTEX
  5
5AA
  8
0
 10
348.113282789884
 20
234.2919890626858
 30
0.0
  0
VERTEX
  5
5AB
  8
0
 10
346.8775332354629
 20
237.8525929611412
 30
0.0
  0
VERTEX
  5
5AC
  8
0
 10
344.9013911972393
 20
240.9603591624452
 30
0.0
  0
VERTEX
  5
5AD
  8
0
 10
341.9757690220097
 20
243.6282397704952
 30
0.0
  0
VERTEX
  5
5AE
  8
0
 10
338.4740014757263
 20
245.6370745459681
 30
0.0
  0
VERTEX
  5
5AF
  8
0
 10
334.6368523395443
 20
247.062617322289
 30
0.0
  0
VERTEX
  5
5B0
  8
0
 10
330.7050853946187
 20
247.9806219328839
 30
0.0
  0
SEQEND
  5
616
  8
0
  0
POLYLINE
  5
45A
  8
0
 66
     1
 10
0.0
 20
0.0
 30
0.0
  0
VERTEX
  5
5B1
  8
0
 10
348.6519157193064
 20
226.767944056189
 30
0.0
 42
-0.3441507457324505
  0
VERTEX
  5
5B2
  8
0
 10
343.8012031564579
 20
222.9806219328839
 30
0.0
  0
VERTEX
  5
5B3
  8
0
 10
306.7050853946187
 20
222.9806219328839
 30
0.0
  0
VERTEX
  5
5B4
  8
0
 10
306.7050853946187
 20
247.9806219328839
 30
0.0
  0
VERTEX
  5
5B5
  8
0
 10
309.7050853946187
 20
247.9806219328839
 30
0.0
  0
VERTEX
  5
5B6
  8
0
 10
309.7050853946187
 20
235.4806219328839
 30
0.0
  0
VERTEX
  5
5B7
  8
0
 10
315.7050853946185
 20
235.4806219328839
 30
0.0
  0
VERTEX
  5
5B8
  8
0
 10
315.7050853946185
 20
247.9806219328839
 30
0.0
  0
VERTEX
  5
5B9
  8
0
 10
330.7050853946187
 20
247.9806219328839
 30
0.0
  0
SEQEND
  5
617
  8
0
  0
LINE
  5
45B
  8
0
 10
341.6923750245281
 20
38.77396323357129
 30
0.0
 11
341.6923750245281
 21
5.562955243692386
 31
0.0
  0
LINE
  5
45C
  8
0
 10
341.6923750245281
 20
5.562955243692386
 30
0.0
 11
346.8173750245281
 21
5.562955243692386
 31
0.0
  0
LINE
  5
45D
  8
0
 10
350.5673750245283
 20
5.562955243692386
 30
0.0
 11
357.6923750245281
 21
5.562955243692386
 31
0.0
  0
POLYLINE
  5
45E
  8
0
 66
     1
 10
0.0
 20
0.0
 30
0.0
  0
VERTEX
  5
5BA
  8
0
 10
346.8173750245281
 20
5.545725336213536
 30
0.0
  0
VERTEX
  5
5BB
  8
0
 10
346.8173750245281
 20
8.545725336213536
 30
0.0
  0
VERTEX
  5
5BC
  8
0
 10
350.5673750245283
 20
8.545725336213536
 30
0.0
  0
VERTEX
  5
5BD
  8
0
 10
350.5673750245283
 20
5.545725336213536
 30
0.0
  0
SEQEND
  5
618
  8
0
  0
POLYLINE
  5
45F
  8
0
 66
     1
 10
0.0
 20
0.0
 30
0.0
  0
VERTEX
  5
5BE
  8
0
 10
363.5323827373348
 20
11.83244470071554
 30
0.0
  0
VERTEX
  5
5BF
  8
0
 10
361.3393932137045
 20
13.87958830809816
 30
0.0
  0
VERTEX
  5
5C0
  8
0
 10
364.2395133241628
 20
16.98632346657473
 30
0.0
  0
VERTEX
  5
5C1
  8
0
 10
366.4325028477932
 20
14.93917985919211
 30
0.0
  0
SEQEND
  5
619
  8
0
  0
LINE
  5
460
  8
0
 10
338.6923750245283
 20
192.5629552436924
 30
0.0
 11
341.6923750245281
 21
192.5629552436924
 31
0.0
  0
LINE
  5
461
  8
0
 10
338.6923750245283
 20
200.5629552436924
 30
0.0
 11
338.6923750245283
 21
192.5629552436924
 31
0.0
  0
LINE
  5
462
  8
0
 10
333.6923750245283
 20
200.5629552436924
 30
0.0
 11
338.6923750245283
 21
200.5629552436924
 31
0.0
  0
LINE
  5
463
  8
0
 10
333.6923750245283
 20
182.5629552436924
 30
0.0
 11
341.6923750245281
 21
159.5629552436924
 31
0.0
  0
LINE
  5
464
  8
0
 10
333.6923750245283
 20
200.5629552436924
 30
0.0
 11
333.6923750245283
 21
182.5629552436924
 31
0.0
  0
LINE
  5
465
  8
0
 10
346.6923750245283
 20
207.5629552436924
 30
0.0
 11
371.6923750245283
 21
65.56295524369239
 31
0.0
  0
LINE
  5
466
  8
0
 10
341.6923750245281
 20
207.5629552436924
 30
0.0
 11
346.6923750245283
 21
207.5629552436924
 31
0.0
  0
LINE
  5
467
  8
0
 10
341.6923750245281
 20
192.5629552436924
 30
0.0
 11
341.6923750245281
 21
207.5629552436924
 31
0.0
  0
LINE
  5
468
  8
0
 10
371.6923750245283
 20
50.56295524369239
 30
0.0
 11
371.6923750245283
 21
65.56295524369239
 31
0.0
  0
POLYLINE
  5
469
  8
0
 66
     1
 10
0.0
 20
0.0
 30
0.0
  0
VERTEX
  5
5C2
  8
0
 10
371.6923750245283
 20
35.56295524369239
 30
0.0
  0
VERTEX
  5
5C3
  8
0
 10
383.6923750245283
 20
35.56295524369239
 30
0.0
  0
VERTEX
  5
5C4
  8
0
 10
388.6923750245283
 20
41.06295524369239
 30
0.0
  0
VERTEX
  5
5C5
  8
0
 10
388.6923750245283
 20
45.06295524369239
 30
0.0
  0
VERTEX
  5
5C6
  8
0
 10
383.6923750245283
 20
50.56295524369239
 30
0.0
  0
VERTEX
  5
5C7
  8
0
 10
371.6923750245285
 20
50.56295524369239
 30
0.0
  0
SEQEND
  5
61A
  8
0
  0
CIRCLE
  5
46A
  8
TALL_1
 10
383.6923750245283
 20
43.06295524369239
 30
0.0
 40
2.75
  0
LINE
  5
46B
  8
0
 10
371.6923750245283
 20
20.56295524369239
 30
0.0
 11
371.6923750245283
 21
35.56295524369239
 31
0.0
  0
LINE
  5
46C
  8
0
 10
344.7931782876815
 20
38.69200450687458
 30
0.0
 11
341.7931782876815
 21
38.69200450687458
 31
0.0
  0
LINE
  5
46D
  8
0
 10
344.7931782876815
 20
44.69200450687458
 30
0.0
 11
344.7931782876815
 21
38.69200450687458
 31
0.0
  0
LINE
  5
46E
  8
0
 10
341.7931782876815
 20
44.69200450687458
 30
0.0
 11
344.7931782876815
 21
44.69200450687458
 31
0.0
  0
LINE
  5
46F
  8
0
 10
341.6923750245281
 20
159.5629552436924
 30
0.0
 11
341.6923750245281
 21
44.6288487073225
 31
0.0
  0
LINE
  5
470
  8
0
 10
366.2986302444127
 20
14.78394297928298
 30
0.0
 11
371.6923750245283
 21
20.56295524369239
 31
0.0
  0
LINE
  5
471
  8
0
 10
357.6923750245281
 20
5.562955243692386
 30
0.0
 11
363.5602156464811
 21
11.84992733864192
 31
0.0
  0
POLYLINE
  5
472
  8
0
 66
     1
 10
0.0
 20
0.0
 30
0.0
 70
     1
  0
VERTEX
  5
5C8
  8
0
 10
469.9456249767432
 20
8.862528595782123
 30
0.0
  0
VERTEX
  5
5C9
  8
0
 10
452.9456249767437
 20
8.862528595782123
 30
0.0
 42
-0.4142135623731029
  0
VERTEX
  5
5CA
  8
0
 10
448.9456249767434
 20
12.86252859578212
 30
0.0
  0
VERTEX
  5
5CB
  8
0
 10
448.9456249767434
 20
35.86252859578212
 30
0.0
  0
VERTEX
  5
5CC
  8
0
 10
458.9456249767434
 20
35.86252859578212
 30
0.0
  0
VERTEX
  5
5CD
  8
0
 10
458.9456249767434
 20
38.86252859578212
 30
0.0
  0
VERTEX
  5
5CE
  8
0
 10
448.9456249767434
 20
38.86252859578212
 30
0.0
  0
VERTEX
  5
5CF
  8
0
 10
448.9456249767434
 20
53.86252859578212
 30
0.0
  0
VERTEX
  5
5D0
  8
0
 10
458.9456249767434
 20
53.86252859578212
 30
0.0
  0
VERTEX
  5
5D1
  8
0
 10
458.9456249767434
 20
56.86252859578212
 30
0.0
  0
VERTEX
  5
5D2
  8
0
 10
448.9456249767434
 20
56.86252859578212
 30
0.0
  0
VERTEX
  5
5D3
  8
0
 10
448.9456249767434
 20
79.86252859578212
 30
0.0
 42
-0.4142135623730927
  0
VERTEX
  5
5D4
  8
0
 10
452.9456249767434
 20
83.86252859578212
 30
0.0
  0
VERTEX
  5
5D5
  8
0
 10
469.9456249767432
 20
83.86252859578212
 30
0.0
 42
-0.4142135623730968
  0
VERTEX
  5
5D6
  8
0
 10
473.9456249767432
 20
79.86252859578212
 30
0.0
  0
VERTEX
  5
5D7
  8
0
 10
473.9456249767434
 20
47.86252859578212
 30
0.0
  0
VERTEX
  5
5D8
  8
0
 10
461.4456249767434
 20
47.86252859578212
 30
0.0
  0
VERTEX
  5
5D9
  8
0
 10
461.4456249767434
 20
44.86252859578212
 30
0.0
  0
VERTEX
  5
5DA
  8
0
 10
473.9456249767434
 20
44.86252859578212
 30
0.0
  0
VERTEX
  5
5DB
  8
0
 10
473.9456249767434
 20
12.86252859578212
 30
0.0
 42
-0.4142135623730983
  0
SEQEND
  5
61B
  8
0
  0
LINE
  5
473
  8
0
 10
369.0524099239865
 20
280.2890347388087
 30
0.0
 11
372.0524099239865
 21
280.2890347388087
 31
0.0
  0
LINE
  5
474
  8
0
 10
369.0524099239865
 20
286.2890347388087
 30
0.0
 11
369.0524099239865
 21
280.2890347388087
 31
0.0
  0
LINE
  5
475
  8
0
 10
372.0524099239865
 20
286.2890347388087
 30
0.0
 11
369.0524099239865
 21
286.2890347388087
 31
0.0
  0
LINE
  5
476
  8
0
 10
390.0524099239865
 20
280.2890347388087
 30
0.0
 11
387.0524099239865
 21
280.2890347388087
 31
0.0
  0
LINE
  5
477
  8
0
 10
390.0524099239865
 20
286.2890347388087
 30
0.0
 11
390.0524099239865
 21
280.2890347388087
 31
0.0
  0
LINE
  5
478
  8
0
 10
387.0524099239865
 20
286.2890347388087
 30
0.0
 11
390.0524099239865
 21
286.2890347388087
 31
0.0
  0
LINE
  5
479
  8
0
 10
372.0524099239865
 20
286.2890347388087
 30
0.0
 11
387.0524099239865
 21
286.2890347388087
 31
0.0
  0
LINE
  5
47A
  8
0
 10
378.0524099239865
 20
117.2890347388087
 30
0.0
 11
372.0524099239865
 21
117.2890347388087
 31
0.0
  0
POLYLINE
  5
47B
  8
0
 66
     1
 10
0.0
 20
0.0
 30
0.0
  0
VERTEX
  5
5DC
  8
0
 10
387.0524099239865
 20
280.2890347388087
 30
0.0
  0
VERTEX
  5
5DD
  8
0
 10
387.0524099239865
 20
117.2890347388087
 30
0.0
  0
VERTEX
  5
5DE
  8
0
 10
381.0524099239865
 20
117.2890347388087
 30
0.0
  0
SEQEND
  5
61C
  8
0
  0
LINE
  5
47C
  8
0
 10
379.5524099239865
 20
132.2890347388087
 30
0.0
 11
378.0524099239865
 21
132.2890347388087
 31
0.0
  0
LINE
  5
47D
  8
0
 10
378.0524099239865
 20
132.2890347388087
 30
0.0
 11
378.0524099239865
 21
117.2890347388087
 31
0.0
  0
LINE
  5
47E
  8
0
 10
379.5524099239865
 20
132.2890347388087
 30
0.0
 11
381.0524099239865
 21
132.2890347388087
 31
0.0
  0
LINE
  5
47F
  8
0
 10
381.0524099239865
 20
132.2890347388087
 30
0.0
 11
381.0524099239865
 21
117.2890347388087
 31
0.0
  0
POLYLINE
  5
480
  8
0
 66
     1
 10
0.0
 20
0.0
 30
0.0
  0
VERTEX
  5
5DF
  8
0
 10
372.0524099239865
 20
117.2890347388087
 30
0.0
  0
VERTEX
  5
5E0
  8
0
 10
372.0524099239865
 20
280.2890347388087
 30
0.0
  0
SEQEND
  5
61D
  8
0
  0
CIRCLE
  5
481
  8
0
 10
333.4717292622689
 20
212.3274199569948
 30
0.0
 40
4.999999999999999
  0
CIRCLE
  5
482
  8
TALL_1
 10
333.4717292622689
 20
212.3274199569948
 30
0.0
 40
1.999999999999999
  0
CIRCLE
  5
483
  8
0
 10
361.0157825543366
 20
190.1347765130447
 30
0.0
 40
8.5
  0
CIRCLE
  5
484
  8
0
 10
361.0157825543366
 20
208.4416553769749
 30
0.0
 40
8.5
  0
POLYLINE
  5
485
  8
TALL_1
 66
     1
 10
0.0
 20
0.0
 30
0.0
 70
     1
  0
VERTEX
  5
5E1
  8
TALL_1
 10
362.2657825543363
 20
188.8847765130447
 30
0.0
  0
VERTEX
  5
5E2
  8
TALL_1
 10
359.5157825543366
 20
188.8847765130447
 30
0.0
  0
VERTEX
  5
5E3
  8
TALL_1
 10
359.5157825543363
 20
191.6347765130447
 30
0.0
  0
VERTEX
  5
5E4
  8
TALL_1
 10
362.2657825543363
 20
191.6347765130447
 30
0.0
  0
SEQEND
  5
61E
  8
TALL_1
  0
POLYLINE
  5
486
  8
TALL_1
 66
     1
 10
0.0
 20
0.0
 30
0.0
 70
     1
  0
VERTEX
  5
5E5
  8
TALL_1
 10
362.2657825543363
 20
207.1916553769749
 30
0.0
  0
VERTEX
  5
5E6
  8
TALL_1
 10
359.5157825543366
 20
207.1916553769749
 30
0.0
  0
VERTEX
  5
5E7
  8
TALL_1
 10
359.5157825543363
 20
209.9416553769749
 30
0.0
  0
VERTEX
  5
5E8
  8
TALL_1
 10
362.2657825543363
 20
209.9416553769749
 30
0.0
  0
SEQEND
  5
61F
  8
TALL_1
  0
LINE
  5
487
  8
0
 10
348.0294125716153
 20
245.1354256125005
 30
0.0
 11
346.0294125716153
 21
245.1354256125005
 31
0.0
  0
LINE
  5
488
  8
0
 10
346.0294125716153
 20
245.1354256125005
 30
0.0
 11
346.0294125716153
 21
249.6354256125005
 31
0.0
  0
LINE
  5
489
  8
0
 10
348.0294125716153
 20
245.1354256125005
 30
0.0
 11
348.0294125716153
 21
249.6354256125005
 31
0.0
  0
LINE
  5
48A
  8
0
 10
348.5294125716151
 20
271.1354256125005
 30
0.0
 11
348.5294125716151
 21
249.6354256125005
 31
0.0
  0
LINE
  5
48B
  8
0
 10
348.5294125716151
 20
249.6354256125005
 30
0.0
 11
348.0294125716153
 21
249.6354256125005
 31
0.0
  0
LINE
  5
48C
  8
0
 10
345.5294125716153
 20
249.6354256125005
 30
0.0
 11
345.5294125716153
 21
271.1354256125005
 31
0.0
  0
LINE
  5
48D
  8
0
 10
345.5294125716153
 20
249.6354256125005
 30
0.0
 11
346.0294125716153
 21
249.6354256125005
 31
0.0
  0
LINE
  5
48E
  8
0
 10
348.5294125716151
 20
271.1354256125005
 30
0.0
 11
348.0294125716153
 21
271.1354256125005
 31
0.0
  0
LINE
  5
48F
  8
0
 10
345.5294125716153
 20
271.1354256125005
 30
0.0
 11
346.0294125716153
 21
271.1354256125005
 31
0.0
  0
LINE
  5
490
  8
0
 10
346.0294125716153
 20
275.6354256125005
 30
0.0
 11
346.0294125716153
 21
271.1354256125005
 31
0.0
  0
LINE
  5
491
  8
0
 10
346.0294125716153
 20
275.6354256125005
 30
0.0
 11
348.0294125716153
 21
275.6354256125005
 31
0.0
  0
LINE
  5
492
  8
0
 10
348.0294125716153
 20
275.6354256125005
 30
0.0
 11
348.0294125716153
 21
271.1354256125005
 31
0.0
  0
LINE
  5
493
  8
0
 10
337.8017938975586
 20
250.8167209051411
 30
0.0
 11
333.8017938975589
 21
250.8167209051411
 31
0.0
  0
LINE
  5
494
  8
0
 10
337.8017938975586
 20
253.8167209051411
 30
0.0
 11
337.8017938975586
 21
250.8167209051411
 31
0.0
  0
LINE
  5
495
  8
0
 10
333.8017938975589
 20
250.8167209051411
 30
0.0
 11
333.8017938975589
 21
253.8167209051411
 31
0.0
  0
LINE
  5
496
  8
0
 10
333.8017938975589
 20
268.8167209051411
 30
0.0
 11
333.8017938975589
 21
271.8167209051411
 31
0.0
  0
LINE
  5
497
  8
0
 10
333.8017938975589
 20
271.8167209051411
 30
0.0
 11
337.8017938975586
 21
271.8167209051411
 31
0.0
  0
LINE
  5
498
  8
0
 10
337.8017938975586
 20
271.8167209051411
 30
0.0
 11
337.8017938975586
 21
268.8167209051411
 31
0.0
  0
LINE
  5
499
  8
0
 10
337.8017938975586
 20
268.8167209051411
 30
0.0
 11
342.9625999082905
 21
268.8167209051411
 31
0.0
  0
LINE
  5
49A
  8
0
 10
342.9625999082905
 20
268.8167209051411
 30
0.0
 11
343.0550065603382
 21
268.8167209051411
 31
0.0
  0
LINE
  5
49B
  8
0
 10
337.8017938975586
 20
253.8167209051411
 30
0.0
 11
342.9625999082905
 21
253.8167209051411
 31
0.0
  0
LINE
  5
49C
  8
0
 10
342.9625999082905
 20
253.8167209051411
 30
0.0
 11
342.9625999082905
 21
268.8167209051411
 31
0.0
  0
LINE
  5
49D
  8
0
 10
333.8017938975589
 20
268.8167209051411
 30
0.0
 11
327.2681062738425
 21
268.8167209051411
 31
0.0
  0
LINE
  5
49E
  8
0
 10
333.8017938975589
 20
253.8167209051411
 30
0.0
 11
327.2681062738425
 21
253.8167209051411
 31
0.0
  0
LINE
  5
49F
  8
0
 10
327.2681062738425
 20
253.8167209051411
 30
0.0
 11
327.2681062738425
 21
268.8167209051411
 31
0.0
  0
LINE
  5
4A0
  8
0
 10
324.1951863628352
 20
268.4109140985239
 30
0.0
 11
317.6951863628349
 21
268.4109140985239
 31
0.0
  0
LINE
  5
4A1
  8
0
 10
317.6951863628349
 20
268.4109140985239
 30
0.0
 11
317.6951863628349
 21
271.4109140985239
 31
0.0
  0
LINE
  5
4A2
  8
0
 10
317.6951863628349
 20
271.4109140985239
 30
0.0
 11
313.6951863628352
 21
271.4109140985239
 31
0.0
  0
LINE
  5
4A3
  8
0
 10
313.6951863628352
 20
271.4109140985239
 30
0.0
 11
313.6951863628352
 21
268.4109140985239
 31
0.0
  0
LINE
  5
4A4
  8
0
 10
313.6951863628352
 20
268.4109140985239
 30
0.0
 11
308.1951863628352
 21
268.4109140985239
 31
0.0
  0
LINE
  5
4A5
  8
0
 10
308.1951863628352
 20
268.4109140985239
 30
0.0
 11
308.1951863628352
 21
253.4109140985239
 31
0.0
  0
LINE
  5
4A6
  8
0
 10
308.1951863628352
 20
253.4109140985239
 30
0.0
 11
313.6951863628352
 21
253.4109140985239
 31
0.0
  0
LINE
  5
4A7
  8
0
 10
313.6951863628352
 20
253.4109140985239
 30
0.0
 11
313.6951863628352
 21
250.4109140985239
 31
0.0
  0
LINE
  5
4A8
  8
0
 10
313.6951863628352
 20
250.4109140985239
 30
0.0
 11
317.6951863628349
 21
250.4109140985239
 31
0.0
  0
LINE
  5
4A9
  8
0
 10
317.6951863628349
 20
250.4109140985239
 30
0.0
 11
317.6951863628349
 21
253.4109140985239
 31
0.0
  0
LINE
  5
4AA
  8
0
 10
317.6951863628349
 20
253.4109140985239
 30
0.0
 11
324.1951863628352
 21
253.4109140985239
 31
0.0
  0
CIRCLE
  5
4AB
  8
TALL_1
 10
315.6951863628349
 20
260.9109140985239
 30
0.0
 40
3.28085653747874
  0
LINE
  5
4AC
  8
0
 10
324.1951863628352
 20
268.4109140985239
 30
0.0
 11
324.1951863628352
 21
253.4109140985239
 31
0.0
  0
LINE
  5
4AE
  8
0
 10
321.893665294813
 20
8.897005292542303
 30
0.0
 11
316.768665294813
 21
8.897005292542303
 31
0.0
  0
LINE
  5
4AF
  8
0
 10
313.018665294813
 20
8.897005292542303
 30
0.0
 11
305.893665294813
 21
8.897005292542303
 31
0.0
  0
POLYLINE
  5
4B0
  8
0
 66
     1
 10
0.0
 20
0.0
 30
0.0
  0
VERTEX
  5
5E9
  8
0
 10
316.768665294813
 20
8.879775385063454
 30
0.0
  0
VERTEX
  5
5EA
  8
0
 10
316.768665294813
 20
11.87977538506345
 30
0.0
  0
VERTEX
  5
5EB
  8
0
 10
313.018665294813
 20
11.87977538506345
 30
0.0
  0
VERTEX
  5
5EC
  8
0
 10
313.018665294813
 20
8.879775385063454
 30
0.0
  0
SEQEND
  5
620
  8
0
  0
POLYLINE
  5
4B1
  8
0
 66
     1
 10
0.0
 20
0.0
 30
0.0
  0
VERTEX
  5
5ED
  8
0
 10
300.0536575820066
 20
15.16649474956546
 30
0.0
  0
VERTEX
  5
5EE
  8
0
 10
302.2466471056369
 20
17.21363835694808
 30
0.0
  0
VERTEX
  5
5EF
  8
0
 10
299.3465269951785
 20
20.32037351542465
 30
0.0
  0
VERTEX
  5
5F0
  8
0
 10
297.1535374715482
 20
18.27322990804203
 30
0.0
  0
SEQEND
  5
621
  8
0
  0
LINE
  5
4B2
  8
0
 10
324.893665294813
 20
195.8970052925423
 30
0.0
 11
321.893665294813
 21
195.8970052925423
 31
0.0
  0
LINE
  5
4B3
  8
0
 10
324.893665294813
 20
203.8970052925423
 30
0.0
 11
324.893665294813
 21
195.8970052925423
 31
0.0
  0
LINE
  5
4B4
  8
0
 10
329.893665294813
 20
203.8970052925423
 30
0.0
 11
324.893665294813
 21
203.8970052925423
 31
0.0
  0
LINE
  5
4B5
  8
0
 10
329.893665294813
 20
185.8970052925423
 30
0.0
 11
321.893665294813
 21
162.8970052925423
 31
0.0
  0
LINE
  5
4B6
  8
0
 10
329.893665294813
 20
203.8970052925423
 30
0.0
 11
329.893665294813
 21
185.8970052925423
 31
0.0
  0
LINE
  5
4B7
  8
0
 10
316.893665294813
 20
210.8970052925423
 30
0.0
 11
291.893665294813
 21
68.8970052925423
 31
0.0
  0
LINE
  5
4B8
  8
0
 10
321.893665294813
 20
210.8970052925423
 30
0.0
 11
316.893665294813
 21
210.8970052925423
 31
0.0
  0
LINE
  5
4B9
  8
0
 10
321.893665294813
 20
195.8970052925423
 30
0.0
 11
321.893665294813
 21
210.8970052925423
 31
0.0
  0
LINE
  5
4BA
  8
0
 10
291.893665294813
 20
53.8970052925423
 30
0.0
 11
291.893665294813
 21
68.8970052925423
 31
0.0
  0
POLYLINE
  5
4BB
  8
0
 66
     1
 10
0.0
 20
0.0
 30
0.0
  0
VERTEX
  5
5F1
  8
0
 10
291.893665294813
 20
38.8970052925423
 30
0.0
  0
VERTEX
  5
5F2
  8
0
 10
279.893665294813
 20
38.8970052925423
 30
0.0
  0
VERTEX
  5
5F3
  8
0
 10
274.893665294813
 20
44.3970052925423
 30
0.0
  0
VERTEX
  5
5F4
  8
0
 10
274.893665294813
 20
48.3970052925423
 30
0.0
  0
VERTEX
  5
5F5
  8
0
 10
279.8936652948128
 20
53.8970052925423
 30
0.0
  0
VERTEX
  5
5F6
  8
0
 10
291.8936652948128
 20
53.8970052925423
 30
0.0
  0
SEQEND
  5
622
  8
0
  0
CIRCLE
  5
4BC
  8
TALL_1
 10
279.893665294813
 20
46.3970052925423
 30
0.0
 40
2.75
  0
LINE
  5
4BD
  8
0
 10
291.893665294813
 20
23.8970052925423
 30
0.0
 11
291.893665294813
 21
38.8970052925423
 31
0.0
  0
LINE
  5
4BE
  8
0
 10
318.7928620316596
 20
42.0260545557245
 30
0.0
 11
321.7928620316596
 21
42.0260545557245
 31
0.0
  0
LINE
  5
4BF
  8
0
 10
318.7928620316596
 20
48.0260545557245
 30
0.0
 11
318.7928620316596
 21
42.0260545557245
 31
0.0
  0
LINE
  5
4C0
  8
0
 10
321.7928620316596
 20
48.0260545557245
 30
0.0
 11
318.7928620316596
 21
48.0260545557245
 31
0.0
  0
LINE
  5
4C1
  8
0
 10
321.893665294813
 20
162.8970052925423
 30
0.0
 11
321.893665294813
 21
47.96289875617242
 31
0.0
  0
LINE
  5
4C8
  8
0
 10
297.2874100749287
 20
18.1179930281329
 30
0.0
 11
291.893665294813
 21
23.8970052925423
 31
0.0
  0
LINE
  5
4C9
  8
0
 10
305.893665294813
 20
8.897005292542303
 30
0.0
 11
300.02582467286
 21
15.18397738749184
 31
0.0
  0
TEXT
  5
4CC
  8
0
  6
CONTINUOUS
 10
359.2811549090563
 20
297.958342546896
 30
0.0
 40
12.0
  1
SIN MOTOR
  0
LINE
  5
4D0
  8
0
 10
321.893665294813
 20
8.897005292542303
 30
0.0
 11
321.7928620316596
 21
42.0260545557245
 31
0.0
  0
ENDSEC
  0
EOF
