 0
SECTION
 2
ENTITIES
  0
LINE
 8
Layer0
10
198.473619197634
20
148.013536912861
30
0.0
11
199.155102671853
21
153.189917814912
31
0.0
  0
LINE
 8
Layer0
10
199.155102671853
20
153.189917814912
30
0.0
11
198.473619197634
21
158.366298716962
31
0.0
  0
LINE
 8
Layer0
10
198.473619197634
20
158.366298716962
30
0.0
11
196.475610747542
21
163.189917814912
31
0.0
  0
LINE
 8
Layer0
10
196.475610747542
20
163.189917814912
30
0.0
11
193.974195626879
21
166.449825468167
31
0.0
  0
LINE
 8
Layer0
10
193.297238295584
20
167.332053438643
30
0.0
11
189.155102671853
21
170.5104258906
31
0.0
  0
LINE
 8
Layer0
10
189.155102671853
20
170.5104258906
30
0.0
11
184.331483573903
21
172.508434340693
31
0.0
  0
LINE
 8
Layer0
10
184.331483573903
20
172.508434340693
30
0.0
11
184.155102671853
21
172.531655326975
31
0.0
  0
LINE
 8
Layer0
10
179.155102671853
20
133.189917814912
30
0.0
11
184.331483573903
21
133.87140128913
31
0.0
  0
LINE
 8
Layer0
10
184.331483573903
20
133.87140128913
30
0.0
11
189.155102671853
21
135.869409739223
31
0.0
  0
LINE
 8
Layer0
10
189.155102671853
20
135.869409739223
30
0.0
11
193.297238295584
21
139.047782191181
31
0.0
  0
LINE
 8
Layer0
10
196.475610747542
20
143.189917814912
30
0.0
11
198.473619197634
21
148.013536912861
31
0.0
  0
LINE
 8
Layer0
10
129.155102671853
20
133.189917814912
30
0.0
11
179.155102671853
21
133.189917814912
31
0.0
  0
LINE
 8
Layer0
10
184.155102671853
20
172.531655326975
30
0.0
11
179.155102671853
21
173.189917814912
31
0.0
  0
LINE
 8
Layer0
10
135.09479963382
20
172.250220852945
30
0.0
11
136.429716063642
21
173.989917814912
31
0.0
  0
LINE
 8
Layer0
10
136.429716063642
20
173.989917814912
30
0.0
11
137.268879612681
21
176.015837836051
31
0.0
  0
LINE
 8
Layer0
10
137.268879612681
20
176.015837836051
30
0.0
11
137.555102671853
21
178.189917814912
31
0.0
  0
LINE
 8
Layer0
10
137.555102671853
20
178.189917814912
30
0.0
11
137.268879612681
21
180.363997793773
31
0.0
  0
LINE
 8
Layer0
10
137.268879612681
20
180.363997793773
30
0.0
11
136.429716063642
21
182.389917814912
31
0.0
  0
LINE
 8
Layer0
10
136.429716063642
20
182.389917814912
30
0.0
11
135.09479963382
21
184.129614776879
31
0.0
  0
LINE
 8
Layer0
10
135.09479963382
20
184.129614776879
30
0.0
11
133.355102671853
21
185.464531206701
31
0.0
  0
LINE
 8
Layer0
10
133.355102671853
20
185.464531206701
30
0.0
11
131.329182650714
21
186.30369475574
31
0.0
  0
LINE
 8
Layer0
10
131.329182650714
20
186.30369475574
30
0.0
11
129.155102671853
21
186.589917814912
31
0.0
  0
LINE
 8
Layer0
10
129.155102671853
20
186.589917814912
30
0.0
11
125.766160368715
21
186.352360856346
31
0.0
  0
LINE
 8
Layer0
10
125.766160368715
20
186.352360856346
30
0.0
11
122.443501128566
21
185.644336268914
31
0.0
  0
LINE
 8
Layer0
10
122.443501128566
20
185.644336268914
30
0.0
11
119.252111608599
21
184.479692042378
31
0.0
  0
LINE
 8
Layer0
10
119.252111608599
20
184.479692042378
30
0.0
11
116.254411010338
21
182.881207020321
31
0.0
  0
LINE
 8
Layer0
10
116.254411010338
20
182.881207020321
30
0.0
11
113.509030245673
21
180.880145377201
31
0.0
  0
LINE
 8
Layer0
10
113.509030245673
20
180.880145377201
30
0.0
11
111.069665196644
21
178.515645133993
31
0.0
  0
LINE
 8
Layer0
10
111.069665196644
20
178.515645133993
30
0.0
11
108.984026497642
21
175.833952672172
31
0.0
  0
LINE
 8
Layer0
10
104.355740856343
20
164.876145557509
30
0.0
11
104.830099138669
21
166.813252292524
31
0.0
  0
LINE
 8
Layer0
10
104.830099138669
20
166.813252292524
30
0.0
11
105.426988207773
21
168.716176810742
31
0.0
  0
LINE
 8
Layer0
10
105.426988207773
20
168.716176810742
30
0.0
11
106.143979594554
21
170.577176981117
31
0.0
  0
LINE
 8
Layer0
10
106.143979594554
20
170.577176981117
30
0.0
11
106.978156188417
21
172.38868124363
31
0.0
  0
LINE
 8
Layer0
10
106.978156188417
20
172.38868124363
30
0.0
11
107.92612410566
21
174.143319414517
31
0.0
  0
LINE
 8
Layer0
10
107.92612410566
20
174.143319414517
30
0.0
11
108.984026497642
21
175.833952672172
31
0.0
  0
LINE
 8
Layer0
10
104.155102671853
20
163.750288665678
30
0.0
11
104.182384863867
21
163.903379384582
31
0.0
  0
LINE
 8
Layer0
10
119.448418183835
20
168.771420922088
30
0.0
11
121.633989151065
21
169.757713898826
31
0.0
  0
LINE
 8
Layer0
10
121.633989151065
20
169.757713898826
30
0.0
11
123.934813810784
21
170.432769580968
31
0.0
  0
LINE
 8
Layer0
10
123.934813810784
20
170.432769580968
30
0.0
11
126.306811661341
21
170.783654869511
31
0.0
  0
LINE
 8
Layer0
10
126.306811661341
20
170.783654869511
30
0.0
11
128.704538624793
21
170.803647305413
31
0.0
  0
LINE
 8
Layer0
10
128.704538624793
20
170.803647305413
30
0.0
11
129.257483239737
21
170.78301510074
31
0.0
  0
LINE
 8
Layer0
10
129.257483239737
20
170.78301510074
30
0.0
11
129.810785196113
21
170.788526918561
31
0.0
  0
LINE
 8
Layer0
10
129.810785196113
20
170.788526918561
30
0.0
11
130.363209056809
21
170.820170451844
31
0.0
  0
LINE
 8
Layer0
10
130.363209056809
20
170.820170451844
30
0.0
11
130.913521345365
21
170.877875045507
31
0.0
  0
LINE
 8
Layer0
10
130.913521345365
20
170.877875045507
30
0.0
11
131.460493300131
21
170.961511854177
31
0.0
  0
LINE
 8
Layer0
10
131.460493300131
20
170.961511854177
30
0.0
11
132.002903617904
21
171.070894129884
31
0.0
  0
LINE
 8
Layer0
10
132.002903617904
20
171.070894129884
30
0.0
11
132.539541180904
21
171.20577763904
31
0.0
  0
LINE
 8
Layer0
10
132.539541180904
20
171.20577763904
30
0.0
11
133.069207761016
21
171.36586120777
31
0.0
  0
LINE
 8
Layer0
10
133.069207761016
20
171.36586120777
30
0.0
11
133.590720695243
21
171.550787394394
31
0.0
  0
LINE
 8
Layer0
10
133.590720695243
20
171.550787394394
30
0.0
11
134.102915526409
21
171.760143287532
31
0.0
  0
LINE
 8
Layer0
10
134.102915526409
20
171.760143287532
30
0.0
11
134.604648603213
21
171.993461428074
31
0.0
  0
LINE
 8
Layer0
10
134.604648603213
20
171.993461428074
30
0.0
11
135.09479963382
21
172.250220852945
31
0.0
  0
LINE
 8
Layer0
10
123.767635899963
20
134.017760222856
30
-6.11441866940035e-015
11
125.040850537143
21
133.731569384151
31
-2.3280831916824e-015
  0
LINE
 8
Layer0
10
121.035281373237
20
135.090614221425
30
-4.31270645544889e-015
11
122.432508384079
21
134.51186384382
31
-3.69100465741392e-015
  0
LINE
 8
Layer0
10
125.040850537143
20
133.731569384151
30
-2.3280831916824e-015
11
129.155102671853
21
133.189917814912
31
0.0
  0
LINE
 8
Layer0
10
122.432508384079
20
134.51186384382
30
-3.69100465741392e-015
11
123.767635899963
21
134.017760222856
31
-6.11441866940035e-015
  0
LINE
 8
Layer0
10
104.182384863867
20
164.082688992718
30
0.0
11
104.214339506148
21
164.082688992718
31
9.93739167072411e-019
  0
LINE
 8
Layer0
10
104.182384863867
20
163.903379384582
30
0.0
11
104.214339506148
21
164.082688992718
31
9.93739167072411e-019
  0
LINE
 8
Layer0
10
104.214339506148
20
164.082688992718
30
9.93739167072411e-019
11
104.355740856343
21
164.876145557509
31
0.0
  0
LINE
 8
Layer0
10
104.182384863867
20
164.082688992718
30
0.0
11
104.182384863867
21
163.903379384582
31
0.0
  0
LINE
 8
Layer0
10
105.468194248203
20
139.672791897318
30
0.0
11
107.139863539061
21
136.221739159634
31
0.0
  0
LINE
 8
Layer0
10
107.139863539061
20
136.221739159634
30
0.0
11
109.15287576898
21
132.957995147234
31
0.0
  0
LINE
 8
Layer0
10
109.15287576898
20
132.957995147234
30
0.0
11
111.48647694436
21
129.915208797432
31
0.0
  0
LINE
 8
Layer0
10
111.48647694436
20
129.915208797432
30
0.0
11
114.116607825456
21
127.124750991877
31
0.0
  0
LINE
 8
Layer0
10
114.116607825456
20
127.124750991877
30
0.0
11
117.016151975191
21
124.615391125294
31
0.0
  0
LINE
 8
Layer0
10
117.016151975191
20
124.615391125294
30
0.0
11
120.155215327436
21
122.41300049535
31
0.0
  0
LINE
 8
Layer0
10
120.155215327436
20
122.41300049535
30
0.0
11
123.50143439242
21
120.540285571658
31
0.0
  0
LINE
 8
Layer0
10
123.50143439242
20
120.540285571658
30
0.0
11
127.020309921693
21
119.016553893914
31
0.0
  0
LINE
 8
Layer0
10
127.020309921693
20
119.016553893914
30
0.0
11
130.675562592598
21
117.857515012719
31
0.0
  0
LINE
 8
Layer0
10
105.468194248203
20
139.672791897318
30
0.0
11
105.338368224542
21
140.36327442155
31
-5.70019696701269e-018
  0
LINE
 8
Layer0
10
105.338368224542
20
140.36327442155
30
-5.70019696701269e-018
11
105.213132232707
21
141.054604197445
31
-1.11988620319708e-017
  0
LINE
 8
Layer0
10
105.213132232707
20
141.054604197445
30
-1.11988620319708e-017
11
105.092491800054
21
141.746750712786
31
-1.64957525083003e-017
  0
LINE
 8
Layer0
10
105.092491800054
20
141.746750712786
30
-1.64957525083003e-017
11
104.976452251115
21
142.439683419311
31
-2.15906346148581e-017
  0
LINE
 8
Layer0
10
104.976452251115
20
142.439683419311
30
-2.15906346148581e-017
11
104.86501870736
21
143.133371734058
31
-2.64832834862499e-017
  0
LINE
 8
Layer0
10
104.86501870736
20
143.133371734058
30
-2.64832834862499e-017
11
104.758196086967
21
143.827785040715
31
-3.1173483182756e-017
  0
LINE
 8
Layer0
10
104.758196086967
20
143.827785040715
30
-3.1173483182756e-017
11
104.655989104612
21
144.522892690973
31
-3.56610266998619e-017
  0
LINE
 8
Layer0
10
104.655989104612
20
144.522892690973
30
-3.56610266998619e-017
11
104.558402271255
21
145.218664005878
31
-3.99457159773933e-017
  0
LINE
 8
Layer0
10
104.558402271255
20
145.218664005878
30
-3.99457159773933e-017
11
104.465439893944
21
145.915068277185
31
-4.4027361908258e-017
  0
LINE
 8
Layer0
10
104.465439893944
20
145.915068277185
30
-4.4027361908258e-017
11
104.377106075625
21
146.612074768712
31
-4.79057843467904e-017
  0
LINE
 8
Layer0
10
104.377106075625
20
146.612074768712
30
-4.79057843467904e-017
11
104.293404714958
21
147.309652717699
31
-5.15808121167083e-017
  0
LINE
 8
Layer0
10
104.293404714958
20
147.309652717699
30
-5.15808121167083e-017
11
104.214339506148
21
148.007771336162
31
-5.50522830186614e-017
  0
LINE
 8
Layer0
10
181.892391832915
20
181.96046378139
30
0.0
11
179.155102671853
21
182.320834736063
31
0.0
  0
LINE
 8
Layer0
10
184.155102671853
20
181.023218264173
30
0.0
11
181.892391832915
21
181.96046378139
31
0.0
  0
LINE
 8
Layer0
10
179.155102671853
20
173.189917814912
30
0.0
11
177.973475072631
21
173.345482039567
31
0.0
  0
LINE
 8
Layer0
10
177.973475072631
20
173.345482039567
30
0.0
11
176.872373441565
21
173.801573268706
31
0.0
  0
LINE
 8
Layer0
10
176.872373441565
20
173.801573268706
30
0.0
11
175.926836035154
21
174.527109638789
31
0.0
  0
LINE
 8
Layer0
10
175.926836035154
20
174.527109638789
30
0.0
11
175.201299665072
21
175.4726470452
31
0.0
  0
LINE
 8
Layer0
10
175.201299665072
20
175.4726470452
30
0.0
11
174.745208435933
21
176.573748676266
31
0.0
  0
LINE
 8
Layer0
10
174.745208435933
20
176.573748676266
30
0.0
11
174.589644211277
21
177.755376275487
31
0.0
  0
LINE
 8
Layer0
10
174.589644211277
20
177.755376275487
30
0.0
11
174.745208435933
21
178.937003874709
31
0.0
  0
LINE
 8
Layer0
10
174.745208435933
20
178.937003874709
30
0.0
11
175.201299665072
21
180.038105505775
31
0.0
  0
LINE
 8
Layer0
10
175.201299665072
20
180.038105505775
30
0.0
11
175.926836035154
21
180.983642912186
31
0.0
  0
LINE
 8
Layer0
10
175.926836035154
20
180.983642912186
30
0.0
11
176.872373441565
21
181.709179282268
31
0.0
  0
LINE
 8
Layer0
10
176.872373441565
20
181.709179282268
30
0.0
11
177.973475072631
21
182.165270511407
31
0.0
  0
LINE
 8
Layer0
10
177.973475072631
20
182.165270511407
30
0.0
11
179.155102671853
21
182.320834736063
31
0.0
  0
LINE
 8
Layer0
10
161.239971002377
20
115.680987829522
30
0.0
11
164.610911900396
21
116.14297438955
31
0.0
  0
LINE
 8
Layer0
10
164.610911900396
20
116.14297438955
30
0.0
11
167.940573080101
21
116.842996209172
31
0.0
  0
LINE
 8
Layer0
10
167.940573080101
20
116.842996209172
30
0.0
11
171.212167767791
21
117.777524068073
31
0.0
  0
LINE
 8
Layer0
10
171.212167767791
20
117.777524068073
30
0.0
11
174.409201936986
21
118.94184646354
31
0.0
  0
LINE
 8
Layer0
10
174.409201936986
20
118.94184646354
30
0.0
11
177.468147525584
21
120.308905608625
31
0.0
  0
LINE
 8
Layer0
10
130.675562592598
20
117.857515012719
30
0.0
11
133.721540730018
21
117.121206564577
31
0.0
  0
LINE
 8
Layer0
10
133.721540730018
20
117.121206564577
30
0.0
11
136.793401521109
21
116.501687214915
31
0.0
  0
LINE
 8
Layer0
10
136.793401521109
20
116.501687214915
30
0.0
11
139.886668741805
21
115.999859708878
31
0.0
  0
LINE
 8
Layer0
10
139.886668741805
20
115.999859708878
30
0.0
11
142.996834975229
21
115.616455294564
31
0.0
  0
LINE
 8
Layer0
10
142.996834975229
20
115.616455294564
30
0.0
11
146.119368179766
21
115.352032657467
31
0.0
  0
LINE
 8
Layer0
10
146.119368179766
20
115.352032657467
30
0.0
11
149.24971829302
21
115.206977106381
31
0.0
  0
LINE
 8
Layer0
10
149.24971829302
20
115.206977106381
30
0.0
11
152.383323862026
21
115.181500011935
31
0.0
  0
LINE
 8
Layer0
10
152.383323862026
20
115.181500011935
30
0.0
11
155.515618690068
21
115.275638498591
31
0.0
  0
LINE
 8
Layer0
10
155.515618690068
20
115.275638498591
30
0.0
11
161.239971002377
21
115.680987829522
31
0.0
  0
LINE
 8
Layer0
10
184.155102671853
20
180.908007299169
30
0.0
11
184.4332465461
21
180.908007299169
31
0.0
  0
LINE
 8
Layer0
10
184.155102671853
20
180.908007299169
30
0.0
11
184.155102671853
21
181.023218264173
31
0.0
  0
LINE
 8
Layer0
10
184.4332465461
20
180.908007299169
30
0.0
11
184.155102671853
21
181.023218264173
31
0.0
  0
LINE
 8
Layer0
10
190.540398567189
20
114.720360368901
30
0.0
11
191.310008376803
21
108.140190641498
31
0.0
  0
LINE
 8
Layer0
10
191.310008376803
20
108.140190641498
30
0.0
11
192.709034232438
21
101.664570242205
31
0.0
  0
LINE
 8
Layer0
10
192.709034232438
20
101.664570242205
30
0.0
11
194.724499955135
21
95.3535615414416
31
0.0
  0
LINE
 8
Layer0
10
194.724499955135
20
95.3535615414416
30
0.0
11
197.337711791812
21
89.2657001109283
31
0.0
  0
LINE
 8
Layer0
10
197.337711791812
20
89.2657001109283
30
0.0
11
200.524431802681
21
83.4574517972964
31
0.0
  0
LINE
 8
Layer0
10
200.524431802681
20
83.4574517972964
30
0.0
11
201.879412622444
21
81.4690162442558
31
5.50334481608653e-033
  0
LINE
 8
Layer0
10
193.317021180105
20
139.073563748237
30
0.0
11
196.475610747542
21
143.189917814912
31
0.0
  0
LINE
 8
Layer0
10
193.317021180105
20
139.073563748237
30
0.0
11
193.297238295584
21
139.047782191181
31
0.0
  0
LINE
 8
Layer0
10
191.415446596906
20
191.185196040803
30
0.0
11
192.155360905903
21
197.714863362129
31
0.0
  0
LINE
 8
Layer0
10
192.155360905903
20
197.714863362129
30
0.0
11
193.473710491828
21
204.152718818811
31
0.0
  0
LINE
 8
Layer0
10
193.473710491828
20
204.152718818811
30
0.0
11
195.360023519236
21
210.447625623083
31
0.0
  0
LINE
 8
Layer0
10
195.360023519236
20
210.447625623083
30
0.0
11
197.799316739496
21
216.549582448351
31
0.0
  0
LINE
 8
Layer0
10
197.799316739496
20
216.549582448351
30
0.0
11
200.755769476586
21
222.377702154171
31
5.55037519859754e-017
  0
LINE
 8
Layer0
10
200.772214504842
20
222.410120596733
30
0.0
11
202.022504082577
21
224.410565013154
31
-4.89186205874358e-033
  0
LINE
 8
Layer0
10
193.974195626879
20
166.449825468167
30
0.0
11
193.297238295584
21
167.332053438643
31
0.0
  0
LINE
 8
Layer0
10
184.4332465461
20
180.908007299169
30
0.0
11
185.390663381341
21
181.418164856428
31
0.0
  0
LINE
 8
Layer0
10
185.390663381341
20
181.418164856428
30
0.0
11
186.29949012481
21
182.010568164983
31
0.0
  0
LINE
 8
Layer0
10
186.29949012481
20
182.010568164983
30
0.0
11
187.152680028855
21
182.680623921816
31
0.0
  0
LINE
 8
Layer0
10
187.152680028855
20
182.680623921816
30
0.0
11
187.943617735825
21
183.423136732025
31
0.0
  0
LINE
 8
Layer0
10
187.943617735825
20
183.423136732025
30
0.0
11
188.666170571401
21
184.232349392227
31
0.0
  0
LINE
 8
Layer0
10
188.666170571401
20
184.232349392227
30
0.0
11
189.314736095367
21
185.101987530048
31
0.0
  0
LINE
 8
Layer0
10
189.314736095367
20
185.101987530048
30
0.0
11
189.884285541113
21
186.025308253568
31
0.0
  0
LINE
 8
Layer0
10
189.884285541113
20
186.025308253568
30
0.0
11
190.370402807057
21
186.995152433517
31
0.0
  0
LINE
 8
Layer0
10
190.370402807057
20
186.995152433517
30
0.0
11
190.769318697666
21
188.004000212843
31
0.0
  0
LINE
 8
Layer0
10
190.769318697666
20
188.004000212843
30
0.0
11
191.077940148574
21
189.044029313238
31
0.0
  0
LINE
 8
Layer0
10
191.077940148574
20
189.044029313238
30
0.0
11
191.293874209199
21
190.107175686553
31
0.0
  0
LINE
 8
Layer0
10
191.293874209199
20
190.107175686553
30
0.0
11
191.415446596906
21
191.185196040803
31
0.0
  0
LINE
 8
Layer0
10
204.255102671853
20
162.982688992718
30
0.0
11
204.255102671853
21
211.107688992718
31
0.0
  0
LINE
 8
Layer0
10
178.279928016611
20
120.56737133554
30
0.0
11
179.649574102922
21
120.872071756655
31
0.0
  0
LINE
 8
Layer0
10
179.649574102922
20
120.872071756655
30
0.0
11
181.040944159981
21
121.053350858299
31
0.0
  0
LINE
 8
Layer0
10
181.040944159981
20
121.053350858299
30
0.0
11
182.442939332879
21
121.109762590631
31
0.0
  0
LINE
 8
Layer0
10
182.442939332879
20
121.109762590631
30
0.0
11
183.844376010952
21
121.040856961481
31
0.0
  0
LINE
 8
Layer0
10
183.844376010952
20
121.040856961481
30
0.0
11
185.234075038605
21
120.847183625901
31
0.0
  0
LINE
 8
Layer0
10
177.515557464484
20
120.330093363903
30
0.0
11
178.279928016611
21
120.56737133554
31
0.0
  0
LINE
 8
Layer0
10
177.468147525584
20
120.308905608625
30
0.0
11
177.515557464484
21
120.330093363903
31
0.0
  0
LINE
 8
Layer0
10
185.234075038605
20
120.847183625901
30
0.0
11
185.933103646707
21
120.65722918295
31
0.0
  0
LINE
 8
Layer0
10
185.933103646707
20
120.65722918295
30
0.0
11
186.607694351382
21
120.393314297982
31
0.0
  0
LINE
 8
Layer0
10
186.607694351382
20
120.393314297982
30
0.0
11
187.250046888424
21
120.058490607815
31
0.0
  0
LINE
 8
Layer0
10
187.250046888424
20
120.058490607815
30
0.0
11
187.852733762216
21
119.656629664824
31
0.0
  0
LINE
 8
Layer0
10
187.852733762216
20
119.656629664824
30
0.0
11
188.408786129551
21
119.192378170348
31
0.0
  0
LINE
 8
Layer0
10
188.408786129551
20
119.192378170348
30
0.0
11
188.911774380077
21
118.671104245071
31
0.0
  0
LINE
 8
Layer0
10
188.911774380077
20
118.671104245071
30
0.0
11
189.355882481615
21
118.098835357667
31
0.0
  0
LINE
 8
Layer0
10
189.355882481615
20
118.098835357667
30
0.0
11
189.735975230693
21
117.482188629434
31
0.0
  0
LINE
 8
Layer0
10
189.735975230693
20
117.482188629434
30
0.0
11
190.047657630693
21
116.828294320794
31
0.0
  0
LINE
 8
Layer0
10
190.047657630693
20
116.828294320794
30
0.0
11
190.287325711012
21
116.144713384388
31
0.0
  0
LINE
 8
Layer0
10
190.287325711012
20
116.144713384388
30
0.0
11
190.452208199626
21
115.439350038097
31
0.0
  0
LINE
 8
Layer0
10
190.452208199626
20
115.439350038097
30
0.0
11
190.540398567189
21
114.720360368901
31
0.0
  0
LINE
 8
Layer0
10
112.782675393007
20
150.942865516208
30
-1.12484978810051e-015
11
112.955966237554
21
149.280264459285
31
-1.99232007657841e-015
  0
LINE
 8
Layer0
10
112.955966237554
20
149.280264459285
30
-1.99232007657841e-015
11
113.253721182268
21
147.635389392848
31
-2.75326516460604e-015
  0
LINE
 8
Layer0
10
113.253721182268
20
147.635389392848
30
-2.75326516460604e-015
11
113.674256005774
21
146.017544389919
31
-3.4033808416038e-015
  0
LINE
 8
Layer0
10
113.674256005774
20
146.017544389919
30
-3.4033808416038e-015
11
114.215191994462
21
144.435880630636
31
-3.9389897925868e-015
  0
LINE
 8
Layer0
10
114.215191994462
20
144.435880630636
30
-3.9389897925868e-015
11
114.87346939745
21
142.899344639518
31
-4.35706239853307e-015
  0
LINE
 8
Layer0
10
114.87346939745
20
142.899344639518
30
-4.35706239853307e-015
11
115.645364733757
21
141.416627680327
31
-4.65523387312379e-015
  0
LINE
 8
Layer0
10
115.645364733757
20
141.416627680327
30
-4.65523387312379e-015
11
116.526511853808
21
139.996116594798
31
-4.83181763892301e-015
  0
LINE
 8
Layer0
10
116.526511853808
20
139.996116594798
30
-4.83181763892301e-015
11
117.511926636125
21
138.645846363298
31
-4.88581486733598e-015
  0
LINE
 8
Layer0
10
117.511926636125
20
138.645846363298
30
-4.88581486733598e-015
11
118.596035179519
21
137.373454655754
31
-4.81692012838433e-015
  0
LINE
 8
Layer0
10
118.596035179519
20
137.373454655754
30
-4.81692012838433e-015
11
119.772705331309
21
136.186138629933
31
-4.62552311834039e-015
  0
LINE
 8
Layer0
10
119.772705331309
20
136.186138629933
30
-4.62552311834039e-015
11
121.035281373237
21
135.090614221425
31
-4.31270645544889e-015
  0
LINE
 8
Layer0
10
112.782675393007
20
150.942865516208
30
-1.12484978810051e-015
11
112.73482885114
21
152.613788225287
31
-1.55761059005448e-016
  0
LINE
 8
Layer0
10
112.953074970392
20
155.593140690752
30
-1.18644709306012e-016
11
113.204914444613
21
157.066204121499
31
-1.01478496960114e-016
  0
LINE
 8
Layer0
10
113.204914444613
20
157.066204121499
30
-1.01478496960114e-016
11
113.550647560297
21
158.520098066908
31
-8.53356821715834e-017
  0
LINE
 8
Layer0
10
113.550647560297
20
158.520098066908
30
-8.53356821715834e-017
11
113.988852663626
21
159.94884411824
31
-7.0282644159711e-017
  0
LINE
 8
Layer0
10
113.988852663626
20
159.94884411824
30
-7.0282644159711e-017
11
114.517727856168
21
161.346567274839
31
-5.6381280984053e-017
  0
LINE
 8
Layer0
10
114.517727856168
20
161.346567274839
30
-5.6381280984053e-017
11
115.135098404281
21
162.707520102126
31
-4.36887550197449e-017
  0
LINE
 8
Layer0
10
115.135098404281
20
162.707520102126
30
-4.36887550197449e-017
11
115.838425681616
21
164.026106365036
31
-3.22572579059386e-017
  0
LINE
 8
Layer0
10
115.838425681616
20
164.026106365036
30
-3.22572579059386e-017
11
116.624817607937
21
165.296904039726
31
-2.21337959338964e-017
  0
LINE
 8
Layer0
10
116.624817607937
20
165.296904039726
30
-2.21337959338964e-017
11
117.491040541355
21
166.51468760892
31
-1.33599967572232e-017
  0
LINE
 8
Layer0
10
117.491040541355
20
166.51468760892
30
-1.33599967572232e-017
11
118.433532575052
21
167.674449549233
31
-5.97193821904587e-018
  0
LINE
 8
Layer0
10
118.433532575052
20
167.674449549233
30
-5.97193821904587e-018
11
119.448418183835
21
168.771420922088
31
0.0
  0
LINE
 8
Layer0
10
112.73482885114
20
152.613788225287
30
-1.55761059005448e-016
11
112.800092859807
21
154.144170566029
31
1.27915255261569e-016
  0
LINE
 8
Layer0
10
112.800092859807
20
154.144170566029
30
1.27915255261569e-016
11
112.953074970392
21
155.593140690752
31
-1.18644709306012e-016
  0
LINE
 8
Layer0
10
112.800092859807
20
154.144170566029
30
1.27915255261569e-016
11
112.832289734563
21
154.899158338915
31
6.5512324331811e-016
  0
LINE
 8
Layer0
10
224.255102671853
20
162.982688992718
30
0.0
11
224.255102671853
21
211.107688992718
31
0.0
  0
LINE
 8
Layer0
10
204.255102671853
20
94.8576889927183
30
-1.68813341339065e-017
11
204.269336226733
21
117.366041880548
31
-1.23458921148322e-016
  0
LINE
 8
Layer0
10
204.269336226733
20
117.366041880548
30
-1.23458921148322e-016
11
204.258925761816
21
136.102134747777
31
-2.52326442104616e-017
  0
LINE
 8
Layer0
10
224.255102671853
20
136.107688992718
30
-5.14503500704457e-017
11
224.255102671853
21
94.8576889927183
31
-1.5145894658066e-016
  0
LINE
 8
Layer0
10
204.255102671853
20
94.8576889927183
30
-1.68813341339065e-017
11
204.595844408962
21
92.2694985416931
31
-1.38497097653351e-017
  0
LINE
 8
Layer0
10
204.595844408962
20
92.2694985416931
30
-1.38497097653351e-017
11
205.244494921081
21
90.7035176780956
31
-1.26479139939893e-017
  0
LINE
 8
Layer0
10
205.594848634009
20
89.8576889927183
30
-1.55968916462389e-017
11
207.033586736469
21
87.9826889927183
31
-6.82864358270648e-017
  0
LINE
 8
Layer0
10
207.184034859987
20
87.7866211808529
30
-2.20038122187891e-017
11
209.255102671853
21
86.1974349548739
31
-3.26338504339031e-017
  0
LINE
 8
Layer0
10
209.255102671853
20
86.1974349548739
30
-3.26338504339031e-017
11
211.666912220828
21
85.1984307298276
31
-4.67625867541897e-017
  0
LINE
 8
Layer0
10
211.666912220828
20
85.1984307298276
30
-4.67625867541897e-017
11
214.255102671853
21
84.8576889927183
31
-6.34271711482621e-017
  0
LINE
 8
Layer0
10
214.255102671853
20
84.8576889927183
30
-6.34271711482621e-017
11
216.843293122878
21
85.1984307298276
31
-8.1491939729192e-017
  0
LINE
 8
Layer0
10
216.843293122878
20
85.1984307298276
30
-8.1491939729192e-017
11
219.255102671853
21
86.1974349548739
31
-9.97258083716308e-017
  0
LINE
 8
Layer0
10
219.255102671853
20
86.1974349548739
30
-9.97258083716308e-017
11
221.326170483718
21
87.7866211808529
31
-1.16886169060489e-016
  0
LINE
 8
Layer0
10
221.326170483718
20
87.7866211808529
30
-1.16886169060489e-016
11
221.476618607237
21
87.9826889927183
31
-1.57259012027811e-016
  0
LINE
 8
Layer0
10
222.915356709697
20
89.8576889927183
30
-1.31803571573657e-016
11
223.265710422625
21
90.7035176780957
31
-1.73848696759484e-016
  0
LINE
 8
Layer0
10
223.914360934744
20
92.2694985416931
30
-1.43461419582037e-016
11
224.255102671853
21
94.8576889927183
31
-1.5145894658066e-016
  0
LINE
 8
Layer0
10
205.244494921081
20
90.7035176780956
30
-1.26479139939893e-017
11
205.594848634009
21
89.8576889927183
31
-1.55968916462389e-017
  0
LINE
 8
Layer0
10
207.033586736469
20
87.9826889927183
30
-6.82864358270648e-017
11
207.184034859987
21
87.7866211808529
31
-2.20038122187891e-017
  0
LINE
 8
Layer0
10
221.476618607237
20
87.9826889927183
30
-1.57259012027811e-016
11
222.915356709697
21
89.8576889927183
31
-1.31803571573657e-016
  0
LINE
 8
Layer0
10
223.265710422625
20
90.7035176780957
30
-1.73848696759484e-016
11
223.914360934744
21
92.2694985416931
31
-1.43461419582037e-016
  0
LINE
 8
Layer0
10
224.255102671853
20
136.107688992718
30
-5.14503500704457e-017
11
223.90923056904
21
138.700254943885
31
-4.52416486952838e-017
  0
LINE
 8
Layer0
10
223.90923056904
20
138.700254943885
30
-4.52416486952838e-017
11
223.263685662045
21
140.256292215747
31
-4.11939532990162e-017
  0
LINE
 8
Layer0
10
222.909268694198
20
141.110587564955
30
-3.66412137744519e-017
11
221.471101365648
21
142.982688992718
31
-3.07256943822696e-017
  0
LINE
 8
Layer0
10
221.319539706618
20
143.179980916009
30
-2.82244335224237e-017
11
219.248381009653
21
144.767409260005
31
-2.05648976039878e-017
  0
LINE
 8
Layer0
10
219.248381009653
20
144.767409260005
30
-2.05648976039878e-017
11
216.83693864575
21
145.76469197865
31
-1.41845907340042e-017
  0
LINE
 8
Layer0
10
216.83693864575
20
145.76469197865
30
-1.41845907340042e-017
11
214.249548426911
21
146.103865902756
31
-9.5183202817064e-018
  0
LINE
 8
Layer0
10
214.249548426911
20
146.103865902756
30
-9.5183202817064e-018
11
211.662536720687
21
145.761816889906
31
-6.88408486704215e-018
  0
LINE
 8
Layer0
10
211.662536720687
20
145.761816889906
30
-6.88408486704215e-018
11
209.252204099616
21
144.761855015063
31
-6.4614032802409e-018
  0
LINE
 8
Layer0
10
209.252204099616
20
144.761855015063
30
-6.4614032802409e-018
11
207.182810748563
21
143.172126027484
31
-8.27908057292883e-018
  0
LINE
 8
Layer0
10
207.182810748563
20
143.172126027484
30
-8.27908057292883e-018
11
207.037617761261
21
142.982688992718
31
-6.93974473637793e-018
  0
LINE
 8
Layer0
10
205.595382404566
20
141.100967330519
30
-1.2213245041463e-017
11
205.246302849653
21
140.256888503769
31
-1.23497753802003e-017
  0
LINE
 8
Layer0
10
204.598099685921
20
138.689524966616
30
-1.7995789878827e-017
11
204.258925761816
21
136.102134747777
31
-2.52326442104616e-017
  0
LINE
 8
Layer0
10
223.263685662045
20
140.256292215747
30
-4.11939532990162e-017
11
222.909268694198
21
141.110587564955
31
-3.66412137744519e-017
  0
LINE
 8
Layer0
10
221.471101365648
20
142.982688992718
30
-3.07256943822696e-017
11
221.319539706618
21
143.179980916009
31
-2.82244335224237e-017
  0
LINE
 8
Layer0
10
207.037617761261
20
142.982688992718
30
-6.93974473637793e-018
11
205.595382404566
21
141.100967330519
31
-1.2213245041463e-017
  0
LINE
 8
Layer0
10
205.246302849653
20
140.256888503769
30
-1.23497753802003e-017
11
204.598099685921
21
138.689524966616
31
-1.7995789878827e-017
  0
LINE
 8
Layer0
10
224.255102671853
20
211.107688992718
30
0.0
11
223.914360934744
21
213.695879443744
31
0.0
  0
LINE
 8
Layer0
10
223.914360934744
20
213.695879443744
30
0.0
11
223.265710422625
21
215.261860307341
31
0.0
  0
LINE
 8
Layer0
10
222.915356709697
20
216.107688992718
30
0.0
11
221.476618607237
21
217.982688992718
31
0.0
  0
LINE
 8
Layer0
10
221.326170483718
20
218.178756804584
30
0.0
11
219.255102671853
21
219.767943030563
31
0.0
  0
LINE
 8
Layer0
10
219.255102671853
20
219.767943030563
30
0.0
11
216.843293122878
21
220.766947255609
31
0.0
  0
LINE
 8
Layer0
10
216.843293122878
20
220.766947255609
30
0.0
11
214.255102671853
21
221.107688992718
31
0.0
  0
LINE
 8
Layer0
10
214.255102671853
20
221.107688992718
30
0.0
11
211.666912220828
21
220.766947255609
31
0.0
  0
LINE
 8
Layer0
10
211.666912220828
20
220.766947255609
30
0.0
11
209.255102671853
21
219.767943030563
31
0.0
  0
LINE
 8
Layer0
10
209.255102671853
20
219.767943030563
30
0.0
11
207.184034859987
21
218.178756804584
31
0.0
  0
LINE
 8
Layer0
10
207.184034859987
20
218.178756804584
30
0.0
11
207.033586736469
21
217.982688992718
31
0.0
  0
LINE
 8
Layer0
10
205.594848634009
20
216.107688992718
30
0.0
11
205.244494921081
21
215.261860307341
31
0.0
  0
LINE
 8
Layer0
10
204.595844408962
20
213.695879443744
30
0.0
11
204.255102671853
21
211.107688992718
31
0.0
  0
LINE
 8
Layer0
10
223.265710422625
20
215.261860307341
30
0.0
11
223.160899742779
21
215.514895672107
31
-1.88104892195296e-014
  0
LINE
 8
Layer0
10
221.476618607237
20
217.982688992718
30
0.0
11
221.326170483718
21
218.178756804584
31
0.0
  0
LINE
 8
Layer0
10
207.033586736469
20
217.982688992718
30
0.0
11
205.594848634009
21
216.107688992718
31
0.0
  0
LINE
 8
Layer0
10
205.244494921081
20
215.261860307341
30
0.0
11
204.595844408962
21
213.695879443744
31
0.0
  0
LINE
 8
Layer0
10
204.255102671853
20
162.982688992718
30
0.0
11
204.595844408962
21
160.394498541693
31
0.0
  0
LINE
 8
Layer0
10
204.595844408962
20
160.394498541693
30
0.0
11
205.594848634009
21
157.982688992718
31
0.0
  0
LINE
 8
Layer0
10
205.594848634009
20
157.982688992718
30
0.0
11
207.184034859987
21
155.911621180853
31
0.0
  0
LINE
 8
Layer0
10
207.184034859987
20
155.911621180853
30
0.0
11
209.255102671853
21
154.322434954874
31
0.0
  0
LINE
 8
Layer0
10
209.255102671853
20
154.322434954874
30
0.0
11
211.666912220828
21
153.323430729828
31
0.0
  0
LINE
 8
Layer0
10
211.666912220828
20
153.323430729828
30
0.0
11
214.255102671853
21
152.982688992718
31
-1.99191142983285e-017
  0
LINE
 8
Layer0
10
214.255102671853
20
152.982688992718
30
-1.99191142983285e-017
11
216.843293122878
21
153.323430729828
31
0.0
  0
LINE
 8
Layer0
10
216.843293122878
20
153.323430729828
30
0.0
11
219.255102671853
21
154.322434954874
31
0.0
  0
LINE
 8
Layer0
10
219.255102671853
20
154.322434954874
30
0.0
11
221.326170483718
21
155.911621180853
31
0.0
  0
LINE
 8
Layer0
10
221.326170483718
20
155.911621180853
30
0.0
11
222.915356709697
21
157.982688992718
31
0.0
  0
LINE
 8
Layer0
10
222.915356709697
20
157.982688992718
30
0.0
11
223.160899742779
21
158.575482313329
31
-1.68238391144265e-015
  0
LINE
 8
Layer0
10
223.914360934744
20
160.394498541693
30
0.0
11
224.255102671853
21
162.982688992718
31
0.0
  0
LINE
 8
Layer0
10
234.255102671853
20
94.8576889927183
30
-1.49369660943437e-016
11
234.595844408962
21
92.2694985416931
31
-1.54239281809329e-016
  0
LINE
 8
Layer0
10
234.595844408962
20
92.2694985416931
30
-1.54239281809329e-016
11
235.594848634009
21
89.8576889927183
31
-1.55862285711789e-016
  0
LINE
 8
Layer0
10
235.594848634009
20
89.8576889927183
30
-1.55862285711789e-016
11
237.033586736469
21
87.9826889927183
31
-1.98128868078586e-016
  0
LINE
 8
Layer0
10
237.184034859987
20
87.7866211808529
30
-1.56900446602386e-016
11
239.255102671853
21
86.1974349548739
31
-1.57283015532069e-016
  0
LINE
 8
Layer0
10
239.255102671853
20
86.1974349548739
30
-1.57283015532069e-016
11
241.666912220828
21
85.1984307298276
31
-1.56983921060504e-016
  0
LINE
 8
Layer0
10
241.666912220828
20
85.1984307298276
30
-1.56983921060504e-016
11
244.255102671853
21
84.8576889927183
31
-1.56023545981652e-016
  0
LINE
 8
Layer0
10
244.255102671853
20
84.8576889927183
30
-1.56023545981652e-016
11
246.843293122878
21
85.1984307298276
31
-1.54467338270041e-016
  0
LINE
 8
Layer0
10
246.843293122878
20
85.1984307298276
30
-1.54467338270041e-016
11
249.255102671853
21
86.1974349548739
31
-1.52421350909464e-016
  0
LINE
 8
Layer0
10
249.255102671853
20
86.1974349548739
30
-1.52421350909464e-016
11
251.326170483718
21
87.7866211808529
31
-1.50025014557389e-016
  0
LINE
 8
Layer0
10
251.326170483718
20
87.7866211808529
30
-1.50025014557389e-016
11
252.915356709697
21
89.8576889927183
31
-1.47441635576077e-016
  0
LINE
 8
Layer0
10
252.915356709697
20
89.8576889927183
30
-1.47441635576077e-016
11
253.914360934744
21
92.2694985416931
31
-1.44847266973869e-016
  0
LINE
 8
Layer0
10
253.914360934744
20
92.2694985416931
30
-1.44847266973869e-016
11
254.255102671853
21
94.8576889927183
31
-1.42418710683608e-016
  0
LINE
 8
Layer0
10
237.033586736469
20
87.9826889927183
30
-1.98128868078586e-016
11
237.184034859987
21
87.7866211808529
31
-1.56900446602386e-016
  0
LINE
 8
Layer0
10
254.255102671853
20
142.982688992718
30
-2.57321029982965e-017
11
253.914360934744
21
145.570879443744
31
-2.08611330475342e-017
  0
LINE
 8
Layer0
10
253.914360934744
20
145.570879443744
30
-2.08611330475342e-017
11
252.915356709697
21
147.982688992718
31
-1.66004258533026e-017
  0
LINE
 8
Layer0
10
251.326170483718
20
150.053756804584
30
-1.3240341569737e-017
11
249.255102671853
21
151.642943030563
31
-1.10098643879605e-017
  0
LINE
 8
Layer0
10
249.255102671853
20
151.642943030563
30
-1.10098643879605e-017
11
246.843293122878
21
152.641947255609
31
-1.00609976418734e-017
  0
LINE
 8
Layer0
10
234.255102671853
20
172.982688992718
30
-2.50942002703269e-017
11
234.595844408962
21
170.394498541693
31
-2.55704221713238e-017
  0
LINE
 8
Layer0
10
234.595844408962
20
170.394498541693
30
-2.55704221713238e-017
11
235.594848634009
21
167.982688992718
31
-2.59665375577028e-017
  0
LINE
 8
Layer0
10
235.594848634009
20
167.982688992718
30
-2.59665375577028e-017
11
237.184034859987
21
165.911621180853
31
-2.62555518204939e-017
  0
LINE
 8
Layer0
10
237.184034859987
20
165.911621180853
30
-2.62555518204939e-017
11
239.255102671853
21
164.322434954874
31
-2.64177691153064e-017
  0
LINE
 8
Layer0
10
239.255102671853
20
164.322434954874
30
-2.64177691153064e-017
11
241.666912220828
21
163.323430729828
31
-2.64421346015757e-017
  0
LINE
 8
Layer0
10
241.666912220828
20
163.323430729828
30
-2.64421346015757e-017
11
244.255102671853
21
162.982688992718
31
-2.9816049485242e-017
  0
LINE
 8
Layer0
10
244.255102671853
20
162.982688992718
30
-2.9816049485242e-017
11
246.843293122878
21
163.323430729828
31
-2.6080175809057e-017
  0
LINE
 8
Layer0
10
246.843293122878
20
163.323430729828
30
-2.6080175809057e-017
11
249.255102671853
21
164.322434954874
31
-2.57185184238139e-017
  0
LINE
 8
Layer0
10
249.255102671853
20
164.322434954874
30
-2.57185184238139e-017
11
251.326170483718
21
165.911621180853
31
-2.52666620090864e-017
  0
LINE
 8
Layer0
10
251.326170483718
20
165.911621180853
30
-2.52666620090864e-017
11
252.915356709697
21
167.982688992718
31
-2.47553998328101e-017
  0
LINE
 8
Layer0
10
252.915356709697
20
167.982688992718
30
-2.47553998328101e-017
11
253.914360934744
21
170.394498541693
31
-2.42195735673975e-017
  0
LINE
 8
Layer0
10
253.914360934744
20
170.394498541693
30
-2.42195735673975e-017
11
254.255102671853
21
172.982688992718
31
-2.36956988873419e-017
  0
LINE
 8
Layer0
10
254.255102671853
20
211.107688992718
30
-1.25244696422621e-017
11
253.914360934744
21
213.695879443744
31
-1.12712588539847e-017
  0
LINE
 8
Layer0
10
253.914360934744
20
213.695879443744
30
-1.12712588539847e-017
11
252.915356709697
21
216.107688992718
31
-9.55062527915213e-018
  0
LINE
 8
Layer0
10
252.915356709697
20
216.107688992718
30
-9.55062527915213e-018
11
251.326170483718
21
218.178756804584
31
-7.47982725240779e-018
  0
LINE
 8
Layer0
10
251.326170483718
20
218.178756804584
30
-7.47982725240779e-018
11
249.255102671853
21
219.767943030563
31
-5.19998623711878e-018
  0
LINE
 8
Layer0
10
249.255102671853
20
219.767943030563
30
-5.19998623711878e-018
11
246.843293122878
21
220.766947255609
31
-2.86646963086161e-018
  0
LINE
 8
Layer0
10
246.843293122878
20
220.766947255609
30
-2.86646963086161e-018
11
244.255102671853
21
221.107688992718
31
-6.38302734034176e-019
  0
LINE
 8
Layer0
10
244.255102671853
20
221.107688992718
30
-6.38302734034176e-019
11
241.666912220828
21
220.766947255609
31
1.33266856156461e-018
  0
LINE
 8
Layer0
10
241.666912220828
20
220.766947255609
30
1.33266856156461e-018
11
239.255102671853
21
219.767943030563
31
2.91212581932377e-018
  0
LINE
 8
Layer0
10
239.255102671853
20
219.767943030563
30
2.91212581932377e-018
11
237.184034859987
21
218.178756804584
31
3.99243163730356e-018
  0
LINE
 8
Layer0
10
237.184034859987
20
218.178756804584
30
3.99243163730356e-018
11
237.033586736469
21
217.982688992718
31
2.0202398866524e-018
  0
LINE
 8
Layer0
10
235.594848634009
20
216.107688992718
30
4.49996495929841e-018
11
234.595844408962
21
213.695879443744
31
4.40013822815287e-018
  0
LINE
 8
Layer0
10
234.595844408962
20
213.695879443744
30
4.40013822815287e-018
11
234.255102671853
21
211.107688992718
31
3.69975447062301e-018
  0
LINE
 8
Layer0
10
237.033586736469
20
217.982688992718
30
2.0202398866524e-018
11
235.594848634009
21
216.107688992718
31
4.49996495929841e-018
  0
LINE
 8
Layer0
10
234.255102671853
20
94.8576889927183
30
-1.49369660943437e-016
11
234.255102671853
21
142.982688992718
31
-3.37419689223789e-017
  0
LINE
 8
Layer0
10
254.255102671853
20
94.8576889927183
30
-1.42418710683608e-016
11
254.255102671853
21
142.982688992718
31
-2.57321029982965e-017
  0
LINE
 8
Layer0
10
234.255102671853
20
172.982688992718
30
-2.50942002703269e-017
11
234.255102671853
21
211.107688992718
31
3.69975447062301e-018
  0
LINE
 8
Layer0
10
254.255102671853
20
172.982688992718
30
-2.36956988873419e-017
11
254.255102671853
21
211.107688992718
31
-1.25244696422621e-017
  0
LINE
 8
Layer0
10
252.915356709697
20
147.982688992718
30
-1.66004258533026e-017
11
251.326170483718
21
150.053756804584
31
-1.3240341569737e-017
  0
LINE
 8
Layer0
10
246.843293122878
20
152.641947255609
30
-1.00609976418734e-017
11
244.255102671853
21
152.982688992718
31
-1.4908024742621e-017
  0
LINE
 8
Layer0
10
244.255102671853
20
152.982688992718
30
-1.4908024742621e-017
11
241.666912220828
21
152.641947255609
31
-1.31329912027475e-017
  0
LINE
 8
Layer0
10
241.666912220828
20
152.641947255609
30
-1.31329912027475e-017
11
239.255102671853
21
151.642943030563
31
-1.625305101825e-017
  0
LINE
 8
Layer0
10
239.255102671853
20
151.642943030563
30
-1.625305101825e-017
11
237.184034859987
21
150.053756804584
31
-2.02974067653632e-017
  0
LINE
 8
Layer0
10
237.184034859987
20
150.053756804584
30
-2.02974067653632e-017
11
235.594848634009
21
147.982688992718
31
-2.49904422835353e-017
  0
LINE
 8
Layer0
10
235.594848634009
20
147.982688992718
30
-2.49904422835353e-017
11
234.595844408962
21
145.570879443744
31
-3.00123349578108e-017
  0
LINE
 8
Layer0
10
234.595844408962
20
145.570879443744
30
-3.00123349578108e-017
11
234.255102671853
21
142.982688992718
31
-3.37419689223789e-017
  0
LINE
 8
Layer0
10
264.255102671853
20
94.8576889927183
30
-1.5145894658066e-016
11
264.255102671853
21
136.107688992718
31
-6.81525411286841e-017
  0
LINE
 8
Layer0
10
264.255102671853
20
162.982688992718
30
-3.79538750221118e-017
11
264.255102671853
21
211.107688992718
31
-3.89661843347654e-017
  0
LINE
 8
Layer0
10
264.255102671853
20
94.8576889927183
30
-1.5145894658066e-016
11
264.595844408962
21
92.2694985416931
31
-1.32382701633757e-016
  0
LINE
 8
Layer0
10
264.595844408962
20
92.2694985416931
30
-1.32382701633757e-016
11
265.594848634009
21
89.8576889927183
31
-1.31522947326149e-016
  0
LINE
 8
Layer0
10
265.594848634009
20
89.8576889927183
30
-1.31522947326149e-016
11
267.184034859987
21
87.7866211808529
31
-1.27506922739241e-016
  0
LINE
 8
Layer0
10
267.184034859987
20
87.7866211808529
30
-1.27506922739241e-016
11
269.255102671853
21
86.1974349548739
31
-1.20608313311837e-016
  0
LINE
 8
Layer0
10
269.255102671853
20
86.1974349548739
30
-1.20608313311837e-016
11
271.666912220828
21
85.1984307298276
31
-1.11297247875921e-016
  0
LINE
 8
Layer0
10
271.666912220828
20
85.1984307298276
30
-1.11297247875921e-016
11
274.255102671853
21
84.8576889927183
31
-1.0020826015369e-016
  0
LINE
 8
Layer0
10
274.255102671853
20
84.8576889927183
30
-1.0020826015369e-016
11
276.843293122878
21
85.1984307298276
31
-8.80970463329937e-017
  0
LINE
 8
Layer0
10
276.843293122878
20
85.1984307298276
30
-8.80970463329937e-017
11
279.255102671853
21
86.1974349548739
31
-7.57889656209863e-017
  0
LINE
 8
Layer0
10
279.255102671853
20
86.1974349548739
30
-7.57889656209863e-017
11
281.326170483718
21
87.7866211808529
31
-6.41227933781259e-017
  0
LINE
 8
Layer0
10
281.326170483718
20
87.7866211808529
30
-6.41227933781259e-017
11
282.915356709697
21
89.8576889927183
31
-5.3893559963502e-017
  0
LINE
 8
Layer0
10
282.915356709697
20
89.8576889927183
30
-5.3893559963502e-017
11
283.914360934744
21
92.2694985416931
31
-4.5798370729714e-017
  0
LINE
 8
Layer0
10
283.914360934744
20
92.2694985416931
30
-4.5798370729714e-017
11
284.255102671853
21
94.8576889927183
31
-4.03888994451115e-017
  0
LINE
 8
Layer0
10
284.255102671853
20
136.107688992718
30
-1.68531468949868e-017
11
283.914360934744
21
138.695879443744
31
-1.71335558924306e-017
  0
LINE
 8
Layer0
10
283.914360934744
20
138.695879443744
30
-1.71335558924306e-017
11
282.915356709697
21
141.107688992718
31
-1.92969711482495e-017
  0
LINE
 8
Layer0
10
282.915356709697
20
141.107688992718
30
-1.92969711482495e-017
11
281.476618607237
21
142.982688992718
31
-2.68181808101835e-017
  0
LINE
 8
Layer0
10
281.326170483718
20
143.178756804584
30
-2.31959594879722e-017
11
279.255102671853
21
144.767943030563
31
-2.85648112996296e-017
  0
LINE
 8
Layer0
10
279.255102671853
20
144.767943030563
30
-2.85648112996296e-017
11
276.843293122878
21
145.766947255609
31
-3.50376482047042e-017
  0
LINE
 8
Layer0
10
276.843293122878
20
145.766947255609
30
-3.50376482047042e-017
11
274.255102671853
21
146.107688992718
31
-4.21733570649841e-017
  0
LINE
 8
Layer0
10
274.255102671853
20
146.107688992718
30
-4.21733570649841e-017
11
271.666912220828
21
145.766947255609
31
-4.94856511139575e-017
  0
LINE
 8
Layer0
10
271.666912220828
20
145.766947255609
30
-4.94856511139575e-017
11
269.255102671853
21
144.767943030563
31
-5.64762095963242e-017
  0
LINE
 8
Layer0
10
269.255102671853
20
144.767943030563
30
-5.64762095963242e-017
11
267.184034859987
21
143.178756804584
31
-6.26686375039551e-017
  0
LINE
 8
Layer0
10
267.184034859987
20
143.178756804584
30
-6.26686375039551e-017
11
267.033586736469
21
142.982688992718
31
-4.6781694015367e-017
  0
LINE
 8
Layer0
10
265.594848634009
20
141.107688992718
30
-6.7640931108416e-017
11
264.595844408962
21
138.695879443744
31
-7.10542368176667e-017
  0
LINE
 8
Layer0
10
264.595844408962
20
138.695879443744
30
-7.10542368176667e-017
11
264.255102671853
21
136.107688992718
31
-6.81525411286841e-017
  0
LINE
 8
Layer0
10
264.255102671853
20
162.982688992718
30
-3.79538750221118e-017
11
264.595844408962
21
160.394498541693
31
-4.3405171951392e-017
  0
LINE
 8
Layer0
10
264.595844408962
20
160.394498541693
30
-4.3405171951392e-017
11
265.594848634009
21
157.982688992718
31
-4.07728330913721e-017
  0
LINE
 8
Layer0
10
265.594848634009
20
157.982688992718
30
-4.07728330913721e-017
11
267.184034859987
21
155.911621180853
31
-3.63965227096785e-017
  0
LINE
 8
Layer0
10
267.184034859987
20
155.911621180853
30
-3.63965227096785e-017
11
269.255102671853
21
154.322434954874
31
-3.05744791266288e-017
  0
LINE
 8
Layer0
10
269.255102671853
20
154.322434954874
30
-3.05744791266288e-017
11
271.666912220828
21
153.323430729828
31
-2.37034649910258e-017
  0
LINE
 8
Layer0
10
271.666912220828
20
153.323430729828
30
-2.37034649910258e-017
11
274.255102671853
21
152.982688992718
31
-3.58685128681877e-017
  0
LINE
 8
Layer0
10
274.255102671853
20
152.982688992718
30
-3.58685128681877e-017
11
276.843293122878
21
153.323430729828
31
-8.72709336062822e-018
  0
LINE
 8
Layer0
10
276.843293122878
20
153.323430729828
30
-8.72709336062822e-018
11
279.255102671853
21
154.322434954874
31
-1.64235084282099e-018
  0
LINE
 8
Layer0
10
279.255102671853
20
154.322434954874
30
-1.64235084282099e-018
11
281.326170483718
21
155.911621180853
31
4.51968549760067e-018
  0
LINE
 8
Layer0
10
281.326170483718
20
155.911621180853
30
4.51968549760067e-018
11
282.915356709697
21
157.982688992718
31
9.33908306728353e-018
  0
LINE
 8
Layer0
10
282.915356709697
20
157.982688992718
30
9.33908306728353e-018
11
283.914360934744
21
160.394498541693
31
1.24874078862848e-017
  0
LINE
 8
Layer0
10
283.914360934744
20
160.394498541693
30
1.24874078862848e-017
11
284.255102671853
21
162.982688992718
31
1.37501068210423e-017
  0
LINE
 8
Layer0
10
284.255102671853
20
211.107688992718
30
2.54616718445614e-017
11
283.914360934744
21
213.695879443744
31
2.48302335770536e-017
  0
LINE
 8
Layer0
10
283.914360934744
20
213.695879443744
30
2.48302335770536e-017
11
282.915356709697
21
216.107688992718
31
2.22426641294964e-017
  0
LINE
 8
Layer0
10
282.915356709697
20
216.107688992718
30
2.22426641294964e-017
11
281.326170483718
21
218.178756804584
31
1.78753020835801e-017
  0
LINE
 8
Layer0
10
281.326170483718
20
218.178756804584
30
1.78753020835801e-017
11
279.255102671853
21
219.767943030563
31
1.20257759453268e-017
  0
LINE
 8
Layer0
10
279.255102671853
20
219.767943030563
30
1.20257759453268e-017
11
276.843293122878
21
220.766947255609
31
5.09272125425958e-018
  0
LINE
 8
Layer0
10
276.843293122878
20
220.766947255609
30
5.09272125425958e-018
11
274.255102671853
21
221.107688992718
31
-2.45138576984007e-018
  0
LINE
 8
Layer0
10
274.255102671853
20
221.107688992718
30
-2.45138576984007e-018
11
271.666912220828
21
220.766947255609
31
-1.0092426700506e-017
  0
LINE
 8
Layer0
10
271.666912220828
20
220.766947255609
30
-1.0092426700506e-017
11
269.255102671853
21
219.767943030563
31
-1.73096772257305e-017
  0
LINE
 8
Layer0
10
269.255102671853
20
219.767943030563
30
-1.73096772257305e-017
11
267.184034859987
21
218.178756804584
31
-2.361129364929e-017
  0
LINE
 8
Layer0
10
267.184034859987
20
218.178756804584
30
-2.361129364929e-017
11
265.594848634009
21
216.107688992718
31
-2.85678312258324e-017
  0
LINE
 8
Layer0
10
265.594848634009
20
216.107688992718
30
-2.85678312258324e-017
11
264.595844408962
21
213.695879443744
31
-3.18415101105821e-017
  0
LINE
 8
Layer0
10
264.595844408962
20
213.695879443744
30
-3.18415101105821e-017
11
264.255102671853
21
211.107688992718
31
-3.89661843347654e-017
  0
LINE
 8
Layer0
10
208.47391540954
20
77.9826889927183
30
-3.14470823389647e-018
11
399.255102671853
21
77.9826889927183
31
-3.58638120608569e-017
  0
LINE
 8
Layer0
10
294.255102671853
20
172.982688992718
30
-2.61394804156162e-017
11
294.255102671853
21
194.311735095237
31
-4.47975140286608e-017
  0
LINE
 8
Layer0
10
294.255102671853
20
194.311735095237
30
-4.47975140286608e-017
11
294.255102671853
21
211.107688992718
31
-5.94901294825393e-017
  0
LINE
 8
Layer0
10
294.255102671853
20
94.8576889927183
30
-1.5145894658066e-016
11
294.255102671853
21
142.982688992718
31
-4.69364975479982e-017
  0
LINE
 8
Layer0
10
281.476618607237
20
142.982688992718
30
-2.68181808101835e-017
11
281.326170483718
21
143.178756804584
31
-2.31959594879722e-017
  0
LINE
 8
Layer0
10
267.033586736469
20
142.982688992718
30
-4.6781694015367e-017
11
265.594848634009
21
141.107688992718
31
-6.7640931108416e-017
  0
LINE
 8
Layer0
10
294.255102671853
20
94.8576889927183
30
-1.5145894658066e-016
11
294.595844408962
21
92.2694985416931
31
-2.31361189657098e-017
  0
LINE
 8
Layer0
10
294.595844408962
20
92.2694985416931
30
-2.31361189657098e-017
11
295.594848634009
21
89.8576889927183
31
-2.31361189657098e-017
  0
LINE
 8
Layer0
10
295.594848634009
20
89.8576889927183
30
-2.31361189657098e-017
11
297.184034859987
21
87.7866211808529
31
-2.31361189657098e-017
  0
LINE
 8
Layer0
10
297.184034859987
20
87.7866211808529
30
-2.31361189657098e-017
11
299.255102671853
21
86.1974349548739
31
-2.31361189657098e-017
  0
LINE
 8
Layer0
10
299.255102671853
20
86.1974349548739
30
-2.31361189657098e-017
11
301.666912220828
21
85.1984307298276
31
-2.31361189657098e-017
  0
LINE
 8
Layer0
10
301.666912220828
20
85.1984307298276
30
-2.31361189657098e-017
11
304.255102671853
21
84.8576889927183
31
-2.31361189657098e-017
  0
LINE
 8
Layer0
10
304.255102671853
20
84.8576889927183
30
-2.31361189657098e-017
11
306.843293122878
21
85.1984307298276
31
-2.31361189657098e-017
  0
LINE
 8
Layer0
10
306.843293122878
20
85.1984307298276
30
-2.31361189657098e-017
11
309.255102671853
21
86.1974349548739
31
-2.31361189657098e-017
  0
LINE
 8
Layer0
10
309.255102671853
20
86.1974349548739
30
-2.31361189657098e-017
11
311.326170483718
21
87.7866211808529
31
-2.31361189657098e-017
  0
LINE
 8
Layer0
10
311.326170483718
20
87.7866211808529
30
-2.31361189657098e-017
11
312.915356709697
21
89.8576889927183
31
-2.31361189657098e-017
  0
LINE
 8
Layer0
10
312.915356709697
20
89.8576889927183
30
-2.31361189657098e-017
11
313.914360934744
21
92.2694985416931
31
-2.31361189657098e-017
  0
LINE
 8
Layer0
10
313.914360934744
20
92.2694985416931
30
-2.31361189657098e-017
11
314.255102671853
21
94.8576889927183
31
-2.31361189657098e-017
  0
LINE
 8
Layer0
10
314.255102671853
20
142.982688992718
30
9.09895805505345e-018
11
313.914360934744
21
145.570879443744
31
8.01378303643484e-018
  0
LINE
 8
Layer0
10
313.914360934744
20
145.570879443744
30
8.01378303643484e-018
11
312.915356709697
21
147.982688992718
31
4.24143168807417e-018
  0
LINE
 8
Layer0
10
312.915356709697
20
147.982688992718
30
4.24143168807417e-018
11
311.326170483718
21
150.053756804584
31
-1.96101647974312e-018
  0
LINE
 8
Layer0
10
311.326170483718
20
150.053756804584
30
-1.96101647974312e-018
11
309.255102671853
21
151.642943030563
31
-1.01708748744105e-017
  0
LINE
 8
Layer0
10
309.255102671853
20
151.642943030563
30
-1.01708748744105e-017
11
306.843293122878
21
152.641947255609
31
-1.9828655213764e-017
  0
LINE
 8
Layer0
10
306.843293122878
20
152.641947255609
30
-1.9828655213764e-017
11
304.255102671853
21
152.982688992718
31
-3.50725100956918e-017
  0
LINE
 8
Layer0
10
304.255102671853
20
152.982688992718
30
-3.50725100956918e-017
11
301.666912220828
21
152.641947255609
31
-4.08015137961958e-017
  0
LINE
 8
Layer0
10
301.666912220828
20
152.641947255609
30
-4.08015137961958e-017
11
299.255102671853
21
151.642943030563
31
-5.0687326386169e-017
  0
LINE
 8
Layer0
10
299.255102671853
20
151.642943030563
30
-5.0687326386169e-017
11
297.184034859987
21
150.053756804584
31
-5.92599317069038e-017
  0
LINE
 8
Layer0
10
297.184034859987
20
150.053756804584
30
-5.92599317069038e-017
11
295.594848634009
21
147.982688992718
31
-6.59351208726923e-017
  0
LINE
 8
Layer0
10
295.594848634009
20
147.982688992718
30
-6.59351208726923e-017
11
294.595844408962
21
145.570879443744
31
-7.02579907731577e-017
  0
LINE
 8
Layer0
10
294.595844408962
20
145.570879443744
30
-7.02579907731577e-017
11
294.255102671853
21
142.982688992718
31
-4.69364975479982e-017
  0
LINE
 8
Layer0
10
294.255102671853
20
172.982688992718
30
-2.61394804156162e-017
11
294.595844408962
21
170.394498541693
31
-4.19793781530229e-017
  0
LINE
 8
Layer0
10
294.595844408962
20
170.394498541693
30
-4.19793781530229e-017
11
295.594848634009
21
167.982688992718
31
-3.87988478290166e-017
  0
LINE
 8
Layer0
10
295.594848634009
20
167.982688992718
30
-3.87988478290166e-017
11
297.184034859987
21
165.911621180853
31
-3.44833344861036e-017
  0
LINE
 8
Layer0
10
297.184034859987
20
165.911621180853
30
-3.44833344861036e-017
11
299.255102671853
21
164.322434954874
31
-2.93269332268804e-017
  0
LINE
 8
Layer0
10
299.255102671853
20
164.322434954874
30
-2.93269332268804e-017
11
301.666912220828
21
163.323430729828
31
-2.36810442758071e-017
  0
LINE
 8
Layer0
10
301.666912220828
20
163.323430729828
30
-2.36810442758071e-017
11
304.255102671853
21
162.982688992718
31
-1.79304256346268e-017
  0
LINE
 8
Layer0
10
304.255102671853
20
162.982688992718
30
-1.79304256346268e-017
11
306.843293122878
21
163.323430729828
31
-1.24669724603891e-017
  0
LINE
 8
Layer0
10
306.843293122878
20
163.323430729828
30
-1.24669724603891e-017
11
309.255102671853
21
164.322434954874
31
-7.66301005813518e-018
  0
LINE
 8
Layer0
10
309.255102671853
20
164.322434954874
30
-7.66301005813518e-018
11
311.326170483718
21
165.911621180853
31
-3.84592052665535e-018
  0
LINE
 8
Layer0
10
311.326170483718
20
165.911621180853
30
-3.84592052665535e-018
11
312.915356709697
21
167.982688992718
31
-1.27583220948127e-018
  0
LINE
 8
Layer0
10
312.915356709697
20
167.982688992718
30
-1.27583220948127e-018
11
313.914360934744
21
170.394498541693
31
-1.27892378156597e-019
  0
LINE
 8
Layer0
10
313.914360934744
20
170.394498541693
30
-1.27892378156597e-019
11
314.255102671853
21
172.982688992718
31
-4.80331235125829e-019
  0
LINE
 8
Layer0
10
314.255102671853
20
211.107688992718
30
-1.88212111730394e-017
11
313.914360934744
21
213.695879443744
31
-1.93780058627724e-017
  0
LINE
 8
Layer0
10
313.914360934744
20
213.695879443744
30
-1.93780058627724e-017
11
312.915356709697
21
216.107688992718
31
-2.00346097272723e-017
  0
LINE
 8
Layer0
10
312.915356709697
20
216.107688992718
30
-2.00346097272723e-017
11
311.326170483718
21
218.178756804584
31
-2.07462762982628e-017
  0
LINE
 8
Layer0
10
311.326170483718
20
218.178756804584
30
-2.07462762982628e-017
11
309.255102671853
21
219.767943030563
31
-2.14645066750153e-017
  0
LINE
 8
Layer0
10
309.255102671853
20
219.767943030563
30
-2.14645066750153e-017
11
306.843293122878
21
220.766947255609
31
-2.2140354644286e-017
  0
LINE
 8
Layer0
10
306.843293122878
20
220.766947255609
30
-2.2140354644286e-017
11
304.255102671853
21
221.107688992718
31
-2.27277622838607e-017
  0
LINE
 8
Layer0
10
304.255102671853
20
221.107688992718
30
-2.27277622838607e-017
11
301.666912220828
21
220.766947255609
31
-2.31866987338394e-017
  0
LINE
 8
Layer0
10
301.666912220828
20
220.766947255609
30
-2.31866987338394e-017
11
299.255102671853
21
219.767943030563
31
-2.34858882335844e-017
  0
LINE
 8
Layer0
10
299.255102671853
20
219.767943030563
30
-2.34858882335844e-017
11
297.184034859987
21
218.178756804584
31
-2.3604941513122e-017
  0
LINE
 8
Layer0
10
297.184034859987
20
218.178756804584
30
-2.3604941513122e-017
11
295.594848634009
21
216.107688992718
31
-2.35357452881968e-017
  0
LINE
 8
Layer0
10
295.594848634009
20
216.107688992718
30
-2.35357452881968e-017
11
294.595844408962
21
213.695879443744
31
-2.3283015167185e-017
  0
LINE
 8
Layer0
10
294.595844408962
20
213.695879443744
30
-2.3283015167185e-017
11
294.255102671853
21
211.107688992718
31
-5.94901294825393e-017
  0
LINE
 8
Layer0
10
202.022504082577
20
224.410565013154
30
-4.89186205874358e-033
11
202.384789972103
21
224.939233472275
31
-2.98863551263542e-019
  0
LINE
 8
Layer0
10
202.384789972103
20
224.939233472275
30
-2.98863551263542e-019
11
202.790327832142
21
225.435499982827
31
-6.33407314979299e-019
  0
LINE
 8
Layer0
10
202.790327832142
20
225.435499982827
30
-6.33407314979299e-019
11
203.236234043817
21
225.895835790482
31
-1.00125248313125e-018
  0
LINE
 8
Layer0
10
203.236234043817
20
225.895835790482
30
-1.00125248313125e-018
11
203.719337944914
21
226.316967629892
31
-1.39978345462453e-018
  0
LINE
 8
Layer0
10
203.719337944914
20
226.316967629892
30
-1.39978345462453e-018
11
204.236204375201
21
226.695900999577
31
-1.8261664337874e-018
  0
LINE
 8
Layer0
10
204.236204375201
20
226.695900999577
30
-1.8261664337874e-018
11
204.783158102495
21
227.029941454641
31
-2.27736958036833e-018
  0
LINE
 8
Layer0
10
204.783158102495
20
227.029941454641
30
-2.27736958036833e-018
11
205.356309955775
21
227.316713765894
31
-2.75018456774955e-018
  0
LINE
 8
Layer0
10
205.356309955775
20
227.316713765894
30
-2.75018456774955e-018
11
205.951584479538
21
227.554178809171
31
-3.24124939608508e-018
  0
LINE
 8
Layer0
10
205.951584479538
20
227.554178809171
30
-3.24124939608508e-018
11
206.564748912744
21
227.740648064736
31
-3.74707229814826e-018
  0
LINE
 8
Layer0
10
206.564748912744
20
227.740648064736
30
-3.74707229814826e-018
11
207.191443286305
21
227.874795623668
31
-4.2640565679035e-018
  0
LINE
 8
Layer0
10
207.191443286305
20
227.874795623668
30
-4.2640565679035e-018
11
207.82721142509
21
227.955667615882
31
-4.78852613525645e-018
  0
LINE
 8
Layer0
10
207.82721142509
20
227.955667615882
30
-4.78852613525645e-018
11
208.467532634027
21
227.982688992718
31
-5.31675170513034e-018
  0
LINE
 8
Layer0
10
201.879412622444
20
81.4690162442558
30
5.50334481608653e-033
11
202.264893751664
21
80.9498467111568
31
-4.68297032300874e-019
  0
LINE
 8
Layer0
10
202.264893751664
20
80.9498467111568
30
-4.68297032300874e-019
11
202.691143781909
21
80.4635920280956
31
-9.06904482281083e-019
  0
LINE
 8
Layer0
10
202.691143781909
20
80.4635920280956
30
-9.06904482281083e-019
11
203.155363923571
21
80.0134449797231
31
-1.31294242058904e-018
  0
LINE
 8
Layer0
10
203.155363923571
20
80.0134449797231
30
-1.31294242058904e-018
11
203.654506072447
21
79.6023612652579
31
-1.68374477172501e-018
  0
LINE
 8
Layer0
10
203.654506072447
20
79.6023612652579
30
-1.68374477172501e-018
11
204.185292823821
21
79.2330400911436
31
-2.01687681969244e-018
  0
LINE
 8
Layer0
10
204.185292823821
20
79.2330400911436
30
-2.01687681969244e-018
11
204.744238992147
21
78.9079064478577
31
-2.31015119452547e-018
  0
LINE
 8
Layer0
10
204.744238992147
20
78.9079064478577
30
-2.31015119452547e-018
11
205.327674495041
21
78.629095187242
31
-2.56164223472384e-018
  0
LINE
 8
Layer0
10
205.327674495041
20
78.629095187242
30
-2.56164223472384e-018
11
205.931768451313
21
78.3984370049062
31
-2.7696986312905e-018
  0
LINE
 8
Layer0
10
205.931768451313
20
78.3984370049062
30
-2.7696986312905e-018
11
206.552554334823
21
78.217446419743
31
-2.93295427035009e-018
  0
LINE
 8
Layer0
10
206.552554334823
20
78.217446419743
30
-2.93295427035009e-018
11
207.185956018987
21
78.0873118294838
31
-3.05033720315489e-018
  0
LINE
 8
Layer0
10
207.185956018987
20
78.0873118294838
30
-3.05033720315489e-018
11
207.827814540928
21
78.0088877075905
31
-3.1210766845806e-018
  0
LINE
 8
Layer0
10
207.827814540928
20
78.0088877075905
30
-3.1210766845806e-018
11
208.47391540954
21
77.9826889927183
31
-3.14470823389647e-018
  0
LINE
 8
Layer0
10
324.255102671853
20
94.8576889927183
30
-2.31361189657098e-017
11
324.255102671853
21
136.107688992718
31
-2.93603175005159e-017
  0
LINE
 8
Layer0
10
284.255102671853
20
136.107688992718
30
-1.68531468949868e-017
11
284.255102671853
21
94.8576889927183
31
-4.03888994451115e-017
  0
LINE
 8
Layer0
10
284.255102671853
20
162.982688992718
30
1.37501068210423e-017
11
284.255102671853
21
211.107688992718
31
2.54616718445614e-017
  0
LINE
 8
Layer0
10
324.255102671853
20
94.8576889927183
30
-2.31361189657098e-017
11
324.595844408962
21
92.2694985416931
31
-2.587275530207e-017
  0
LINE
 8
Layer0
10
324.595844408962
20
92.2694985416931
30
-2.587275530207e-017
11
325.594848634008
21
89.8576889927183
31
-2.52574702595831e-017
  0
LINE
 8
Layer0
10
325.594848634008
20
89.8576889927183
30
-2.52574702595831e-017
11
327.184034859987
21
87.7866211808528
31
-2.44976186321175e-017
  0
LINE
 8
Layer0
10
327.184034859987
20
87.7866211808528
30
-2.44976186321175e-017
11
329.255102671853
21
86.1974349548739
31
-2.36449830523708e-017
  0
LINE
 8
Layer0
10
329.255102671853
20
86.1974349548739
30
-2.36449830523708e-017
11
331.666912220828
21
85.1984307298276
31
-2.27576692260558e-017
  0
LINE
 8
Layer0
10
331.666912220828
20
85.1984307298276
30
-2.27576692260558e-017
11
334.255102671853
21
84.8576889927183
31
-2.18961461240805e-017
  0
LINE
 8
Layer0
10
334.255102671853
20
84.8576889927183
30
-2.18961461240805e-017
11
336.843293122878
21
85.1984307298276
31
-2.11191251221102e-017
  0
LINE
 8
Layer0
10
336.843293122878
20
85.1984307298276
30
-2.11191251221102e-017
11
339.255102671853
21
86.1974349548739
31
-2.04795589173413e-017
  0
LINE
 8
Layer0
10
339.255102671853
20
86.1974349548739
30
-2.04795589173413e-017
11
341.326170483718
21
87.7866211808528
31
-2.00210328896956e-017
  0
LINE
 8
Layer0
10
341.326170483718
20
87.7866211808528
30
-2.00210328896956e-017
11
342.915356709697
21
89.8576889927183
31
-1.97747948302072e-017
  0
LINE
 8
Layer0
10
342.915356709697
20
89.8576889927183
30
-1.97747948302072e-017
11
343.914360934744
21
92.2694985416931
31
-1.97576254557025e-017
  0
LINE
 8
Layer0
10
343.914360934744
20
92.2694985416931
30
-1.97576254557025e-017
11
344.255102671853
21
94.8576889927183
31
-1.99706948306803e-017
  0
LINE
 8
Layer0
10
324.255102671853
20
162.982688992718
30
-2.42769777074567e-017
11
324.255102671853
21
211.107688992718
31
-2.49990545205719e-017
  0
LINE
 8
Layer0
10
344.255102671853
20
136.107688992718
30
-5.02858243225373e-017
11
343.914360934744
21
138.695879443744
31
-4.84688193936303e-017
  0
LINE
 8
Layer0
10
343.914360934744
20
138.695879443744
30
-4.84688193936303e-017
11
342.915356709697
21
141.107688992718
31
-4.6399374299463e-017
  0
LINE
 8
Layer0
10
342.915356709697
20
141.107688992718
30
-4.6399374299463e-017
11
341.476618607237
21
142.982688992718
31
-3.60405972715239e-017
  0
LINE
 8
Layer0
10
341.326170483718
20
143.178756804584
30
-4.42185183032832e-017
11
339.255102671853
21
144.767943030563
31
-4.20748731371957e-017
  0
LINE
 8
Layer0
10
339.255102671853
20
144.767943030563
30
-4.20748731371957e-017
11
336.843293122878
21
145.766947255609
31
-4.01145246767281e-017
  0
LINE
 8
Layer0
10
336.843293122878
20
145.766947255609
30
-4.01145246767281e-017
11
334.255102671853
21
146.107688992718
31
-3.84710674298324e-017
  0
LINE
 8
Layer0
10
334.255102671853
20
146.107688992718
30
-3.84710674298324e-017
11
331.666912220828
21
145.766947255609
31
-3.72565002919429e-017
  0
LINE
 8
Layer0
10
331.666912220828
20
145.766947255609
30
-3.72565002919429e-017
11
329.255102671853
21
144.767943030563
31
-3.65535940063398e-017
  0
LINE
 8
Layer0
10
329.255102671853
20
144.767943030563
30
-3.65535940063398e-017
11
327.184034859987
21
143.178756804584
31
-3.64102504747793e-017
  0
LINE
 8
Layer0
10
327.184034859987
20
143.178756804584
30
-3.64102504747793e-017
11
327.033586736469
21
142.982688992718
31
-3.2783139564138e-017
  0
LINE
 8
Layer0
10
325.594848634008
20
141.107688992718
30
-3.68362383220509e-017
11
324.595844408962
21
138.695879443744
31
-3.78025271803412e-017
  0
LINE
 8
Layer0
10
324.595844408962
20
138.695879443744
30
-3.78025271803412e-017
11
324.255102671853
21
136.107688992718
31
-2.93603175005159e-017
  0
LINE
 8
Layer0
10
324.255102671853
20
162.982688992718
30
-2.42769777074567e-017
11
324.595844408962
21
160.394498541693
31
-2.3170655856982e-017
  0
LINE
 8
Layer0
10
324.595844408962
20
160.394498541693
30
-2.3170655856982e-017
11
325.594848634008
21
157.982688992718
31
-2.28050283800311e-017
  0
LINE
 8
Layer0
10
325.594848634008
20
157.982688992718
30
-2.28050283800311e-017
11
327.184034859987
21
155.911621180853
31
-2.22329708825367e-017
  0
LINE
 8
Layer0
10
327.184034859987
20
155.911621180853
30
-2.22329708825367e-017
11
329.255102671853
21
154.322434954874
31
-2.14934681375833e-017
  0
LINE
 8
Layer0
10
329.255102671853
20
154.322434954874
30
-2.14934681375833e-017
11
331.666912220828
21
153.323430729828
31
-2.06369160351535e-017
  0
LINE
 8
Layer0
10
331.666912220828
20
153.323430729828
30
-2.06369160351535e-017
11
334.255102671853
21
152.982688992718
31
-2.42613529082515e-017
  0
LINE
 8
Layer0
10
334.255102671853
20
152.982688992718
30
-2.42613529082515e-017
11
336.843293122878
21
153.323430729828
31
-1.88101529222646e-017
  0
LINE
 8
Layer0
10
336.843293122878
20
153.323430729828
30
-1.88101529222646e-017
11
339.255102671853
21
154.322434954874
31
-1.79644327990801e-017
  0
LINE
 8
Layer0
10
339.255102671853
20
154.322434954874
30
-1.79644327990801e-017
11
341.326170483718
21
155.911621180853
31
-1.72421612447315e-017
  0
LINE
 8
Layer0
10
341.326170483718
20
155.911621180853
30
-1.72421612447315e-017
11
342.915356709697
21
157.982688992718
31
-1.66925598720375e-017
  0
LINE
 8
Layer0
10
342.915356709697
20
157.982688992718
30
-1.66925598720375e-017
11
343.914360934744
21
160.394498541693
31
-1.63530831062879e-017
  0
LINE
 8
Layer0
10
343.914360934744
20
160.394498541693
30
-1.63530831062879e-017
11
344.255102671853
21
162.982688992718
31
-1.62468657280568e-017
  0
LINE
 8
Layer0
10
344.255102671853
20
211.107688992718
30
-1.91667233702445e-017
11
343.914360934744
21
213.695879443744
31
-1.93801658701484e-017
  0
LINE
 8
Layer0
10
343.914360934744
20
213.695879443744
30
-1.93801658701484e-017
11
342.915356709697
21
216.107688992718
31
-1.97905982709198e-017
  0
LINE
 8
Layer0
10
342.915356709697
20
216.107688992718
30
-1.97905982709198e-017
11
341.326170483718
21
218.178756804584
31
-2.03700502827178e-017
  0
LINE
 8
Layer0
10
341.326170483718
20
218.178756804584
30
-2.03700502827178e-017
11
339.255102671853
21
219.767943030563
31
-2.10790332085281e-017
  0
LINE
 8
Layer0
10
339.255102671853
20
219.767943030563
30
-2.10790332085281e-017
11
336.843293122878
21
220.766947255609
31
-2.18692310336065e-017
  0
LINE
 8
Layer0
10
336.843293122878
20
220.766947255609
30
-2.18692310336065e-017
11
334.255102671853
21
221.107688992718
31
-2.26867930820374e-017
  0
LINE
 8
Layer0
10
334.255102671853
20
221.107688992718
30
-2.26867930820374e-017
11
331.666912220828
21
220.766947255609
31
-2.34760038513054e-017
  0
LINE
 8
Layer0
10
331.666912220828
20
220.766947255609
30
-2.34760038513054e-017
11
329.255102671853
21
219.767943030563
31
-2.41830799317175e-017
  0
LINE
 8
Layer0
10
329.255102671853
20
219.767943030563
30
-2.41830799317175e-017
11
327.184034859987
21
218.178756804584
31
-2.47598352568919e-017
  0
LINE
 8
Layer0
10
327.184034859987
20
218.178756804584
30
-2.47598352568919e-017
11
325.594848634008
21
216.107688992718
31
-2.51669649045514e-017
  0
LINE
 8
Layer0
10
325.594848634008
20
216.107688992718
30
-2.51669649045514e-017
11
324.595844408962
21
213.695879443744
31
-2.53767236620214e-017
  0
LINE
 8
Layer0
10
324.595844408962
20
213.695879443744
30
-2.53767236620214e-017
11
324.255102671853
21
211.107688992718
31
-2.49990545205719e-017
  0
LINE
 8
Layer0
10
341.476618607237
20
142.982688992718
30
-3.60405972715239e-017
11
341.326170483718
21
143.178756804584
31
-4.42185183032832e-017
  0
LINE
 8
Layer0
10
327.033586736469
20
142.982688992718
30
-3.2783139564138e-017
11
325.594848634008
21
141.107688992718
31
-3.68362383220509e-017
  0
LINE
 8
Layer0
10
354.255102671853
20
94.8576889927183
30
-2.1553406898195e-017
11
354.255102671853
21
142.982688992718
31
-2.57163807136602e-017
  0
LINE
 8
Layer0
10
354.255102671853
20
94.8576889927183
30
-2.1553406898195e-017
11
354.595844408962
21
92.2694985416931
31
-2.55487138067309e-017
  0
LINE
 8
Layer0
10
354.595844408962
20
92.2694985416931
30
-2.55487138067309e-017
11
355.594848634009
21
89.8576889927183
31
-2.53309992073987e-017
  0
LINE
 8
Layer0
10
355.594848634009
20
89.8576889927183
30
-2.53309992073987e-017
11
357.184034859987
21
87.7866211808529
31
-2.49637071468064e-017
  0
LINE
 8
Layer0
10
357.184034859987
20
87.7866211808529
30
-2.49637071468064e-017
11
359.255102671853
21
86.1974349548739
31
-2.44718679719047e-017
  0
LINE
 8
Layer0
10
359.255102671853
20
86.1974349548739
30
-2.44718679719047e-017
11
361.666912220828
21
85.1984307298276
31
-2.38889997096604e-017
  0
LINE
 8
Layer0
10
361.666912220828
20
85.1984307298276
30
-2.38889997096604e-017
11
364.255102671853
21
84.8576889927183
31
-2.32548238689102e-017
  0
LINE
 8
Layer0
10
364.255102671853
20
84.8576889927183
30
-2.32548238689102e-017
11
366.843293122878
21
85.1984307298276
31
-2.26125584851759e-017
  0
LINE
 8
Layer0
10
366.843293122878
20
85.1984307298276
30
-2.26125584851759e-017
11
369.255102671853
21
86.1974349548739
31
-2.20059728829655e-017
  0
LINE
 8
Layer0
10
369.255102671853
20
86.1974349548739
30
-2.20059728829655e-017
11
371.326170483718
21
87.7866211808529
31
-2.14764048686393e-017
  0
LINE
 8
Layer0
10
371.326170483718
20
87.7866211808529
30
-2.14764048686393e-017
11
372.915356709697
21
89.8576889927183
31
-2.10599436272213e-017
  0
LINE
 8
Layer0
10
372.915356709697
20
89.8576889927183
30
-2.10599436272213e-017
11
373.914360934744
21
92.2694985416931
31
-2.07849703040793e-017
  0
LINE
 8
Layer0
10
373.914360934744
20
92.2694985416931
30
-2.07849703040793e-017
11
374.255102671853
21
94.8576889927183
31
-2.06702238767705e-017
  0
LINE
 8
Layer0
10
374.255102671853
20
142.982688992718
30
-2.44890288863983e-017
11
373.914360934744
21
145.570879443744
31
-2.46267409429663e-017
  0
LINE
 8
Layer0
10
373.914360934744
20
145.570879443744
30
-2.46267409429663e-017
11
372.915356709697
21
147.982688992718
31
-2.48140432442432e-017
  0
LINE
 8
Layer0
10
372.915356709697
20
147.982688992718
30
-2.48140432442432e-017
11
371.326170483718
21
150.053756804584
31
-2.50381714479285e-017
  0
LINE
 8
Layer0
10
371.326170483718
20
150.053756804584
30
-2.50381714479285e-017
11
369.255102671853
21
151.642943030563
31
-2.52838515873305e-017
  0
LINE
 8
Layer0
10
369.255102671853
20
151.642943030563
30
-2.52838515873305e-017
11
366.843293122878
21
152.641947255609
31
-2.55343409669545e-017
  0
LINE
 8
Layer0
10
366.843293122878
20
152.641947255609
30
-2.55343409669545e-017
11
364.255102671853
21
152.982688992718
31
-1.84924370296306e-017
  0
LINE
 8
Layer0
10
364.255102671853
20
152.982688992718
30
-1.84924370296306e-017
11
361.666912220828
21
152.641947255609
31
-2.59823012781125e-017
  0
LINE
 8
Layer0
10
361.666912220828
20
152.641947255609
30
-2.59823012781125e-017
11
359.255102671853
21
151.642943030563
31
-2.61492444547305e-017
  0
LINE
 8
Layer0
10
359.255102671853
20
151.642943030563
30
-2.61492444547305e-017
11
357.184034859987
21
150.053756804584
31
-2.62620217777865e-017
  0
LINE
 8
Layer0
10
357.184034859987
20
150.053756804584
30
-2.62620217777865e-017
11
355.594848634009
21
147.982688992718
31
-2.63129476590877e-017
  0
LINE
 8
Layer0
10
355.594848634009
20
147.982688992718
30
-2.63129476590877e-017
11
354.595844408962
21
145.570879443744
31
-2.62985515839823e-017
  0
LINE
 8
Layer0
10
354.595844408962
20
145.570879443744
30
-2.62985515839823e-017
11
354.255102671853
21
142.982688992718
31
-2.57163807136602e-017
  0
LINE
 8
Layer0
10
354.255102671853
20
172.982688992718
30
-2.09857330028291e-017
11
354.595844408962
21
170.394498541693
31
-2.0021050078114e-017
  0
LINE
 8
Layer0
10
354.595844408962
20
170.394498541693
30
-2.0021050078114e-017
11
355.594848634009
21
167.982688992718
31
-2.00576579932754e-017
  0
LINE
 8
Layer0
10
355.594848634009
20
167.982688992718
30
-2.00576579932754e-017
11
357.184034859987
21
165.911621180853
31
-2.01664759481177e-017
  0
LINE
 8
Layer0
10
357.184034859987
20
165.911621180853
30
-2.01664759481177e-017
11
359.255102671853
21
164.322434954874
31
-2.03400881788483e-017
  0
LINE
 8
Layer0
10
359.255102671853
20
164.322434954874
30
-2.03400881788483e-017
11
361.666912220828
21
163.323430729828
31
-2.05666632988509e-017
  0
LINE
 8
Layer0
10
361.666912220828
20
163.323430729828
30
-2.05666632988509e-017
11
364.255102671853
21
162.982688992718
31
-2.08307605881303e-017
  0
LINE
 8
Layer0
10
364.255102671853
20
162.982688992718
30
-2.08307605881303e-017
11
366.843293122878
21
163.323430729828
31
-2.11143822528635e-017
  0
LINE
 8
Layer0
10
366.843293122878
20
163.323430729828
30
-2.11143822528635e-017
11
369.255102671853
21
164.322434954874
31
-2.1398199945306e-017
  0
LINE
 8
Layer0
10
369.255102671853
20
164.322434954874
30
-2.1398199945306e-017
11
371.326170483718
21
165.911621180853
31
-2.16628719587487e-017
  0
LINE
 8
Layer0
10
371.326170483718
20
165.911621180853
30
-2.16628719587487e-017
11
372.915356709697
21
167.982688992718
31
-2.18903613328666e-017
  0
LINE
 8
Layer0
10
372.915356709697
20
167.982688992718
30
-2.18903613328666e-017
11
373.914360934744
21
170.394498541693
31
-2.20651650427576e-017
  0
LINE
 8
Layer0
10
373.914360934744
20
170.394498541693
30
-2.20651650427576e-017
11
374.255102671853
21
172.982688992718
31
-2.21753705044694e-017
  0
LINE
 8
Layer0
10
374.255102671853
20
94.8576889927183
30
-2.06702238767705e-017
11
374.255102671853
21
142.982688992718
31
-2.44890288863983e-017
  0
LINE
 8
Layer0
10
374.255102671853
20
172.982688992718
30
-2.21753705044694e-017
11
374.255102671853
21
211.107688992718
31
-2.42556084089684e-017
  0
LINE
 8
Layer0
10
384.255102671853
20
89.8576889927183
30
-2.19031714212402e-017
11
384.425473540408
21
88.5635937672057
31
-2.19241772556435e-017
  0
LINE
 8
Layer0
10
384.425473540408
20
88.5635937672057
30
-2.19241772556435e-017
11
384.924975652931
21
87.3576889927183
31
-2.19857632459528e-017
  0
LINE
 8
Layer0
10
384.924975652931
20
87.3576889927183
30
-2.19857632459528e-017
11
385.71956876592
21
86.3221550867856
31
-2.20837324087041e-017
  0
LINE
 8
Layer0
10
385.71956876592
20
86.3221550867856
30
-2.20837324087041e-017
11
386.755102671853
21
85.5275619737961
31
-2.22114083073575e-017
  0
LINE
 8
Layer0
10
386.755102671853
20
85.5275619737961
30
-2.22114083073575e-017
11
387.96100744634
21
85.028059861273
31
-2.23600900404144e-017
  0
LINE
 8
Layer0
10
387.96100744634
20
85.028059861273
30
-2.23600900404144e-017
11
389.255102671853
21
84.8576889927183
31
-2.2519645193475e-017
  0
LINE
 8
Layer0
10
384.425473540408
20
217.401784218231
30
-2.21732404526397e-017
11
384.924975652931
21
218.607688992718
31
-2.24669163946663e-017
  0
LINE
 8
Layer0
10
386.755102671853
20
220.437816011641
30
-2.30447900071511e-017
11
387.96100744634
21
220.937318124164
31
-2.32896065458998e-017
  0
LINE
 8
Layer0
10
384.924975652931
20
218.607688992718
30
-2.24669163946663e-017
11
385.71956876592
21
219.643222898651
31
-2.27641857171932e-017
  0
LINE
 8
Layer0
10
387.96100744634
20
220.937318124164
30
-2.32896065458998e-017
11
389.255102671853
21
221.107688992718
31
-2.3481951490902e-017
  0
LINE
 8
Layer0
10
384.255102671853
20
216.107688992718
30
-2.19031714212402e-017
11
384.425473540408
21
217.401784218231
31
-2.21732404526397e-017
  0
LINE
 8
Layer0
10
385.71956876592
20
219.643222898651
30
-2.27641857171932e-017
11
386.755102671853
21
220.437816011641
31
-2.30447900071511e-017
  0
LINE
 8
Layer0
10
364.255102671853
20
221.107688992718
30
-2.3481951490902e-017
11
361.666912220828
21
220.766947255609
31
-2.31804223446571e-017
  0
LINE
 8
Layer0
10
354.595844408962
20
213.695879443744
30
-2.2144283244144e-017
11
354.255102671853
21
211.107688992718
31
-2.11514211679771e-017
  0
LINE
 8
Layer0
10
366.843293122878
20
220.766947255609
30
-2.37599127220702e-017
11
364.255102671853
21
221.107688992718
31
-2.3481951490902e-017
  0
LINE
 8
Layer0
10
361.666912220828
20
220.766947255609
30
-2.31804223446571e-017
11
359.255102671853
21
219.767943030563
31
-2.28758739963518e-017
  0
LINE
 8
Layer0
10
357.184034859987
20
218.178756804584
30
-2.25890609126331e-017
11
355.594848634009
21
216.107688992718
31
-2.23395289311754e-017
  0
LINE
 8
Layer0
10
355.594848634009
20
216.107688992718
30
-2.23395289311754e-017
11
354.595844408962
21
213.695879443744
31
-2.2144283244144e-017
  0
LINE
 8
Layer0
10
359.255102671853
20
219.767943030563
30
-2.28758739963518e-017
11
357.184034859987
21
218.178756804584
31
-2.25890609126331e-017
  0
LINE
 8
Layer0
10
372.915356709697
20
216.107688992718
30
-2.42785415254363e-017
11
371.326170483718
21
218.178756804584
31
-2.41722580662229e-017
  0
LINE
 8
Layer0
10
373.914360934744
20
213.695879443744
30
-2.43069707751469e-017
11
372.915356709697
21
216.107688992718
31
-2.42785415254363e-017
  0
LINE
 8
Layer0
10
371.326170483718
20
218.178756804584
30
-2.41722580662229e-017
11
369.255102671853
21
219.767943030563
31
-2.39953634396104e-017
  0
LINE
 8
Layer0
10
369.255102671853
20
219.767943030563
30
-2.39953634396104e-017
11
366.843293122878
21
220.766947255609
31
-2.37599127220702e-017
  0
LINE
 8
Layer0
10
374.255102671853
20
211.107688992718
30
-2.42556084089684e-017
11
373.914360934744
21
213.695879443744
31
-2.43069707751469e-017
  0
LINE
 8
Layer0
10
344.255102671853
20
94.8576889927183
30
-1.99706948306803e-017
11
344.255102671853
21
136.107688992718
31
-5.02858243225373e-017
  0
LINE
 8
Layer0
10
344.255102671853
20
162.982688992718
30
-1.62468657280568e-017
11
344.255102671853
21
211.107688992718
31
-1.91667233702445e-017
  0
LINE
 8
Layer0
10
314.255102671853
20
94.8576889927183
30
-2.31361189657098e-017
11
314.255102671853
21
142.982688992718
31
9.09895805505345e-018
  0
LINE
 8
Layer0
10
314.255102671853
20
172.982688992718
30
-4.80331235125829e-019
11
314.255102671853
21
211.107688992718
31
-1.88212111730394e-017
  0
LINE
 8
Layer0
10
398.550115833306
20
227.982688992718
30
-1.52285213237185e-019
11
399.281713422785
21
227.934737553317
31
-1.50982392127222e-019
  0
LINE
 8
Layer0
10
399.281713422785
20
227.934737553317
30
-1.50982392127222e-019
11
400.000793174671
21
227.791703697534
31
-1.47096220427735e-019
  0
LINE
 8
Layer0
10
400.000793174671
20
227.791703697534
30
-1.47096220427735e-019
11
400.695051435042
21
227.5560347743
31
-1.40693191613952e-019
  0
LINE
 8
Layer0
10
400.695051435042
20
227.5560347743
30
-1.40693191613952e-019
11
401.35260925258
21
227.23176314423
31
-1.31882863284132e-019
  0
LINE
 8
Layer0
10
401.35260925258
20
227.23176314423
30
-1.31882863284132e-019
11
401.962215630715
21
226.824437184821
31
-1.20815982598683e-019
  0
LINE
 8
Layer0
10
401.962215630715
20
226.824437184821
30
-1.20815982598683e-019
11
402.513440035304
21
226.341026356169
31
-1.07681906954453e-019
  0
LINE
 8
Layer0
10
402.513440035304
20
226.341026356169
30
-1.07681906954453e-019
11
402.996850863956
21
225.78980195158
31
-9.27053640271663e-020
  0
LINE
 8
Layer0
10
402.996850863956
20
225.78980195158
30
-9.27053640271663e-020
11
403.404176823365
21
225.180195573445
31
-7.61426066185923e-020
  0
LINE
 8
Layer0
10
403.404176823365
20
225.180195573445
30
-7.61426066185923e-020
11
403.728448453435
21
224.522637755908
31
-5.82770281000554e-020
  0
LINE
 8
Layer0
10
403.728448453435
20
224.522637755908
30
-5.82770281000554e-020
11
403.964117376669
21
223.828379495536
31
-3.94143134732819e-020
  0
LINE
 8
Layer0
10
403.964117376669
20
223.828379495536
30
-3.94143134732819e-020
11
404.107151232451
21
223.109299743651
31
-1.98772090152683e-020
  0
LINE
 8
Layer0
10
404.107151232451
20
223.109299743651
30
-1.98772090152683e-020
11
404.155102671853
21
222.377702154171
31
3.40437481452389e-035
  0
LINE
 8
Layer0
10
399.222790775086
20
84.8576889927183
30
-2.83733394702413e-017
11
399.255102671853
21
84.8576889927183
31
-2.2519645193475e-017
  0
LINE
 8
Layer0
10
399.255102671853
20
77.9826889927183
30
-3.58638120608569e-017
11
399.950736976324
21
78.263736796726
31
-3.04293001632885e-017
  0
LINE
 8
Layer0
10
399.950736976324
20
78.263736796726
30
-3.04293001632885e-017
11
400.613716571394
21
78.6149532687413
31
-3.08217006785455e-017
  0
LINE
 8
Layer0
10
400.613716571394
20
78.6149532687413
30
-3.08217006785455e-017
11
401.236986447607
21
79.0326009852449
31
-3.70368379285725e-017
  0
LINE
 8
Layer0
10
401.236986447607
20
79.0326009852449
30
-3.70368379285725e-017
11
401.813914161212
21
79.512235603437
31
-4.90085743543825e-017
  0
LINE
 8
Layer0
10
401.813914161212
20
79.512235603437
30
-4.90085743543825e-017
11
402.338360412441
21
80.0487531551225
31
-6.66095143101214e-017
  0
LINE
 8
Layer0
10
402.338360412441
20
80.0487531551225
30
-6.66095143101214e-017
11
402.804744376046
21
80.6364443599115
31
-8.96523597269427e-017
  0
LINE
 8
Layer0
10
402.804744376046
20
80.6364443599115
30
-8.96523597269427e-017
11
403.208103088917
21
81.2690553797696
31
-1.17891903220572e-016
  0
LINE
 8
Layer0
10
403.208103088917
20
81.2690553797696
30
-1.17891903220572e-016
11
403.54414426279
21
81.9398543684063
31
-1.51027637433177e-016
  0
LINE
 8
Layer0
10
403.54414426279
20
81.9398543684063
30
-1.51027637433177e-016
11
403.809291960071
21
82.6417031073247
31
-1.88706952842571e-016
  0
LINE
 8
Layer0
10
403.809291960071
20
82.6417031073247
30
-1.88706952842571e-016
11
404.000724646693
21
83.367132966227
31
-2.30528890009688e-016
  0
LINE
 8
Layer0
10
404.000724646693
20
83.367132966227
30
-2.30528890009688e-016
11
404.116405217105
21
84.1084243794538
31
-2.76048406335298e-016
  0
LINE
 8
Layer0
10
404.116405217105
20
84.1084243794538
30
-2.76048406335298e-016
11
404.155102671853
21
84.8576889927183
31
-3.24781111921811e-016
  0
LINE
 8
Layer0
10
404.155102671853
20
84.8576889927183
30
-3.24781111921811e-016
11
404.155102671853
21
222.377702154171
31
3.40437481452389e-035
  0
LINE
 8
Layer0
10
104.214339506148
20
148.007771336162
30
-5.50522830186614e-017
11
104.214339506148
21
152.982688992718
31
-2.2893949114882e-017
  0
LINE
 8
Layer0
10
104.214339506148
20
152.982688992718
30
-2.2893949114882e-017
11
104.214339506148
21
164.082688992718
31
9.93739167072411e-019
  0
LINE
 8
Layer0
10
354.255102671853
20
178.682688992718
30
-2.57163807136602e-017
11
354.255102671853
21
211.107688992718
31
-2.11514211679771e-017
  0
LINE
 8
Layer0
10
354.255102671853
20
172.982688992718
30
-2.09857330028291e-017
11
354.255102671853
21
178.682688992718
31
-2.57163807136602e-017
  0
LINE
 8
Layer0
10
384.34028810613
20
152.335641379962
30
-2.19136743384418e-017
11
384.255102671853
21
152.335641379962
31
-2.1908422879841e-017
  0
LINE
 8
Layer0
10
384.255102671853
20
89.8576889927183
30
-2.19031714212402e-017
11
383.087766119344
21
94.9706857036559
31
-2.19040309465456e-017
  0
LINE
 8
Layer0
10
383.087766119344
20
94.9706857036559
30
-2.19040309465456e-017
11
382.05651189061
21
100.112856909343
31
-2.19048953762579e-017
  0
LINE
 8
Layer0
10
382.05651189061
20
100.112856909343
30
-2.19048953762579e-017
11
381.162066203888
21
105.280581447899
31
-2.19057641016382e-017
  0
LINE
 8
Layer0
10
381.162066203888
20
105.280581447899
30
-2.19057641016382e-017
11
380.405058935644
21
110.47022016256
31
-2.19066365109225e-017
  0
LINE
 8
Layer0
10
380.405058935644
20
110.47022016256
30
-2.19066365109225e-017
11
379.786023177009
21
115.67811846441
31
-2.19075119897526e-017
  0
LINE
 8
Layer0
10
379.786023177009
20
115.67811846441
30
-2.19075119897526e-017
11
379.305394858372
21
120.900608905972
31
-2.19083899216085e-017
  0
LINE
 8
Layer0
10
379.305394858372
20
120.900608905972
30
-2.19083899216085e-017
11
378.963512442392
21
126.134013763857
31
-2.19092696882431e-017
  0
LINE
 8
Layer0
10
378.963512442392
20
126.134013763857
30
-2.19092696882431e-017
11
378.760616685655
21
131.374647628646
31
-2.19101506701169e-017
  0
LINE
 8
Layer0
10
378.760445338959
20
173.725271552543
30
-2.19149134575362e-017
11
378.96327470835
21
179.073060134218
31
-2.19144800128875e-017
  0
LINE
 8
Layer0
10
378.96327470835
20
179.073060134218
30
-2.19144800128875e-017
11
379.305086916108
21
184.413766724361
31
-2.19137495630875e-017
  0
LINE
 8
Layer0
10
379.305086916108
20
184.413766724361
30
-2.19137495630875e-017
11
379.785650828485
21
189.74377993199
31
-2.1912722602067e-017
  0
LINE
 8
Layer0
10
379.785650828485
20
189.74377993199
30
-2.1912722602067e-017
11
380.404641487697
21
195.059495596996
31
-2.19113998242581e-017
  0
LINE
 8
Layer0
10
380.404641487697
20
195.059495596996
30
-2.19113998242581e-017
11
381.16164033166
21
200.357319227282
31
-2.19097821241245e-017
  0
LINE
 8
Layer0
10
381.16164033166
20
200.357319227282
30
-2.19097821241245e-017
11
382.056135477018
21
205.633668429363
31
-2.19078705955564e-017
  0
LINE
 8
Layer0
10
382.056135477018
20
205.633668429363
30
-2.19078705955564e-017
11
383.087522065287
21
210.884975330785
31
-2.19056665311315e-017
  0
LINE
 8
Layer0
10
383.087522065287
20
210.884975330785
30
-2.19056665311315e-017
11
384.255102671853
21
216.107688992718
31
-2.19031714212402e-017
  0
LINE
 8
Layer0
10
378.760616685655
20
131.374647628646
30
-2.19101506701169e-017
11
378.363726069402
21
134.890333968596
31
-2.19105460472121e-017
  0
LINE
 8
Layer0
10
378.363726069402
20
134.890333968596
30
-2.19105460472121e-017
11
378.038768456239
21
138.413397287901
31
-2.19109422539288e-017
  0
LINE
 8
Layer0
10
378.038768456239
20
138.413397287901
30
-2.19109422539288e-017
11
377.785879585807
21
141.94236595047
31
-2.19113391247655e-017
  0
LINE
 8
Layer0
10
377.785879585807
20
141.94236595047
30
-2.19113391247655e-017
11
377.605165093558
21
145.475765853463
31
-2.19117364939432e-017
  0
LINE
 8
Layer0
10
377.605165093558
20
145.475765853463
30
-2.19117364939432e-017
11
377.496700466631
21
149.012121043046
31
-2.1912134195475e-017
  0
LINE
 8
Layer0
10
377.496700466631
20
149.012121043046
30
-2.1912134195475e-017
11
377.460531012317
21
152.549954330915
31
-2.1912532063235e-017
  0
LINE
 8
Layer0
10
377.460531012317
20
152.549954330915
30
-2.1912532063235e-017
11
377.496671839139
21
156.087787911345
31
-2.19129299310279e-017
  0
LINE
 8
Layer0
10
377.496671839139
20
156.087787911345
30
-2.19129299310279e-017
11
377.605107850532
21
159.624143978488
31
-2.19133276326584e-017
  0
LINE
 8
Layer0
10
377.605107850532
20
159.624143978488
30
-2.19133276326584e-017
11
377.785793751159
21
163.157545343673
31
-2.19137250020006e-017
  0
LINE
 8
Layer0
10
377.785793751159
20
163.157545343673
30
-2.19137250020006e-017
11
378.038654065823
21
166.686516052457
31
-2.19141218730674e-017
  0
LINE
 8
Layer0
10
378.038654065823
20
166.686516052457
30
-2.19141218730674e-017
11
378.363583171001
21
170.209582001142
31
-2.19145180800797e-017
  0
LINE
 8
Layer0
10
378.363583171001
20
170.209582001142
30
-2.19145180800797e-017
11
378.760445338959
21
173.725271552543
31
-2.19149134575362e-017
  0
LINE
 8
Layer0
10
208.467532634027
20
227.982688992718
30
-5.31675170513034e-018
11
398.550115833306
21
227.982688992718
31
-1.52285213237185e-019
  0
LINE
 8
Layer0
10
200.755769476586
20
222.377702154171
30
5.55037519859754e-017
11
200.772214504842
21
222.410120596733
31
0.0
  0
LINE
 8
Layer0
10
389.255102671853
20
84.8576889927183
30
-2.2519645193475e-017
11
389.255102671853
21
221.107688992718
31
-2.3481951490902e-017
  0
LINE
 8
Layer0
10
223.160899742779
20
215.514895672107
30
-1.88104892195296e-014
11
222.915356709697
21
216.107688992718
31
0.0
  0
LINE
 8
Layer0
10
223.160899742779
20
158.575482313329
30
-1.68238391144265e-015
11
223.914360934744
21
160.394498541693
31
0.0
  0
LINE
 8
Layer0
10
104.182384863867
20
152.982688992718
30
0.0
11
104.214339506148
21
152.982688992718
31
-2.2893949114882e-017
  0
LINE
 8
Layer0
10
104.182384863867
20
163.903379384582
30
0.0
11
104.182384863867
21
152.982688992718
31
0.0
  0
LINE
 8
Layer0
10
404.155102671853
20
227.982688992718
30
1.66387152389598e-016
11
404.155102671853
21
222.377702154171
31
3.40437481452389e-035
  0
LINE
 8
Layer0
10
392.790636577786
20
219.643222898651
30
-2.3636011286735e-017
11
393.585229690775
21
218.607688992718
31
-2.35346802897107e-017
  0
LINE
 8
Layer0
10
390.549197897366
20
220.937318124164
30
-2.36087168520209e-017
11
391.755102671853
21
220.437816011641
31
-2.36612637793859e-017
  0
LINE
 8
Layer0
10
394.084731803298
20
217.401784218231
30
-2.33641763283026e-017
11
394.255102671853
21
216.107688992718
31
-2.31361189657098e-017
  0
LINE
 8
Layer0
10
391.755102671853
20
220.437816011641
30
-2.36612637793859e-017
11
392.790636577786
21
219.643222898651
31
-2.3636011286735e-017
  0
LINE
 8
Layer0
10
393.585229690775
20
218.607688992718
30
-2.35346802897107e-017
11
394.084731803298
21
217.401784218231
31
-2.33641763283026e-017
  0
LINE
 8
Layer0
10
389.255102671853
20
221.107688992718
30
-2.3481951490902e-017
11
390.549197897366
21
220.937318124164
31
-2.36087168520209e-017
  0
LINE
 8
Layer0
10
394.255102671853
20
89.8576889927183
30
-2.2519645193475e-017
11
394.255102671853
21
216.107688992718
31
-2.31361189657098e-017
  0
LINE
 8
Layer0
10
389.255102671853
20
84.8576889927183
30
-2.2519645193475e-017
11
390.549197897365
21
85.0280598612729
31
-2.26792003465355e-017
  0
LINE
 8
Layer0
10
394.084731803298
20
88.5635937672056
30
-2.31151131313064e-017
11
394.255102671853
21
89.8576889927183
31
-2.2519645193475e-017
  0
LINE
 8
Layer0
10
393.585229690775
20
87.3576889927183
30
-2.30535271409971e-017
11
394.084731803298
21
88.5635937672056
31
-2.31151131313064e-017
  0
LINE
 8
Layer0
10
392.790636577786
20
86.3221550867855
30
-2.29555579782458e-017
11
393.585229690775
21
87.3576889927183
31
-2.30535271409971e-017
  0
LINE
 8
Layer0
10
391.755102671853
20
85.5275619737961
30
-2.28278820795924e-017
11
392.790636577786
21
86.3221550867855
31
-2.29555579782458e-017
  0
LINE
 8
Layer0
10
390.549197897365
20
85.0280598612729
30
-2.26792003465355e-017
11
391.755102671853
21
85.5275619737961
31
-2.28278820795924e-017
  0
LINE
 8
Layer0
10
398.550115833306
20
227.982688992718
30
-1.52285213237185e-019
11
404.155102671853
21
227.982688992718
31
1.66387152389598e-016
  0
LINE
 8
Layer0
10
140.772671628343
20
277.823750211734
30
8.48102303067245e-015
11
140.685139124969
21
277.890650053599
31
8.8579895756711e-015
 0
ENDSEC
 0
EOF
