  0
SECTION
  2
HEADER
  9
$ACADVER
  1
AC1009
  9
$DWGCODEPAGE
  3
ansi_1252
  9
$INSBASE
 10
0.0
 20
0.0
 30
0.0
  9
$EXTMIN
 10
0.0000000000000284
 20
-169.4972829092919
 30
0.0
  9
$EXTMAX
 10
1252.285012528842
 20
313.4192921226554
 30
0.0
  9
$LIMMIN
 10
0.0
 20
0.0
  9
$LIMMAX
 10
420.0
 20
297.0
  9
$ORTHOMODE
 70
     0
  9
$REGENMODE
 70
     1
  9
$FILLMODE
 70
     1
  9
$QTEXTMODE
 70
     0
  9
$MIRRTEXT
 70
     0
  9
$DRAGMODE
 70
     2
  9
$LTSCALE
 40
1.0
  9
$OSMODE
 70
  4791
  9
$ATTMODE
 70
     1
  9
$TEXTSIZE
 40
2.5
  9
$TRACEWID
 40
1.0
  9
$TEXTSTYLE
  7
STANDARD
  9
$CLAYER
  8
0
  9
$CELTYPE
  6
BYLAYER
  9
$CECOLOR
 62
   256
  9
$DIMSCALE
 40
1.0
  9
$DIMASZ
 40
2.5
  9
$DIMEXO
 40
0.625
  9
$DIMDLI
 40
3.75
  9
$DIMRND
 40
0.0
  9
$DIMDLE
 40
0.0
  9
$DIMEXE
 40
1.25
  9
$DIMTP
 40
0.0
  9
$DIMTM
 40
0.0
  9
$DIMTXT
 40
2.5
  9
$DIMCEN
 40
2.5
  9
$DIMTSZ
 40
0.0
  9
$DIMTOL
 70
     0
  9
$DIMLIM
 70
     0
  9
$DIMTIH
 70
     0
  9
$DIMTOH
 70
     0
  9
$DIMSE1
 70
     0
  9
$DIMSE2
 70
     0
  9
$DIMTAD
 70
     1
  9
$DIMZIN
 70
     8
  9
$DIMBLK
  1

  9
$DIMASO
 70
     1
  9
$DIMSHO
 70
     1
  9
$DIMPOST
  1

  9
$DIMAPOST
  1

  9
$DIMALT
 70
     0
  9
$DIMALTD
 70
     3
  9
$DIMALTF
 40
0.03937007874016
  9
$DIMLFAC
 40
1.0
  9
$DIMTOFL
 70
     1
  9
$DIMTVP
 40
0.0
  9
$DIMTIX
 70
     0
  9
$DIMSOXD
 70
     0
  9
$DIMSAH
 70
     0
  9
$DIMBLK1
  1

  9
$DIMBLK2
  1

  9
$DIMSTYLE
  2
ISO-25
  9
$DIMCLRD
 70
     0
  9
$DIMCLRE
 70
     0
  9
$DIMCLRT
 70
     0
  9
$DIMTFAC
 40
1.0
  9
$DIMGAP
 40
0.625
  9
$LUNITS
 70
     2
  9
$LUPREC
 70
     3
  9
$SKETCHINC
 40
1.0
  9
$FILLETRAD
 40
10.0
  9
$AUNITS
 70
     0
  9
$AUPREC
 70
     0
  9
$MENU
  1
.
  9
$ELEVATION
 40
0.0
  9
$PELEVATION
 40
0.0
  9
$THICKNESS
 40
0.0
  9
$LIMCHECK
 70
     0
  9
$CHAMFERA
 40
10.0
  9
$CHAMFERB
 40
10.0
  9
$SKPOLY
 70
     0
  9
$TDCREATE
 40
2455022.720692847
  9
$TDUPDATE
 40
2458300.55850566
  9
$TDINDWG
 40
0.0004813889
  9
$TDUSRTIMER
 40
0.0004820139
  9
$USRTIMER
 70
     1
  9
$ANGBASE
 50
0.0
  9
$ANGDIR
 70
     0
  9
$PDMODE
 70
     0
  9
$PDSIZE
 40
0.0
  9
$PLINEWID
 40
0.0
  9
$COORDS
 70
     1
  9
$SPLFRAME
 70
     0
  9
$SPLINETYPE
 70
     6
  9
$SPLINESEGS
 70
     8
  9
$ATTDIA
 70
     0
  9
$ATTREQ
 70
     1
  9
$HANDLING
 70
     1
  9
$HANDSEED
  5
9F1
  9
$SURFTAB1
 70
     6
  9
$SURFTAB2
 70
     6
  9
$SURFTYPE
 70
     6
  9
$SURFU
 70
     6
  9
$SURFV
 70
     6
  9
$UCSNAME
  2

  9
$UCSORG
 10
0.0
 20
0.0
 30
0.0
  9
$UCSXDIR
 10
1.0
 20
0.0
 30
0.0
  9
$UCSYDIR
 10
0.0
 20
1.0
 30
0.0
  9
$PUCSNAME
  2

  9
$PUCSORG
 10
0.0
 20
0.0
 30
0.0
  9
$PUCSXDIR
 10
1.0
 20
0.0
 30
0.0
  9
$PUCSYDIR
 10
0.0
 20
1.0
 30
0.0
  9
$USERI1
 70
     0
  9
$USERI2
 70
     0
  9
$USERI3
 70
     0
  9
$USERI4
 70
     0
  9
$USERI5
 70
     0
  9
$USERR1
 40
0.0
  9
$USERR2
 40
0.0
  9
$USERR3
 40
0.0
  9
$USERR4
 40
0.0
  9
$USERR5
 40
0.0
  9
$WORLDVIEW
 70
     1
  9
$SHADEDGE
 70
     3
  9
$SHADEDIF
 70
    70
  9
$TILEMODE
 70
     1
  9
$MAXACTVP
 70
    64
  9
$PLIMCHECK
 70
     0
  9
$PEXTMIN
 10
1.000000000000000E+20
 20
1.000000000000000E+20
 30
1.000000000000000E+20
  9
$PEXTMAX
 10
-1.000000000000000E+20
 20
-1.000000000000000E+20
 30
-1.000000000000000E+20
  9
$PLIMMIN
 10
0.0
 20
0.0
  9
$PLIMMAX
 10
0.0
 20
0.0
  9
$UNITMODE
 70
     0
  9
$VISRETAIN
 70
     1
  9
$PLINEGEN
 70
     0
  9
$PSLTSCALE
 70
     1
  0
ENDSEC
  0
SECTION
  2
TABLES
  0
TABLE
  2
VPORT
 70
     1
  0
VPORT
  2
*ACTIVE
 70
     0
 10
0.0
 20
0.0
 11
1.0
 21
1.0
 12
933.6365926715895
 22
331.5797445381638
 13
0.0
 23
0.0
 14
10.0
 24
10.0
 15
10.0
 25
10.0
 16
0.0
 26
0.0
 36
1.0
 17
-134.1869158878504
 27
0.0
 37
0.0
 40
1175.537109375
 41
2.185840707964602
 42
50.0
 43
0.0
 44
0.0
 50
0.0
 51
0.0
 71
    16
 72
  1000
 73
     1
 74
     3
 75
     0
 76
     0
 77
     0
 78
     0
  0
ENDTAB
  0
TABLE
  2
LTYPE
 70
     1
  0
LTYPE
  2
CONTINUOUS
 70
     0
  3
Solid line
 72
    65
 73
     0
 40
0.0
  0
ENDTAB
  0
TABLE
  2
LAYER
 70
     4
  0
LAYER
  2
0
 70
     0
 62
     7
  6
CONTINUOUS
  0
LAYER
  2
MARCATGE
 70
     0
 62
     1
  6
CONTINUOUS
  0
LAYER
  2
TALL_1
 70
     0
 62
     4
  6
CONTINUOUS
  0
LAYER
  2
NO_IMPRES
 70
     0
 62
     5
  6
CONTINUOUS
  0
ENDTAB
  0
TABLE
  2
STYLE
 70
     2
  0
STYLE
  2
STANDARD
 70
     0
 40
0.0
 41
1.0
 50
0.0
 71
     0
 42
2.5
  3
arial.ttf
  4

  0
STYLE
  2
ANNOTATIVE
 70
     0
 40
0.0
 41
1.0
 50
0.0
 71
     0
 42
2.5
  3
arial.ttf
  4

  0
ENDTAB
  0
TABLE
  2
VIEW
 70
     0
  0
ENDTAB
  0
TABLE
  2
UCS
 70
     0
  0
ENDTAB
  0
TABLE
  2
APPID
 70
     4
  0
APPID
  2
ACAD
 70
     0
  0
APPID
  2
ACADANNOTATIVE
 70
     0
  0
APPID
  2
ACAECLAYERSTANDARD
 70
     0
  0
APPID
  2
PLOTTRANSPARENCY
 70
     0
  0
ENDTAB
  0
TABLE
  2
DIMSTYLE
 70
     2
  0
DIMSTYLE
  2
ISO-25
 70
     0
  3

  4

  5

  6

  7

 40
1.0
 41
2.5
 42
0.625
 43
3.75
 44
1.25
 45
0.0
 46
0.0
 47
0.0
 48
0.0
140
2.5
141
2.5
142
0.0
143
0.03937007874016
144
1.0
145
0.0
146
1.0
147
0.625
 71
     0
 72
     0
 73
     0
 74
     0
 75
     0
 76
     0
 77
     1
 78
     8
170
     0
171
     3
172
     1
173
     0
174
     0
175
     0
176
     0
177
     0
178
     0
  0
DIMSTYLE
  2
ANNOTATIVE
 70
     0
  3

  4

  5

  6

  7

 40
0.0
 41
2.5
 42
0.625
 43
3.75
 44
1.25
 45
0.0
 46
0.0
 47
0.0
 48
0.0
140
2.5
141
2.5
142
0.0
143
0.03937007874016
144
1.0
145
0.0
146
1.0
147
0.625
 71
     0
 72
     0
 73
     0
 74
     0
 75
     0
 76
     0
 77
     1
 78
     8
170
     0
171
     3
172
     1
173
     0
174
     0
175
     0
176
     0
177
     0
178
     0
  0
ENDTAB
  0
ENDSEC
  0
SECTION
  2
BLOCKS
  0
BLOCK
  8
0
  2
$MODEL_SPACE
 70
     0
 10
0.0
 20
0.0
 30
0.0
  3
$MODEL_SPACE
  1

  0
ENDBLK
  5
21
  8
0
  0
BLOCK
 67
     1
  8
0
  2
$PAPER_SPACE
 70
     0
 10
0.0
 20
0.0
 30
0.0
  3
$PAPER_SPACE
  1

  0
ENDBLK
  5
1D
 67
     1
  8
0
  0
ENDSEC
  0
SECTION
  2
ENTITIES
  0
POLYLINE
  5
305
  8
0
  6
CONTINUOUS
 62
     7
 66
     1
 10
0.0
 20
0.0
 30
0.0
  0
VERTEX
  5
97D
  8
0
  6
CONTINUOUS
 62
     7
 10
76.16697678438393
 20
283.426422275646
 30
0.0
  0
VERTEX
  5
97E
  8
0
  6
CONTINUOUS
 62
     7
 10
5.875180716883307
 20
283.426422275646
 30
0.0
 42
-0.4142135623731014
  0
VERTEX
  5
97F
  8
0
  6
CONTINUOUS
 62
     7
 10
1.875180716883307
 20
287.4264222756459
 30
0.0
  0
VERTEX
  5
980
  8
0
  6
CONTINUOUS
 62
     7
 10
1.875180716883307
 20
288.4264222756459
 30
0.0
 42
-0.4142135623731014
  0
VERTEX
  5
981
  8
0
  6
CONTINUOUS
 62
     7
 10
5.875180716883307
 20
292.4264222756459
 30
0.0
  0
VERTEX
  5
982
  8
0
  6
CONTINUOUS
 62
     7
 10
76.16697678438393
 20
292.4264222756459
 30
0.0
  0
SEQEND
  5
9DD
  8
0
  6
CONTINUOUS
 62
     7
  0
POLYLINE
  5
306
  8
0
  6
CONTINUOUS
 62
     7
 66
     1
 10
0.0
 20
0.0
 30
0.0
  0
VERTEX
  5
983
  8
0
  6
CONTINUOUS
 62
     7
 10
89.58338464938245
 20
292.4264222756459
 30
0.0
  0
VERTEX
  5
984
  8
0
  6
CONTINUOUS
 62
     7
 10
159.8751807168833
 20
292.4264222756459
 30
0.0
 42
-0.4142135623731014
  0
VERTEX
  5
985
  8
0
  6
CONTINUOUS
 62
     7
 10
163.8751807168833
 20
288.4264222756459
 30
0.0
  0
VERTEX
  5
986
  8
0
  6
CONTINUOUS
 62
     7
 10
163.8751807168833
 20
287.426422275646
 30
0.0
 42
-0.4142135623731001
  0
VERTEX
  5
987
  8
0
  6
CONTINUOUS
 62
     7
 10
159.8751807168833
 20
283.426422275646
 30
0.0
  0
VERTEX
  5
988
  8
0
  6
CONTINUOUS
 62
     7
 10
89.58338464938245
 20
283.426422275646
 30
0.0
  0
SEQEND
  5
9DE
  8
0
  6
CONTINUOUS
 62
     7
  0
ARC
  5
307
  8
0
  6
CONTINUOUS
 62
     7
 10
82.87518071688308
 20
287.9264222756459
 30
0.0
 40
8.077747210701762
 50
213.8545148126205
 51
326.1454851873795
  0
ARC
  5
308
  8
0
  6
CONTINUOUS
 62
     7
 10
82.87518071688308
 20
287.9264222756459
 30
0.0
 40
8.077747210701762
 50
33.8545148126205
 51
146.1454851873795
  0
CIRCLE
  5
309
  8
TALL_1
  6
CONTINUOUS
 10
82.87518071688308
 20
287.9264222756459
 30
0.0
 40
1.9
  0
POLYLINE
  5
30A
  8
0
  6
CONTINUOUS
 62
     7
 66
     1
 10
0.0
 20
0.0
 30
0.0
  0
VERTEX
  5
989
  8
0
  6
CONTINUOUS
 62
     7
 10
74.29179606750066
 20
265.9247355847369
 30
0.0
  0
VERTEX
  5
98A
  8
0
  6
CONTINUOUS
 62
     7
 10
4.000000000000028
 20
265.9247355847369
 30
0.0
 42
-0.4142135623731014
  0
VERTEX
  5
98B
  8
0
  6
CONTINUOUS
 62
     7
 10
0.0000000000000284
 20
269.9247355847368
 30
0.0
  0
VERTEX
  5
98C
  8
0
  6
CONTINUOUS
 62
     7
 10
0.0000000000000284
 20
270.9247355847368
 30
0.0
 42
-0.4142135623731014
  0
VERTEX
  5
98D
  8
0
  6
CONTINUOUS
 62
     7
 10
4.000000000000028
 20
274.9247355847368
 30
0.0
  0
VERTEX
  5
98E
  8
0
  6
CONTINUOUS
 62
     7
 10
74.29179606750066
 20
274.9247355847368
 30
0.0
  0
SEQEND
  5
9DF
  8
0
  6
CONTINUOUS
 62
     7
  0
POLYLINE
  5
30B
  8
0
  6
CONTINUOUS
 62
     7
 66
     1
 10
0.0
 20
0.0
 30
0.0
  0
VERTEX
  5
98F
  8
0
  6
CONTINUOUS
 62
     7
 10
87.70820393249917
 20
274.9247355847368
 30
0.0
  0
VERTEX
  5
990
  8
0
  6
CONTINUOUS
 62
     7
 10
158.0
 20
274.9247355847368
 30
0.0
 42
-0.4142135623731014
  0
VERTEX
  5
991
  8
0
  6
CONTINUOUS
 62
     7
 10
162.0
 20
270.9247355847368
 30
0.0
  0
VERTEX
  5
992
  8
0
  6
CONTINUOUS
 62
     7
 10
162.0
 20
269.9247355847369
 30
0.0
 42
-0.4142135623731001
  0
VERTEX
  5
993
  8
0
  6
CONTINUOUS
 62
     7
 10
158.0
 20
265.9247355847369
 30
0.0
  0
VERTEX
  5
994
  8
0
  6
CONTINUOUS
 62
     7
 10
87.70820393249917
 20
265.9247355847369
 30
0.0
  0
SEQEND
  5
9E0
  8
0
  6
CONTINUOUS
 62
     7
  0
ARC
  5
30C
  8
0
  6
CONTINUOUS
 62
     7
 10
80.9999999999998
 20
270.4247355847368
 30
0.0
 40
8.077747210701762
 50
213.8545148126205
 51
326.1454851873795
  0
ARC
  5
30D
  8
0
  6
CONTINUOUS
 62
     7
 10
80.9999999999998
 20
270.4247355847368
 30
0.0
 40
8.077747210701762
 50
33.8545148126205
 51
146.1454851873795
  0
CIRCLE
  5
30E
  8
TALL_1
  6
CONTINUOUS
 10
80.9999999999998
 20
270.4247355847368
 30
0.0
 40
1.9
  0
LINE
  5
30F
  8
TALL_1
  6
CONTINUOUS
 10
25.90701330601843
 20
253.3150557899223
 30
0.0
 11
25.90701330601843
 21
250.315055789922
 31
0.0
  0
LINE
  5
310
  8
TALL_1
  6
CONTINUOUS
 10
25.90701330601843
 20
250.315055789922
 30
0.0
 11
37.9070133060182
 21
250.315055789922
 31
0.0
  0
LINE
  5
311
  8
TALL_1
  6
CONTINUOUS
 10
37.9070133060182
 20
250.315055789922
 30
0.0
 11
37.9070133060182
 21
253.3150557899223
 31
0.0
  0
LINE
  5
312
  8
TALL_1
  6
CONTINUOUS
 10
25.90701330601843
 20
253.3150557899223
 30
0.0
 11
37.9070133060182
 21
253.3150557899223
 31
0.0
  0
LINE
  5
313
  8
TALL_1
  6
CONTINUOUS
 10
25.90701330601843
 20
223.3150557899222
 30
0.0
 11
25.90701330601843
 21
220.315055789922
 31
0.0
  0
LINE
  5
314
  8
TALL_1
  6
CONTINUOUS
 10
25.90701330601843
 20
220.315055789922
 30
0.0
 11
37.9070133060182
 21
220.315055789922
 31
0.0
  0
LINE
  5
315
  8
TALL_1
  6
CONTINUOUS
 10
37.9070133060182
 20
220.315055789922
 30
0.0
 11
37.9070133060182
 21
223.3150557899222
 31
0.0
  0
LINE
  5
316
  8
TALL_1
  6
CONTINUOUS
 10
25.90701330601843
 20
223.3150557899222
 30
0.0
 11
37.9070133060182
 21
223.3150557899222
 31
0.0
  0
LINE
  5
317
  8
0
  6
CONTINUOUS
 62
     7
 10
6.679408974101364
 20
244.7944839473826
 30
0.0
 11
15.60248589717827
 21
186.7944839473826
 31
0.0
  0
LINE
  5
318
  8
0
  6
CONTINUOUS
 62
     7
 10
25.48620287368436
 20
178.315055789922
 30
0.0
 11
90.90701330601843
 21
178.315055789922
 31
0.0
  0
LINE
  5
319
  8
0
  6
CONTINUOUS
 62
     7
 10
16.56312595060746
 20
256.315055789922
 30
0.0
 11
64.08636631571818
 21
256.315055789922
 31
0.0
  0
ARC
  5
31A
  8
0
  6
CONTINUOUS
 62
     7
 10
25.48620287368436
 20
188.315055789922
 30
0.0
 40
9.999999999999996
 50
188.7461622625553
 51
270.0
  0
ARC
  5
31B
  8
0
  6
CONTINUOUS
 62
     7
 10
16.56312595060746
 20
246.3150557899223
 30
0.0
 40
9.999999999999996
 50
90.0
 51
188.7461622625559
  0
LINE
  5
31C
  8
0
  6
CONTINUOUS
 62
     7
 10
100.9070133060184
 20
188.315055789922
 30
0.0
 11
100.9070133060184
 21
196.3150557899222
 31
0.0
  0
ARC
  5
31D
  8
0
  6
CONTINUOUS
 62
     7
 10
90.90701330601843
 20
188.315055789922
 30
0.0
 40
9.999999999999996
 50
270.0
 51
0.0
  0
ARC
  5
31E
  8
0
  6
CONTINUOUS
 62
     7
 10
4.253462442294733
 20
182.2306028148741
 30
0.0
 40
97.67436055676404
 50
8.290843190329438
 51
46.96502177736062
  0
ARC
  5
31F
  8
0
  6
CONTINUOUS
 62
     7
 10
64.08636631571818
 20
246.3150557899223
 30
0.0
 40
9.999999999999996
 50
46.96502177736034
 51
90.0
  0
LINE
  5
320
  8
TALL_1
  6
CONTINUOUS
 10
47.8639062141288
 20
239.5305912493693
 30
0.0
 11
55.26390621412889
 21
202.5305912493694
 31
0.0
  0
LINE
  5
321
  8
TALL_1
  6
CONTINUOUS
 10
59.18622891689262
 20
199.315055789922
 30
0.0
 11
85.57748592271702
 21
199.315055789922
 31
0.0
  0
LINE
  5
322
  8
TALL_1
  6
CONTINUOUS
 10
51.78622891689253
 20
244.3150557899222
 30
0.0
 11
67.02575230326039
 21
244.3150557899222
 31
0.0
  0
ARC
  5
323
  8
TALL_1
  6
CONTINUOUS
 10
51.78622891689253
 20
240.3150557899222
 30
0.0
 40
3.999999999999999
 50
90.0
 51
191.309932474021
  0
ARC
  5
324
  8
TALL_1
  6
CONTINUOUS
 10
59.18622891689262
 20
203.315055789922
 30
0.0
 40
3.999999999999999
 50
191.309932474021
 51
270.0
  0
ARC
  5
325
  8
TALL_1
  6
CONTINUOUS
 10
67.02575230326039
 20
240.3150557899222
 30
0.0
 40
3.999999999999999
 50
41.85141410664574
 51
90.0
  0
ARC
  5
326
  8
TALL_1
  6
CONTINUOUS
 10
67.02575230326039
 20
240.3150557899222
 30
0.0
 40
3.999999999999999
 50
41.85141410664574
 51
90.0
  0
LINE
  5
327
  8
TALL_1
  6
CONTINUOUS
 10
89.53768324405434
 20
203.8779387049884
 30
0.0
 11
88.90701330601843
 21
208.315055789922
 31
0.0
  0
ARC
  5
328
  8
TALL_1
  6
CONTINUOUS
 10
85.57748592271702
 20
203.315055789922
 30
0.0
 40
3.999999999999999
 50
270.0
 51
8.089553849862247
  0
ARC
  5
329
  8
TALL_1
  6
CONTINUOUS
 10
-5.051298941951188
 20
179.5752274257405
 30
0.0
 40
98.25549437507073
 50
17.00774550455901
 51
40.19150223779736
  0
LINE
  5
32A
  8
TALL_1
  6
CONTINUOUS
 10
88.40701330601843
 20
184.315055789922
 30
0.0
 11
85.40701330601843
 21
184.315055789922
 31
0.0
  0
LINE
  5
32B
  8
TALL_1
  6
CONTINUOUS
 10
85.40701330601843
 20
184.315055789922
 30
0.0
 11
85.40701330601843
 21
193.315055789922
 31
0.0
  0
LINE
  5
32C
  8
TALL_1
  6
CONTINUOUS
 10
85.40701330601843
 20
193.315055789922
 30
0.0
 11
88.40701330601843
 21
193.315055789922
 31
0.0
  0
LINE
  5
32D
  8
TALL_1
  6
CONTINUOUS
 10
88.40701330601843
 20
193.315055789922
 30
0.0
 11
88.40701330601843
 21
184.315055789922
 31
0.0
  0
LINE
  5
32E
  8
TALL_1
  6
CONTINUOUS
 10
23.40701330601843
 20
184.315055789922
 30
0.0
 11
23.40701330601843
 21
193.315055789922
 31
0.0
  0
LINE
  5
32F
  8
TALL_1
  6
CONTINUOUS
 10
23.40701330601843
 20
193.315055789922
 30
0.0
 11
26.4070133060182
 21
193.315055789922
 31
0.0
  0
LINE
  5
330
  8
TALL_1
  6
CONTINUOUS
 10
26.4070133060182
 20
193.315055789922
 30
0.0
 11
26.4070133060182
 21
184.315055789922
 31
0.0
  0
LINE
  5
331
  8
TALL_1
  6
CONTINUOUS
 10
26.4070133060182
 20
184.315055789922
 30
0.0
 11
23.40701330601843
 21
184.315055789922
 31
0.0
  0
POLYLINE
  5
332
  8
TALL_1
  6
CONTINUOUS
 66
     1
 10
0.0
 20
0.0
 30
0.0
 70
     1
  0
VERTEX
  5
995
  8
TALL_1
  6
CONTINUOUS
 10
19.7128677077265
 20
205.1015994337283
 30
0.0
  0
VERTEX
  5
996
  8
TALL_1
  6
CONTINUOUS
 10
19.71286770772673
 20
216.1015994337283
 30
0.0
  0
VERTEX
  5
997
  8
TALL_1
  6
CONTINUOUS
 10
25.71286770772673
 20
216.1015994337283
 30
0.0
  0
VERTEX
  5
998
  8
TALL_1
  6
CONTINUOUS
 10
25.7128677077265
 20
205.1015994337283
 30
0.0
  0
SEQEND
  5
9E1
  8
TALL_1
  6
CONTINUOUS
  0
LINE
  5
333
  8
TALL_1
  6
CONTINUOUS
 10
163.7740191092365
 20
188.5575662419041
 30
0.0
 11
163.7740191092365
 21
191.5575662419041
 31
0.0
  0
LINE
  5
334
  8
TALL_1
  6
CONTINUOUS
 10
163.7740191092365
 20
191.5575662419041
 30
0.0
 11
151.7740191092365
 21
191.5575662419041
 31
0.0
  0
LINE
  5
335
  8
TALL_1
  6
CONTINUOUS
 10
151.7740191092365
 20
191.5575662419041
 30
0.0
 11
151.7740191092365
 21
188.5575662419041
 31
0.0
  0
LINE
  5
336
  8
TALL_1
  6
CONTINUOUS
 10
163.7740191092365
 20
188.5575662419041
 30
0.0
 11
151.7740191092365
 21
188.5575662419041
 31
0.0
  0
LINE
  5
337
  8
TALL_1
  6
CONTINUOUS
 10
163.7740191092365
 20
218.5575662419039
 30
0.0
 11
163.7740191092365
 21
221.5575662419041
 31
0.0
  0
LINE
  5
338
  8
TALL_1
  6
CONTINUOUS
 10
163.7740191092365
 20
221.5575662419041
 30
0.0
 11
151.7740191092365
 21
221.5575662419041
 31
0.0
  0
LINE
  5
339
  8
TALL_1
  6
CONTINUOUS
 10
151.7740191092365
 20
221.5575662419041
 30
0.0
 11
151.7740191092365
 21
218.5575662419039
 31
0.0
  0
LINE
  5
33A
  8
TALL_1
  6
CONTINUOUS
 10
163.7740191092365
 20
218.5575662419039
 30
0.0
 11
151.7740191092365
 21
218.5575662419039
 31
0.0
  0
LINE
  5
33B
  8
0
  6
CONTINUOUS
 62
     7
 10
183.0016234411536
 20
197.0781380844437
 30
0.0
 11
174.0785465180765
 21
255.0781380844437
 31
0.0
  0
LINE
  5
33C
  8
0
  6
CONTINUOUS
 62
     7
 10
173.1179064646473
 20
185.5575662419041
 30
0.0
 11
125.5946660995365
 21
185.5575662419041
 31
0.0
  0
ARC
  5
33D
  8
0
  6
CONTINUOUS
 62
     7
 10
164.1948295415704
 20
253.5575662419041
 30
0.0
 40
9.999999999999996
 50
8.74616226255464
 51
90.0
  0
ARC
  5
33E
  8
0
  6
CONTINUOUS
 62
     7
 10
173.1179064646473
 20
195.5575662419041
 30
0.0
 40
9.999999999999996
 50
270.0
 51
8.74616226255464
  0
LINE
  5
33F
  8
0
  6
CONTINUOUS
 62
     7
 10
88.77401910923652
 20
253.5575662419041
 30
0.0
 11
88.77401910923652
 21
245.5575662419041
 31
0.0
  0
ARC
  5
340
  8
0
  6
CONTINUOUS
 62
     7
 10
98.77401910923652
 20
253.5575662419041
 30
0.0
 40
9.999999999999996
 50
90.0
 51
180.0
  0
ARC
  5
341
  8
0
  6
CONTINUOUS
 62
     7
 10
185.42756997296
 20
259.6420192169521
 30
0.0
 40
97.67436055676404
 50
188.2908431903293
 51
226.9650217773605
  0
ARC
  5
342
  8
0
  6
CONTINUOUS
 62
     7
 10
125.5946660995365
 20
195.5575662419041
 30
0.0
 40
9.999999999999996
 50
226.9650217773607
 51
270.0
  0
LINE
  5
343
  8
TALL_1
  6
CONTINUOUS
 10
141.8171262011259
 20
202.3420307824569
 30
0.0
 11
134.4171262011258
 21
239.3420307824569
 31
0.0
  0
LINE
  5
344
  8
TALL_1
  6
CONTINUOUS
 10
130.4948034983623
 20
242.5575662419041
 30
0.0
 11
104.1035464925377
 21
242.5575662419041
 31
0.0
  0
LINE
  5
345
  8
TALL_1
  6
CONTINUOUS
 10
137.8948034983622
 20
197.5575662419039
 30
0.0
 11
122.6552801119946
 21
197.5575662419039
 31
0.0
  0
ARC
  5
346
  8
TALL_1
  6
CONTINUOUS
 10
137.8948034983622
 20
201.5575662419041
 30
0.0
 40
3.999999999999999
 50
270.0
 51
11.30993247401933
  0
ARC
  5
347
  8
TALL_1
  6
CONTINUOUS
 10
130.4948034983623
 20
238.5575662419041
 30
0.0
 40
3.999999999999999
 50
11.30993247401933
 51
90.0
  0
ARC
  5
348
  8
TALL_1
  6
CONTINUOUS
 10
122.6552801119946
 20
201.5575662419041
 30
0.0
 40
3.999999999999999
 50
221.8514141066452
 51
270.0
  0
ARC
  5
349
  8
TALL_1
  6
CONTINUOUS
 10
122.6552801119946
 20
201.5575662419041
 30
0.0
 40
3.999999999999999
 50
221.8514141066452
 51
270.0
  0
LINE
  5
34A
  8
TALL_1
  6
CONTINUOUS
 10
100.1433491712004
 20
237.9946833268379
 30
0.0
 11
100.7740191092365
 21
233.5575662419041
 31
0.0
  0
ARC
  5
34B
  8
TALL_1
  6
CONTINUOUS
 10
104.1035464925377
 20
238.5575662419041
 30
0.0
 40
3.999999999999999
 50
90.0
 51
188.0895538498606
  0
ARC
  5
34C
  8
TALL_1
  6
CONTINUOUS
 10
194.7323313572059
 20
262.2973946060858
 30
0.0
 40
98.25549437507073
 50
197.007745504559
 51
220.1915022377974
  0
LINE
  5
34D
  8
TALL_1
  6
CONTINUOUS
 10
101.2740191092365
 20
257.5575662419041
 30
0.0
 11
104.2740191092365
 21
257.5575662419041
 31
0.0
  0
LINE
  5
34E
  8
TALL_1
  6
CONTINUOUS
 10
104.2740191092365
 20
257.5575662419041
 30
0.0
 11
104.2740191092365
 21
248.5575662419041
 31
0.0
  0
LINE
  5
34F
  8
TALL_1
  6
CONTINUOUS
 10
104.2740191092365
 20
248.5575662419041
 30
0.0
 11
101.2740191092365
 21
248.5575662419041
 31
0.0
  0
LINE
  5
350
  8
TALL_1
  6
CONTINUOUS
 10
101.2740191092365
 20
248.5575662419041
 30
0.0
 11
101.2740191092365
 21
257.5575662419041
 31
0.0
  0
LINE
  5
351
  8
TALL_1
  6
CONTINUOUS
 10
166.2740191092365
 20
257.5575662419041
 30
0.0
 11
166.2740191092365
 21
248.5575662419041
 31
0.0
  0
LINE
  5
352
  8
TALL_1
  6
CONTINUOUS
 10
166.2740191092365
 20
248.5575662419041
 30
0.0
 11
163.2740191092365
 21
248.5575662419041
 31
0.0
  0
LINE
  5
353
  8
TALL_1
  6
CONTINUOUS
 10
163.2740191092365
 20
248.5575662419041
 30
0.0
 11
163.2740191092365
 21
257.5575662419041
 31
0.0
  0
LINE
  5
354
  8
TALL_1
  6
CONTINUOUS
 10
163.2740191092365
 20
257.5575662419041
 30
0.0
 11
166.2740191092365
 21
257.5575662419041
 31
0.0
  0
LINE
  5
355
  8
0
  6
CONTINUOUS
 62
     7
 10
164.1948295415704
 20
263.5575662419041
 30
0.0
 11
98.77401910923652
 21
263.5575662419041
 31
0.0
  0
LINE
  5
356
  8
TALL_1
  6
CONTINUOUS
 10
102.8327223140845
 20
164.0748632652533
 30
0.0
 11
105.8327223140845
 21
164.0748632652533
 31
0.0
  0
LINE
  5
357
  8
TALL_1
  6
CONTINUOUS
 10
102.8327223140845
 20
168.0748632652533
 30
0.0
 11
102.8327223140845
 21
164.0748632652533
 31
0.0
  0
LINE
  5
358
  8
TALL_1
  6
CONTINUOUS
 10
105.8327223140845
 20
164.0748632652533
 30
0.0
 11
105.8327223140845
 21
168.0748632652533
 31
0.0
  0
LINE
  5
359
  8
TALL_1
  6
CONTINUOUS
 10
105.8327223140845
 20
168.0748632652533
 30
0.0
 11
102.8327223140845
 21
168.0748632652533
 31
0.0
  0
LINE
  5
35A
  8
TALL_1
  6
CONTINUOUS
 10
40.83272231408455
 20
164.0748632652533
 30
0.0
 11
43.83272231408455
 21
164.0748632652533
 31
0.0
  0
LINE
  5
35B
  8
TALL_1
  6
CONTINUOUS
 10
40.83272231408455
 20
168.0748632652533
 30
0.0
 11
40.83272231408455
 21
164.0748632652533
 31
0.0
  0
LINE
  5
35C
  8
TALL_1
  6
CONTINUOUS
 10
43.83272231408455
 20
164.0748632652533
 30
0.0
 11
43.83272231408455
 21
168.0748632652533
 31
0.0
  0
LINE
  5
35D
  8
TALL_1
  6
CONTINUOUS
 10
43.83272231408455
 20
168.0748632652533
 30
0.0
 11
40.83272231408455
 21
168.0748632652533
 31
0.0
  0
LINE
  5
35E
  8
0
  6
CONTINUOUS
 62
     7
 10
5.532722314084594
 20
169.0748632652533
 30
0.0
 11
5.532722314084594
 21
163.0748632652534
 31
0.0
  0
ARC
  5
35F
  8
0
  6
CONTINUOUS
 62
     7
 10
9.532722314084594
 20
163.0748632652534
 30
0.0
 40
4.0
 50
180.0
 51
270.0
  0
ARC
  5
360
  8
0
  6
CONTINUOUS
 62
     7
 10
9.532722314084594
 20
169.0748632652533
 30
0.0
 40
4.000000000000002
 50
90.0
 51
180.0
  0
LINE
  5
361
  8
0
  6
CONTINUOUS
 62
     7
 10
141.1327223140845
 20
169.0748632652533
 30
0.0
 11
141.1327223140845
 21
163.0748632652533
 31
0.0
  0
ARC
  5
362
  8
0
  6
CONTINUOUS
 62
     7
 10
137.1327223140845
 20
163.0748632652533
 30
0.0
 40
4.0
 50
270.0
 51
0.0
  0
ARC
  5
363
  8
0
  6
CONTINUOUS
 62
     7
 10
137.1327223140845
 20
169.0748632652533
 30
0.0
 40
4.000000000000002
 50
0.0
 51
90.0
  0
LINE
  5
364
  8
0
  6
CONTINUOUS
 62
     7
 10
137.1327223140845
 20
173.0748632652533
 30
0.0
 11
9.532722314084594
 21
173.0748632652533
 31
0.0
  0
LINE
  5
365
  8
0
  6
CONTINUOUS
 62
     7
 10
137.1327223140845
 20
159.0748632652533
 30
0.0
 11
9.532722314084594
 21
159.0748632652534
 31
0.0
  0
LINE
  5
366
  8
TALL_1
  6
CONTINUOUS
 10
101.9169560110543
 20
144.5590541061467
 30
0.0
 11
104.9169560110543
 21
144.5590541061467
 31
0.0
  0
LINE
  5
367
  8
TALL_1
  6
CONTINUOUS
 10
101.9169560110543
 20
148.5590541061467
 30
0.0
 11
101.9169560110543
 21
144.5590541061467
 31
0.0
  0
LINE
  5
368
  8
TALL_1
  6
CONTINUOUS
 10
104.9169560110543
 20
144.5590541061467
 30
0.0
 11
104.9169560110543
 21
148.5590541061467
 31
0.0
  0
LINE
  5
369
  8
TALL_1
  6
CONTINUOUS
 10
104.9169560110543
 20
148.5590541061467
 30
0.0
 11
101.9169560110543
 21
148.5590541061467
 31
0.0
  0
LINE
  5
36A
  8
TALL_1
  6
CONTINUOUS
 10
39.91695601105425
 20
144.5590541061467
 30
0.0
 11
42.91695601105425
 21
144.5590541061467
 31
0.0
  0
LINE
  5
36B
  8
TALL_1
  6
CONTINUOUS
 10
39.91695601105425
 20
148.5590541061467
 30
0.0
 11
39.91695601105425
 21
144.5590541061467
 31
0.0
  0
LINE
  5
36C
  8
TALL_1
  6
CONTINUOUS
 10
42.91695601105425
 20
144.5590541061467
 30
0.0
 11
42.91695601105425
 21
148.5590541061467
 31
0.0
  0
LINE
  5
36D
  8
TALL_1
  6
CONTINUOUS
 10
42.91695601105425
 20
148.5590541061467
 30
0.0
 11
39.91695601105425
 21
148.5590541061467
 31
0.0
  0
LINE
  5
36E
  8
0
  6
CONTINUOUS
 62
     7
 10
4.616956011054299
 20
149.5590541061467
 30
0.0
 11
4.616956011054299
 21
143.5590541061468
 31
0.0
  0
ARC
  5
36F
  8
0
  6
CONTINUOUS
 62
     7
 10
8.616956011054299
 20
143.5590541061468
 30
0.0
 40
4.0
 50
180.0
 51
270.0
  0
ARC
  5
370
  8
0
  6
CONTINUOUS
 62
     7
 10
8.616956011054299
 20
149.5590541061467
 30
0.0
 40
4.000000000000002
 50
90.0
 51
180.0
  0
LINE
  5
371
  8
0
  6
CONTINUOUS
 62
     7
 10
140.2169560110542
 20
149.5590541061467
 30
0.0
 11
140.2169560110542
 21
143.5590541061467
 31
0.0
  0
ARC
  5
372
  8
0
  6
CONTINUOUS
 62
     7
 10
136.2169560110542
 20
143.5590541061467
 30
0.0
 40
4.0
 50
270.0
 51
0.0
  0
ARC
  5
373
  8
0
  6
CONTINUOUS
 62
     7
 10
136.2169560110542
 20
149.5590541061467
 30
0.0
 40
4.000000000000002
 50
0.0
 51
90.0
  0
LINE
  5
374
  8
0
  6
CONTINUOUS
 62
     7
 10
136.2169560110542
 20
153.5590541061467
 30
0.0
 11
8.616956011054299
 21
153.5590541061467
 31
0.0
  0
LINE
  5
375
  8
0
  6
CONTINUOUS
 62
     7
 10
136.2169560110542
 20
139.5590541061467
 30
0.0
 11
8.616956011054299
 21
139.5590541061468
 31
0.0
  0
ARC
  5
376
  8
0
  6
CONTINUOUS
 62
     7
 10
21.75842510196321
 20
96.98996416675271
 30
0.0
 40
17.99999999999997
 50
90.0
 51
180.0
  0
LINE
  5
377
  8
0
  6
CONTINUOUS
 62
     7
 10
3.758425101963212
 20
90.98996416675271
 30
0.0
 11
3.758425101963212
 21
96.98996416675271
 31
0.0
  0
LINE
  5
378
  8
0
  6
CONTINUOUS
 62
     7
 10
3.758425101963212
 20
90.98996416675271
 30
0.0
 11
4.75842484796317
 21
90.98996416675271
 31
0.0
  0
LINE
  5
379
  8
0
  6
CONTINUOUS
 62
     7
 10
4.75842484796317
 20
90.98996416675271
 30
0.0
 11
4.75842484796317
 21
87.98996416675271
 31
0.0
  0
LINE
  5
37A
  8
0
  6
CONTINUOUS
 62
     7
 10
4.75842484796317
 20
87.98996416675271
 30
0.0
 11
8.75842484796317
 21
87.98996416675271
 31
0.0
  0
LINE
  5
37B
  8
0
  6
CONTINUOUS
 62
     7
 10
8.75842484796317
 20
87.98996416675271
 30
0.0
 11
8.75842484796317
 21
90.98996416675271
 31
0.0
  0
LINE
  5
37C
  8
0
  6
CONTINUOUS
 62
     7
 10
93.75842484796317
 20
90.98996416675271
 30
0.0
 11
93.75842484796317
 21
96.98996416675271
 31
0.0
  0
ARC
  5
37D
  8
0
  6
CONTINUOUS
 62
     7
 10
75.75842484796317
 20
96.98996416675271
 30
0.0
 40
18.0
 50
0.0
 51
90.0
  0
LINE
  5
37E
  8
0
  6
CONTINUOUS
 62
     7
 10
88.75842484796317
 20
90.98996416675271
 30
0.0
 11
88.75842484796317
 21
87.98996416675271
 31
0.0
  0
LINE
  5
37F
  8
0
  6
CONTINUOUS
 62
     7
 10
88.75842484796317
 20
87.98996416675271
 30
0.0
 11
92.75842484796317
 21
87.98996416675271
 31
0.0
  0
LINE
  5
380
  8
0
  6
CONTINUOUS
 62
     7
 10
92.75842484796317
 20
87.98996416675271
 30
0.0
 11
92.75842484796317
 21
90.98996416675271
 31
0.0
  0
LINE
  5
381
  8
0
  6
CONTINUOUS
 62
     7
 10
92.75842484796317
 20
90.98996416675271
 30
0.0
 11
93.75842484796317
 21
90.98996416675271
 31
0.0
  0
LINE
  5
382
  8
0
  6
CONTINUOUS
 62
     7
 10
32.25842484796317
 20
129.9899641667525
 30
0.0
 11
26.25842484796317
 21
129.9899641667525
 31
0.0
  0
LINE
  5
383
  8
0
  6
CONTINUOUS
 62
     7
 10
26.25842484796317
 20
129.9899641667525
 30
0.0
 11
26.25842484796317
 21
120.9899641667527
 31
0.0
  0
LINE
  5
384
  8
0
  6
CONTINUOUS
 62
     7
 10
26.25842484796317
 20
120.9899641667527
 30
0.0
 11
29.25842484796317
 21
120.9899641667527
 31
0.0
  0
LINE
  5
385
  8
0
  6
CONTINUOUS
 62
     7
 10
29.25842484796317
 20
120.9899641667527
 30
0.0
 11
29.25842484796317
 21
114.9899641667527
 31
0.0
  0
LINE
  5
386
  8
0
  6
CONTINUOUS
 62
     7
 10
71.25842484796317
 20
120.9899641667527
 30
0.0
 11
68.25842484796317
 21
120.9899641667527
 31
0.0
  0
LINE
  5
387
  8
0
  6
CONTINUOUS
 62
     7
 10
68.25842484796317
 20
120.9899641667527
 30
0.0
 11
68.25842484796317
 21
114.9899641667527
 31
0.0
  0
LINE
  5
388
  8
0
  6
CONTINUOUS
 62
     7
 10
11.75842484796317
 20
90.98996416675271
 30
0.0
 11
11.75842484796317
 21
96.98996416675271
 31
0.0
  0
ARC
  5
389
  8
0
  6
CONTINUOUS
 62
     7
 10
21.75842497496319
 20
96.98996403975269
 30
0.0
 40
10.00000012699996
 50
90.00000121276085
 51
180.0000012127602
  0
LINE
  5
38A
  8
0
  6
CONTINUOUS
 62
     7
 10
75.75842484796317
 20
106.9899641667527
 30
0.0
 11
56.25842484796317
 21
106.9899641667527
 31
0.0
  0
ARC
  5
38B
  8
0
  6
CONTINUOUS
 62
     7
 10
75.75842484796317
 20
96.98996416675271
 30
0.0
 40
9.99999999999998
 50
0.0
 51
90.0
  0
LINE
  5
38C
  8
0
  6
CONTINUOUS
 62
     7
 10
85.75842484796317
 20
90.98996416675271
 30
0.0
 11
85.75842484796317
 21
96.98996416675271
 31
0.0
  0
LINE
  5
38D
  8
0
  6
CONTINUOUS
 62
     7
 10
85.75842484796317
 20
90.98996416675271
 30
0.0
 11
85.75842484796317
 21
96.98996416675271
 31
0.0
  0
LINE
  5
38E
  8
0
 10
8.75842484796317
 20
90.98996416675271
 30
0.0
 11
11.75842484796317
 21
90.98996416675271
 31
0.0
  0
LINE
  5
38F
  8
0
 10
85.75842484796317
 20
90.98996416675271
 30
0.0
 11
88.75842484796317
 21
90.98996416675271
 31
0.0
  0
LINE
  5
390
  8
0
  6
CONTINUOUS
 62
     7
 10
29.25842484796317
 20
114.9899641667527
 30
0.0
 11
21.75842510196321
 21
114.9899641667527
 31
0.0
  0
LINE
  5
391
  8
0
  6
CONTINUOUS
 62
     7
 10
68.25842484796317
 20
114.9899641667527
 30
0.0
 11
75.75842484796317
 21
114.9899641667527
 31
0.0
  0
LINE
  5
392
  8
0
 10
32.25842484796317
 20
129.9899641667525
 30
0.0
 11
32.25842484796317
 21
126.9899641667527
 31
0.0
  0
LINE
  5
393
  8
0
 10
32.25842484796317
 20
126.9899641667527
 30
0.0
 11
65.25842484796317
 21
126.9899641667527
 31
0.0
  0
LINE
  5
394
  8
0
  6
CONTINUOUS
 62
     7
 10
65.25842484796317
 20
129.9899641667525
 30
0.0
 11
71.25842484796317
 21
129.9899641667525
 31
0.0
  0
LINE
  5
395
  8
0
 10
65.25842484796317
 20
129.9899641667525
 30
0.0
 11
65.25842484796317
 21
126.9899641667527
 31
0.0
  0
LINE
  5
396
  8
0
  6
CONTINUOUS
 62
     7
 10
71.25842484796317
 20
129.9899641667525
 30
0.0
 11
71.25842484796317
 21
120.9899641667527
 31
0.0
  0
ARC
  5
397
  8
0
  6
CONTINUOUS
 10
48.75842484796317
 20
103.9899641667527
 30
0.0
 40
7.499999999999963
 50
180.0
 51
0.0
  0
LINE
  5
398
  8
0
 10
41.25842484796317
 20
106.9899641667527
 30
0.0
 11
41.25842484796317
 21
103.9899641667527
 31
0.0
  0
LINE
  5
399
  8
0
 10
56.25842484796317
 20
106.9899641667527
 30
0.0
 11
56.25842484796317
 21
103.9899641667527
 31
0.0
  0
LINE
  5
39A
  8
TALL_1
  6
CONTINUOUS
 10
45.88842484796328
 20
100.9899641667527
 30
0.0
 11
45.88842484796328
 21
103.9899641667527
 31
0.0
  0
LINE
  5
39B
  8
TALL_1
  6
CONTINUOUS
 10
51.62842484796306
 20
103.9899641667527
 30
0.0
 11
51.62842484796306
 21
100.9899641667527
 31
0.0
  0
LINE
  5
39C
  8
TALL_1
 10
45.88842484796328
 20
103.9899641667527
 30
0.0
 11
51.62842484796306
 21
103.9899641667527
 31
0.0
  0
LINE
  5
39D
  8
TALL_1
 10
45.88842484796328
 20
100.9899641667527
 30
0.0
 11
51.62842484796306
 21
100.9899641667527
 31
0.0
  0
LINE
  5
39E
  8
0
  6
CONTINUOUS
 62
     7
 10
41.25842484796317
 20
106.9899641667527
 30
0.0
 11
21.75842484796317
 21
106.9899641667527
 31
0.0
  0
ARC
  5
39F
  8
0
  6
CONTINUOUS
 62
     7
 10
21.75842510196321
 20
51.20164901523748
 30
0.0
 40
17.99999999999997
 50
90.0
 51
180.0
  0
LINE
  5
3A0
  8
0
  6
CONTINUOUS
 62
     7
 10
3.758425101963212
 20
45.20164901523748
 30
0.0
 11
3.758425101963212
 21
51.20164901523748
 31
0.0
  0
LINE
  5
3A1
  8
0
  6
CONTINUOUS
 62
     7
 10
3.758425101963212
 20
45.20164901523748
 30
0.0
 11
4.75842484796317
 21
45.20164901523748
 31
0.0
  0
LINE
  5
3A2
  8
0
  6
CONTINUOUS
 62
     7
 10
4.75842484796317
 20
45.20164901523748
 30
0.0
 11
4.75842484796317
 21
42.20164901523748
 31
0.0
  0
LINE
  5
3A3
  8
0
  6
CONTINUOUS
 62
     7
 10
4.75842484796317
 20
42.20164901523748
 30
0.0
 11
8.75842484796317
 21
42.20164901523748
 31
0.0
  0
LINE
  5
3A4
  8
0
  6
CONTINUOUS
 62
     7
 10
8.75842484796317
 20
42.20164901523748
 30
0.0
 11
8.75842484796317
 21
45.20164901523748
 31
0.0
  0
LINE
  5
3A5
  8
0
  6
CONTINUOUS
 62
     7
 10
93.75842484796317
 20
45.20164901523748
 30
0.0
 11
93.75842484796317
 21
51.20164901523748
 31
0.0
  0
ARC
  5
3A6
  8
0
  6
CONTINUOUS
 62
     7
 10
75.75842484796317
 20
51.20164901523748
 30
0.0
 40
18.0
 50
0.0
 51
90.0
  0
LINE
  5
3A7
  8
0
  6
CONTINUOUS
 62
     7
 10
88.75842484796317
 20
45.20164901523748
 30
0.0
 11
88.75842484796317
 21
42.20164901523748
 31
0.0
  0
LINE
  5
3A8
  8
0
  6
CONTINUOUS
 62
     7
 10
88.75842484796317
 20
42.20164901523748
 30
0.0
 11
92.75842484796317
 21
42.20164901523748
 31
0.0
  0
LINE
  5
3A9
  8
0
  6
CONTINUOUS
 62
     7
 10
92.75842484796317
 20
42.20164901523748
 30
0.0
 11
92.75842484796317
 21
45.20164901523748
 31
0.0
  0
LINE
  5
3AA
  8
0
  6
CONTINUOUS
 62
     7
 10
92.75842484796317
 20
45.20164901523748
 30
0.0
 11
93.75842484796317
 21
45.20164901523748
 31
0.0
  0
LINE
  5
3AB
  8
0
  6
CONTINUOUS
 62
     7
 10
11.75842484796317
 20
45.20164901523748
 30
0.0
 11
11.75842484796317
 21
51.20164901523748
 31
0.0
  0
ARC
  5
3AC
  8
0
  6
CONTINUOUS
 62
     7
 10
21.75842497496319
 20
51.20164888823746
 30
0.0
 40
10.00000012699996
 50
90.00000121276085
 51
180.0000012127602
  0
LINE
  5
3AD
  8
0
  6
CONTINUOUS
 62
     7
 10
75.75842484796317
 20
61.20164901523748
 30
0.0
 11
56.25842484796317
 21
61.20164901523748
 31
0.0
  0
ARC
  5
3AE
  8
0
  6
CONTINUOUS
 62
     7
 10
75.75842484796317
 20
51.20164901523748
 30
0.0
 40
9.99999999999998
 50
0.0
 51
90.0
  0
LINE
  5
3AF
  8
0
  6
CONTINUOUS
 62
     7
 10
85.75842484796317
 20
45.20164901523748
 30
0.0
 11
85.75842484796317
 21
51.20164901523748
 31
0.0
  0
LINE
  5
3B0
  8
0
  6
CONTINUOUS
 62
     7
 10
85.75842484796317
 20
45.20164901523748
 30
0.0
 11
85.75842484796317
 21
51.20164901523748
 31
0.0
  0
LINE
  5
3B1
  8
0
 10
8.75842484796317
 20
45.20164901523748
 30
0.0
 11
11.75842484796317
 21
45.20164901523748
 31
0.0
  0
LINE
  5
3B2
  8
0
 10
85.75842484796317
 20
45.20164901523748
 30
0.0
 11
88.75842484796317
 21
45.20164901523748
 31
0.0
  0
LINE
  5
3B3
  8
0
  6
CONTINUOUS
 62
     7
 10
29.25842484796317
 20
69.20164901523736
 30
0.0
 11
21.75842510196321
 21
69.20164901523736
 31
0.0
  0
LINE
  5
3B4
  8
0
  6
CONTINUOUS
 62
     7
 10
68.25842484796317
 20
69.20164901523736
 30
0.0
 11
75.75842484796317
 21
69.20164901523736
 31
0.0
  0
LINE
  5
3B5
  8
0
  6
CONTINUOUS
 62
     7
 10
29.25842484796317
 20
87.20164901523714
 30
0.0
 11
29.25842484796317
 21
84.20164901523714
 31
0.0
  0
LINE
  5
3B6
  8
0
  6
CONTINUOUS
 62
     7
 10
29.25842484796317
 20
84.20164901523714
 30
0.0
 11
26.25842484796317
 21
84.20164901523714
 31
0.0
  0
LINE
  5
3B7
  8
0
  6
CONTINUOUS
 62
     7
 10
26.25842484796317
 20
84.20164901523714
 30
0.0
 11
26.25842484796317
 21
75.20164901523736
 31
0.0
  0
LINE
  5
3B8
  8
0
  6
CONTINUOUS
 62
     7
 10
26.25842484796317
 20
75.20164901523736
 30
0.0
 11
29.25842484796317
 21
75.20164901523736
 31
0.0
  0
LINE
  5
3B9
  8
0
  6
CONTINUOUS
 62
     7
 10
29.25842484796317
 20
75.20164901523736
 30
0.0
 11
29.25842484796317
 21
69.20164901523736
 31
0.0
  0
LINE
  5
3BA
  8
0
  6
CONTINUOUS
 62
     7
 10
68.25842484796317
 20
87.20164901523714
 30
0.0
 11
68.25842484796317
 21
84.20164901523714
 31
0.0
  0
LINE
  5
3BB
  8
0
  6
CONTINUOUS
 62
     7
 10
68.25842484796317
 20
84.20164901523714
 30
0.0
 11
71.25842484796317
 21
84.20164901523714
 31
0.0
  0
LINE
  5
3BC
  8
0
  6
CONTINUOUS
 62
     7
 10
71.25842484796317
 20
84.20164901523714
 30
0.0
 11
71.25842484796317
 21
75.20164901523736
 31
0.0
  0
LINE
  5
3BD
  8
0
  6
CONTINUOUS
 62
     7
 10
71.25842484796317
 20
75.20164901523736
 30
0.0
 11
68.25842484796317
 21
75.20164901523736
 31
0.0
  0
LINE
  5
3BE
  8
0
  6
CONTINUOUS
 62
     7
 10
68.25842484796317
 20
75.20164901523736
 30
0.0
 11
68.25842484796317
 21
69.20164901523736
 31
0.0
  0
LINE
  5
3BF
  8
TALL_1
 10
43.75842484796317
 20
84.20164901523736
 30
0.0
 11
43.75842484796317
 21
81.20164901523736
 31
0.0
  0
LINE
  5
3C0
  8
TALL_1
 10
43.75842484796317
 20
81.20164901523736
 30
0.0
 11
35.75842484796317
 21
81.20164901523736
 31
0.0
  0
LINE
  5
3C1
  8
TALL_1
 10
35.75842484796317
 20
81.20164901523736
 30
0.0
 11
35.75842484796317
 21
84.20164901523736
 31
0.0
  0
LINE
  5
3C2
  8
TALL_1
 10
53.75842484796317
 20
84.20164901523736
 30
0.0
 11
53.75842484796317
 21
81.20164901523736
 31
0.0
  0
LINE
  5
3C3
  8
TALL_1
 10
53.75842484796317
 20
81.20164901523736
 30
0.0
 11
61.75842484796317
 21
81.20164901523736
 31
0.0
  0
LINE
  5
3C4
  8
TALL_1
 10
61.75842484796317
 20
81.20164901523736
 30
0.0
 11
61.75842484796317
 21
84.20164901523736
 31
0.0
  0
LINE
  5
3C5
  8
TALL_1
 10
35.75842484796317
 20
84.20164901523736
 30
0.0
 11
43.75842484796317
 21
84.20164901523736
 31
0.0
  0
LINE
  5
3C6
  8
TALL_1
 10
61.75842484796317
 20
84.20164901523736
 30
0.0
 11
53.75842484796317
 21
84.20164901523736
 31
0.0
  0
LINE
  5
3C7
  8
TALL_1
 10
32.75842484796317
 20
73.09022018291358
 30
0.0
 11
64.75842484796317
 21
73.09022018291358
 31
0.0
  0
LINE
  5
3C8
  8
TALL_1
 10
32.75842484796317
 20
77.33485081349755
 30
0.0
 11
64.75842484796317
 21
77.33485081349733
 31
0.0
  0
LINE
  5
3C9
  8
TALL_1
 10
64.75842484796317
 20
77.33485081349733
 30
0.0
 11
64.75842484796317
 21
73.09022018291358
 31
0.0
  0
LINE
  5
3CA
  8
TALL_1
 10
32.75842484796317
 20
73.09022018291358
 30
0.0
 11
32.75842484796317
 21
77.33485081349755
 31
0.0
  0
LINE
  5
3CB
  8
0
 10
29.25842484796317
 20
87.20164901523714
 30
0.0
 11
68.25842484796317
 21
87.20164901523714
 31
0.0
  0
ARC
  5
3CC
  8
0
  6
CONTINUOUS
 10
48.75842484796317
 20
58.20164901523748
 30
0.0
 40
7.499999999999963
 50
180.0
 51
0.0
  0
LINE
  5
3CD
  8
0
 10
41.25842484796317
 20
61.20164901523748
 30
0.0
 11
41.25842484796317
 21
58.20164901523748
 31
0.0
  0
LINE
  5
3CE
  8
0
 10
56.25842484796317
 20
61.20164901523748
 30
0.0
 11
56.25842484796317
 21
58.20164901523748
 31
0.0
  0
LINE
  5
3CF
  8
TALL_1
  6
CONTINUOUS
 10
45.88842484796328
 20
55.20164901523748
 30
0.0
 11
45.88842484796328
 21
58.20164901523748
 31
0.0
  0
LINE
  5
3D0
  8
TALL_1
  6
CONTINUOUS
 10
51.62842484796306
 20
58.20164901523748
 30
0.0
 11
51.62842484796306
 21
55.20164901523748
 31
0.0
  0
LINE
  5
3D1
  8
TALL_1
 10
45.88842484796328
 20
58.20164901523748
 30
0.0
 11
51.62842484796306
 21
58.20164901523748
 31
0.0
  0
LINE
  5
3D2
  8
TALL_1
 10
45.88842484796328
 20
55.20164901523748
 30
0.0
 11
51.62842484796306
 21
55.20164901523748
 31
0.0
  0
LINE
  5
3D3
  8
0
  6
CONTINUOUS
 62
     7
 10
41.25842484796317
 20
61.20164901523748
 30
0.0
 11
21.75842484796317
 21
61.20164901523748
 31
0.0
  0
LINE
  5
3D4
  8
TALL_1
  6
CONTINUOUS
 10
26.86140680378151
 20
36.49994099099507
 30
0.0
 11
26.86140680378151
 21
33.49994099099507
 31
0.0
  0
LINE
  5
3D5
  8
TALL_1
  6
CONTINUOUS
 10
26.86140680378151
 20
33.49994099099507
 30
0.0
 11
14.86140680378151
 21
33.49994099099507
 31
0.0
  0
LINE
  5
3D6
  8
TALL_1
  6
CONTINUOUS
 10
14.86140680378151
 20
33.49994099099507
 30
0.0
 11
14.86140680378151
 21
36.49994099099507
 31
0.0
  0
LINE
  5
3D7
  8
TALL_1
  6
CONTINUOUS
 10
28.36140680378151
 20
24.49994099099507
 30
0.0
 11
31.36140680378151
 21
24.49994099099507
 31
0.0
  0
LINE
  5
3D8
  8
TALL_1
  6
CONTINUOUS
 10
31.36140680378151
 20
24.49994099099507
 30
0.0
 11
31.36140680378151
 21
15.49994099099507
 31
0.0
  0
LINE
  5
3D9
  8
TALL_1
  6
CONTINUOUS
 10
31.36140680378151
 20
15.49994099099507
 30
0.0
 11
28.36140680378151
 21
15.49994099099507
 31
0.0
  0
LINE
  5
3DA
  8
TALL_1
  6
CONTINUOUS
 10
28.36140680378151
 20
15.49994099099507
 30
0.0
 11
28.36140680378151
 21
24.49994099099507
 31
0.0
  0
LINE
  5
3DB
  8
0
  6
CONTINUOUS
 62
     7
 10
40.36140680378151
 20
0.4999409909950714
 30
0.0
 11
1.361406803781506
 21
0.4999409909950714
 31
0.0
  0
LINE
  5
3DC
  8
TALL_1
  6
CONTINUOUS
 10
8.861406803781506
 20
6.499940990995071
 30
0.0
 11
8.861406803781506
 21
3.499940990995071
 31
0.0
  0
LINE
  5
3DD
  8
TALL_1
  6
CONTINUOUS
 10
8.861406803781506
 20
3.499940990995071
 30
0.0
 11
17.86140680378151
 21
3.499940990995071
 31
0.0
  0
LINE
  5
3DE
  8
TALL_1
  6
CONTINUOUS
 10
17.86140680378151
 20
3.499940990995071
 30
0.0
 11
17.86140680378151
 21
6.499940990995071
 31
0.0
  0
LINE
  5
3DF
  8
TALL_1
  6
CONTINUOUS
 10
17.86140680378151
 20
6.499940990995071
 30
0.0
 11
8.861406803781506
 21
6.499940990995071
 31
0.0
  0
LINE
  5
3E0
  8
TALL_1
  6
CONTINUOUS
 10
23.86140680378151
 20
6.499940990995071
 30
0.0
 11
23.86140680378151
 21
3.499940990995071
 31
0.0
  0
LINE
  5
3E1
  8
TALL_1
  6
CONTINUOUS
 10
23.86140680378151
 20
3.499940990995071
 30
0.0
 11
32.86140680378105
 21
3.499940990995071
 31
0.0
  0
LINE
  5
3E2
  8
TALL_1
  6
CONTINUOUS
 10
32.86140680378105
 20
3.499940990995071
 30
0.0
 11
32.86140680378105
 21
6.499940990995071
 31
0.0
  0
LINE
  5
3E3
  8
TALL_1
  6
CONTINUOUS
 10
32.86140680378105
 20
6.499940990995071
 30
0.0
 11
23.86140680378151
 21
6.499940990995071
 31
0.0
  0
LINE
  5
3E4
  8
0
  6
CONTINUOUS
 62
     7
 10
40.36140680378151
 20
39.49994099099507
 30
0.0
 11
1.361406803781506
 21
39.49994099099507
 31
0.0
  0
LINE
  5
3E5
  8
TALL_1
  6
CONTINUOUS
 10
14.86140680378151
 20
36.49994099099507
 30
0.0
 11
26.86140680378151
 21
36.49994099099507
 31
0.0
  0
LINE
  5
3E6
  8
0
  6
CONTINUOUS
 62
     7
 10
40.36140680378151
 20
39.49994099099507
 30
0.0
 11
40.36140680378151
 21
0.4999409909950714
 31
0.0
  0
LINE
  5
3E7
  8
0
  6
CONTINUOUS
 62
     7
 10
1.361406803781506
 20
39.49994099099507
 30
0.0
 11
1.361406803781506
 21
0.4999409909950714
 31
0.0
  0
LINE
  5
3E8
  8
0
  6
CONTINUOUS
 62
     7
 10
79.2320989152966
 20
39.49994099099519
 30
0.0
 11
79.2320989152966
 21
42.49994099099519
 31
0.0
  0
LINE
  5
3E9
  8
0
  6
CONTINUOUS
 62
     7
 10
79.2320989152966
 20
42.49994099099519
 30
0.0
 11
70.2320989152966
 21
42.49994099099519
 31
0.0
  0
LINE
  5
3EA
  8
0
  6
CONTINUOUS
 62
     7
 10
70.2320989152966
 20
42.49994099099519
 30
0.0
 11
70.2320989152966
 21
39.49994099099519
 31
0.0
  0
LINE
  5
3EB
  8
0
  6
CONTINUOUS
 62
     7
 10
64.2320989152966
 20
39.49994099099519
 30
0.0
 11
64.2320989152966
 21
42.49994099099519
 31
0.0
  0
LINE
  5
3EC
  8
0
  6
CONTINUOUS
 62
     7
 10
64.2320989152966
 20
42.49994099099519
 30
0.0
 11
55.23209891529683
 21
42.49994099099519
 31
0.0
  0
LINE
  5
3ED
  8
0
  6
CONTINUOUS
 62
     7
 10
55.23209891529683
 20
42.49994099099519
 30
0.0
 11
55.23209891529683
 21
39.49994099099519
 31
0.0
  0
LINE
  5
3EE
  8
0
  6
CONTINUOUS
 62
     7
 10
64.2320989152966
 20
39.49994099099519
 30
0.0
 11
70.2320989152966
 21
39.49994099099519
 31
0.0
  0
LINE
  5
3EF
  8
0
  6
CONTINUOUS
 62
     7
 10
79.2320989152966
 20
3.499940990995185
 30
0.0
 11
79.2320989152966
 21
0.4999409909951851
 31
0.0
  0
LINE
  5
3F0
  8
0
  6
CONTINUOUS
 62
     7
 10
79.2320989152966
 20
0.4999409909951851
 30
0.0
 11
70.2320989152966
 21
0.4999409909951851
 31
0.0
  0
LINE
  5
3F1
  8
0
  6
CONTINUOUS
 62
     7
 10
70.2320989152966
 20
0.4999409909951851
 30
0.0
 11
70.2320989152966
 21
3.499940990995185
 31
0.0
  0
LINE
  5
3F2
  8
0
  6
CONTINUOUS
 62
     7
 10
64.2320989152966
 20
3.499940990995185
 30
0.0
 11
64.2320989152966
 21
0.4999409909951851
 31
0.0
  0
LINE
  5
3F3
  8
0
  6
CONTINUOUS
 62
     7
 10
64.2320989152966
 20
0.4999409909951851
 30
0.0
 11
55.2320989152966
 21
0.4999409909951851
 31
0.0
  0
LINE
  5
3F4
  8
0
  6
CONTINUOUS
 62
     7
 10
55.2320989152966
 20
0.4999409909951851
 30
0.0
 11
55.2320989152966
 21
3.499940990995185
 31
0.0
  0
LINE
  5
3F5
  8
0
  6
CONTINUOUS
 62
     7
 10
70.2320989152966
 20
3.499940990995185
 30
0.0
 11
64.2320989152966
 21
3.499940990995185
 31
0.0
  0
CIRCLE
  5
3F6
  8
TALL_1
  6
CONTINUOUS
 10
67.2320989152966
 20
21.49994099099519
 30
0.0
 40
0.9999999999999998
  0
LINE
  5
3F7
  8
0
  6
CONTINUOUS
 62
     7
 10
47.7320989152966
 20
15.49994099099519
 30
0.0
 11
44.7320989152966
 21
15.49994099099519
 31
0.0
  0
LINE
  5
3F8
  8
0
  6
CONTINUOUS
 62
     7
 10
44.7320989152966
 20
15.49994099099519
 30
0.0
 11
44.7320989152966
 21
27.49994099099519
 31
0.0
  0
LINE
  5
3F9
  8
0
  6
CONTINUOUS
 62
     7
 10
44.7320989152966
 20
27.49994099099519
 30
0.0
 11
47.7320989152966
 21
27.49994099099519
 31
0.0
  0
LINE
  5
3FA
  8
0
  6
CONTINUOUS
 62
     7
 10
86.7320989152966
 20
15.49994099099519
 30
0.0
 11
89.7320989152966
 21
15.49994099099519
 31
0.0
  0
LINE
  5
3FB
  8
0
  6
CONTINUOUS
 62
     7
 10
89.7320989152966
 20
15.49994099099519
 30
0.0
 11
89.7320989152966
 21
27.49994099099519
 31
0.0
  0
LINE
  5
3FC
  8
0
  6
CONTINUOUS
 62
     7
 10
89.7320989152966
 20
27.49994099099519
 30
0.0
 11
86.7320989152966
 21
27.49994099099519
 31
0.0
  0
ARC
  5
3FD
  8
0
 10
86.7320989152966
 20
33.49994099099519
 30
0.0
 40
2.911814001720656
 50
90.0
 51
270.0
  0
LINE
  5
3FE
  8
0
  6
CONTINUOUS
 62
     7
 10
86.7320989152966
 20
30.5881269892746
 30
0.0
 11
86.7320989152966
 21
27.49994099099519
 31
0.0
  0
LINE
  5
3FF
  8
0
  6
CONTINUOUS
 62
     7
 10
86.7320989152966
 20
39.49994099099519
 30
0.0
 11
86.7320989152966
 21
36.41175499271577
 31
0.0
  0
ARC
  5
400
  8
0
 10
86.7320989152966
 20
9.499940990995185
 30
0.0
 40
2.911814001720656
 50
90.0
 51
270.0
  0
LINE
  5
401
  8
0
  6
CONTINUOUS
 62
     7
 10
86.7320989152966
 20
6.588126989274599
 30
0.0
 11
86.7320989152966
 21
3.499940990995185
 31
0.0
  0
LINE
  5
402
  8
0
  6
CONTINUOUS
 62
     7
 10
86.7320989152966
 20
15.49994099099519
 30
0.0
 11
86.7320989152966
 21
12.41175499271577
 31
0.0
  0
ARC
  5
403
  8
0
 10
47.7320989152966
 20
9.499940990995185
 30
0.0
 40
2.911814001720656
 50
270.0
 51
90.0
  0
LINE
  5
404
  8
0
  6
CONTINUOUS
 62
     7
 10
47.7320989152966
 20
6.588126989274599
 30
0.0
 11
47.7320989152966
 21
3.499940990995185
 31
0.0
  0
LINE
  5
405
  8
0
  6
CONTINUOUS
 62
     7
 10
47.7320989152966
 20
15.49994099099519
 30
0.0
 11
47.7320989152966
 21
12.41175499271577
 31
0.0
  0
ARC
  5
406
  8
0
 10
47.7320989152966
 20
33.49994099099519
 30
0.0
 40
2.911814001720656
 50
270.0
 51
90.0
  0
LINE
  5
407
  8
0
  6
CONTINUOUS
 62
     7
 10
47.7320989152966
 20
30.5881269892746
 30
0.0
 11
47.7320989152966
 21
27.49994099099519
 31
0.0
  0
LINE
  5
408
  8
0
  6
CONTINUOUS
 62
     7
 10
47.7320989152966
 20
39.49994099099519
 30
0.0
 11
47.7320989152966
 21
36.41175499271577
 31
0.0
  0
LINE
  5
409
  8
0
 10
79.2320989152966
 20
39.49994099099519
 30
0.0
 11
86.7320989152966
 21
39.49994099099519
 31
0.0
  0
LINE
  5
40A
  8
0
 10
79.2320989152966
 20
3.499940990995185
 30
0.0
 11
86.7320989152966
 21
3.499940990995185
 31
0.0
  0
LINE
  5
40B
  8
0
 10
47.7320989152966
 20
39.49994099099519
 30
0.0
 11
55.23209891529683
 21
39.49994099099519
 31
0.0
  0
LINE
  5
40C
  8
0
 10
47.7320989152966
 20
3.499940990995185
 30
0.0
 11
55.2320989152966
 21
3.499940990995185
 31
0.0
  0
LINE
  5
40D
  8
0
  6
CONTINUOUS
 62
     7
 10
103.2667005928723
 20
134.0988521376618
 30
0.0
 11
103.2667005928723
 21
137.0988521376618
 31
0.0
  0
LINE
  5
40E
  8
0
  6
CONTINUOUS
 62
     7
 10
103.2667005928723
 20
137.0988521376618
 30
0.0
 11
98.76670059287233
 21
137.0988521376618
 31
0.0
  0
LINE
  5
40F
  8
0
  6
CONTINUOUS
 62
     7
 10
98.76670059287233
 20
137.0988521376618
 30
0.0
 11
98.76670059287233
 21
134.0988521376618
 31
0.0
  0
LINE
  5
410
  8
0
  6
CONTINUOUS
 62
     7
 10
110.7667005928723
 20
134.0988521376618
 30
0.0
 11
110.7667005928723
 21
137.0988521376618
 31
0.0
  0
LINE
  5
411
  8
0
  6
CONTINUOUS
 62
     7
 10
110.7667005928723
 20
137.0988521376618
 30
0.0
 11
106.2667005928723
 21
137.0988521376618
 31
0.0
  0
LINE
  5
412
  8
0
  6
CONTINUOUS
 62
     7
 10
106.2667005928723
 20
137.0988521376618
 30
0.0
 11
106.2667005928723
 21
134.0988521376618
 31
0.0
  0
LINE
  5
413
  8
0
  6
CONTINUOUS
 62
     7
 10
118.2667005928723
 20
134.0988521376618
 30
0.0
 11
118.2667005928723
 21
137.0988521376618
 31
0.0
  0
LINE
  5
414
  8
0
  6
CONTINUOUS
 62
     7
 10
118.2667005928723
 20
137.0988521376618
 30
0.0
 11
113.7667005928723
 21
137.0988521376618
 31
0.0
  0
LINE
  5
415
  8
0
  6
CONTINUOUS
 62
     7
 10
113.7667005928723
 20
137.0988521376618
 30
0.0
 11
113.7667005928723
 21
134.0988521376618
 31
0.0
  0
LINE
  5
416
  8
0
  6
CONTINUOUS
 62
     7
 10
103.2667005928723
 20
134.0988521376618
 30
0.0
 11
106.2667005928723
 21
134.0988521376618
 31
0.0
  0
LINE
  5
417
  8
0
  6
CONTINUOUS
 62
     7
 10
110.7667005928723
 20
134.0988521376618
 30
0.0
 11
113.7667005928723
 21
134.0988521376618
 31
0.0
  0
LINE
  5
418
  8
0
  6
CONTINUOUS
 62
     7
 10
90.51670059287233
 20
134.0988521376618
 30
0.0
 11
90.51670059287233
 21
125.0988521376618
 31
0.0
  0
LINE
  5
419
  8
0
  6
CONTINUOUS
 62
     7
 10
90.51670059287233
 20
125.0988521376618
 30
0.0
 11
87.51670059287233
 21
125.0988521376618
 31
0.0
  0
LINE
  5
41A
  8
0
  6
CONTINUOUS
 62
     7
 10
87.51670059287233
 20
125.0988521376618
 30
0.0
 11
87.51670059287233
 21
116.0988521376618
 31
0.0
  0
LINE
  5
41B
  8
0
  6
CONTINUOUS
 62
     7
 10
87.51670059287233
 20
116.0988521376618
 30
0.0
 11
90.51670059287233
 21
116.0988521376618
 31
0.0
  0
LINE
  5
41C
  8
0
  6
CONTINUOUS
 62
     7
 10
90.51670059287233
 20
116.0988521376618
 30
0.0
 11
90.51670059287233
 21
110.0988521376618
 31
0.0
  0
LINE
  5
41D
  8
0
  6
CONTINUOUS
 62
     7
 10
126.5167005928723
 20
134.0988521376618
 30
0.0
 11
126.5167005928723
 21
125.0988521376618
 31
0.0
  0
LINE
  5
41E
  8
0
  6
CONTINUOUS
 62
     7
 10
126.5167005928723
 20
125.0988521376618
 30
0.0
 11
129.5167005928723
 21
125.0988521376618
 31
0.0
  0
LINE
  5
41F
  8
0
  6
CONTINUOUS
 62
     7
 10
129.5167005928723
 20
125.0988521376618
 30
0.0
 11
129.5167005928723
 21
116.0988521376618
 31
0.0
  0
LINE
  5
420
  8
0
  6
CONTINUOUS
 62
     7
 10
129.5167005928723
 20
116.0988521376618
 30
0.0
 11
126.5167005928723
 21
116.0988521376618
 31
0.0
  0
LINE
  5
421
  8
0
  6
CONTINUOUS
 62
     7
 10
126.5167005928723
 20
116.0988521376618
 30
0.0
 11
126.5167005928723
 21
110.0988521376618
 31
0.0
  0
LINE
  5
422
  8
0
  6
CONTINUOUS
 62
     7
 10
126.5167005928723
 20
110.0988521376618
 30
0.0
 11
90.51670059287233
 21
110.0988521376618
 31
0.0
  0
LINE
  5
423
  8
MARCATGE
  6
CONTINUOUS
 10
108.5167005928723
 20
110.0988521376618
 30
0.0
 11
108.5167005928723
 21
137.0988521376618
 31
0.0
  0
CIRCLE
  5
424
  8
TALL_1
  6
CONTINUOUS
 10
101.0167005928723
 20
131.0988521376618
 30
0.0
 40
1.5
  0
CIRCLE
  5
425
  8
TALL_1
  6
CONTINUOUS
 10
116.0167005928723
 20
131.0988521376618
 30
0.0
 40
1.5
  0
CIRCLE
  5
426
  8
TALL_1
  6
CONTINUOUS
 10
116.0167005928723
 20
125.0988521376618
 30
0.0
 40
1.5
  0
CIRCLE
  5
427
  8
TALL_1
  6
CONTINUOUS
 10
101.0167005928723
 20
125.0988521376618
 30
0.0
 40
1.5
  0
LINE
  5
428
  8
0
 10
90.51670059287233
 20
134.0988521376618
 30
0.0
 11
98.76670059287233
 21
134.0988521376618
 31
0.0
  0
LINE
  5
429
  8
0
 10
118.2667005928723
 20
134.0988521376618
 30
0.0
 11
126.5167005928723
 21
134.0988521376618
 31
0.0
  0
CIRCLE
  5
42A
  8
MARCATGE
  6
CONTINUOUS
 10
118.1931896277174
 20
88.03390875327213
 30
0.0
 40
9.999999999999996
  0
LINE
  5
42B
  8
0
  6
CONTINUOUS
 62
     7
 10
112.1931896277174
 20
106.0339087532721
 30
0.0
 11
112.1931896277174
 21
109.0339087532721
 31
0.0
  0
LINE
  5
42C
  8
0
  6
CONTINUOUS
 62
     7
 10
112.1931896277174
 20
109.0339087532721
 30
0.0
 11
124.1931896277174
 21
109.0339087532721
 31
0.0
  0
LINE
  5
42D
  8
0
  6
CONTINUOUS
 62
     7
 10
124.1931896277174
 20
109.0339087532721
 30
0.0
 11
124.1931896277174
 21
106.0339087532721
 31
0.0
  0
LINE
  5
42E
  8
0
  6
CONTINUOUS
 62
     7
 10
112.1931896277174
 20
70.03390875327213
 30
0.0
 11
112.1931896277174
 21
67.03390875327213
 31
0.0
  0
LINE
  5
42F
  8
0
  6
CONTINUOUS
 62
     7
 10
112.1931896277174
 20
67.03390875327213
 30
0.0
 11
124.1931896277174
 21
67.03390875327213
 31
0.0
  0
LINE
  5
430
  8
0
  6
CONTINUOUS
 62
     7
 10
124.1931896277174
 20
67.03390875327213
 30
0.0
 11
124.1931896277174
 21
70.03390875327213
 31
0.0
  0
LINE
  5
431
  8
0
  6
CONTINUOUS
 62
     7
 10
98.6931896277174
 20
82.03390875327213
 30
0.0
 11
95.6931896277174
 21
82.03390875327213
 31
0.0
  0
LINE
  5
432
  8
0
  6
CONTINUOUS
 62
     7
 10
95.6931896277174
 20
82.03390875327213
 30
0.0
 11
95.6931896277174
 21
94.03390875327213
 31
0.0
  0
LINE
  5
433
  8
0
  6
CONTINUOUS
 62
     7
 10
95.6931896277174
 20
94.03390875327213
 30
0.0
 11
98.6931896277174
 21
94.03390875327213
 31
0.0
  0
LINE
  5
434
  8
0
  6
CONTINUOUS
 62
     7
 10
137.6931896277174
 20
82.03390875327213
 30
0.0
 11
140.6931896277174
 21
82.03390875327213
 31
0.0
  0
LINE
  5
435
  8
0
  6
CONTINUOUS
 62
     7
 10
140.6931896277174
 20
82.03390875327213
 30
0.0
 11
140.6931896277174
 21
94.03390875327213
 31
0.0
  0
LINE
  5
436
  8
0
  6
CONTINUOUS
 62
     7
 10
140.6931896277174
 20
94.03390875327213
 30
0.0
 11
137.6931896277174
 21
94.03390875327213
 31
0.0
  0
CIRCLE
  5
437
  8
TALL_1
  6
CONTINUOUS
 10
118.1931896277174
 20
88.03390875327213
 30
0.0
 40
3.0
  0
LINE
  5
438
  8
0
  6
CONTINUOUS
 62
     7
 10
98.6931896277174
 20
94.03390875327213
 30
0.0
 11
98.6931896277174
 21
106.0339087532721
 31
0.0
  0
LINE
  5
439
  8
TALL_1
  6
CONTINUOUS
 10
110.6931896277174
 20
78.28390875327213
 30
0.0
 11
107.6931896277174
 21
78.28390875327213
 31
0.0
  0
LINE
  5
43A
  8
TALL_1
  6
CONTINUOUS
 10
110.6931896277174
 20
78.28390875327213
 30
0.0
 11
110.6931896277174
 21
82.78390875327213
 31
0.0
  0
LINE
  5
43B
  8
TALL_1
  6
CONTINUOUS
 10
107.6931896277174
 20
82.78390875327213
 30
0.0
 11
107.6931896277174
 21
78.28390875327213
 31
0.0
  0
LINE
  5
43C
  8
TALL_1
  6
CONTINUOUS
 10
110.6931896277174
 20
82.78390875327213
 30
0.0
 11
107.6931896277174
 21
82.78390875327213
 31
0.0
  0
LINE
  5
43D
  8
TALL_1
  6
CONTINUOUS
 10
110.6931896277174
 20
93.28390875327213
 30
0.0
 11
110.6931896277174
 21
97.78390875327213
 31
0.0
  0
LINE
  5
43E
  8
TALL_1
  6
CONTINUOUS
 10
110.6931896277174
 20
97.78390875327213
 30
0.0
 11
107.6931896277174
 21
97.78390875327213
 31
0.0
  0
LINE
  5
43F
  8
TALL_1
  6
CONTINUOUS
 10
107.6931896277174
 20
97.78390875327213
 30
0.0
 11
107.6931896277174
 21
93.28390875327213
 31
0.0
  0
LINE
  5
440
  8
TALL_1
  6
CONTINUOUS
 10
107.6931896277174
 20
93.28390875327213
 30
0.0
 11
110.6931896277174
 21
93.28390875327213
 31
0.0
  0
LINE
  5
441
  8
TALL_1
  6
CONTINUOUS
 10
110.6931896277174
 20
85.78390875327213
 30
0.0
 11
110.6931896277174
 21
90.28390875327213
 31
0.0
  0
LINE
  5
442
  8
TALL_1
  6
CONTINUOUS
 10
110.6931896277174
 20
90.28390875327213
 30
0.0
 11
107.6931896277174
 21
90.28390875327213
 31
0.0
  0
LINE
  5
443
  8
TALL_1
  6
CONTINUOUS
 10
107.6931896277174
 20
90.28390875327213
 30
0.0
 11
107.6931896277174
 21
85.78390875327213
 31
0.0
  0
LINE
  5
444
  8
TALL_1
  6
CONTINUOUS
 10
107.6931896277174
 20
85.78390875327213
 30
0.0
 11
110.6931896277174
 21
85.78390875327213
 31
0.0
  0
LINE
  5
445
  8
0
  6
CONTINUOUS
 62
     7
 10
98.6931896277174
 20
70.03390875327213
 30
0.0
 11
98.6931896277174
 21
82.03390875327213
 31
0.0
  0
LINE
  5
446
  8
0
  6
CONTINUOUS
 62
     7
 10
137.6931896277174
 20
82.03390875327213
 30
0.0
 11
137.6931896277174
 21
70.03390875327213
 31
0.0
  0
LINE
  5
447
  8
0
  6
CONTINUOUS
 62
     7
 10
137.6931896277174
 20
106.0339087532721
 30
0.0
 11
137.6931896277174
 21
94.03390875327213
 31
0.0
  0
LINE
  5
448
  8
0
 10
124.1931896277174
 20
106.0339087532721
 30
0.0
 11
137.6931896277174
 21
106.0339087532721
 31
0.0
  0
LINE
  5
449
  8
0
 10
124.1931896277174
 20
70.03390875327213
 30
0.0
 11
137.6931896277174
 21
70.03390875327213
 31
0.0
  0
LINE
  5
44A
  8
0
 10
98.6931896277174
 20
106.0339087532721
 30
0.0
 11
112.1931896277174
 21
106.0339087532721
 31
0.0
  0
LINE
  5
44B
  8
0
 10
98.6931896277174
 20
70.03390875327213
 30
0.0
 11
112.1931896277174
 21
70.03390875327213
 31
0.0
  0
LINE
  5
44C
  8
0
 10
177.9211986393268
 20
180.5363970777872
 30
0.0
 11
144.9211986393268
 21
180.5363970777872
 31
0.0
  0
LINE
  5
44D
  8
TALL_1
  6
CONTINUOUS
 10
150.4211986393268
 20
150.5363970777872
 30
0.0
 11
150.4211986393268
 21
144.5363970777872
 31
0.0
  0
LINE
  5
44E
  8
TALL_1
  6
CONTINUOUS
 10
150.4211986393268
 20
177.5363970777872
 30
0.0
 11
150.4211986393268
 21
171.5363970777872
 31
0.0
  0
LINE
  5
44F
  8
TALL_1
 10
150.4211986393268
 20
144.5363970777872
 30
0.0
 11
147.4211986393268
 21
144.5363970777872
 31
0.0
  0
LINE
  5
450
  8
TALL_1
 10
150.4211986393268
 20
150.5363970777872
 30
0.0
 11
147.4211986393268
 21
150.5363970777872
 31
0.0
  0
LINE
  5
451
  8
TALL_1
 10
147.4211986393268
 20
171.5363970777872
 30
0.0
 11
150.4211986393268
 21
171.5363970777872
 31
0.0
  0
LINE
  5
452
  8
TALL_1
 10
147.4211986393268
 20
177.5363970777872
 30
0.0
 11
150.4211986393268
 21
177.5363970777872
 31
0.0
  0
LINE
  5
453
  8
TALL_1
 10
147.4211986393268
 20
144.5363970777872
 30
0.0
 11
147.4211986393268
 21
150.5363970777872
 31
0.0
  0
LINE
  5
454
  8
TALL_1
 10
147.4211986393268
 20
171.5363970777872
 30
0.0
 11
147.4211986393268
 21
177.5363970777872
 31
0.0
  0
LINE
  5
455
  8
TALL_1
  6
CONTINUOUS
 10
175.4211986393268
 20
177.5363970777872
 30
0.0
 11
175.4211986393268
 21
171.5363970777872
 31
0.0
  0
LINE
  5
456
  8
TALL_1
 10
175.4211986393268
 20
150.5363970777872
 30
0.0
 11
172.4211986393268
 21
150.5363970777872
 31
0.0
  0
LINE
  5
457
  8
TALL_1
 10
172.4211986393268
 20
171.5363970777872
 30
0.0
 11
175.4211986393268
 21
171.5363970777872
 31
0.0
  0
LINE
  5
458
  8
TALL_1
 10
172.4211986393268
 20
177.5363970777872
 30
0.0
 11
175.4211986393268
 21
177.5363970777872
 31
0.0
  0
LINE
  5
459
  8
TALL_1
 10
172.4211986393268
 20
171.5363970777872
 30
0.0
 11
172.4211986393268
 21
177.5363970777872
 31
0.0
  0
LINE
  5
45A
  8
TALL_1
  6
CONTINUOUS
 10
175.4211986393268
 20
150.5363970777872
 30
0.0
 11
175.4211986393268
 21
144.5363970777872
 31
0.0
  0
LINE
  5
45B
  8
TALL_1
 10
175.4211986393268
 20
144.5363970777872
 30
0.0
 11
172.4211986393268
 21
144.5363970777872
 31
0.0
  0
LINE
  5
45C
  8
TALL_1
 10
172.4211986393268
 20
144.5363970777872
 30
0.0
 11
172.4211986393268
 21
150.5363970777872
 31
0.0
  0
LINE
  5
45D
  8
0
 10
161.4211986393268
 20
112.5363970777872
 30
0.0
 11
166.4211986393268
 21
112.5363970777872
 31
0.0
  0
LINE
  5
45E
  8
0
 10
166.4211986393268
 20
112.5363970777872
 30
0.0
 11
166.4211986393268
 21
109.5363970777872
 31
0.0
  0
LINE
  5
45F
  8
0
 10
166.4211986393268
 20
109.5363970777872
 30
0.0
 11
174.4211986393268
 21
109.5363970777872
 31
0.0
  0
LINE
  5
460
  8
0
 10
174.4211986393268
 20
109.5363970777872
 30
0.0
 11
174.4211986393268
 21
112.5363970777872
 31
0.0
  0
LINE
  5
461
  8
0
 10
156.4211986393268
 20
112.5363970777872
 30
0.0
 11
156.4211986393268
 21
109.5363970777872
 31
0.0
  0
LINE
  5
462
  8
0
 10
156.4211986393268
 20
109.5363970777872
 30
0.0
 11
148.4211986393268
 21
109.5363970777872
 31
0.0
  0
LINE
  5
463
  8
0
 10
148.4211986393268
 20
109.5363970777872
 30
0.0
 11
148.4211986393268
 21
112.5363970777872
 31
0.0
  0
LINE
  5
464
  8
NO_IMPRES
  6
CONTINUOUS
 62
     7
 10
148.4211986393268
 20
112.5363970777872
 30
0.0
 11
144.9211986393268
 21
112.5363970777872
 31
0.0
  0
LINE
  5
465
  8
NO_IMPRES
  6
CONTINUOUS
 62
     7
 10
166.4211986393268
 20
112.5363970777872
 30
0.0
 11
156.4211986393268
 21
112.5363970777872
 31
0.0
  0
LINE
  5
466
  8
NO_IMPRES
  6
CONTINUOUS
 62
     7
 10
177.9211986393268
 20
112.5363970777872
 30
0.0
 11
174.4211986393268
 21
112.5363970777872
 31
0.0
  0
LINE
  5
467
  8
0
 10
144.9211986393268
 20
112.5363970777872
 30
0.0
 11
144.9211986393268
 21
180.5363970777872
 31
0.0
  0
LINE
  5
468
  8
0
 10
177.9211986393268
 20
112.5363970777872
 30
0.0
 11
177.9211986393268
 21
180.5363970777872
 31
0.0
  0
LINE
  5
469
  8
TALL_1
  6
CONTINUOUS
 10
170.0034421064199
 20
103.6175608639253
 30
0.0
 11
170.0034421064199
 21
100.6175608639253
 31
0.0
  0
LINE
  5
46A
  8
TALL_1
  6
CONTINUOUS
 10
170.0034421064199
 20
100.6175608639253
 30
0.0
 11
158.0034421064199
 21
100.6175608639253
 31
0.0
  0
LINE
  5
46B
  8
TALL_1
  6
CONTINUOUS
 10
158.0034421064199
 20
100.6175608639253
 30
0.0
 11
158.0034421064199
 21
103.6175608639253
 31
0.0
  0
LINE
  5
46C
  8
TALL_1
  6
CONTINUOUS
 10
162.5034421064199
 20
97.61756086392526
 30
0.0
 11
162.5034421064199
 21
81.11756086392526
 31
0.0
  0
LINE
  5
46D
  8
TALL_1
  6
CONTINUOUS
 10
162.5034421064199
 20
81.11756086392526
 30
0.0
 11
165.5034421064199
 21
81.11756086392526
 31
0.0
  0
LINE
  5
46E
  8
TALL_1
  6
CONTINUOUS
 10
165.5034421064199
 20
81.11756086392526
 30
0.0
 11
165.5034421064199
 21
97.61756086392526
 31
0.0
  0
LINE
  5
46F
  8
TALL_1
  6
CONTINUOUS
 10
165.5034421064199
 20
97.61756086392526
 30
0.0
 11
162.5034421064199
 21
97.61756086392526
 31
0.0
  0
LINE
  5
470
  8
TALL_1
  6
CONTINUOUS
 10
171.5034421064199
 20
91.61756086392526
 30
0.0
 11
174.5034421064199
 21
91.61756086392526
 31
0.0
  0
LINE
  5
471
  8
TALL_1
  6
CONTINUOUS
 10
174.5034421064199
 20
91.61756086392526
 30
0.0
 11
174.5034421064199
 21
82.61756086392526
 31
0.0
  0
LINE
  5
472
  8
TALL_1
  6
CONTINUOUS
 10
174.5034421064199
 20
82.61756086392526
 30
0.0
 11
171.5034421064199
 21
82.61756086392526
 31
0.0
  0
LINE
  5
473
  8
TALL_1
  6
CONTINUOUS
 10
171.5034421064199
 20
82.61756086392526
 30
0.0
 11
171.5034421064199
 21
91.61756086392526
 31
0.0
  0
LINE
  5
474
  8
TALL_1
  6
CONTINUOUS
 10
152.0034421064199
 20
73.61756086392526
 30
0.0
 11
152.0034421064199
 21
70.61756086392526
 31
0.0
  0
LINE
  5
475
  8
TALL_1
  6
CONTINUOUS
 10
152.0034421064199
 20
70.61756086392526
 30
0.0
 11
161.0034421064199
 21
70.61756086392526
 31
0.0
  0
LINE
  5
476
  8
TALL_1
  6
CONTINUOUS
 10
161.0034421064199
 20
70.61756086392526
 30
0.0
 11
161.0034421064199
 21
73.61756086392526
 31
0.0
  0
LINE
  5
477
  8
TALL_1
  6
CONTINUOUS
 10
161.0034421064199
 20
73.61756086392526
 30
0.0
 11
152.0034421064199
 21
73.61756086392526
 31
0.0
  0
LINE
  5
478
  8
TALL_1
  6
CONTINUOUS
 10
167.0034421064199
 20
73.61756086392526
 30
0.0
 11
167.0034421064199
 21
70.61756086392526
 31
0.0
  0
LINE
  5
479
  8
TALL_1
  6
CONTINUOUS
 10
167.0034421064199
 20
70.61756086392526
 30
0.0
 11
176.0034421064199
 21
70.61756086392526
 31
0.0
  0
LINE
  5
47A
  8
TALL_1
  6
CONTINUOUS
 10
176.0034421064199
 20
70.61756086392526
 30
0.0
 11
176.0034421064199
 21
73.61756086392526
 31
0.0
  0
LINE
  5
47B
  8
TALL_1
  6
CONTINUOUS
 10
176.0034421064199
 20
73.61756086392526
 30
0.0
 11
167.0034421064199
 21
73.61756086392526
 31
0.0
  0
LINE
  5
47C
  8
TALL_1
  6
CONTINUOUS
 10
158.0034421064199
 20
103.6175608639253
 30
0.0
 11
170.0034421064199
 21
103.6175608639253
 31
0.0
  0
LINE
  5
47D
  8
0
  6
CONTINUOUS
 62
     7
 10
183.5034421064199
 20
106.6175608639253
 30
0.0
 11
183.5034421064199
 21
67.61756086392526
 31
0.0
  0
LINE
  5
47E
  8
0
  6
CONTINUOUS
 62
     7
 10
144.5034421064199
 20
106.6175608639253
 30
0.0
 11
144.5034421064199
 21
67.61756086392526
 31
0.0
  0
LINE
  5
47F
  8
0
 10
144.5034421064199
 20
106.6175608639253
 30
0.0
 11
183.5034421064199
 21
106.6175608639253
 31
0.0
  0
LINE
  5
480
  8
0
 10
144.5034421064199
 20
67.61756086392526
 30
0.0
 11
183.5034421064199
 21
67.61756086392526
 31
0.0
  0
LINE
  5
481
  8
0
  6
CONTINUOUS
 10
100.8485111738678
 20
65.90608393110185
 30
0.0
 11
100.0907197305565
 21
65.90608393110185
 31
0.0
  0
LINE
  5
482
  8
TALL_1
  6
CONTINUOUS
 10
98.76117880124576
 20
52.84015960084364
 30
0.0
 11
101.7392040187045
 21
53.20260380921409
 31
0.0
  0
LINE
  5
483
  8
TALL_1
  6
CONTINUOUS
 10
102.8265363916772
 20
44.26852812615173
 30
0.0
 11
99.84851117421732
 21
43.90608391778105
 31
0.0
  0
LINE
  5
484
  8
TALL_1
  6
CONTINUOUS
 10
101.7392040187045
 20
53.20260380921409
 30
0.0
 11
102.8265366438157
 21
44.26852815683853
 31
0.0
  0
LINE
  5
485
  8
TALL_1
  6
CONTINUOUS
 10
99.84851142635699
 20
43.90608394846809
 30
0.0
 11
98.76117880124576
 21
52.84015960084364
 31
0.0
  0
LINE
  5
486
  8
0
  6
CONTINUOUS
 10
101.8485111738688
 20
31.54353315830108
 30
0.0
 11
101.8485111738688
 21
28.54353315830108
 31
0.0
  0
LINE
  5
487
  8
0
  6
CONTINUOUS
 10
104.8485111738678
 20
19.90608393110185
 30
0.0
 11
98.84851117386785
 21
19.90608393110185
 31
0.0
  0
LINE
  5
488
  8
0
  6
CONTINUOUS
 10
131.8485111738678
 20
19.90608393110185
 30
0.0
 11
125.8485111738678
 21
19.90608393110185
 31
0.0
  0
LINE
  5
489
  8
0
 10
98.84851117386785
 20
19.90608393110185
 30
0.0
 11
98.84851117386785
 21
22.90608393110185
 31
0.0
  0
LINE
  5
48A
  8
0
 10
104.8485111738678
 20
19.90608393110185
 30
0.0
 11
104.8485111738678
 21
22.90608393110185
 31
0.0
  0
LINE
  5
48B
  8
0
 10
125.8485111738678
 20
22.90608393110185
 30
0.0
 11
125.8485111738678
 21
19.90608393110185
 31
0.0
  0
ARC
  5
48C
  8
0
  6
CONTINUOUS
 10
100.0907197305565
 20
61.90608393110185
 30
0.0
 40
4.000000000000001
 50
90.0
 51
183.3664606634294
  0
LINE
  5
48D
  8
0
 10
104.8485111738678
 20
22.90608393110185
 30
0.0
 11
125.8485111738678
 21
22.90608393110185
 31
0.0
  0
POLYLINE
  5
48E
  8
0
 66
     1
 10
0.0
 20
0.0
 30
0.0
  0
VERTEX
  5
999
  8
0
 10
131.8485111738678
 20
19.90608393110185
 30
0.0
  0
VERTEX
  5
99A
  8
0
 10
131.8485111738678
 20
28.54353315830108
 30
0.0
  0
VERTEX
  5
99B
  8
0
 10
101.8485111738688
 20
28.54353315830108
 30
0.0
  0
SEQEND
  5
9E2
  8
0
  0
ARC
  5
48F
  8
0
 10
93.53329763121957
 20
54.95908997703894
 30
0.0
 40
13.16620772298672
 50
338.9636622135243
 51
56.24759007164187
  0
LINE
  5
490
  8
0
 10
98.84851117386785
 20
22.90608393110185
 30
0.0
 11
96.09762223785657
 21
61.67119584329598
 31
0.0
  0
LINE
  5
491
  8
0
 10
105.5565993645228
 20
48.89388989263328
 30
0.0
 11
105.1366790117691
 21
31.54353315830119
 31
0.0
  0
LINE
  5
492
  8
0
 10
101.8485111738688
 20
31.54353315830108
 30
0.0
 11
105.1366790117691
 21
31.54353315830108
 31
0.0
  0
ARC
  5
493
  8
0
 10
109.5554283661657
 20
48.7971086154133
 30
0.0
 40
4.0
 50
158.9636622135227
 51
178.6135750254296
  0
LINE
  5
494
  8
0
  6
CONTINUOUS
 10
140.2506993252466
 20
65.90608393110185
 30
0.0
 11
139.4929078819353
 21
65.90608393110185
 31
0.0
  0
LINE
  5
495
  8
TALL_1
  6
CONTINUOUS
 10
138.1633669526245
 20
52.84015960084364
 30
0.0
 11
141.1413921700832
 21
53.20260380921409
 31
0.0
  0
LINE
  5
496
  8
TALL_1
  6
CONTINUOUS
 10
142.2287245430559
 20
44.26852812615173
 30
0.0
 11
139.2506993255961
 21
43.90608391778105
 31
0.0
  0
LINE
  5
497
  8
TALL_1
  6
CONTINUOUS
 10
141.1413921700832
 20
53.20260380921409
 30
0.0
 11
142.2287247951945
 21
44.26852815683853
 31
0.0
  0
LINE
  5
498
  8
TALL_1
  6
CONTINUOUS
 10
139.2506995777358
 20
43.90608394846809
 30
0.0
 11
138.1633669526245
 21
52.84015960084364
 31
0.0
  0
LINE
  5
499
  8
0
  6
CONTINUOUS
 10
141.2506993252475
 20
31.54353315830108
 30
0.0
 11
141.2506993252475
 21
28.54353315830108
 31
0.0
  0
LINE
  5
49A
  8
0
  6
CONTINUOUS
 10
144.2506993252466
 20
19.90608393110185
 30
0.0
 11
138.2506993252466
 21
19.90608393110185
 31
0.0
  0
LINE
  5
49B
  8
0
  6
CONTINUOUS
 10
171.2506993252466
 20
19.90608393110185
 30
0.0
 11
165.2506993252466
 21
19.90608393110185
 31
0.0
  0
LINE
  5
49C
  8
0
 10
138.2506993252466
 20
19.90608393110185
 30
0.0
 11
138.2506993252466
 21
22.90608393110185
 31
0.0
  0
LINE
  5
49D
  8
0
 10
144.2506993252466
 20
19.90608393110185
 30
0.0
 11
144.2506993252466
 21
22.90608393110185
 31
0.0
  0
LINE
  5
49E
  8
0
 10
165.2506993252466
 20
22.90608393110185
 30
0.0
 11
165.2506993252466
 21
19.90608393110185
 31
0.0
  0
ARC
  5
49F
  8
0
  6
CONTINUOUS
 10
139.4929078819353
 20
61.90608393110185
 30
0.0
 40
4.000000000000001
 50
90.0
 51
183.3664606634294
  0
LINE
  5
4A0
  8
0
 10
144.2506993252466
 20
22.90608393110185
 30
0.0
 11
165.2506993252466
 21
22.90608393110185
 31
0.0
  0
POLYLINE
  5
4A1
  8
0
 66
     1
 10
0.0
 20
0.0
 30
0.0
  0
VERTEX
  5
99C
  8
0
 10
171.2506993252466
 20
19.90608393110185
 30
0.0
  0
VERTEX
  5
99D
  8
0
 10
171.2506993252466
 20
28.54353315830108
 30
0.0
  0
VERTEX
  5
99E
  8
0
 10
141.2506993252475
 20
28.54353315830108
 30
0.0
  0
SEQEND
  5
9E3
  8
0
  0
ARC
  5
4A2
  8
0
 10
132.9354857825983
 20
54.95908997703894
 30
0.0
 40
13.16620772298672
 50
338.9636622135242
 51
56.24759007164191
  0
LINE
  5
4A3
  8
0
 10
141.2506993252475
 20
31.54353315830108
 30
0.0
 11
144.5388671631479
 21
31.54353315830108
 31
0.0
  0
LINE
  5
4A4
  8
0
 10
138.2506993252466
 20
22.90608393110185
 30
0.0
 11
135.4998103892353
 21
61.67119584329598
 31
0.0
  0
LINE
  5
4A5
  8
0
 10
144.9587875159016
 20
48.89388989263328
 30
0.0
 11
144.5388671631479
 21
31.54353315830119
 31
0.0
  0
ARC
  5
4A6
  8
0
 10
148.9576165175445
 20
48.7971086154133
 30
0.0
 40
4.0
 50
158.9636622135227
 51
178.6135750254296
  0
POLYLINE
  5
4A7
  8
0
 66
     1
 10
0.0
 20
0.0
 30
0.0
 70
     1
  0
VERTEX
  5
99F
  8
0
 10
149.7276817913396
 20
34.00795249283344
 30
0.0
  0
VERTEX
  5
9A0
  8
0
 10
149.7276817913396
 20
65.00795249283344
 30
0.0
  0
VERTEX
  5
9A1
  8
0
 10
178.7276817913396
 20
65.00795249283344
 30
0.0
 42
-0.414213562373095
  0
VERTEX
  5
9A2
  8
0
 10
182.7276817913396
 20
61.00795249283344
 30
0.0
  0
VERTEX
  5
9A3
  8
0
 10
182.7276817913396
 20
38.00795249283344
 30
0.0
 42
-0.414213562373095
  0
VERTEX
  5
9A4
  8
0
 10
178.7276817913396
 20
34.00795249283344
 30
0.0
  0
SEQEND
  5
9E4
  8
0
  0
POLYLINE
  5
4A8
  8
0
 66
     1
 10
0.0
 20
0.0
 30
0.0
  0
VERTEX
  5
9A5
  8
0
 10
180.1756163978819
 20
12.20410442693857
 30
0.0
  0
VERTEX
  5
9A6
  8
0
 10
177.1756180911059
 20
12.20729180063132
 30
0.0
  0
VERTEX
  5
9A7
  8
0
 10
177.1851804661849
 20
21.20728672068471
 30
0.0
  0
VERTEX
  5
9A8
  8
0
 10
180.1851787729595
 20
21.20409934699184
 30
0.0
  0
SEQEND
  5
9E5
  8
0
  0
LINE
  5
4A9
  8
0
 10
180.1851787729595
 20
21.20409934699184
 30
0.0
 11
180.1974424323183
 21
32.74651125137451
 31
0.0
  0
LINE
  5
4AA
  8
0
 10
180.1756163978819
 20
12.20410442693857
 30
0.0
 11
180.1626496990053
 21
0.0000000000000142
 31
0.0
  0
LINE
  5
4AB
  8
0
 10
180.1626496990053
 20
0.0000000000000142
 30
0.0
 11
202.1626496990053
 21
0.0000000000000142
 31
0.0
  0
POLYLINE
  5
4AC
  8
0
 66
     1
 10
0.0
 20
0.0
 30
0.0
  0
VERTEX
  5
9A9
  8
0
 10
202.1496830001286
 20
12.20410442693857
 30
0.0
  0
VERTEX
  5
9AA
  8
0
 10
205.1496813069046
 20
12.20729180063132
 30
0.0
  0
VERTEX
  5
9AB
  8
0
 10
205.1401189318256
 20
21.20728672068471
 30
0.0
  0
VERTEX
  5
9AC
  8
0
 10
202.140120625051
 20
21.20409934699184
 30
0.0
  0
SEQEND
  5
9E6
  8
0
  0
LINE
  5
4AD
  8
0
 10
202.140120625051
 20
21.20409934699184
 30
0.0
 11
202.1278569656923
 21
32.74651125137451
 31
0.0
  0
LINE
  5
4AE
  8
0
 10
202.1496830001286
 20
12.20410442693857
 30
0.0
 11
202.1626496990053
 21
0.0000000000000142
 31
0.0
  0
ARC
  5
4AF
  8
0
 10
191.1626496990053
 20
6.956229843834095
 30
0.0
 40
28.02453185124654
 50
66.9663462161249
 51
113.0336537838751
  0
LINE
  5
4B0
  8
TALL_1
 10
197.9547680176655
 20
104.2167617475439
 30
0.0
 11
197.9547680176655
 21
107.2167617475439
 31
0.0
  0
LINE
  5
4B1
  8
TALL_1
 10
197.9547680176655
 20
107.2167617475439
 30
0.0
 11
212.9547680176655
 21
107.2167617475439
 31
0.0
  0
LINE
  5
4B2
  8
TALL_1
 10
212.9547680176655
 20
107.2167617475439
 30
0.0
 11
212.9547680176655
 21
104.2167617475439
 31
0.0
  0
LINE
  5
4B3
  8
TALL_1
 10
212.9547680176655
 20
104.2167617475439
 30
0.0
 11
197.9547680176655
 21
104.2167617475439
 31
0.0
  0
LINE
  5
4B4
  8
0
 10
185.9547680176655
 20
110.2167617475439
 30
0.0
 11
224.9547680176655
 21
110.2167617475439
 31
0.0
  0
LINE
  5
4B5
  8
TALL_1
 10
197.9547680176655
 20
42.21676174754391
 30
0.0
 11
197.9547680176655
 21
45.21676174754391
 31
0.0
  0
LINE
  5
4B6
  8
TALL_1
 10
197.9547680176655
 20
45.21676174754391
 30
0.0
 11
212.9547680176655
 21
45.21676174754391
 31
0.0
  0
LINE
  5
4B7
  8
TALL_1
 10
212.9547680176655
 20
45.21676174754391
 30
0.0
 11
212.9547680176655
 21
42.21676174754391
 31
0.0
  0
LINE
  5
4B8
  8
TALL_1
 10
212.9547680176655
 20
42.21676174754391
 30
0.0
 11
197.9547680176655
 21
42.21676174754391
 31
0.0
  0
LINE
  5
4B9
  8
0
 10
185.9547680176655
 20
110.2167617475439
 30
0.0
 11
185.9547680176655
 21
39.21676174754391
 31
0.0
  0
LINE
  5
4BA
  8
0
 10
185.9547680176655
 20
39.21676174754391
 30
0.0
 11
224.9547680176655
 21
39.21676174754391
 31
0.0
  0
LINE
  5
4BB
  8
0
 10
224.9547680176655
 20
39.21676174754391
 30
0.0
 11
224.9547680176655
 21
110.2167617475439
 31
0.0
  0
CIRCLE
  5
4BC
  8
TALL_1
  6
CONTINUOUS
 10
132.6277138944166
 20
9.237321128210255
 30
0.0
 40
2.399999999999998
  0
LINE
  5
4BD
  8
0
 10
162.6277138944166
 20
9.237321128210255
 30
0.0
 11
162.6277138944166
 21
9.237321128210255
 31
0.0
  0
ARC
  5
4BE
  8
0
 10
157.6277138944166
 20
9.237321128210255
 30
0.0
 40
5.0
 50
0.0
 51
90.0
  0
ARC
  5
4BF
  8
0
 10
157.6277138944166
 20
9.237321128210255
 30
0.0
 40
5.0
 50
270.0
 51
0.0
  0
LINE
  5
4C0
  8
0
 10
102.6277138944166
 20
9.237321128210255
 30
0.0
 11
102.6277138944166
 21
9.237321128210255
 31
0.0
  0
ARC
  5
4C1
  8
0
 10
107.6277138944166
 20
9.237321128210255
 30
0.0
 40
5.0
 50
90.0
 51
180.0
  0
ARC
  5
4C2
  8
0
 10
107.6277138944166
 20
9.237321128210255
 30
0.0
 40
5.0
 50
180.0
 51
270.0
  0
LINE
  5
4C3
  8
0
 10
107.6277138944166
 20
14.23732112821025
 30
0.0
 11
157.6277138944166
 21
14.23732112821025
 31
0.0
  0
LINE
  5
4C4
  8
0
 10
107.6277138944166
 20
4.237321128210255
 30
0.0
 11
157.6277138944166
 21
4.237321128210255
 31
0.0
  0
LINE
  5
4C5
  8
0
  6
CONTINUOUS
 62
     7
 10
197.7561301491847
 20
254.8543539399737
 30
0.0
 11
191.9547680176655
 21
153.3305166383869
 31
0.0
  0
LINE
  5
4C6
  8
0
  6
CONTINUOUS
 62
     7
 10
218.9547680176655
 20
153.3305166383869
 30
0.0
 11
218.9547680176655
 21
237.0513010275127
 31
0.0
  0
LINE
  5
4C7
  8
0
  6
CONTINUOUS
 62
     7
 10
224.9547680176655
 20
138.3305166383871
 30
0.0
 11
218.9547680176655
 21
153.3305166383869
 31
0.0
  0
LINE
  5
4C8
  8
0
  6
CONTINUOUS
 62
     7
 10
224.9547680176655
 20
126.3305166383869
 30
0.0
 11
224.9547680176655
 21
138.3305166383871
 31
0.0
  0
LINE
  5
4C9
  8
0
  6
CONTINUOUS
 62
     7
 10
185.9547680176655
 20
138.3305166383869
 30
0.0
 11
191.9547680176655
 21
153.3305166383869
 31
0.0
  0
LINE
  5
4CA
  8
0
  6
CONTINUOUS
 62
     7
 10
185.9547680176655
 20
126.3305166383869
 30
0.0
 11
185.9547680176655
 21
138.3305166383869
 31
0.0
  0
LINE
  5
4CB
  8
0
  6
CONTINUOUS
 62
     7
 10
199.2047680176655
 20
126.3305168923867
 30
0.0
 11
199.2047680176655
 21
117.3305168923867
 31
0.0
  0
LINE
  5
4CC
  8
0
  6
CONTINUOUS
 62
     7
 10
216.2047680176655
 20
126.3305168923867
 30
0.0
 11
216.2047680176655
 21
117.3305168923867
 31
0.0
  0
LINE
  5
4CD
  8
0
  6
CONTINUOUS
 62
     7
 10
224.9547680176655
 20
126.3305166383869
 30
0.0
 11
216.2047680176655
 21
126.3305166383869
 31
0.0
  0
LINE
  5
4CE
  8
0
  6
CONTINUOUS
 62
     7
 10
216.2047680176655
 20
117.3305168923867
 30
0.0
 11
199.2047680176655
 21
117.3305168923867
 31
0.0
  0
LINE
  5
4CF
  8
0
  6
CONTINUOUS
 62
     7
 10
199.2047680176655
 20
126.3305168923867
 30
0.0
 11
185.9547680176655
 21
126.3305168923867
 31
0.0
  0
CIRCLE
  5
4D0
  8
TALL_1
  6
CONTINUOUS
 10
227.9547680176655
 20
252.3305168923869
 30
0.0
 40
2.399999999999998
  0
ARC
  5
4D1
  8
0
  6
CONTINUOUS
 62
     7
 10
201.7496154868807
 20
254.6261547778195
 30
0.0
 40
3.999999999999999
 50
94.65308485498518
 51
176.7295120768148
  0
LINE
  5
4D2
  8
0
  6
CONTINUOUS
 62
     7
 10
222.1703034771128
 20
240.9736237302764
 30
0.0
 11
232.7671842599456
 21
243.0929998868428
 31
0.0
  0
ARC
  5
4D3
  8
0
  6
CONTINUOUS
 62
     7
 10
222.9547680176655
 20
237.0513010275127
 30
0.0
 40
3.999999999999999
 50
101.3099324740193
 51
180.0
  0
LINE
  5
4D4
  8
0
  6
CONTINUOUS
 62
     7
 10
234.8140329837136
 20
261.3305166383869
 30
0.0
 11
201.4251258433189
 21
258.6129713614137
 31
0.0
  0
ARC
  5
4D5
  8
0
  6
CONTINUOUS
 62
     7
 10
231.9827197193928
 20
247.0153225896065
 30
0.0
 40
3.999999999999999
 50
281.309932474021
 51
314.9999999999994
  0
ARC
  5
4D6
  8
0
  6
CONTINUOUS
 62
     7
 10
234.8140329837136
 20
257.3305166383869
 30
0.0
 40
3.999999999999999
 50
33.69006752597866
 51
90.00000000000162
  0
LINE
  5
4D7
  8
0
  6
CONTINUOUS
 62
     7
 10
234.811146844139
 20
244.1868954648603
 30
0.0
 11
240.6360124222435
 21
250.0117610429648
 31
0.0
  0
LINE
  5
4D8
  8
0
  6
CONTINUOUS
 62
     7
 10
241.1357864748487
 20
255.0589889526121
 30
0.0
 11
238.1422341610649
 21
259.549317423288
 31
0.0
  0
ARC
  5
4D9
  8
0
  6
CONTINUOUS
 62
     7
 10
237.8075852974974
 20
252.840188167711
 30
0.0
 40
3.999999999999999
 50
314.9999999999991
 51
33.6900675259825
  0
LINE
  5
4DA
  8
0
 10
18.2233767740575
 20
98.09730066614961
 30
0.0
 11
18.2233767740575
 21
101.0973006661496
 31
0.0
  0
LINE
  5
4DB
  8
0
 10
19.2233767740575
 20
102.0973006661496
 30
0.0
 11
32.2233767740575
 21
102.0973006661496
 31
0.0
  0
LINE
  5
4DC
  8
0
 10
33.2233767740575
 20
101.0973006661496
 30
0.0
 11
33.2233767740575
 21
98.09730066614961
 31
0.0
  0
ARC
  5
4DD
  8
0
 10
19.2233767740575
 20
101.0973006661496
 30
0.0
 40
1.0
 50
90.0
 51
180.0
  0
ARC
  5
4DE
  8
0
 10
32.2233767740575
 20
101.0973006661496
 30
0.0
 40
1.0
 50
0.0
 51
90.0
  0
LINE
  5
4DF
  8
0
 10
18.2233767740575
 20
98.09730066614961
 30
0.0
 11
22.67337677405743
 21
98.09730066614961
 31
0.0
  0
LINE
  5
4E0
  8
0
 10
28.77337677405711
 20
98.09730066614961
 30
0.0
 11
33.2233767740575
 21
98.09730066614961
 31
0.0
  0
LINE
  5
4E1
  8
0
 10
22.67337677405743
 20
98.09730066614961
 30
0.0
 11
22.67337677405743
 21
92.13325550223598
 31
0.0
  0
LINE
  5
4E2
  8
0
 10
28.77337677405711
 20
98.09730066614961
 30
0.0
 11
28.77337677405711
 21
92.13325550223598
 31
0.0
  0
LINE
  5
4E3
  8
0
 10
24.17337677405743
 20
90.63325550223598
 30
0.0
 11
27.27337677405711
 21
90.63325550223598
 31
0.0
  0
ARC
  5
4E4
  8
0
 10
24.17337677405743
 20
92.13325550223598
 30
0.0
 40
1.500000000000001
 50
180.0
 51
270.0
  0
ARC
  5
4E5
  8
0
 10
27.27337677405711
 20
92.13325550223598
 30
0.0
 40
1.500000000000001
 50
270.0
 51
0.0
  0
LINE
  5
4E6
  8
0
 10
7.738148751843767
 20
129.5529847327907
 30
0.0
 11
7.738148751843767
 21
132.5529847327907
 31
0.0
  0
LINE
  5
4E7
  8
0
 10
8.738148751843767
 20
133.5529847327907
 30
0.0
 11
21.73814875184377
 21
133.5529847327907
 31
0.0
  0
LINE
  5
4E8
  8
0
 10
22.73814875184377
 20
132.5529847327907
 30
0.0
 11
22.73814875184377
 21
129.5529847327907
 31
0.0
  0
ARC
  5
4E9
  8
0
 10
8.738148751843767
 20
132.5529847327907
 30
0.0
 40
1.0
 50
90.0
 51
180.0
  0
ARC
  5
4EA
  8
0
 10
21.73814875184377
 20
132.5529847327907
 30
0.0
 40
1.0
 50
0.0
 51
90.0
  0
LINE
  5
4EB
  8
0
 10
7.738148751843767
 20
129.5529847327907
 30
0.0
 11
12.1881487518437
 21
129.5529847327907
 31
0.0
  0
LINE
  5
4EC
  8
0
 10
18.28814875184338
 20
129.5529847327907
 30
0.0
 11
22.73814875184377
 21
129.5529847327907
 31
0.0
  0
LINE
  5
4ED
  8
0
 10
12.1881487518437
 20
129.5529847327907
 30
0.0
 11
12.1881487518437
 21
123.5889395688771
 31
0.0
  0
LINE
  5
4EE
  8
0
 10
18.28814875184338
 20
129.5529847327907
 30
0.0
 11
18.28814875184338
 21
123.5889395688771
 31
0.0
  0
LINE
  5
4EF
  8
0
 10
13.6881487518437
 20
122.0889395688771
 30
0.0
 11
16.78814875184338
 21
122.0889395688771
 31
0.0
  0
ARC
  5
4F0
  8
0
 10
13.6881487518437
 20
123.5889395688771
 30
0.0
 40
1.500000000000001
 50
180.0
 51
270.0
  0
ARC
  5
4F1
  8
0
 10
16.78814875184338
 20
123.5889395688771
 30
0.0
 40
1.500000000000001
 50
270.0
 51
0.0
  0
LINE
  5
4F2
  8
0
 10
72.63838452676136
 20
82.66569417915099
 30
0.0
 11
72.63838452676136
 21
85.66569417915099
 31
0.0
  0
LINE
  5
4F3
  8
0
 10
73.63838452676136
 20
86.66569417915099
 30
0.0
 11
86.63838452676136
 21
86.66569417915099
 31
0.0
  0
LINE
  5
4F4
  8
0
 10
87.63838452676136
 20
85.66569417915099
 30
0.0
 11
87.63838452676136
 21
82.66569417915099
 31
0.0
  0
ARC
  5
4F5
  8
0
 10
73.63838452676136
 20
85.66569417915099
 30
0.0
 40
1.0
 50
90.0
 51
180.0
  0
ARC
  5
4F6
  8
0
 10
86.63838452676136
 20
85.66569417915099
 30
0.0
 40
1.0
 50
0.0
 51
90.0
  0
LINE
  5
4F7
  8
0
 10
72.63838452676136
 20
82.66569417915099
 30
0.0
 11
77.08838452676129
 21
82.66569417915099
 31
0.0
  0
LINE
  5
4F8
  8
0
 10
83.18838452676097
 20
82.66569417915099
 30
0.0
 11
87.63838452676136
 21
82.66569417915099
 31
0.0
  0
LINE
  5
4F9
  8
0
 10
77.08838452676129
 20
82.66569417915099
 30
0.0
 11
77.08838452676129
 21
76.70164901523736
 31
0.0
  0
LINE
  5
4FA
  8
0
 10
83.18838452676097
 20
82.66569417915099
 30
0.0
 11
83.18838452676097
 21
76.70164901523736
 31
0.0
  0
LINE
  5
4FB
  8
0
 10
78.58838452676129
 20
75.20164901523736
 30
0.0
 11
81.68838452676097
 21
75.20164901523736
 31
0.0
  0
ARC
  5
4FC
  8
0
 10
78.58838452676129
 20
76.70164901523736
 30
0.0
 40
1.500000000000001
 50
180.0
 51
270.0
  0
ARC
  5
4FD
  8
0
 10
81.68838452676097
 20
76.70164901523736
 30
0.0
 40
1.500000000000001
 50
270.0
 51
0.0
  0
LINE
  5
4FE
  8
0
 10
109.5554283661657
 20
56.26115377932692
 30
0.0
 11
109.5554283661657
 21
59.26115377932692
 31
0.0
  0
LINE
  5
4FF
  8
0
 10
110.5554283661657
 20
60.26115377932692
 30
0.0
 11
123.5554283661657
 21
60.26115377932692
 31
0.0
  0
LINE
  5
500
  8
0
 10
124.5554283661657
 20
59.26115377932692
 30
0.0
 11
124.5554283661657
 21
56.26115377932692
 31
0.0
  0
ARC
  5
501
  8
0
 10
110.5554283661657
 20
59.26115377932692
 30
0.0
 40
1.0
 50
90.0
 51
180.0
  0
ARC
  5
502
  8
0
 10
123.5554283661657
 20
59.26115377932692
 30
0.0
 40
1.0
 50
0.0
 51
90.0
  0
LINE
  5
503
  8
0
 10
109.5554283661657
 20
56.26115377932692
 30
0.0
 11
114.0054283661656
 21
56.26115377932692
 31
0.0
  0
LINE
  5
504
  8
0
 10
120.1054283661653
 20
56.26115377932692
 30
0.0
 11
124.5554283661657
 21
56.26115377932692
 31
0.0
  0
LINE
  5
505
  8
0
 10
114.0054283661656
 20
56.26115377932692
 30
0.0
 11
114.0054283661656
 21
50.2971086154133
 31
0.0
  0
LINE
  5
506
  8
0
 10
120.1054283661653
 20
56.26115377932692
 30
0.0
 11
120.1054283661653
 21
50.2971086154133
 31
0.0
  0
LINE
  5
507
  8
0
 10
115.5054283661656
 20
48.7971086154133
 30
0.0
 11
118.6054283661653
 21
48.7971086154133
 31
0.0
  0
ARC
  5
508
  8
0
 10
115.5054283661656
 20
50.2971086154133
 30
0.0
 40
1.500000000000001
 50
180.0
 51
270.0
  0
ARC
  5
509
  8
0
 10
118.6054283661653
 20
50.2971086154133
 30
0.0
 40
1.500000000000001
 50
270.0
 51
0.0
  0
CIRCLE
  5
50A
  8
TALL_1
 10
22.71286770772673
 20
218.1015994337283
 30
0.0
 40
1.05
  0
CIRCLE
  5
50B
  8
TALL_1
 10
22.7128677077265
 20
203.1015994337283
 30
0.0
 40
1.05
  0
CIRCLE
  5
50C
  8
TALL_1
  6
CONTINUOUS
 10
205.9530550552753
 20
274.124452531983
 30
0.0
 40
2.399999999999998
  0
LINE
  5
50D
  8
0
 10
235.9530550552753
 20
274.124452531983
 30
0.0
 11
235.9530550552753
 21
274.124452531983
 31
0.0
  0
ARC
  5
50E
  8
0
 10
230.9530550552753
 20
274.124452531983
 30
0.0
 40
5.0
 50
0.0
 51
90.0
  0
ARC
  5
50F
  8
0
 10
230.9530550552753
 20
274.124452531983
 30
0.0
 40
5.0
 50
270.0
 51
0.0
  0
LINE
  5
510
  8
0
 10
175.9530550552753
 20
274.124452531983
 30
0.0
 11
175.9530550552753
 21
274.124452531983
 31
0.0
  0
ARC
  5
511
  8
0
 10
180.9530550552753
 20
274.124452531983
 30
0.0
 40
5.0
 50
90.0
 51
180.0
  0
ARC
  5
512
  8
0
 10
180.9530550552753
 20
274.124452531983
 30
0.0
 40
5.0
 50
180.0
 51
270.0
  0
LINE
  5
513
  8
0
 10
180.9530550552753
 20
279.124452531983
 30
0.0
 11
230.9530550552753
 21
279.124452531983
 31
0.0
  0
LINE
  5
514
  8
0
 10
180.9530550552753
 20
269.124452531983
 30
0.0
 11
230.9530550552753
 21
269.124452531983
 31
0.0
  0
LINE
  5
515
  8
0
 10
20.41232603772073
 20
52.21539511373153
 30
0.0
 11
20.41232603772073
 21
55.21539511373153
 31
0.0
  0
LINE
  5
516
  8
0
 10
21.41232603772073
 20
56.21539511373153
 30
0.0
 11
34.41232603772073
 21
56.21539511373153
 31
0.0
  0
LINE
  5
517
  8
0
 10
35.41232603772073
 20
55.21539511373153
 30
0.0
 11
35.41232603772073
 21
52.21539511373153
 31
0.0
  0
ARC
  5
518
  8
0
 10
21.41232603772073
 20
55.21539511373153
 30
0.0
 40
1.0
 50
90.0
 51
180.0
  0
ARC
  5
519
  8
0
 10
34.41232603772073
 20
55.21539511373153
 30
0.0
 40
1.0
 50
0.0
 51
90.0
  0
LINE
  5
51A
  8
0
 10
20.41232603772073
 20
52.21539511373153
 30
0.0
 11
24.86232603772066
 21
52.21539511373153
 31
0.0
  0
LINE
  5
51B
  8
0
 10
30.96232603772035
 20
52.21539511373153
 30
0.0
 11
35.41232603772073
 21
52.21539511373153
 31
0.0
  0
LINE
  5
51C
  8
0
 10
24.86232603772066
 20
52.21539511373153
 30
0.0
 11
24.86232603772066
 21
46.25134994981789
 31
0.0
  0
LINE
  5
51D
  8
0
 10
30.96232603772035
 20
52.21539511373153
 30
0.0
 11
30.96232603772035
 21
46.25134994981789
 31
0.0
  0
LINE
  5
51E
  8
0
 10
26.36232603772066
 20
44.75134994981789
 30
0.0
 11
29.46232603772035
 21
44.75134994981789
 31
0.0
  0
ARC
  5
51F
  8
0
 10
26.36232603772066
 20
46.25134994981789
 30
0.0
 40
1.500000000000001
 50
180.0
 51
270.0
  0
ARC
  5
520
  8
0
 10
29.46232603772035
 20
46.25134994981789
 30
0.0
 40
1.500000000000001
 50
270.0
 51
0.0
  0
LINE
  5
764
  8
TALL_1
  6
CONTINUOUS
 10
500.0782091106953
 20
216.1001687134083
 30
0.0
 11
500.0782091106953
 21
213.100168713408
 31
0.0
  0
LINE
  5
765
  8
TALL_1
  6
CONTINUOUS
 10
500.0782091106953
 20
213.100168713408
 30
0.0
 11
512.0782091106951
 21
213.100168713408
 31
0.0
  0
LINE
  5
766
  8
TALL_1
  6
CONTINUOUS
 10
512.0782091106951
 20
213.100168713408
 30
0.0
 11
512.0782091106951
 21
216.1001687134083
 31
0.0
  0
LINE
  5
767
  8
TALL_1
  6
CONTINUOUS
 10
500.0782091106953
 20
216.1001687134083
 30
0.0
 11
512.0782091106951
 21
216.1001687134083
 31
0.0
  0
LINE
  5
768
  8
TALL_1
  6
CONTINUOUS
 10
500.0782091106953
 20
186.1001687134082
 30
0.0
 11
500.0782091106953
 21
183.100168713408
 31
0.0
  0
LINE
  5
769
  8
TALL_1
  6
CONTINUOUS
 10
500.0782091106953
 20
183.100168713408
 30
0.0
 11
512.0782091106951
 21
183.100168713408
 31
0.0
  0
LINE
  5
76A
  8
TALL_1
  6
CONTINUOUS
 10
512.0782091106951
 20
183.100168713408
 30
0.0
 11
512.0782091106951
 21
186.1001687134082
 31
0.0
  0
LINE
  5
76B
  8
TALL_1
  6
CONTINUOUS
 10
500.0782091106953
 20
186.1001687134082
 30
0.0
 11
512.0782091106951
 21
186.1001687134082
 31
0.0
  0
LINE
  5
76C
  8
0
  6
CONTINUOUS
 62
     7
 10
480.8506047787782
 20
207.5795968708686
 30
0.0
 11
489.7736817018551
 21
149.5795968708686
 31
0.0
  0
LINE
  5
76D
  8
0
  6
CONTINUOUS
 62
     7
 10
499.6573986783612
 20
141.100168713408
 30
0.0
 11
565.0782091106953
 21
141.100168713408
 31
0.0
  0
LINE
  5
76E
  8
0
  6
CONTINUOUS
 62
     7
 10
490.7343217552843
 20
219.100168713408
 30
0.0
 11
538.257562120395
 21
219.100168713408
 31
0.0
  0
ARC
  5
76F
  8
0
  6
CONTINUOUS
 62
     7
 10
499.6573986783612
 20
151.100168713408
 30
0.0
 40
9.999999999999996
 50
188.7461622625553
 51
270.0
  0
ARC
  5
770
  8
0
  6
CONTINUOUS
 62
     7
 10
490.7343217552843
 20
209.1001687134083
 30
0.0
 40
9.999999999999996
 50
90.0
 51
188.7461622625559
  0
LINE
  5
771
  8
0
  6
CONTINUOUS
 62
     7
 10
575.0782091106953
 20
151.100168713408
 30
0.0
 11
575.0782091106953
 21
159.1001687134082
 31
0.0
  0
ARC
  5
772
  8
0
  6
CONTINUOUS
 62
     7
 10
565.0782091106953
 20
151.100168713408
 30
0.0
 40
9.999999999999996
 50
270.0
 51
0.0
  0
ARC
  5
773
  8
0
  6
CONTINUOUS
 62
     7
 10
478.4246582469716
 20
145.0157157383601
 30
0.0
 40
97.67436055676404
 50
8.29084319032944
 51
46.9650217773606
  0
ARC
  5
774
  8
0
  6
CONTINUOUS
 62
     7
 10
538.257562120395
 20
209.1001687134083
 30
0.0
 40
9.999999999999996
 50
46.96502177736052
 51
90.0
  0
LINE
  5
775
  8
TALL_1
  6
CONTINUOUS
 10
522.0351020188057
 20
202.3157041728552
 30
0.0
 11
529.4351020188058
 21
165.3157041728554
 31
0.0
  0
LINE
  5
776
  8
TALL_1
  6
CONTINUOUS
 10
533.3574247215695
 20
162.100168713408
 30
0.0
 11
559.7486817273939
 21
162.100168713408
 31
0.0
  0
LINE
  5
777
  8
TALL_1
  6
CONTINUOUS
 10
525.9574247215694
 20
207.1001687134082
 30
0.0
 11
541.1969481079373
 21
207.1001687134082
 31
0.0
  0
ARC
  5
778
  8
TALL_1
  6
CONTINUOUS
 10
525.9574247215694
 20
203.1001687134082
 30
0.0
 40
3.999999999999999
 50
90.0
 51
191.3099324740209
  0
ARC
  5
779
  8
TALL_1
  6
CONTINUOUS
 10
533.3574247215695
 20
166.100168713408
 30
0.0
 40
3.999999999999999
 50
191.3099324740209
 51
270.0
  0
ARC
  5
77A
  8
TALL_1
  6
CONTINUOUS
 10
541.1969481079373
 20
203.1001687134082
 30
0.0
 40
3.999999999999999
 50
41.85141410664534
 51
90.0
  0
ARC
  5
77B
  8
TALL_1
  6
CONTINUOUS
 10
541.1969481079373
 20
203.1001687134082
 30
0.0
 40
3.999999999999999
 50
41.85141410664534
 51
90.0
  0
LINE
  5
77C
  8
TALL_1
  6
CONTINUOUS
 10
563.7088790487312
 20
166.6630516284744
 30
0.0
 11
563.0782091106953
 21
171.100168713408
 31
0.0
  0
ARC
  5
77D
  8
TALL_1
  6
CONTINUOUS
 10
559.7486817273939
 20
166.100168713408
 30
0.0
 40
3.999999999999999
 50
270.0
 51
8.089553849862247
  0
ARC
  5
77E
  8
TALL_1
  6
CONTINUOUS
 10
469.1198968627257
 20
142.3603403492265
 30
0.0
 40
98.25549437507073
 50
17.00774550455901
 51
40.19150223779737
  0
LINE
  5
77F
  8
TALL_1
  6
CONTINUOUS
 10
562.5782091106953
 20
147.100168713408
 30
0.0
 11
559.5782091106953
 21
147.100168713408
 31
0.0
  0
LINE
  5
780
  8
TALL_1
  6
CONTINUOUS
 10
559.5782091106953
 20
147.100168713408
 30
0.0
 11
559.5782091106953
 21
156.100168713408
 31
0.0
  0
LINE
  5
781
  8
TALL_1
  6
CONTINUOUS
 10
559.5782091106953
 20
156.100168713408
 30
0.0
 11
562.5782091106953
 21
156.100168713408
 31
0.0
  0
LINE
  5
782
  8
TALL_1
  6
CONTINUOUS
 10
562.5782091106953
 20
156.100168713408
 30
0.0
 11
562.5782091106953
 21
147.100168713408
 31
0.0
  0
LINE
  5
783
  8
TALL_1
  6
CONTINUOUS
 10
497.5782091106953
 20
147.100168713408
 30
0.0
 11
497.5782091106953
 21
156.100168713408
 31
0.0
  0
LINE
  5
784
  8
TALL_1
  6
CONTINUOUS
 10
497.5782091106953
 20
156.100168713408
 30
0.0
 11
500.5782091106951
 21
156.100168713408
 31
0.0
  0
LINE
  5
785
  8
TALL_1
  6
CONTINUOUS
 10
500.5782091106951
 20
156.100168713408
 30
0.0
 11
500.5782091106951
 21
147.100168713408
 31
0.0
  0
LINE
  5
786
  8
TALL_1
  6
CONTINUOUS
 10
500.5782091106951
 20
147.100168713408
 30
0.0
 11
497.5782091106953
 21
147.100168713408
 31
0.0
  0
POLYLINE
  5
787
  8
TALL_1
  6
CONTINUOUS
 66
     1
 10
0.0
 20
0.0
 30
0.0
 70
     1
  0
VERTEX
  5
9AD
  8
TALL_1
  6
CONTINUOUS
 10
493.8840635124034
 20
167.8867123572143
 30
0.0
  0
VERTEX
  5
9AE
  8
TALL_1
  6
CONTINUOUS
 10
493.8840635124036
 20
178.8867123572143
 30
0.0
  0
VERTEX
  5
9AF
  8
TALL_1
  6
CONTINUOUS
 10
499.8840635124036
 20
178.8867123572143
 30
0.0
  0
VERTEX
  5
9B0
  8
TALL_1
  6
CONTINUOUS
 10
499.8840635124034
 20
167.8867123572143
 30
0.0
  0
SEQEND
  5
9E7
  8
TALL_1
  6
CONTINUOUS
  0
POLYLINE
  5
788
  8
0
  6
CONTINUOUS
 62
     7
 66
     1
 10
0.0
 20
0.0
 30
0.0
  0
VERTEX
  5
9B1
  8
0
  6
CONTINUOUS
 62
     7
 10
544.4550195111538
 20
300.8415449119537
 30
0.0
  0
VERTEX
  5
9B2
  8
0
  6
CONTINUOUS
 62
     7
 10
474.1632234436531
 20
300.8415449119537
 30
0.0
 42
-0.4142135623731014
  0
VERTEX
  5
9B3
  8
0
  6
CONTINUOUS
 62
     7
 10
470.1632234436531
 20
304.8415449119536
 30
0.0
  0
VERTEX
  5
9B4
  8
0
  6
CONTINUOUS
 62
     7
 10
470.1632234436531
 20
305.8415449119536
 30
0.0
 42
-0.4142135623731014
  0
VERTEX
  5
9B5
  8
0
  6
CONTINUOUS
 62
     7
 10
474.1632234436531
 20
309.8415449119536
 30
0.0
  0
VERTEX
  5
9B6
  8
0
  6
CONTINUOUS
 62
     7
 10
544.4550195111538
 20
309.8415449119536
 30
0.0
  0
SEQEND
  5
9E8
  8
0
  6
CONTINUOUS
 62
     7
  0
POLYLINE
  5
789
  8
0
  6
CONTINUOUS
 62
     7
 66
     1
 10
0.0
 20
0.0
 30
0.0
  0
VERTEX
  5
9B7
  8
0
  6
CONTINUOUS
 62
     7
 10
557.8714273761523
 20
309.8415449119536
 30
0.0
  0
VERTEX
  5
9B8
  8
0
  6
CONTINUOUS
 62
     7
 10
628.1632234436531
 20
309.8415449119536
 30
0.0
 42
-0.4142135623731014
  0
VERTEX
  5
9B9
  8
0
  6
CONTINUOUS
 62
     7
 10
632.1632234436531
 20
305.8415449119536
 30
0.0
  0
VERTEX
  5
9BA
  8
0
  6
CONTINUOUS
 62
     7
 10
632.1632234436531
 20
304.8415449119537
 30
0.0
 42
-0.4142135623731001
  0
VERTEX
  5
9BB
  8
0
  6
CONTINUOUS
 62
     7
 10
628.1632234436531
 20
300.8415449119537
 30
0.0
  0
VERTEX
  5
9BC
  8
0
  6
CONTINUOUS
 62
     7
 10
557.8714273761523
 20
300.8415449119537
 30
0.0
  0
SEQEND
  5
9E9
  8
0
  6
CONTINUOUS
 62
     7
  0
ARC
  5
78A
  8
0
  6
CONTINUOUS
 62
     7
 10
551.1632234436529
 20
305.3415449119536
 30
0.0
 40
8.077747210701762
 50
213.8545148126205
 51
326.1454851873795
  0
ARC
  5
78B
  8
0
  6
CONTINUOUS
 62
     7
 10
551.1632234436529
 20
305.3415449119536
 30
0.0
 40
8.077747210701762
 50
33.8545148126205
 51
146.1454851873795
  0
CIRCLE
  5
78C
  8
TALL_1
  6
CONTINUOUS
 10
551.1632234436529
 20
305.3415449119536
 30
0.0
 40
1.9
  0
POLYLINE
  5
78D
  8
0
  6
CONTINUOUS
 62
     7
 66
     1
 10
0.0
 20
0.0
 30
0.0
  0
VERTEX
  5
9BD
  8
0
  6
CONTINUOUS
 62
     7
 10
542.5798387942705
 20
283.3398582210447
 30
0.0
  0
VERTEX
  5
9BE
  8
0
  6
CONTINUOUS
 62
     7
 10
472.2880427267698
 20
283.3398582210447
 30
0.0
 42
-0.4142135623731014
  0
VERTEX
  5
9BF
  8
0
  6
CONTINUOUS
 62
     7
 10
468.2880427267698
 20
287.3398582210446
 30
0.0
  0
VERTEX
  5
9C0
  8
0
  6
CONTINUOUS
 62
     7
 10
468.2880427267698
 20
288.3398582210446
 30
0.0
 42
-0.4142135623731014
  0
VERTEX
  5
9C1
  8
0
  6
CONTINUOUS
 62
     7
 10
472.2880427267698
 20
292.3398582210446
 30
0.0
  0
VERTEX
  5
9C2
  8
0
  6
CONTINUOUS
 62
     7
 10
542.5798387942705
 20
292.3398582210446
 30
0.0
  0
SEQEND
  5
9EA
  8
0
  6
CONTINUOUS
 62
     7
  0
POLYLINE
  5
78E
  8
0
  6
CONTINUOUS
 62
     7
 66
     1
 10
0.0
 20
0.0
 30
0.0
  0
VERTEX
  5
9C3
  8
0
  6
CONTINUOUS
 62
     7
 10
555.996246659269
 20
292.3398582210446
 30
0.0
  0
VERTEX
  5
9C4
  8
0
  6
CONTINUOUS
 62
     7
 10
626.2880427267698
 20
292.3398582210446
 30
0.0
 42
-0.4142135623731014
  0
VERTEX
  5
9C5
  8
0
  6
CONTINUOUS
 62
     7
 10
630.2880427267698
 20
288.3398582210446
 30
0.0
  0
VERTEX
  5
9C6
  8
0
  6
CONTINUOUS
 62
     7
 10
630.2880427267698
 20
287.3398582210447
 30
0.0
 42
-0.4142135623731001
  0
VERTEX
  5
9C7
  8
0
  6
CONTINUOUS
 62
     7
 10
626.2880427267698
 20
283.3398582210447
 30
0.0
  0
VERTEX
  5
9C8
  8
0
  6
CONTINUOUS
 62
     7
 10
555.996246659269
 20
283.3398582210447
 30
0.0
  0
SEQEND
  5
9EB
  8
0
  6
CONTINUOUS
 62
     7
  0
ARC
  5
78F
  8
0
  6
CONTINUOUS
 62
     7
 10
549.2880427267696
 20
287.8398582210446
 30
0.0
 40
8.077747210701762
 50
213.8545148126205
 51
326.1454851873795
  0
ARC
  5
790
  8
0
  6
CONTINUOUS
 62
     7
 10
549.2880427267696
 20
287.8398582210446
 30
0.0
 40
8.077747210701762
 50
33.8545148126205
 51
146.1454851873795
  0
CIRCLE
  5
791
  8
TALL_1
  6
CONTINUOUS
 10
549.2880427267696
 20
287.8398582210446
 30
0.0
 40
1.9
  0
ARC
  5
792
  8
0
  6
CONTINUOUS
 62
     7
 10
854.5700330208592
 20
90.36117566449934
 30
0.0
 40
17.99999999999997
 50
90.0
 51
180.0
  0
LINE
  5
793
  8
0
  6
CONTINUOUS
 62
     7
 10
836.5700330208592
 20
84.36117566449934
 30
0.0
 11
836.5700330208592
 21
90.36117566449934
 31
0.0
  0
LINE
  5
794
  8
0
  6
CONTINUOUS
 62
     7
 10
836.5700330208592
 20
84.36117566449934
 30
0.0
 11
837.5700327668592
 21
84.36117566449934
 31
0.0
  0
LINE
  5
795
  8
0
  6
CONTINUOUS
 62
     7
 10
837.5700327668592
 20
84.36117566449934
 30
0.0
 11
837.5700327668592
 21
81.36117566449934
 31
0.0
  0
LINE
  5
796
  8
0
  6
CONTINUOUS
 62
     7
 10
837.5700327668592
 20
81.36117566449934
 30
0.0
 11
841.5700327668592
 21
81.36117566449934
 31
0.0
  0
LINE
  5
797
  8
0
  6
CONTINUOUS
 62
     7
 10
841.5700327668592
 20
81.36117566449934
 30
0.0
 11
841.5700327668592
 21
84.36117566449934
 31
0.0
  0
LINE
  5
798
  8
0
  6
CONTINUOUS
 62
     7
 10
926.5700327668592
 20
84.36117566449934
 30
0.0
 11
926.5700327668592
 21
90.36117566449934
 31
0.0
  0
ARC
  5
799
  8
0
  6
CONTINUOUS
 62
     7
 10
908.5700327668592
 20
90.36117566449934
 30
0.0
 40
18.0
 50
0.0
 51
90.0
  0
LINE
  5
79A
  8
0
  6
CONTINUOUS
 62
     7
 10
921.5700327668592
 20
84.36117566449934
 30
0.0
 11
921.5700327668592
 21
81.36117566449934
 31
0.0
  0
LINE
  5
79B
  8
0
  6
CONTINUOUS
 62
     7
 10
921.5700327668592
 20
81.36117566449934
 30
0.0
 11
925.5700327668592
 21
81.36117566449934
 31
0.0
  0
LINE
  5
79C
  8
0
  6
CONTINUOUS
 62
     7
 10
925.5700327668592
 20
81.36117566449934
 30
0.0
 11
925.5700327668592
 21
84.36117566449934
 31
0.0
  0
LINE
  5
79D
  8
0
  6
CONTINUOUS
 62
     7
 10
925.5700327668592
 20
84.36117566449934
 30
0.0
 11
926.5700327668592
 21
84.36117566449934
 31
0.0
  0
LINE
  5
79E
  8
0
  6
CONTINUOUS
 62
     7
 10
865.0700327668592
 20
123.3611756644991
 30
0.0
 11
859.0700327668592
 21
123.3611756644991
 31
0.0
  0
LINE
  5
79F
  8
0
  6
CONTINUOUS
 62
     7
 10
859.0700327668592
 20
123.3611756644991
 30
0.0
 11
859.0700327668592
 21
114.3611756644993
 31
0.0
  0
LINE
  5
7A0
  8
0
  6
CONTINUOUS
 62
     7
 10
859.0700327668592
 20
114.3611756644993
 30
0.0
 11
862.0700327668592
 21
114.3611756644993
 31
0.0
  0
LINE
  5
7A1
  8
0
  6
CONTINUOUS
 62
     7
 10
862.0700327668592
 20
114.3611756644993
 30
0.0
 11
862.0700327668592
 21
108.3611756644993
 31
0.0
  0
LINE
  5
7A2
  8
0
  6
CONTINUOUS
 62
     7
 10
904.0700327668592
 20
114.3611756644993
 30
0.0
 11
901.0700327668592
 21
114.3611756644993
 31
0.0
  0
LINE
  5
7A3
  8
0
  6
CONTINUOUS
 62
     7
 10
901.0700327668592
 20
114.3611756644993
 30
0.0
 11
901.0700327668592
 21
108.3611756644993
 31
0.0
  0
LINE
  5
7A4
  8
0
  6
CONTINUOUS
 62
     7
 10
844.5700327668592
 20
84.36117566449934
 30
0.0
 11
844.5700327668592
 21
90.36117566449934
 31
0.0
  0
ARC
  5
7A5
  8
0
  6
CONTINUOUS
 62
     7
 10
854.5700328938592
 20
90.36117553749932
 30
0.0
 40
10.00000012699996
 50
90.00000121276085
 51
180.0000012127602
  0
LINE
  5
7A6
  8
0
  6
CONTINUOUS
 62
     7
 10
908.5700327668592
 20
100.3611756644993
 30
0.0
 11
889.0700327668592
 21
100.3611756644993
 31
0.0
  0
ARC
  5
7A7
  8
0
  6
CONTINUOUS
 62
     7
 10
908.5700327668592
 20
90.36117566449934
 30
0.0
 40
9.99999999999998
 50
0.0
 51
90.0
  0
LINE
  5
7A8
  8
0
  6
CONTINUOUS
 62
     7
 10
918.5700327668592
 20
84.36117566449934
 30
0.0
 11
918.5700327668592
 21
90.36117566449934
 31
0.0
  0
LINE
  5
7A9
  8
0
  6
CONTINUOUS
 62
     7
 10
918.5700327668592
 20
84.36117566449934
 30
0.0
 11
918.5700327668592
 21
90.36117566449934
 31
0.0
  0
LINE
  5
7AA
  8
0
 10
841.5700327668592
 20
84.36117566449934
 30
0.0
 11
844.5700327668592
 21
84.36117566449934
 31
0.0
  0
LINE
  5
7AB
  8
0
 10
918.5700327668592
 20
84.36117566449934
 30
0.0
 11
921.5700327668592
 21
84.36117566449934
 31
0.0
  0
LINE
  5
7AC
  8
0
  6
CONTINUOUS
 62
     7
 10
862.0700327668592
 20
108.3611756644993
 30
0.0
 11
854.5700330208592
 21
108.3611756644993
 31
0.0
  0
LINE
  5
7AD
  8
0
  6
CONTINUOUS
 62
     7
 10
901.0700327668592
 20
108.3611756644993
 30
0.0
 11
908.5700327668592
 21
108.3611756644993
 31
0.0
  0
LINE
  5
7AE
  8
TALL_1
  6
CONTINUOUS
 10
569.2351208035593
 20
94.13837698154396
 30
0.0
 11
572.2351208035593
 21
94.13837698154396
 31
0.0
  0
LINE
  5
7AF
  8
TALL_1
  6
CONTINUOUS
 10
569.2351208035593
 20
98.13837698154396
 30
0.0
 11
569.2351208035593
 21
94.13837698154396
 31
0.0
  0
LINE
  5
7B0
  8
TALL_1
  6
CONTINUOUS
 10
572.2351208035593
 20
94.13837698154396
 30
0.0
 11
572.2351208035593
 21
98.13837698154396
 31
0.0
  0
LINE
  5
7B1
  8
TALL_1
  6
CONTINUOUS
 10
572.2351208035593
 20
98.13837698154396
 30
0.0
 11
569.2351208035593
 21
98.13837698154396
 31
0.0
  0
LINE
  5
7B2
  8
TALL_1
  6
CONTINUOUS
 10
507.2351208035593
 20
94.13837698154396
 30
0.0
 11
510.2351208035593
 21
94.13837698154396
 31
0.0
  0
LINE
  5
7B3
  8
TALL_1
  6
CONTINUOUS
 10
507.2351208035593
 20
98.13837698154396
 30
0.0
 11
507.2351208035593
 21
94.13837698154396
 31
0.0
  0
LINE
  5
7B4
  8
TALL_1
  6
CONTINUOUS
 10
510.2351208035593
 20
94.13837698154396
 30
0.0
 11
510.2351208035593
 21
98.13837698154396
 31
0.0
  0
LINE
  5
7B5
  8
TALL_1
  6
CONTINUOUS
 10
510.2351208035593
 20
98.13837698154396
 30
0.0
 11
507.2351208035593
 21
98.13837698154396
 31
0.0
  0
LINE
  5
7B6
  8
0
  6
CONTINUOUS
 62
     7
 10
471.9351208035594
 20
99.13837698154396
 30
0.0
 11
471.9351208035594
 21
93.13837698154407
 31
0.0
  0
ARC
  5
7B7
  8
0
  6
CONTINUOUS
 62
     7
 10
475.9351208035594
 20
93.13837698154407
 30
0.0
 40
4.0
 50
180.0
 51
270.0
  0
ARC
  5
7B8
  8
0
  6
CONTINUOUS
 62
     7
 10
475.9351208035594
 20
99.13837698154396
 30
0.0
 40
4.000000000000002
 50
90.0
 51
180.0
  0
LINE
  5
7B9
  8
0
  6
CONTINUOUS
 62
     7
 10
607.5351208035593
 20
99.13837698154396
 30
0.0
 11
607.5351208035593
 21
93.13837698154396
 31
0.0
  0
ARC
  5
7BA
  8
0
  6
CONTINUOUS
 62
     7
 10
603.5351208035593
 20
93.13837698154396
 30
0.0
 40
4.0
 50
270.0
 51
0.0
  0
ARC
  5
7BB
  8
0
  6
CONTINUOUS
 62
     7
 10
603.5351208035593
 20
99.13837698154396
 30
0.0
 40
4.000000000000002
 50
0.0
 51
90.0
  0
LINE
  5
7BC
  8
0
  6
CONTINUOUS
 62
     7
 10
603.5351208035593
 20
103.138376981544
 30
0.0
 11
475.9351208035594
 21
103.138376981544
 31
0.0
  0
LINE
  5
7BD
  8
0
  6
CONTINUOUS
 62
     7
 10
603.5351208035593
 20
89.13837698154396
 30
0.0
 11
475.9351208035594
 21
89.13837698154407
 31
0.0
  0
LINE
  5
7BE
  8
TALL_1
  6
CONTINUOUS
 10
647.5319355188151
 20
216.8024197672244
 30
0.0
 11
647.5319355188151
 21
213.8024197672244
 31
0.0
  0
LINE
  5
7BF
  8
TALL_1
  6
CONTINUOUS
 10
647.5319355188151
 20
213.8024197672244
 30
0.0
 11
659.5319355188151
 21
213.8024197672244
 31
0.0
  0
LINE
  5
7C0
  8
TALL_1
  6
CONTINUOUS
 10
659.5319355188151
 20
213.8024197672244
 30
0.0
 11
659.5319355188151
 21
216.8024197672244
 31
0.0
  0
LINE
  5
7C1
  8
TALL_1
  6
CONTINUOUS
 10
647.5319355188151
 20
216.8024197672244
 30
0.0
 11
659.5319355188151
 21
216.8024197672244
 31
0.0
  0
LINE
  5
7C2
  8
TALL_1
  6
CONTINUOUS
 10
647.5319355188151
 20
186.8024197672246
 30
0.0
 11
647.5319355188151
 21
183.8024197672244
 31
0.0
  0
LINE
  5
7C3
  8
TALL_1
  6
CONTINUOUS
 10
647.5319355188151
 20
183.8024197672244
 30
0.0
 11
659.5319355188151
 21
183.8024197672244
 31
0.0
  0
LINE
  5
7C4
  8
TALL_1
  6
CONTINUOUS
 10
659.5319355188151
 20
183.8024197672244
 30
0.0
 11
659.5319355188151
 21
186.8024197672246
 31
0.0
  0
LINE
  5
7C5
  8
TALL_1
  6
CONTINUOUS
 10
647.5319355188151
 20
186.8024197672246
 30
0.0
 11
659.5319355188151
 21
186.8024197672246
 31
0.0
  0
LINE
  5
7C6
  8
0
  6
CONTINUOUS
 62
     7
 10
628.304331186898
 20
208.2818479246848
 30
0.0
 11
637.2274081099752
 21
150.2818479246848
 31
0.0
  0
LINE
  5
7C7
  8
0
  6
CONTINUOUS
 62
     7
 10
638.1880481634043
 20
219.8024197672244
 30
0.0
 11
685.7112885285151
 21
219.8024197672244
 31
0.0
  0
ARC
  5
7C8
  8
0
  6
CONTINUOUS
 62
     7
 10
647.1111250864813
 20
151.8024197672244
 30
0.0
 40
9.999999999999996
 50
188.7461622625546
 51
270.0
  0
ARC
  5
7C9
  8
0
  6
CONTINUOUS
 62
     7
 10
638.1880481634043
 20
209.8024197672244
 30
0.0
 40
9.999999999999996
 50
90.0
 51
188.7461622625546
  0
LINE
  5
7CA
  8
0
  6
CONTINUOUS
 62
     7
 10
722.5319355188151
 20
151.8024197672244
 30
0.0
 11
722.5319355188151
 21
159.8024197672244
 31
0.0
  0
ARC
  5
7CB
  8
0
  6
CONTINUOUS
 62
     7
 10
712.5319355188151
 20
151.8024197672244
 30
0.0
 40
9.999999999999996
 50
270.0
 51
0.0
  0
ARC
  5
7CC
  8
0
  6
CONTINUOUS
 62
     7
 10
625.8783846550916
 20
145.7179667921764
 30
0.0
 40
97.67436055676404
 50
8.290843190329372
 51
46.96502177736055
  0
ARC
  5
7CD
  8
0
  6
CONTINUOUS
 62
     7
 10
685.7112885285151
 20
209.8024197672244
 30
0.0
 40
9.999999999999996
 50
46.96502177736074
 51
90.0
  0
LINE
  5
7CE
  8
TALL_1
  6
CONTINUOUS
 10
669.4888284269257
 20
203.0179552266716
 30
0.0
 11
676.8888284269258
 21
166.0179552266716
 31
0.0
  0
LINE
  5
7CF
  8
TALL_1
  6
CONTINUOUS
 10
680.8111511296893
 20
162.8024197672244
 30
0.0
 11
707.2024081355139
 21
162.8024197672244
 31
0.0
  0
LINE
  5
7D0
  8
TALL_1
  6
CONTINUOUS
 10
673.4111511296894
 20
207.8024197672246
 30
0.0
 11
688.650674516057
 21
207.8024197672246
 31
0.0
  0
ARC
  5
7D1
  8
TALL_1
  6
CONTINUOUS
 10
673.4111511296894
 20
203.8024197672244
 30
0.0
 40
3.999999999999999
 50
90.0
 51
191.3099324740193
  0
ARC
  5
7D2
  8
TALL_1
  6
CONTINUOUS
 10
680.8111511296893
 20
166.8024197672244
 30
0.0
 40
3.999999999999999
 50
191.3099324740193
 51
270.0
  0
ARC
  5
7D3
  8
TALL_1
  6
CONTINUOUS
 10
688.650674516057
 20
203.8024197672244
 30
0.0
 40
3.999999999999999
 50
41.85141410664534
 51
90.0
  0
ARC
  5
7D4
  8
TALL_1
  6
CONTINUOUS
 10
688.650674516057
 20
203.8024197672244
 30
0.0
 40
3.999999999999999
 50
41.85141410664534
 51
90.0
  0
LINE
  5
7D5
  8
TALL_1
  6
CONTINUOUS
 10
711.1626054568512
 20
167.3653026822906
 30
0.0
 11
710.5319355188151
 21
171.8024197672244
 31
0.0
  0
ARC
  5
7D6
  8
TALL_1
  6
CONTINUOUS
 10
707.2024081355139
 20
166.8024197672244
 30
0.0
 40
3.999999999999999
 50
270.0
 51
8.089553849860636
  0
ARC
  5
7D7
  8
TALL_1
  6
CONTINUOUS
 10
616.5736232708457
 20
143.0625914030427
 30
0.0
 40
98.25549437507073
 50
17.00774550455908
 51
40.19150223779737
  0
LINE
  5
7D8
  8
TALL_1
  6
CONTINUOUS
 10
710.0319355188151
 20
147.8024197672244
 30
0.0
 11
707.0319355188151
 21
147.8024197672244
 31
0.0
  0
LINE
  5
7D9
  8
TALL_1
  6
CONTINUOUS
 10
707.0319355188151
 20
147.8024197672244
 30
0.0
 11
707.0319355188151
 21
156.8024197672244
 31
0.0
  0
LINE
  5
7DA
  8
TALL_1
  6
CONTINUOUS
 10
707.0319355188151
 20
156.8024197672244
 30
0.0
 11
710.0319355188151
 21
156.8024197672244
 31
0.0
  0
LINE
  5
7DB
  8
TALL_1
  6
CONTINUOUS
 10
710.0319355188151
 20
156.8024197672244
 30
0.0
 11
710.0319355188151
 21
147.8024197672244
 31
0.0
  0
LINE
  5
7DC
  8
TALL_1
  6
CONTINUOUS
 10
645.0319355188151
 20
147.8024197672244
 30
0.0
 11
645.0319355188151
 21
156.8024197672244
 31
0.0
  0
LINE
  5
7DD
  8
TALL_1
  6
CONTINUOUS
 10
645.0319355188151
 20
156.8024197672244
 30
0.0
 11
648.0319355188151
 21
156.8024197672244
 31
0.0
  0
LINE
  5
7DE
  8
TALL_1
  6
CONTINUOUS
 10
648.0319355188151
 20
156.8024197672244
 30
0.0
 11
648.0319355188151
 21
147.8024197672244
 31
0.0
  0
LINE
  5
7DF
  8
TALL_1
  6
CONTINUOUS
 10
648.0319355188151
 20
147.8024197672244
 30
0.0
 11
645.0319355188151
 21
147.8024197672244
 31
0.0
  0
LINE
  5
7E0
  8
0
  6
CONTINUOUS
 62
     7
 10
647.1111250864813
 20
141.8024197672244
 30
0.0
 11
712.5319355188151
 21
141.8024197672244
 31
0.0
  0
LINE
  5
7E1
  8
0
 10
827.038611507181
 20
260.6266052998857
 30
0.0
 11
794.038611507181
 21
260.6266052998857
 31
0.0
  0
LINE
  5
7E2
  8
TALL_1
  6
CONTINUOUS
 10
799.538611507181
 20
230.6266052998857
 30
0.0
 11
799.538611507181
 21
224.6266052998857
 31
0.0
  0
LINE
  5
7E3
  8
TALL_1
  6
CONTINUOUS
 10
799.538611507181
 20
257.6266052998857
 30
0.0
 11
799.538611507181
 21
251.6266052998857
 31
0.0
  0
LINE
  5
7E4
  8
TALL_1
 10
799.538611507181
 20
224.6266052998857
 30
0.0
 11
796.538611507181
 21
224.6266052998857
 31
0.0
  0
LINE
  5
7E5
  8
TALL_1
 10
799.538611507181
 20
230.6266052998857
 30
0.0
 11
796.538611507181
 21
230.6266052998857
 31
0.0
  0
LINE
  5
7E6
  8
TALL_1
 10
796.538611507181
 20
251.6266052998857
 30
0.0
 11
799.538611507181
 21
251.6266052998857
 31
0.0
  0
LINE
  5
7E7
  8
TALL_1
 10
796.538611507181
 20
257.6266052998857
 30
0.0
 11
799.538611507181
 21
257.6266052998857
 31
0.0
  0
LINE
  5
7E8
  8
TALL_1
 10
796.538611507181
 20
224.6266052998857
 30
0.0
 11
796.538611507181
 21
230.6266052998857
 31
0.0
  0
LINE
  5
7E9
  8
TALL_1
 10
796.538611507181
 20
251.6266052998857
 30
0.0
 11
796.538611507181
 21
257.6266052998857
 31
0.0
  0
LINE
  5
7EA
  8
TALL_1
  6
CONTINUOUS
 10
824.538611507181
 20
257.6266052998857
 30
0.0
 11
824.538611507181
 21
251.6266052998857
 31
0.0
  0
LINE
  5
7EB
  8
TALL_1
 10
824.538611507181
 20
230.6266052998857
 30
0.0
 11
821.538611507181
 21
230.6266052998857
 31
0.0
  0
LINE
  5
7EC
  8
TALL_1
 10
821.538611507181
 20
251.6266052998857
 30
0.0
 11
824.538611507181
 21
251.6266052998857
 31
0.0
  0
LINE
  5
7ED
  8
TALL_1
 10
821.538611507181
 20
257.6266052998857
 30
0.0
 11
824.538611507181
 21
257.6266052998857
 31
0.0
  0
LINE
  5
7EE
  8
TALL_1
 10
821.538611507181
 20
251.6266052998857
 30
0.0
 11
821.538611507181
 21
257.6266052998857
 31
0.0
  0
LINE
  5
7EF
  8
TALL_1
  6
CONTINUOUS
 10
824.538611507181
 20
230.6266052998857
 30
0.0
 11
824.538611507181
 21
224.6266052998857
 31
0.0
  0
LINE
  5
7F0
  8
TALL_1
 10
824.538611507181
 20
224.6266052998857
 30
0.0
 11
821.538611507181
 21
224.6266052998857
 31
0.0
  0
LINE
  5
7F1
  8
TALL_1
 10
821.538611507181
 20
224.6266052998857
 30
0.0
 11
821.538611507181
 21
230.6266052998857
 31
0.0
  0
LINE
  5
7F2
  8
0
  6
CONTINUOUS
 62
     7
 10
894.1804983245975
 20
253.7961772242755
 30
0.0
 11
894.1804983245975
 21
256.7961772242755
 31
0.0
  0
LINE
  5
7F3
  8
0
  6
CONTINUOUS
 62
     7
 10
894.1804983245975
 20
256.7961772242755
 30
0.0
 11
885.1804983245975
 21
256.7961772242755
 31
0.0
  0
LINE
  5
7F4
  8
0
  6
CONTINUOUS
 62
     7
 10
885.1804983245975
 20
256.7961772242755
 30
0.0
 11
885.1804983245975
 21
253.7961772242755
 31
0.0
  0
LINE
  5
7F5
  8
0
  6
CONTINUOUS
 62
     7
 10
879.1804983245975
 20
253.7961772242755
 30
0.0
 11
879.1804983245975
 21
256.7961772242755
 31
0.0
  0
LINE
  5
7F6
  8
0
  6
CONTINUOUS
 62
     7
 10
879.1804983245975
 20
256.7961772242755
 30
0.0
 11
870.1804983245977
 21
256.7961772242755
 31
0.0
  0
LINE
  5
7F7
  8
0
  6
CONTINUOUS
 62
     7
 10
870.1804983245977
 20
256.7961772242755
 30
0.0
 11
870.1804983245977
 21
253.7961772242755
 31
0.0
  0
LINE
  5
7F8
  8
0
  6
CONTINUOUS
 62
     7
 10
879.1804983245975
 20
253.7961772242755
 30
0.0
 11
885.1804983245975
 21
253.7961772242755
 31
0.0
  0
LINE
  5
7F9
  8
0
  6
CONTINUOUS
 62
     7
 10
894.1804983245975
 20
217.7961772242755
 30
0.0
 11
894.1804983245975
 21
214.7961772242755
 31
0.0
  0
LINE
  5
7FA
  8
0
  6
CONTINUOUS
 62
     7
 10
894.1804983245975
 20
214.7961772242755
 30
0.0
 11
885.1804983245975
 21
214.7961772242755
 31
0.0
  0
LINE
  5
7FB
  8
0
  6
CONTINUOUS
 62
     7
 10
885.1804983245975
 20
214.7961772242755
 30
0.0
 11
885.1804983245975
 21
217.7961772242755
 31
0.0
  0
LINE
  5
7FC
  8
0
  6
CONTINUOUS
 62
     7
 10
879.1804983245975
 20
217.7961772242755
 30
0.0
 11
879.1804983245975
 21
214.7961772242755
 31
0.0
  0
LINE
  5
7FD
  8
0
  6
CONTINUOUS
 62
     7
 10
879.1804983245975
 20
214.7961772242755
 30
0.0
 11
870.1804983245975
 21
214.7961772242755
 31
0.0
  0
LINE
  5
7FE
  8
0
  6
CONTINUOUS
 62
     7
 10
870.1804983245975
 20
214.7961772242755
 30
0.0
 11
870.1804983245975
 21
217.7961772242755
 31
0.0
  0
LINE
  5
7FF
  8
0
  6
CONTINUOUS
 62
     7
 10
885.1804983245975
 20
217.7961772242755
 30
0.0
 11
879.1804983245975
 21
217.7961772242755
 31
0.0
  0
CIRCLE
  5
800
  8
TALL_1
  6
CONTINUOUS
 10
882.1804983245975
 20
235.7961772242755
 30
0.0
 40
0.9999999999999998
  0
LINE
  5
801
  8
0
  6
CONTINUOUS
 62
     7
 10
862.6804983245975
 20
229.7961772242755
 30
0.0
 11
859.6804983245975
 21
229.7961772242755
 31
0.0
  0
LINE
  5
802
  8
0
  6
CONTINUOUS
 62
     7
 10
859.6804983245975
 20
229.7961772242755
 30
0.0
 11
859.6804983245975
 21
241.7961772242755
 31
0.0
  0
LINE
  5
803
  8
0
  6
CONTINUOUS
 62
     7
 10
859.6804983245975
 20
241.7961772242755
 30
0.0
 11
862.6804983245975
 21
241.7961772242755
 31
0.0
  0
LINE
  5
804
  8
0
  6
CONTINUOUS
 62
     7
 10
901.6804983245975
 20
229.7961772242755
 30
0.0
 11
904.6804983245975
 21
229.7961772242755
 31
0.0
  0
LINE
  5
805
  8
0
  6
CONTINUOUS
 62
     7
 10
904.6804983245975
 20
229.7961772242755
 30
0.0
 11
904.6804983245975
 21
241.7961772242755
 31
0.0
  0
LINE
  5
806
  8
0
  6
CONTINUOUS
 62
     7
 10
904.6804983245975
 20
241.7961772242755
 30
0.0
 11
901.6804983245975
 21
241.7961772242755
 31
0.0
  0
ARC
  5
807
  8
0
 10
901.6804983245975
 20
247.7961772242755
 30
0.0
 40
2.911814001720656
 50
90.0
 51
270.0
  0
LINE
  5
808
  8
0
  6
CONTINUOUS
 62
     7
 10
901.6804983245975
 20
244.884363222555
 30
0.0
 11
901.6804983245975
 21
241.7961772242755
 31
0.0
  0
LINE
  5
809
  8
0
  6
CONTINUOUS
 62
     7
 10
901.6804983245975
 20
253.7961772242755
 30
0.0
 11
901.6804983245975
 21
250.7079912259961
 31
0.0
  0
ARC
  5
80A
  8
0
 10
901.6804983245975
 20
223.7961772242755
 30
0.0
 40
2.911814001720656
 50
90.0
 51
270.0
  0
LINE
  5
80B
  8
0
  6
CONTINUOUS
 62
     7
 10
901.6804983245975
 20
220.884363222555
 30
0.0
 11
901.6804983245975
 21
217.7961772242755
 31
0.0
  0
LINE
  5
80C
  8
0
  6
CONTINUOUS
 62
     7
 10
901.6804983245975
 20
229.7961772242755
 30
0.0
 11
901.6804983245975
 21
226.7079912259961
 31
0.0
  0
ARC
  5
80D
  8
0
 10
862.6804983245975
 20
223.7961772242755
 30
0.0
 40
2.911814001720656
 50
270.0
 51
90.0
  0
LINE
  5
80E
  8
0
  6
CONTINUOUS
 62
     7
 10
862.6804983245975
 20
220.884363222555
 30
0.0
 11
862.6804983245975
 21
217.7961772242755
 31
0.0
  0
LINE
  5
80F
  8
0
  6
CONTINUOUS
 62
     7
 10
862.6804983245975
 20
229.7961772242755
 30
0.0
 11
862.6804983245975
 21
226.7079912259961
 31
0.0
  0
ARC
  5
810
  8
0
 10
862.6804983245975
 20
247.7961772242755
 30
0.0
 40
2.911814001720656
 50
270.0
 51
90.0
  0
LINE
  5
811
  8
0
  6
CONTINUOUS
 62
     7
 10
862.6804983245975
 20
244.884363222555
 30
0.0
 11
862.6804983245975
 21
241.7961772242755
 31
0.0
  0
LINE
  5
812
  8
0
  6
CONTINUOUS
 62
     7
 10
862.6804983245975
 20
253.7961772242755
 30
0.0
 11
862.6804983245975
 21
250.7079912259961
 31
0.0
  0
LINE
  5
813
  8
0
 10
894.1804983245975
 20
253.7961772242755
 30
0.0
 11
901.6804983245975
 21
253.7961772242755
 31
0.0
  0
LINE
  5
814
  8
0
 10
894.1804983245975
 20
217.7961772242755
 30
0.0
 11
901.6804983245975
 21
217.7961772242755
 31
0.0
  0
LINE
  5
815
  8
0
 10
862.6804983245975
 20
253.7961772242755
 30
0.0
 11
870.1804983245977
 21
253.7961772242755
 31
0.0
  0
LINE
  5
816
  8
0
 10
862.6804983245975
 20
217.7961772242755
 30
0.0
 11
870.1804983245975
 21
217.7961772242755
 31
0.0
  0
LINE
  5
817
  8
TALL_1
  6
CONTINUOUS
 10
954.0119765445179
 20
252.8087935464954
 30
0.0
 11
954.0119765445179
 21
249.8087935464954
 31
0.0
  0
LINE
  5
818
  8
TALL_1
  6
CONTINUOUS
 10
954.0119765445179
 20
249.8087935464954
 30
0.0
 11
942.0119765445179
 21
249.8087935464954
 31
0.0
  0
LINE
  5
819
  8
TALL_1
  6
CONTINUOUS
 10
942.0119765445179
 20
249.8087935464954
 30
0.0
 11
942.0119765445179
 21
252.8087935464954
 31
0.0
  0
LINE
  5
81A
  8
TALL_1
  6
CONTINUOUS
 10
955.5119765445179
 20
240.8087935464954
 30
0.0
 11
958.5119765445179
 21
240.8087935464954
 31
0.0
  0
LINE
  5
81B
  8
TALL_1
  6
CONTINUOUS
 10
958.5119765445179
 20
240.8087935464954
 30
0.0
 11
958.5119765445179
 21
231.8087935464954
 31
0.0
  0
LINE
  5
81C
  8
TALL_1
  6
CONTINUOUS
 10
958.5119765445179
 20
231.8087935464954
 30
0.0
 11
955.5119765445179
 21
231.8087935464954
 31
0.0
  0
LINE
  5
81D
  8
TALL_1
  6
CONTINUOUS
 10
955.5119765445179
 20
231.8087935464954
 30
0.0
 11
955.5119765445179
 21
240.8087935464954
 31
0.0
  0
LINE
  5
81E
  8
0
  6
CONTINUOUS
 62
     7
 10
967.5119765445179
 20
216.8087935464954
 30
0.0
 11
928.5119765445179
 21
216.8087935464954
 31
0.0
  0
LINE
  5
81F
  8
TALL_1
  6
CONTINUOUS
 10
936.0119765445179
 20
222.8087935464954
 30
0.0
 11
936.0119765445179
 21
219.8087935464954
 31
0.0
  0
LINE
  5
820
  8
TALL_1
  6
CONTINUOUS
 10
936.0119765445179
 20
219.8087935464954
 30
0.0
 11
945.0119765445179
 21
219.8087935464954
 31
0.0
  0
LINE
  5
821
  8
TALL_1
  6
CONTINUOUS
 10
945.0119765445179
 20
219.8087935464954
 30
0.0
 11
945.0119765445179
 21
222.8087935464954
 31
0.0
  0
LINE
  5
822
  8
TALL_1
  6
CONTINUOUS
 10
945.0119765445179
 20
222.8087935464954
 30
0.0
 11
936.0119765445179
 21
222.8087935464954
 31
0.0
  0
LINE
  5
823
  8
TALL_1
  6
CONTINUOUS
 10
951.0119765445179
 20
222.8087935464954
 30
0.0
 11
951.0119765445179
 21
219.8087935464954
 31
0.0
  0
LINE
  5
824
  8
TALL_1
  6
CONTINUOUS
 10
951.0119765445179
 20
219.8087935464954
 30
0.0
 11
960.0119765445174
 21
219.8087935464954
 31
0.0
  0
LINE
  5
825
  8
TALL_1
  6
CONTINUOUS
 10
960.0119765445174
 20
219.8087935464954
 30
0.0
 11
960.0119765445174
 21
222.8087935464954
 31
0.0
  0
LINE
  5
826
  8
TALL_1
  6
CONTINUOUS
 10
960.0119765445174
 20
222.8087935464954
 30
0.0
 11
951.0119765445179
 21
222.8087935464954
 31
0.0
  0
LINE
  5
827
  8
0
  6
CONTINUOUS
 62
     7
 10
967.5119765445179
 20
255.8087935464954
 30
0.0
 11
928.5119765445179
 21
255.8087935464954
 31
0.0
  0
LINE
  5
828
  8
TALL_1
  6
CONTINUOUS
 10
942.0119765445179
 20
252.8087935464954
 30
0.0
 11
954.0119765445179
 21
252.8087935464954
 31
0.0
  0
LINE
  5
829
  8
0
  6
CONTINUOUS
 62
     7
 10
967.5119765445179
 20
255.8087935464954
 30
0.0
 11
967.5119765445179
 21
216.8087935464954
 31
0.0
  0
LINE
  5
82A
  8
0
  6
CONTINUOUS
 62
     7
 10
928.5119765445179
 20
255.8087935464954
 30
0.0
 11
928.5119765445179
 21
216.8087935464954
 31
0.0
  0
LINE
  5
82B
  8
TALL_1
  6
CONTINUOUS
 10
954.4295944313785
 20
197.0844791250324
 30
0.0
 11
954.4295944313785
 21
194.0844791250324
 31
0.0
  0
LINE
  5
82C
  8
TALL_1
  6
CONTINUOUS
 10
954.4295944313785
 20
194.0844791250324
 30
0.0
 11
942.4295944313785
 21
194.0844791250324
 31
0.0
  0
LINE
  5
82D
  8
TALL_1
  6
CONTINUOUS
 10
942.4295944313785
 20
194.0844791250324
 30
0.0
 11
942.4295944313785
 21
197.0844791250324
 31
0.0
  0
LINE
  5
82E
  8
TALL_1
  6
CONTINUOUS
 10
946.9295944313785
 20
191.0844791250324
 30
0.0
 11
946.9295944313785
 21
174.5844791250324
 31
0.0
  0
LINE
  5
82F
  8
TALL_1
  6
CONTINUOUS
 10
946.9295944313785
 20
174.5844791250324
 30
0.0
 11
949.9295944313785
 21
174.5844791250324
 31
0.0
  0
LINE
  5
830
  8
TALL_1
  6
CONTINUOUS
 10
949.9295944313785
 20
174.5844791250324
 30
0.0
 11
949.9295944313785
 21
191.0844791250324
 31
0.0
  0
LINE
  5
831
  8
TALL_1
  6
CONTINUOUS
 10
949.9295944313785
 20
191.0844791250324
 30
0.0
 11
946.9295944313785
 21
191.0844791250324
 31
0.0
  0
LINE
  5
832
  8
TALL_1
  6
CONTINUOUS
 10
955.9295944313785
 20
185.0844791250324
 30
0.0
 11
958.9295944313785
 21
185.0844791250324
 31
0.0
  0
LINE
  5
833
  8
TALL_1
  6
CONTINUOUS
 10
958.9295944313785
 20
185.0844791250324
 30
0.0
 11
958.9295944313785
 21
176.0844791250324
 31
0.0
  0
LINE
  5
834
  8
TALL_1
  6
CONTINUOUS
 10
958.9295944313785
 20
176.0844791250324
 30
0.0
 11
955.9295944313785
 21
176.0844791250324
 31
0.0
  0
LINE
  5
835
  8
TALL_1
  6
CONTINUOUS
 10
955.9295944313785
 20
176.0844791250324
 30
0.0
 11
955.9295944313785
 21
185.0844791250324
 31
0.0
  0
LINE
  5
836
  8
TALL_1
  6
CONTINUOUS
 10
936.4295944313785
 20
167.0844791250324
 30
0.0
 11
936.4295944313785
 21
164.0844791250324
 31
0.0
  0
LINE
  5
837
  8
TALL_1
  6
CONTINUOUS
 10
936.4295944313785
 20
164.0844791250324
 30
0.0
 11
945.4295944313785
 21
164.0844791250324
 31
0.0
  0
LINE
  5
838
  8
TALL_1
  6
CONTINUOUS
 10
945.4295944313785
 20
164.0844791250324
 30
0.0
 11
945.4295944313785
 21
167.0844791250324
 31
0.0
  0
LINE
  5
839
  8
TALL_1
  6
CONTINUOUS
 10
945.4295944313785
 20
167.0844791250324
 30
0.0
 11
936.4295944313785
 21
167.0844791250324
 31
0.0
  0
LINE
  5
83A
  8
TALL_1
  6
CONTINUOUS
 10
951.4295944313785
 20
167.0844791250324
 30
0.0
 11
951.4295944313785
 21
164.0844791250324
 31
0.0
  0
LINE
  5
83B
  8
TALL_1
  6
CONTINUOUS
 10
951.4295944313785
 20
164.0844791250324
 30
0.0
 11
960.4295944313785
 21
164.0844791250324
 31
0.0
  0
LINE
  5
83C
  8
TALL_1
  6
CONTINUOUS
 10
960.4295944313785
 20
164.0844791250324
 30
0.0
 11
960.4295944313785
 21
167.0844791250324
 31
0.0
  0
LINE
  5
83D
  8
TALL_1
  6
CONTINUOUS
 10
960.4295944313785
 20
167.0844791250324
 30
0.0
 11
951.4295944313785
 21
167.0844791250324
 31
0.0
  0
LINE
  5
83E
  8
TALL_1
  6
CONTINUOUS
 10
942.4295944313785
 20
197.0844791250324
 30
0.0
 11
954.4295944313785
 21
197.0844791250324
 31
0.0
  0
LINE
  5
83F
  8
0
  6
CONTINUOUS
 62
     7
 10
967.9295944313785
 20
200.0844791250324
 30
0.0
 11
967.9295944313785
 21
161.0844791250324
 31
0.0
  0
LINE
  5
840
  8
0
  6
CONTINUOUS
 62
     7
 10
928.9295944313785
 20
200.0844791250324
 30
0.0
 11
928.9295944313785
 21
161.0844791250324
 31
0.0
  0
LINE
  5
841
  8
0
 10
928.9295944313785
 20
200.0844791250324
 30
0.0
 11
967.9295944313785
 21
200.0844791250324
 31
0.0
  0
LINE
  5
842
  8
0
 10
928.9295944313785
 20
161.0844791250324
 30
0.0
 11
967.9295944313785
 21
161.0844791250324
 31
0.0
  0
CIRCLE
  5
843
  8
MARCATGE
  6
CONTINUOUS
 10
884.9327511452334
 20
177.0730644827048
 30
0.0
 40
9.999999999999996
  0
LINE
  5
844
  8
0
  6
CONTINUOUS
 62
     7
 10
878.9327511452334
 20
195.0730644827048
 30
0.0
 11
878.9327511452334
 21
198.0730644827048
 31
0.0
  0
LINE
  5
845
  8
0
  6
CONTINUOUS
 62
     7
 10
878.9327511452334
 20
198.0730644827048
 30
0.0
 11
890.9327511452334
 21
198.0730644827048
 31
0.0
  0
LINE
  5
846
  8
0
  6
CONTINUOUS
 62
     7
 10
890.9327511452334
 20
198.0730644827048
 30
0.0
 11
890.9327511452334
 21
195.0730644827048
 31
0.0
  0
LINE
  5
847
  8
0
  6
CONTINUOUS
 62
     7
 10
878.9327511452334
 20
159.0730644827048
 30
0.0
 11
878.9327511452334
 21
156.0730644827048
 31
0.0
  0
LINE
  5
848
  8
0
  6
CONTINUOUS
 62
     7
 10
878.9327511452334
 20
156.0730644827048
 30
0.0
 11
890.9327511452334
 21
156.0730644827048
 31
0.0
  0
LINE
  5
849
  8
0
  6
CONTINUOUS
 62
     7
 10
890.9327511452334
 20
156.0730644827048
 30
0.0
 11
890.9327511452334
 21
159.0730644827048
 31
0.0
  0
LINE
  5
84A
  8
0
  6
CONTINUOUS
 62
     7
 10
865.4327511452334
 20
171.0730644827048
 30
0.0
 11
862.4327511452334
 21
171.0730644827048
 31
0.0
  0
LINE
  5
84B
  8
0
  6
CONTINUOUS
 62
     7
 10
862.4327511452334
 20
171.0730644827048
 30
0.0
 11
862.4327511452334
 21
183.0730644827048
 31
0.0
  0
LINE
  5
84C
  8
0
  6
CONTINUOUS
 62
     7
 10
862.4327511452334
 20
183.0730644827048
 30
0.0
 11
865.4327511452334
 21
183.0730644827048
 31
0.0
  0
LINE
  5
84D
  8
0
  6
CONTINUOUS
 62
     7
 10
904.4327511452334
 20
171.0730644827048
 30
0.0
 11
907.4327511452334
 21
171.0730644827048
 31
0.0
  0
LINE
  5
84E
  8
0
  6
CONTINUOUS
 62
     7
 10
907.4327511452334
 20
171.0730644827048
 30
0.0
 11
907.4327511452334
 21
183.0730644827048
 31
0.0
  0
LINE
  5
84F
  8
0
  6
CONTINUOUS
 62
     7
 10
907.4327511452334
 20
183.0730644827048
 30
0.0
 11
904.4327511452334
 21
183.0730644827048
 31
0.0
  0
CIRCLE
  5
850
  8
TALL_1
  6
CONTINUOUS
 10
884.9327511452334
 20
177.0730644827048
 30
0.0
 40
3.0
  0
LINE
  5
851
  8
0
  6
CONTINUOUS
 62
     7
 10
865.4327511452334
 20
183.0730644827048
 30
0.0
 11
865.4327511452334
 21
195.0730644827048
 31
0.0
  0
LINE
  5
852
  8
TALL_1
  6
CONTINUOUS
 10
877.4327511452334
 20
167.3230644827048
 30
0.0
 11
874.4327511452334
 21
167.3230644827048
 31
0.0
  0
LINE
  5
853
  8
TALL_1
  6
CONTINUOUS
 10
877.4327511452334
 20
167.3230644827048
 30
0.0
 11
877.4327511452334
 21
171.8230644827048
 31
0.0
  0
LINE
  5
854
  8
TALL_1
  6
CONTINUOUS
 10
874.4327511452334
 20
171.8230644827048
 30
0.0
 11
874.4327511452334
 21
167.3230644827048
 31
0.0
  0
LINE
  5
855
  8
TALL_1
  6
CONTINUOUS
 10
877.4327511452334
 20
171.8230644827048
 30
0.0
 11
874.4327511452334
 21
171.8230644827048
 31
0.0
  0
LINE
  5
856
  8
TALL_1
  6
CONTINUOUS
 10
877.4327511452334
 20
182.3230644827048
 30
0.0
 11
877.4327511452334
 21
186.8230644827048
 31
0.0
  0
LINE
  5
857
  8
TALL_1
  6
CONTINUOUS
 10
877.4327511452334
 20
186.8230644827048
 30
0.0
 11
874.4327511452334
 21
186.8230644827048
 31
0.0
  0
LINE
  5
858
  8
TALL_1
  6
CONTINUOUS
 10
874.4327511452334
 20
186.8230644827048
 30
0.0
 11
874.4327511452334
 21
182.3230644827048
 31
0.0
  0
LINE
  5
859
  8
TALL_1
  6
CONTINUOUS
 10
874.4327511452334
 20
182.3230644827048
 30
0.0
 11
877.4327511452334
 21
182.3230644827048
 31
0.0
  0
LINE
  5
85A
  8
TALL_1
  6
CONTINUOUS
 10
877.4327511452334
 20
174.8230644827048
 30
0.0
 11
877.4327511452334
 21
179.3230644827048
 31
0.0
  0
LINE
  5
85B
  8
TALL_1
  6
CONTINUOUS
 10
877.4327511452334
 20
179.3230644827048
 30
0.0
 11
874.4327511452334
 21
179.3230644827048
 31
0.0
  0
LINE
  5
85C
  8
TALL_1
  6
CONTINUOUS
 10
874.4327511452334
 20
179.3230644827048
 30
0.0
 11
874.4327511452334
 21
174.8230644827048
 31
0.0
  0
LINE
  5
85D
  8
TALL_1
  6
CONTINUOUS
 10
874.4327511452334
 20
174.8230644827048
 30
0.0
 11
877.4327511452334
 21
174.8230644827048
 31
0.0
  0
LINE
  5
85E
  8
0
  6
CONTINUOUS
 62
     7
 10
865.4327511452334
 20
159.0730644827048
 30
0.0
 11
865.4327511452334
 21
171.0730644827048
 31
0.0
  0
LINE
  5
85F
  8
0
  6
CONTINUOUS
 62
     7
 10
904.4327511452334
 20
171.0730644827048
 30
0.0
 11
904.4327511452334
 21
159.0730644827048
 31
0.0
  0
LINE
  5
860
  8
0
  6
CONTINUOUS
 62
     7
 10
904.4327511452334
 20
195.0730644827048
 30
0.0
 11
904.4327511452334
 21
183.0730644827048
 31
0.0
  0
LINE
  5
861
  8
0
 10
890.9327511452334
 20
195.0730644827048
 30
0.0
 11
904.4327511452334
 21
195.0730644827048
 31
0.0
  0
LINE
  5
862
  8
0
 10
890.9327511452334
 20
159.0730644827048
 30
0.0
 11
904.4327511452334
 21
159.0730644827048
 31
0.0
  0
LINE
  5
863
  8
0
 10
865.4327511452334
 20
195.0730644827048
 30
0.0
 11
878.9327511452334
 21
195.0730644827048
 31
0.0
  0
LINE
  5
864
  8
0
 10
865.4327511452334
 20
159.0730644827048
 30
0.0
 11
878.9327511452334
 21
159.0730644827048
 31
0.0
  0
LINE
  5
865
  8
0
  6
CONTINUOUS
 62
     7
 10
877.1056869415454
 20
298.611448791951
 30
0.0
 11
877.1056869415454
 21
301.611448791951
 31
0.0
  0
LINE
  5
866
  8
0
  6
CONTINUOUS
 62
     7
 10
877.1056869415454
 20
301.611448791951
 30
0.0
 11
872.6056869415454
 21
301.611448791951
 31
0.0
  0
LINE
  5
867
  8
0
  6
CONTINUOUS
 62
     7
 10
872.6056869415454
 20
301.611448791951
 30
0.0
 11
872.6056869415454
 21
298.611448791951
 31
0.0
  0
LINE
  5
868
  8
0
  6
CONTINUOUS
 62
     7
 10
884.6056869415454
 20
298.611448791951
 30
0.0
 11
884.6056869415454
 21
301.611448791951
 31
0.0
  0
LINE
  5
869
  8
0
  6
CONTINUOUS
 62
     7
 10
884.6056869415454
 20
301.611448791951
 30
0.0
 11
880.1056869415454
 21
301.611448791951
 31
0.0
  0
LINE
  5
86A
  8
0
  6
CONTINUOUS
 62
     7
 10
880.1056869415454
 20
301.611448791951
 30
0.0
 11
880.1056869415454
 21
298.611448791951
 31
0.0
  0
LINE
  5
86B
  8
0
  6
CONTINUOUS
 62
     7
 10
892.1056869415454
 20
298.611448791951
 30
0.0
 11
892.1056869415454
 21
301.611448791951
 31
0.0
  0
LINE
  5
86C
  8
0
  6
CONTINUOUS
 62
     7
 10
892.1056869415454
 20
301.611448791951
 30
0.0
 11
887.6056869415454
 21
301.611448791951
 31
0.0
  0
LINE
  5
86D
  8
0
  6
CONTINUOUS
 62
     7
 10
887.6056869415454
 20
301.611448791951
 30
0.0
 11
887.6056869415454
 21
298.611448791951
 31
0.0
  0
LINE
  5
86E
  8
0
  6
CONTINUOUS
 62
     7
 10
877.1056869415454
 20
298.611448791951
 30
0.0
 11
880.1056869415454
 21
298.611448791951
 31
0.0
  0
LINE
  5
86F
  8
0
  6
CONTINUOUS
 62
     7
 10
884.6056869415454
 20
298.611448791951
 30
0.0
 11
887.6056869415454
 21
298.611448791951
 31
0.0
  0
LINE
  5
870
  8
0
  6
CONTINUOUS
 62
     7
 10
864.3556869415454
 20
298.611448791951
 30
0.0
 11
864.3556869415454
 21
289.611448791951
 31
0.0
  0
LINE
  5
871
  8
0
  6
CONTINUOUS
 62
     7
 10
864.3556869415454
 20
289.611448791951
 30
0.0
 11
861.3556869415454
 21
289.611448791951
 31
0.0
  0
LINE
  5
872
  8
0
  6
CONTINUOUS
 62
     7
 10
861.3556869415454
 20
289.611448791951
 30
0.0
 11
861.3556869415454
 21
280.611448791951
 31
0.0
  0
LINE
  5
873
  8
0
  6
CONTINUOUS
 62
     7
 10
861.3556869415454
 20
280.611448791951
 30
0.0
 11
864.3556869415454
 21
280.611448791951
 31
0.0
  0
LINE
  5
874
  8
0
  6
CONTINUOUS
 62
     7
 10
864.3556869415454
 20
280.611448791951
 30
0.0
 11
864.3556869415454
 21
274.611448791951
 31
0.0
  0
LINE
  5
875
  8
0
  6
CONTINUOUS
 62
     7
 10
900.3556869415454
 20
298.611448791951
 30
0.0
 11
900.3556869415454
 21
289.611448791951
 31
0.0
  0
LINE
  5
876
  8
0
  6
CONTINUOUS
 62
     7
 10
900.3556869415454
 20
289.611448791951
 30
0.0
 11
903.3556869415454
 21
289.611448791951
 31
0.0
  0
LINE
  5
877
  8
0
  6
CONTINUOUS
 62
     7
 10
903.3556869415454
 20
289.611448791951
 30
0.0
 11
903.3556869415454
 21
280.611448791951
 31
0.0
  0
LINE
  5
878
  8
0
  6
CONTINUOUS
 62
     7
 10
903.3556869415454
 20
280.611448791951
 30
0.0
 11
900.3556869415454
 21
280.611448791951
 31
0.0
  0
LINE
  5
879
  8
0
  6
CONTINUOUS
 62
     7
 10
900.3556869415454
 20
280.611448791951
 30
0.0
 11
900.3556869415454
 21
274.611448791951
 31
0.0
  0
LINE
  5
87A
  8
0
  6
CONTINUOUS
 62
     7
 10
900.3556869415454
 20
274.611448791951
 30
0.0
 11
864.3556869415454
 21
274.611448791951
 31
0.0
  0
LINE
  5
87B
  8
MARCATGE
  6
CONTINUOUS
 10
882.3556869415454
 20
274.611448791951
 30
0.0
 11
882.3556869415454
 21
301.611448791951
 31
0.0
  0
CIRCLE
  5
87C
  8
TALL_1
  6
CONTINUOUS
 10
874.8556869415454
 20
295.611448791951
 30
0.0
 40
1.5
  0
CIRCLE
  5
87D
  8
TALL_1
  6
CONTINUOUS
 10
889.8556869415454
 20
295.611448791951
 30
0.0
 40
1.5
  0
CIRCLE
  5
87E
  8
TALL_1
  6
CONTINUOUS
 10
889.8556869415454
 20
289.611448791951
 30
0.0
 40
1.5
  0
CIRCLE
  5
87F
  8
TALL_1
  6
CONTINUOUS
 10
874.8556869415454
 20
289.611448791951
 30
0.0
 40
1.5
  0
LINE
  5
880
  8
0
 10
864.3556869415454
 20
298.611448791951
 30
0.0
 11
872.6056869415454
 21
298.611448791951
 31
0.0
  0
LINE
  5
881
  8
0
 10
892.1056869415454
 20
298.611448791951
 30
0.0
 11
900.3556869415454
 21
298.611448791951
 31
0.0
  0
LINE
  5
882
  8
0
  6
CONTINUOUS
 10
1086.831426665136
 20
187.2038364588077
 30
0.0
 11
1086.073635221825
 21
187.2038364588077
 31
0.0
  0
LINE
  5
883
  8
TALL_1
  6
CONTINUOUS
 10
1084.744094292514
 20
174.1379121285495
 30
0.0
 11
1087.722119509973
 21
174.5003563369199
 31
0.0
  0
LINE
  5
884
  8
TALL_1
  6
CONTINUOUS
 10
1088.809451882945
 20
165.5662806538576
 30
0.0
 11
1085.831426665485
 21
165.2038364454869
 31
0.0
  0
LINE
  5
885
  8
TALL_1
  6
CONTINUOUS
 10
1087.722119509973
 20
174.5003563369199
 30
0.0
 11
1088.809452135084
 21
165.5662806845444
 31
0.0
  0
LINE
  5
886
  8
TALL_1
  6
CONTINUOUS
 10
1085.831426917625
 20
165.2038364761739
 30
0.0
 11
1084.744094292514
 21
174.1379121285495
 31
0.0
  0
LINE
  5
887
  8
0
  6
CONTINUOUS
 10
1087.831426665137
 20
152.8412856860069
 30
0.0
 11
1087.831426665137
 21
149.8412856860069
 31
0.0
  0
LINE
  5
888
  8
0
  6
CONTINUOUS
 10
1090.831426665136
 20
141.2038364588077
 30
0.0
 11
1084.831426665136
 21
141.2038364588077
 31
0.0
  0
LINE
  5
889
  8
0
  6
CONTINUOUS
 10
1117.831426665136
 20
141.2038364588077
 30
0.0
 11
1111.831426665136
 21
141.2038364588077
 31
0.0
  0
LINE
  5
88A
  8
0
 10
1084.831426665136
 20
141.2038364588077
 30
0.0
 11
1084.831426665136
 21
144.2038364588077
 31
0.0
  0
LINE
  5
88B
  8
0
 10
1090.831426665136
 20
141.2038364588077
 30
0.0
 11
1090.831426665136
 21
144.2038364588077
 31
0.0
  0
LINE
  5
88C
  8
0
 10
1111.831426665136
 20
144.2038364588077
 30
0.0
 11
1111.831426665136
 21
141.2038364588077
 31
0.0
  0
ARC
  5
88D
  8
0
  6
CONTINUOUS
 10
1086.073635221825
 20
183.2038364588077
 30
0.0
 40
4.000000000000001
 50
90.0
 51
183.3664606634295
  0
LINE
  5
88E
  8
0
  6
CONTINUOUS
 62
     7
 10
1030.489727060397
 20
51.00780477806154
 30
0.0
 11
1132.013564361984
 21
45.20644264654231
 31
0.0
  0
LINE
  5
88F
  8
0
  6
CONTINUOUS
 62
     7
 10
1132.013564361984
 20
72.20644264654231
 30
0.0
 11
1048.292779972858
 21
72.20644264654231
 31
0.0
  0
LINE
  5
890
  8
0
  6
CONTINUOUS
 62
     7
 10
1147.013564361984
 20
78.20644264654231
 30
0.0
 11
1132.013564361984
 21
72.20644264654231
 31
0.0
  0
LINE
  5
891
  8
0
  6
CONTINUOUS
 62
     7
 10
1159.013564361984
 20
78.20644264654231
 30
0.0
 11
1147.013564361984
 21
78.20644264654231
 31
0.0
  0
LINE
  5
892
  8
0
  6
CONTINUOUS
 62
     7
 10
1147.013564361984
 20
39.20644264654231
 30
0.0
 11
1132.013564361984
 21
45.20644264654231
 31
0.0
  0
LINE
  5
893
  8
0
  6
CONTINUOUS
 62
     7
 10
1159.013564361984
 20
39.20644264654231
 30
0.0
 11
1147.013564361984
 21
39.20644264654231
 31
0.0
  0
LINE
  5
894
  8
0
  6
CONTINUOUS
 62
     7
 10
1159.013564107984
 20
52.45644264654231
 30
0.0
 11
1168.013564107984
 21
52.45644264654231
 31
0.0
  0
LINE
  5
895
  8
0
  6
CONTINUOUS
 62
     7
 10
1159.013564107984
 20
69.45644264654231
 30
0.0
 11
1168.013564107984
 21
69.45644264654231
 31
0.0
  0
LINE
  5
896
  8
0
  6
CONTINUOUS
 62
     7
 10
1159.013564361984
 20
78.20644264654231
 30
0.0
 11
1159.013564361984
 21
69.45644264654231
 31
0.0
  0
LINE
  5
897
  8
0
  6
CONTINUOUS
 62
     7
 10
1168.013564107984
 20
69.45644264654231
 30
0.0
 11
1168.013564107984
 21
52.45644264654231
 31
0.0
  0
LINE
  5
898
  8
0
  6
CONTINUOUS
 62
     7
 10
1159.013564107984
 20
52.45644264654231
 30
0.0
 11
1159.013564107984
 21
39.20644264654231
 31
0.0
  0
CIRCLE
  5
899
  8
TALL_1
  6
CONTINUOUS
 10
1033.013564107984
 20
81.20644264654231
 30
0.0
 40
2.399999999999998
  0
ARC
  5
89A
  8
0
  6
CONTINUOUS
 62
     7
 10
1030.717926222551
 20
55.00129011575746
 30
0.0
 40
3.999999999999999
 50
184.6530848549854
 51
266.7295120768147
  0
LINE
  5
89B
  8
0
  6
CONTINUOUS
 62
     7
 10
1044.370457270094
 20
75.42197810598964
 30
0.0
 11
1042.251081113528
 21
86.01885888882236
 31
0.0
  0
ARC
  5
89C
  8
0
  6
CONTINUOUS
 62
     7
 10
1048.292779972858
 20
76.20644264654231
 30
0.0
 40
3.999999999999999
 50
191.3099324740193
 51
270.0
  0
LINE
  5
89D
  8
0
  6
CONTINUOUS
 62
     7
 10
1024.013564361984
 20
88.06570761259036
 30
0.0
 11
1026.731109638957
 21
54.67680047219574
 31
0.0
  0
ARC
  5
89E
  8
0
  6
CONTINUOUS
 62
     7
 10
1038.328758410764
 20
85.23439434826957
 30
0.0
 40
3.999999999999999
 50
11.30993247402085
 51
45.0
  0
ARC
  5
89F
  8
0
  6
CONTINUOUS
 62
     7
 10
1028.013564361984
 20
88.06570761259036
 30
0.0
 40
3.999999999999999
 50
123.6900675259789
 51
180.0000000000016
  0
LINE
  5
8A0
  8
0
  6
CONTINUOUS
 62
     7
 10
1041.15718553551
 20
88.06282147301579
 30
0.0
 11
1035.332319957406
 21
93.88768705112034
 31
0.0
  0
LINE
  5
8A1
  8
0
  6
CONTINUOUS
 62
     7
 10
1030.285092047759
 20
94.38746110372551
 30
0.0
 11
1025.794763577083
 21
91.39390878994175
 31
0.0
  0
ARC
  5
8A2
  8
0
  6
CONTINUOUS
 62
     7
 10
1032.50389283266
 20
91.05925992637424
 30
0.0
 40
3.999999999999999
 50
44.99999999999942
 51
123.6900675259825
  0
ARC
  5
8A3
  8
0
  6
CONTINUOUS
 62
     7
 10
854.0571062892368
 20
-24.43775968561783
 30
0.0
 40
17.99999999999997
 50
90.0
 51
180.0
  0
LINE
  5
8A4
  8
0
  6
CONTINUOUS
 62
     7
 10
836.0571062892368
 20
-30.43775968561783
 30
0.0
 11
836.0571062892368
 21
-24.43775968561783
 31
0.0
  0
LINE
  5
8A5
  8
0
  6
CONTINUOUS
 62
     7
 10
836.0571062892368
 20
-30.43775968561783
 30
0.0
 11
837.0571060352368
 21
-30.43775968561783
 31
0.0
  0
LINE
  5
8A6
  8
0
  6
CONTINUOUS
 62
     7
 10
837.0571060352368
 20
-30.43775968561783
 30
0.0
 11
837.0571060352368
 21
-33.43775968561783
 31
0.0
  0
LINE
  5
8A7
  8
0
  6
CONTINUOUS
 62
     7
 10
837.0571060352368
 20
-33.43775968561783
 30
0.0
 11
841.0571060352368
 21
-33.43775968561783
 31
0.0
  0
LINE
  5
8A8
  8
0
  6
CONTINUOUS
 62
     7
 10
841.0571060352368
 20
-33.43775968561783
 30
0.0
 11
841.0571060352368
 21
-30.43775968561783
 31
0.0
  0
LINE
  5
8A9
  8
0
  6
CONTINUOUS
 62
     7
 10
926.0571060352368
 20
-30.43775968561783
 30
0.0
 11
926.0571060352368
 21
-24.43775968561783
 31
0.0
  0
ARC
  5
8AA
  8
0
  6
CONTINUOUS
 62
     7
 10
908.0571060352368
 20
-24.43775968561783
 30
0.0
 40
18.0
 50
0.0
 51
90.0
  0
LINE
  5
8AB
  8
0
  6
CONTINUOUS
 62
     7
 10
921.0571060352368
 20
-30.43775968561783
 30
0.0
 11
921.0571060352368
 21
-33.43775968561783
 31
0.0
  0
LINE
  5
8AC
  8
0
  6
CONTINUOUS
 62
     7
 10
921.0571060352368
 20
-33.43775968561783
 30
0.0
 11
925.0571060352368
 21
-33.43775968561783
 31
0.0
  0
LINE
  5
8AD
  8
0
  6
CONTINUOUS
 62
     7
 10
925.0571060352368
 20
-33.43775968561783
 30
0.0
 11
925.0571060352368
 21
-30.43775968561783
 31
0.0
  0
LINE
  5
8AE
  8
0
  6
CONTINUOUS
 62
     7
 10
925.0571060352368
 20
-30.43775968561783
 30
0.0
 11
926.0571060352368
 21
-30.43775968561783
 31
0.0
  0
LINE
  5
8AF
  8
0
  6
CONTINUOUS
 62
     7
 10
844.0571060352368
 20
-30.43775968561783
 30
0.0
 11
844.0571060352368
 21
-24.43775968561783
 31
0.0
  0
ARC
  5
8B0
  8
0
  6
CONTINUOUS
 62
     7
 10
854.0571061622368
 20
-24.43775981261786
 30
0.0
 40
10.00000012699996
 50
90.00000121276085
 51
180.0000012127602
  0
LINE
  5
8B1
  8
0
  6
CONTINUOUS
 62
     7
 10
908.0571060352368
 20
-14.43775968561783
 30
0.0
 11
888.5571060352368
 21
-14.43775968561783
 31
0.0
  0
ARC
  5
8B2
  8
0
  6
CONTINUOUS
 62
     7
 10
908.0571060352368
 20
-24.43775968561783
 30
0.0
 40
9.99999999999998
 50
0.0
 51
90.0
  0
LINE
  5
8B3
  8
0
  6
CONTINUOUS
 62
     7
 10
918.0571060352368
 20
-30.43775968561783
 30
0.0
 11
918.0571060352368
 21
-24.43775968561783
 31
0.0
  0
LINE
  5
8B4
  8
0
  6
CONTINUOUS
 62
     7
 10
918.0571060352368
 20
-30.43775968561783
 30
0.0
 11
918.0571060352368
 21
-24.43775968561783
 31
0.0
  0
LINE
  5
8B5
  8
0
 10
841.0571060352368
 20
-30.43775968561783
 30
0.0
 11
844.0571060352368
 21
-30.43775968561783
 31
0.0
  0
LINE
  5
8B6
  8
0
 10
918.0571060352368
 20
-30.43775968561783
 30
0.0
 11
921.0571060352368
 21
-30.43775968561783
 31
0.0
  0
LINE
  5
8B7
  8
0
  6
CONTINUOUS
 62
     7
 10
861.5571060352368
 20
-6.437759685617948
 30
0.0
 11
854.0571062892368
 21
-6.437759685617948
 31
0.0
  0
LINE
  5
8B8
  8
0
  6
CONTINUOUS
 62
     7
 10
900.5571060352368
 20
-6.437759685617948
 30
0.0
 11
908.0571060352368
 21
-6.437759685617948
 31
0.0
  0
LINE
  5
8B9
  8
0
  6
CONTINUOUS
 62
     7
 10
861.5571060352368
 20
11.56224031438182
 30
0.0
 11
861.5571060352368
 21
8.562240314381825
 31
0.0
  0
LINE
  5
8BA
  8
0
  6
CONTINUOUS
 62
     7
 10
861.5571060352368
 20
8.562240314381825
 30
0.0
 11
858.5571060352368
 21
8.562240314381825
 31
0.0
  0
LINE
  5
8BB
  8
0
  6
CONTINUOUS
 62
     7
 10
858.5571060352368
 20
8.562240314381825
 30
0.0
 11
858.5571060352368
 21
-0.437759685617948
 31
0.0
  0
LINE
  5
8BC
  8
0
  6
CONTINUOUS
 62
     7
 10
858.5571060352368
 20
-0.437759685617948
 30
0.0
 11
861.5571060352368
 21
-0.437759685617948
 31
0.0
  0
LINE
  5
8BD
  8
0
  6
CONTINUOUS
 62
     7
 10
861.5571060352368
 20
-0.437759685617948
 30
0.0
 11
861.5571060352368
 21
-6.437759685617948
 31
0.0
  0
LINE
  5
8BE
  8
0
  6
CONTINUOUS
 62
     7
 10
900.5571060352368
 20
11.56224031438182
 30
0.0
 11
900.5571060352368
 21
8.562240314381825
 31
0.0
  0
LINE
  5
8BF
  8
0
  6
CONTINUOUS
 62
     7
 10
900.5571060352368
 20
8.562240314381825
 30
0.0
 11
903.5571060352368
 21
8.562240314381825
 31
0.0
  0
LINE
  5
8C0
  8
0
  6
CONTINUOUS
 62
     7
 10
903.5571060352368
 20
8.562240314381825
 30
0.0
 11
903.5571060352368
 21
-0.437759685617948
 31
0.0
  0
LINE
  5
8C1
  8
0
  6
CONTINUOUS
 62
     7
 10
903.5571060352368
 20
-0.437759685617948
 30
0.0
 11
900.5571060352368
 21
-0.437759685617948
 31
0.0
  0
LINE
  5
8C2
  8
0
  6
CONTINUOUS
 62
     7
 10
900.5571060352368
 20
-0.437759685617948
 30
0.0
 11
900.5571060352368
 21
-6.437759685617948
 31
0.0
  0
LINE
  5
8C3
  8
TALL_1
 10
876.0571060352368
 20
8.562240314382052
 30
0.0
 11
876.0571060352368
 21
5.562240314382052
 31
0.0
  0
LINE
  5
8C4
  8
TALL_1
 10
876.0571060352368
 20
5.562240314382052
 30
0.0
 11
868.0571060352368
 21
5.562240314382052
 31
0.0
  0
LINE
  5
8C5
  8
TALL_1
 10
868.0571060352368
 20
5.562240314382052
 30
0.0
 11
868.0571060352368
 21
8.562240314382052
 31
0.0
  0
LINE
  5
8C6
  8
TALL_1
 10
886.0571060352368
 20
8.562240314382052
 30
0.0
 11
886.0571060352368
 21
5.562240314382052
 31
0.0
  0
LINE
  5
8C7
  8
TALL_1
 10
886.0571060352368
 20
5.562240314382052
 30
0.0
 11
894.0571060352368
 21
5.562240314382052
 31
0.0
  0
LINE
  5
8C8
  8
TALL_1
 10
894.0571060352368
 20
5.562240314382052
 30
0.0
 11
894.0571060352368
 21
8.562240314382052
 31
0.0
  0
LINE
  5
8C9
  8
TALL_1
 10
868.0571060352368
 20
8.562240314382052
 30
0.0
 11
876.0571060352368
 21
8.562240314382052
 31
0.0
  0
LINE
  5
8CA
  8
TALL_1
 10
894.0571060352368
 20
8.562240314382052
 30
0.0
 11
886.0571060352368
 21
8.562240314382052
 31
0.0
  0
LINE
  5
8CB
  8
TALL_1
  6
CONTINUOUS
 10
573.2518119289339
 20
69.12797000425553
 30
0.0
 11
576.2518119289339
 21
69.12797000425553
 31
0.0
  0
LINE
  5
8CC
  8
TALL_1
  6
CONTINUOUS
 10
573.2518119289339
 20
73.12797000425553
 30
0.0
 11
573.2518119289339
 21
69.12797000425553
 31
0.0
  0
LINE
  5
8CD
  8
TALL_1
  6
CONTINUOUS
 10
576.2518119289339
 20
69.12797000425553
 30
0.0
 11
576.2518119289339
 21
73.12797000425553
 31
0.0
  0
LINE
  5
8CE
  8
TALL_1
  6
CONTINUOUS
 10
576.2518119289339
 20
73.12797000425553
 30
0.0
 11
573.2518119289339
 21
73.12797000425553
 31
0.0
  0
LINE
  5
8CF
  8
TALL_1
  6
CONTINUOUS
 10
511.2518119289339
 20
69.12797000425553
 30
0.0
 11
514.2518119289339
 21
69.12797000425553
 31
0.0
  0
LINE
  5
8D0
  8
TALL_1
  6
CONTINUOUS
 10
511.2518119289339
 20
73.12797000425553
 30
0.0
 11
511.2518119289339
 21
69.12797000425553
 31
0.0
  0
LINE
  5
8D1
  8
TALL_1
  6
CONTINUOUS
 10
514.2518119289339
 20
69.12797000425553
 30
0.0
 11
514.2518119289339
 21
73.12797000425553
 31
0.0
  0
LINE
  5
8D2
  8
TALL_1
  6
CONTINUOUS
 10
514.2518119289339
 20
73.12797000425553
 30
0.0
 11
511.2518119289339
 21
73.12797000425553
 31
0.0
  0
LINE
  5
8D3
  8
0
  6
CONTINUOUS
 62
     7
 10
475.9518119289339
 20
74.12797000425553
 30
0.0
 11
475.9518119289339
 21
68.12797000425564
 31
0.0
  0
ARC
  5
8D4
  8
0
  6
CONTINUOUS
 62
     7
 10
479.9518119289339
 20
68.12797000425564
 30
0.0
 40
4.0
 50
180.0
 51
270.0
  0
ARC
  5
8D5
  8
0
  6
CONTINUOUS
 62
     7
 10
479.9518119289339
 20
74.12797000425553
 30
0.0
 40
4.000000000000002
 50
90.0
 51
180.0
  0
LINE
  5
8D6
  8
0
  6
CONTINUOUS
 62
     7
 10
611.5518119289338
 20
74.12797000425553
 30
0.0
 11
611.5518119289338
 21
68.12797000425553
 31
0.0
  0
ARC
  5
8D7
  8
0
  6
CONTINUOUS
 62
     7
 10
607.5518119289338
 20
68.12797000425553
 30
0.0
 40
4.0
 50
270.0
 51
0.0
  0
ARC
  5
8D8
  8
0
  6
CONTINUOUS
 62
     7
 10
607.5518119289338
 20
74.12797000425553
 30
0.0
 40
4.000000000000002
 50
0.0
 51
90.0
  0
LINE
  5
8D9
  8
0
  6
CONTINUOUS
 62
     7
 10
607.5518119289338
 20
78.12797000425553
 30
0.0
 11
479.9518119289339
 21
78.12797000425553
 31
0.0
  0
LINE
  5
8DA
  8
0
  6
CONTINUOUS
 62
     7
 10
607.5518119289338
 20
64.12797000425553
 30
0.0
 11
479.9518119289339
 21
64.12797000425564
 31
0.0
  0
LINE
  5
8DB
  8
0
 10
810.538611507181
 20
192.6266052998857
 30
0.0
 11
815.538611507181
 21
192.6266052998857
 31
0.0
  0
LINE
  5
8DC
  8
0
 10
815.538611507181
 20
192.6266052998857
 30
0.0
 11
815.538611507181
 21
189.6266052998857
 31
0.0
  0
LINE
  5
8DD
  8
0
 10
815.538611507181
 20
189.6266052998857
 30
0.0
 11
823.538611507181
 21
189.6266052998857
 31
0.0
  0
LINE
  5
8DE
  8
0
 10
823.538611507181
 20
189.6266052998857
 30
0.0
 11
823.538611507181
 21
192.6266052998857
 31
0.0
  0
LINE
  5
8DF
  8
0
 10
805.538611507181
 20
192.6266052998857
 30
0.0
 11
805.538611507181
 21
189.6266052998857
 31
0.0
  0
LINE
  5
8E0
  8
0
 10
805.538611507181
 20
189.6266052998857
 30
0.0
 11
797.538611507181
 21
189.6266052998857
 31
0.0
  0
LINE
  5
8E1
  8
0
 10
797.538611507181
 20
189.6266052998857
 30
0.0
 11
797.538611507181
 21
192.6266052998857
 31
0.0
  0
LINE
  5
8E2
  8
NO_IMPRES
  6
CONTINUOUS
 62
     7
 10
797.538611507181
 20
192.6266052998857
 30
0.0
 11
794.038611507181
 21
192.6266052998857
 31
0.0
  0
LINE
  5
8E3
  8
NO_IMPRES
  6
CONTINUOUS
 62
     7
 10
815.538611507181
 20
192.6266052998857
 30
0.0
 11
805.538611507181
 21
192.6266052998857
 31
0.0
  0
LINE
  5
8E4
  8
NO_IMPRES
  6
CONTINUOUS
 62
     7
 10
827.038611507181
 20
192.6266052998857
 30
0.0
 11
823.538611507181
 21
192.6266052998857
 31
0.0
  0
LINE
  5
8E5
  8
TALL_1
 10
865.0571060352368
 20
-2.54918851794173
 30
0.0
 11
897.0571060352368
 21
-2.54918851794173
 31
0.0
  0
LINE
  5
8E6
  8
TALL_1
 10
865.0571060352368
 20
1.69544211264224
 30
0.0
 11
897.0571060352368
 21
1.695442112642013
 31
0.0
  0
LINE
  5
8E7
  8
TALL_1
 10
897.0571060352368
 20
1.695442112642013
 30
0.0
 11
897.0571060352368
 21
-2.54918851794173
 31
0.0
  0
LINE
  5
8E8
  8
TALL_1
 10
865.0571060352368
 20
-2.54918851794173
 30
0.0
 11
865.0571060352368
 21
1.69544211264224
 31
0.0
  0
LINE
  5
8E9
  8
0
 10
865.0700327668592
 20
123.3611756644991
 30
0.0
 11
865.0700327668592
 21
120.3611756644993
 31
0.0
  0
LINE
  5
8EA
  8
0
 10
865.0700327668592
 20
120.3611756644993
 30
0.0
 11
898.0700327668592
 21
120.3611756644993
 31
0.0
  0
LINE
  5
8EB
  8
0
  6
CONTINUOUS
 62
     7
 10
898.0700327668592
 20
123.3611756644991
 30
0.0
 11
904.0700327668592
 21
123.3611756644991
 31
0.0
  0
LINE
  5
8EC
  8
0
 10
898.0700327668592
 20
123.3611756644991
 30
0.0
 11
898.0700327668592
 21
120.3611756644993
 31
0.0
  0
LINE
  5
8ED
  8
0
  6
CONTINUOUS
 62
     7
 10
904.0700327668592
 20
123.3611756644991
 30
0.0
 11
904.0700327668592
 21
114.3611756644993
 31
0.0
  0
LINE
  5
8EE
  8
0
 10
861.5571060352368
 20
11.56224031438182
 30
0.0
 11
900.5571060352368
 21
11.56224031438182
 31
0.0
  0
LINE
  5
8EF
  8
0
 10
1090.831426665136
 20
144.2038364588077
 30
0.0
 11
1111.831426665136
 21
144.2038364588077
 31
0.0
  0
POLYLINE
  5
8F0
  8
0
 66
     1
 10
0.0
 20
0.0
 30
0.0
  0
VERTEX
  5
9C9
  8
0
 10
1117.831426665136
 20
141.2038364588077
 30
0.0
  0
VERTEX
  5
9CA
  8
0
 10
1117.831426665136
 20
149.8412856860069
 30
0.0
  0
VERTEX
  5
9CB
  8
0
 10
1087.831426665137
 20
149.8412856860069
 30
0.0
  0
SEQEND
  5
9EC
  8
0
  0
POLYLINE
  5
8F1
  8
0
 66
     1
 10
0.0
 20
0.0
 30
0.0
 70
     1
  0
VERTEX
  5
9CC
  8
0
 10
1157.148478878922
 20
134.3146798388556
 30
0.0
  0
VERTEX
  5
9CD
  8
0
 10
1157.148478878922
 20
165.3146798388556
 30
0.0
  0
VERTEX
  5
9CE
  8
0
 10
1186.148478878922
 20
165.3146798388556
 30
0.0
 42
-0.414213562373095
  0
VERTEX
  5
9CF
  8
0
 10
1190.148478878922
 20
161.3146798388556
 30
0.0
  0
VERTEX
  5
9D0
  8
0
 10
1190.148478878922
 20
138.3146798388556
 30
0.0
 42
-0.414213562373095
  0
VERTEX
  5
9D1
  8
0
 10
1186.148478878922
 20
134.3146798388556
 30
0.0
  0
SEQEND
  5
9ED
  8
0
  0
ARC
  5
8F2
  8
0
 10
1079.516213122488
 20
176.2568425047448
 30
0.0
 40
13.16620772298672
 50
338.9636622135243
 51
56.24759007164186
  0
LINE
  5
8F3
  8
0
 10
1087.831426665137
 20
152.8412856860069
 30
0.0
 11
1091.119594503037
 21
152.8412856860069
 31
0.0
  0
LINE
  5
8F4
  8
0
 10
1084.831426665136
 20
144.2038364588077
 30
0.0
 11
1082.080537729125
 21
182.9689483710018
 31
0.0
  0
LINE
  5
8F5
  8
0
 10
1091.539514855791
 20
170.1916424203391
 30
0.0
 11
1091.119594503037
 21
152.841285686007
 31
0.0
  0
POLYLINE
  5
8F6
  8
0
 66
     1
 10
0.0
 20
0.0
 30
0.0
  0
VERTEX
  5
9D2
  8
0
 10
1227.310947619819
 20
162.7208162376901
 30
0.0
  0
VERTEX
  5
9D3
  8
0
 10
1224.310949313043
 20
162.7240036113828
 30
0.0
  0
VERTEX
  5
9D4
  8
0
 10
1224.320511688122
 20
171.7239985314362
 30
0.0
  0
VERTEX
  5
9D5
  8
0
 10
1227.320509994897
 20
171.7208111577434
 30
0.0
  0
SEQEND
  5
9EE
  8
0
  0
LINE
  5
8F7
  8
0
 10
1227.320509994897
 20
171.7208111577434
 30
0.0
 11
1227.332773654256
 21
183.263223062126
 31
0.0
  0
LINE
  5
8F8
  8
0
 10
1227.310947619819
 20
162.7208162376901
 30
0.0
 11
1227.297980920943
 21
150.5167118107515
 31
0.0
  0
LINE
  5
8F9
  8
0
 10
1227.297980920943
 20
150.5167118107515
 30
0.0
 11
1249.297980920943
 21
150.5167118107515
 31
0.0
  0
POLYLINE
  5
8FA
  8
0
 66
     1
 10
0.0
 20
0.0
 30
0.0
  0
VERTEX
  5
9D6
  8
0
 10
1249.285014222066
 20
162.7208162376901
 30
0.0
  0
VERTEX
  5
9D7
  8
0
 10
1252.285012528842
 20
162.7240036113828
 30
0.0
  0
VERTEX
  5
9D8
  8
0
 10
1252.275450153763
 20
171.7239985314362
 30
0.0
  0
VERTEX
  5
9D9
  8
0
 10
1249.275451846989
 20
171.7208111577434
 30
0.0
  0
SEQEND
  5
9EF
  8
0
  0
LINE
  5
8FB
  8
0
 10
1249.275451846989
 20
171.7208111577434
 30
0.0
 11
1249.26318818763
 21
183.263223062126
 31
0.0
  0
LINE
  5
8FC
  8
0
 10
1249.285014222066
 20
162.7208162376901
 30
0.0
 11
1249.297980920943
 21
150.5167118107515
 31
0.0
  0
ARC
  5
8FD
  8
0
 10
1238.297980920943
 20
157.4729416545856
 30
0.0
 40
28.02453185124654
 50
66.96634621612489
 51
113.0336537838751
  0
ARC
  5
8FE
  8
0
 10
1095.538343857434
 20
170.0948611431191
 30
0.0
 40
4.0
 50
158.9636622135226
 51
178.6135750254296
  0
LINE
  5
8FF
  8
0
  6
CONTINUOUS
 10
1040.625834960118
 20
187.7230726658396
 30
0.0
 11
1039.868043516807
 21
187.7230726658396
 31
0.0
  0
LINE
  5
900
  8
TALL_1
  6
CONTINUOUS
 10
1038.538502587496
 20
174.6571483355814
 30
0.0
 11
1041.516527804955
 21
175.0195925439518
 31
0.0
  0
LINE
  5
901
  8
TALL_1
  6
CONTINUOUS
 10
1042.603860177928
 20
166.0855168608895
 30
0.0
 11
1039.625834960468
 21
165.7230726525188
 31
0.0
  0
LINE
  5
902
  8
TALL_1
  6
CONTINUOUS
 10
1041.516527804955
 20
175.0195925439518
 30
0.0
 11
1042.603860430066
 21
166.0855168915763
 31
0.0
  0
LINE
  5
903
  8
TALL_1
  6
CONTINUOUS
 10
1039.625835212607
 20
165.7230726832058
 30
0.0
 11
1038.538502587496
 21
174.6571483355814
 31
0.0
  0
LINE
  5
904
  8
0
  6
CONTINUOUS
 10
1041.625834960119
 20
153.3605218930388
 30
0.0
 11
1041.625834960119
 21
150.3605218930388
 31
0.0
  0
LINE
  5
905
  8
0
  6
CONTINUOUS
 10
1044.625834960118
 20
141.7230726658396
 30
0.0
 11
1038.625834960118
 21
141.7230726658396
 31
0.0
  0
LINE
  5
906
  8
0
  6
CONTINUOUS
 10
1071.625834960118
 20
141.7230726658396
 30
0.0
 11
1065.625834960118
 21
141.7230726658396
 31
0.0
  0
LINE
  5
907
  8
0
 10
1038.625834960118
 20
141.7230726658396
 30
0.0
 11
1038.625834960118
 21
144.7230726658396
 31
0.0
  0
LINE
  5
908
  8
0
 10
1044.625834960118
 20
141.7230726658396
 30
0.0
 11
1044.625834960118
 21
144.7230726658396
 31
0.0
  0
LINE
  5
909
  8
0
 10
1065.625834960118
 20
144.7230726658396
 30
0.0
 11
1065.625834960118
 21
141.7230726658396
 31
0.0
  0
ARC
  5
90A
  8
0
  6
CONTINUOUS
 10
1039.868043516807
 20
183.7230726658396
 30
0.0
 40
4.000000000000001
 50
90.0
 51
183.3664606634297
  0
LINE
  5
90B
  8
0
 10
1044.625834960118
 20
144.7230726658396
 30
0.0
 11
1065.625834960118
 21
144.7230726658396
 31
0.0
  0
POLYLINE
  5
90C
  8
0
 66
     1
 10
0.0
 20
0.0
 30
0.0
  0
VERTEX
  5
9DA
  8
0
 10
1071.625834960118
 20
141.7230726658396
 30
0.0
  0
VERTEX
  5
9DB
  8
0
 10
1071.625834960118
 20
150.3605218930388
 30
0.0
  0
VERTEX
  5
9DC
  8
0
 10
1041.625834960119
 20
150.3605218930388
 30
0.0
  0
SEQEND
  5
9F0
  8
0
  0
ARC
  5
90D
  8
0
 10
1033.31062141747
 20
176.7760787117767
 30
0.0
 40
13.16620772298672
 50
338.9636622135243
 51
56.24759007164186
  0
LINE
  5
90E
  8
0
 10
1038.625834960118
 20
144.7230726658396
 30
0.0
 11
1035.874946024107
 21
183.4881845780337
 31
0.0
  0
LINE
  5
90F
  8
0
 10
1045.333923150773
 20
170.710878627371
 30
0.0
 11
1044.91400279802
 21
153.3605218930389
 31
0.0
  0
LINE
  5
910
  8
0
 10
1041.625834960119
 20
153.3605218930388
 30
0.0
 11
1044.91400279802
 21
153.3605218930388
 31
0.0
  0
ARC
  5
911
  8
0
 10
1049.332752152416
 20
170.614097350151
 30
0.0
 40
4.0
 50
158.9636622135226
 51
178.6135750254295
  0
CIRCLE
  5
912
  8
TALL_1
  6
CONTINUOUS
 10
1034.274391397433
 20
11.83223421408331
 30
0.0
 40
2.399999999999998
  0
LINE
  5
913
  8
0
 10
1064.274391397433
 20
11.83223421408331
 30
0.0
 11
1064.274391397433
 21
11.83223421408331
 31
0.0
  0
ARC
  5
914
  8
0
 10
1059.274391397433
 20
11.83223421408331
 30
0.0
 40
5.0
 50
0.0
 51
90.0
  0
ARC
  5
915
  8
0
 10
1059.274391397433
 20
11.83223421408331
 30
0.0
 40
5.0
 50
270.0
 51
0.0
  0
LINE
  5
916
  8
0
 10
1004.274391397433
 20
11.83223421408331
 30
0.0
 11
1004.274391397433
 21
11.83223421408331
 31
0.0
  0
ARC
  5
917
  8
0
 10
1009.274391397433
 20
11.83223421408331
 30
0.0
 40
5.0
 50
90.0
 51
180.0
  0
ARC
  5
918
  8
0
 10
1009.274391397433
 20
11.83223421408331
 30
0.0
 40
5.0
 50
180.0
 51
270.0
  0
LINE
  5
919
  8
0
 10
1009.274391397433
 20
16.83223421408331
 30
0.0
 11
1059.274391397433
 21
16.83223421408331
 31
0.0
  0
LINE
  5
91A
  8
0
 10
1009.274391397433
 20
6.832234214083314
 30
0.0
 11
1059.274391397433
 21
6.832234214083314
 31
0.0
  0
ARC
  5
91B
  8
0
  6
CONTINUOUS
 10
881.5700327668592
 20
97.36117566449934
 30
0.0
 40
7.499999999999963
 50
180.0
 51
0.0
  0
LINE
  5
91C
  8
0
 10
874.0700327668592
 20
100.3611756644993
 30
0.0
 11
874.0700327668592
 21
97.36117566449934
 31
0.0
  0
LINE
  5
91D
  8
0
 10
889.0700327668592
 20
100.3611756644993
 30
0.0
 11
889.0700327668592
 21
97.36117566449934
 31
0.0
  0
LINE
  5
91E
  8
TALL_1
  6
CONTINUOUS
 10
878.7000327668593
 20
94.36117566449934
 30
0.0
 11
878.7000327668593
 21
97.36117566449934
 31
0.0
  0
LINE
  5
91F
  8
TALL_1
  6
CONTINUOUS
 10
884.4400327668591
 20
97.36117566449934
 30
0.0
 11
884.4400327668591
 21
94.36117566449934
 31
0.0
  0
LINE
  5
920
  8
TALL_1
 10
878.7000327668593
 20
97.36117566449934
 30
0.0
 11
884.4400327668591
 21
97.36117566449934
 31
0.0
  0
LINE
  5
921
  8
TALL_1
 10
878.7000327668593
 20
94.36117566449934
 30
0.0
 11
884.4400327668591
 21
94.36117566449934
 31
0.0
  0
ARC
  5
922
  8
0
  6
CONTINUOUS
 10
881.0571060352368
 20
-17.43775968561783
 30
0.0
 40
7.499999999999963
 50
180.0
 51
0.0
  0
LINE
  5
923
  8
0
 10
873.5571060352368
 20
-14.43775968561783
 30
0.0
 11
873.5571060352368
 21
-17.43775968561783
 31
0.0
  0
LINE
  5
924
  8
0
 10
888.5571060352368
 20
-14.43775968561783
 30
0.0
 11
888.5571060352368
 21
-17.43775968561783
 31
0.0
  0
LINE
  5
925
  8
TALL_1
  6
CONTINUOUS
 10
878.1871060352369
 20
-20.43775968561783
 30
0.0
 11
878.1871060352369
 21
-17.43775968561783
 31
0.0
  0
LINE
  5
926
  8
TALL_1
  6
CONTINUOUS
 10
883.9271060352366
 20
-17.43775968561783
 30
0.0
 11
883.9271060352366
 21
-20.43775968561783
 31
0.0
  0
LINE
  5
927
  8
TALL_1
 10
878.1871060352369
 20
-17.43775968561783
 30
0.0
 11
883.9271060352366
 21
-17.43775968561783
 31
0.0
  0
LINE
  5
928
  8
TALL_1
 10
878.1871060352369
 20
-20.43775968561783
 30
0.0
 11
883.9271060352366
 21
-20.43775968561783
 31
0.0
  0
ARC
  5
929
  8
0
  6
CONTINUOUS
 10
727.215151973829
 20
96.17071311053371
 30
0.0
 40
7.499999999999963
 50
180.0
 51
0.0
  0
LINE
  5
92A
  8
0
 10
719.715151973829
 20
99.17071311053371
 30
0.0
 11
719.715151973829
 21
96.17071311053371
 31
0.0
  0
LINE
  5
92B
  8
0
 10
734.715151973829
 20
99.17071311053371
 30
0.0
 11
734.715151973829
 21
96.17071311053371
 31
0.0
  0
LINE
  5
92C
  8
TALL_1
  6
CONTINUOUS
 10
724.3451519738292
 20
93.17071311053371
 30
0.0
 11
724.3451519738292
 21
96.17071311053371
 31
0.0
  0
LINE
  5
92D
  8
TALL_1
  6
CONTINUOUS
 10
730.0851519738289
 20
96.17071311053371
 30
0.0
 11
730.0851519738289
 21
93.17071311053371
 31
0.0
  0
LINE
  5
92E
  8
TALL_1
 10
724.3451519738292
 20
96.17071311053371
 30
0.0
 11
730.0851519738289
 21
96.17071311053371
 31
0.0
  0
LINE
  5
92F
  8
TALL_1
 10
724.3451519738292
 20
93.17071311053371
 30
0.0
 11
730.0851519738289
 21
93.17071311053371
 31
0.0
  0
LINE
  5
930
  8
TALL_1
 10
719.715151973829
 20
99.17071311053371
 30
0.0
 11
734.715151973829
 21
99.17071311053371
 31
0.0
  0
LINE
  5
931
  8
0
  6
CONTINUOUS
 62
     7
 10
874.0700327668592
 20
100.3611756644993
 30
0.0
 11
854.5700327668592
 21
100.3611756644993
 31
0.0
  0
LINE
  5
932
  8
0
  6
CONTINUOUS
 62
     7
 10
873.5571060352368
 20
-14.43775968561783
 30
0.0
 11
854.0571060352368
 21
-14.43775968561783
 31
0.0
  0
LINE
  5
933
  8
0
 10
794.038611507181
 20
192.6266052998857
 30
0.0
 11
794.038611507181
 21
260.6266052998857
 31
0.0
  0
LINE
  5
934
  8
0
 10
827.038611507181
 20
192.6266052998857
 30
0.0
 11
827.038611507181
 21
260.6266052998857
 31
0.0
  0
LINE
  5
935
  8
0
 10
1015.549732220384
 20
-98.49728290929193
 30
0.0
 11
1054.549732220384
 21
-98.49728290929193
 31
0.0
  0
LINE
  5
936
  8
TALL_1
 10
1027.549732220384
 20
-166.4972829092919
 30
0.0
 11
1027.549732220384
 21
-163.4972829092919
 31
0.0
  0
LINE
  5
937
  8
TALL_1
 10
1027.549732220384
 20
-163.4972829092919
 30
0.0
 11
1042.549732220384
 21
-163.4972829092919
 31
0.0
  0
LINE
  5
938
  8
TALL_1
 10
1042.549732220384
 20
-163.4972829092919
 30
0.0
 11
1042.549732220384
 21
-166.4972829092919
 31
0.0
  0
LINE
  5
939
  8
TALL_1
 10
1042.549732220384
 20
-166.4972829092919
 30
0.0
 11
1027.549732220384
 21
-166.4972829092919
 31
0.0
  0
LINE
  5
93A
  8
0
 10
1015.549732220384
 20
-98.49728290929193
 30
0.0
 11
1015.549732220384
 21
-169.4972829092919
 31
0.0
  0
LINE
  5
93B
  8
0
 10
1015.549732220384
 20
-169.4972829092919
 30
0.0
 11
1054.549732220384
 21
-169.4972829092919
 31
0.0
  0
LINE
  5
93C
  8
0
 10
1054.549732220384
 20
-169.4972829092919
 30
0.0
 11
1054.549732220384
 21
-98.49728290929193
 31
0.0
  0
LINE
  5
93D
  8
TALL_1
 10
1027.549732220384
 20
-104.4972829092919
 30
0.0
 11
1027.549732220384
 21
-101.4972829092919
 31
0.0
  0
LINE
  5
93E
  8
TALL_1
 10
1027.549732220384
 20
-101.4972829092919
 30
0.0
 11
1042.549732220384
 21
-101.4972829092919
 31
0.0
  0
LINE
  5
93F
  8
TALL_1
 10
1042.549732220384
 20
-101.4972829092919
 30
0.0
 11
1042.549732220384
 21
-104.4972829092919
 31
0.0
  0
LINE
  5
940
  8
TALL_1
 10
1042.549732220384
 20
-104.4972829092919
 30
0.0
 11
1027.549732220384
 21
-104.4972829092919
 31
0.0
  0
LINE
  5
941
  8
0
 10
1128.201955299817
 20
-57.65631019681427
 30
0.0
 11
1128.201955299817
 21
-64.1203553607279
 31
0.0
  0
LINE
  5
942
  8
0
 10
1134.001955299817
 20
-57.65631019681427
 30
0.0
 11
1134.001955299817
 21
-64.1203553607279
 31
0.0
  0
ARC
  5
943
  8
0
 10
1129.201955299817
 20
-64.1203553607279
 30
0.0
 40
1.0
 50
180.0
 51
270.0
  0
ARC
  5
944
  8
0
 10
1133.001955299817
 20
-64.1203553607279
 30
0.0
 40
1.0
 50
270.0
 51
0.0
  0
LINE
  5
945
  8
0
 10
1123.601955299818
 20
-57.65631019681427
 30
0.0
 11
1123.601955299818
 21
-54.65631019681427
 31
0.0
  0
LINE
  5
946
  8
0
 10
1124.601955299818
 20
-53.65631019681427
 30
0.0
 11
1137.601955299818
 21
-53.65631019681427
 31
0.0
  0
LINE
  5
947
  8
0
 10
1138.601955299818
 20
-54.65631019681427
 30
0.0
 11
1138.601955299818
 21
-57.65631019681427
 31
0.0
  0
ARC
  5
948
  8
0
 10
1124.601955299818
 20
-54.65631019681427
 30
0.0
 40
1.0
 50
90.0
 51
180.0
  0
ARC
  5
949
  8
0
 10
1137.601955299818
 20
-54.65631019681427
 30
0.0
 40
1.0
 50
0.0
 51
90.0
  0
LINE
  5
94A
  8
0
 10
1123.601955299818
 20
-57.65631019681427
 30
0.0
 11
1128.201955299817
 21
-57.65631019681427
 31
0.0
  0
LINE
  5
94B
  8
0
 10
1134.001955299817
 20
-57.65631019681427
 30
0.0
 11
1138.601955299818
 21
-57.65631019681427
 31
0.0
  0
LINE
  5
94C
  8
0
 10
1129.201955299817
 20
-65.1203553607279
 30
0.0
 11
1133.001955299817
 21
-65.1203553607279
 31
0.0
  0
LINE
  5
94D
  8
0
 10
1145.232346574485
 20
-61.22509945497279
 30
0.0
 11
1145.232346574485
 21
-54.76105429105917
 31
0.0
  0
LINE
  5
94E
  8
0
 10
1139.432346574485
 20
-61.22509945497279
 30
0.0
 11
1139.432346574485
 21
-54.76105429105917
 31
0.0
  0
ARC
  5
94F
  8
0
 10
1144.232346574485
 20
-54.76105429105917
 30
0.0
 40
1.0
 50
0.0
 51
90.0
  0
ARC
  5
950
  8
0
 10
1140.432346574485
 20
-54.76105429105917
 30
0.0
 40
1.0
 50
90.0
 51
180.0
  0
LINE
  5
951
  8
0
 10
1149.832346574485
 20
-61.22509945497279
 30
0.0
 11
1149.832346574485
 21
-64.22509945497279
 31
0.0
  0
LINE
  5
952
  8
0
 10
1148.832346574485
 20
-65.22509945497279
 30
0.0
 11
1135.832346574485
 21
-65.22509945497279
 31
0.0
  0
LINE
  5
953
  8
0
 10
1134.832346574485
 20
-64.22509945497279
 30
0.0
 11
1134.832346574485
 21
-61.22509945497279
 31
0.0
  0
ARC
  5
954
  8
0
 10
1148.832346574485
 20
-64.22509945497279
 30
0.0
 40
1.0
 50
270.0
 51
0.0
  0
ARC
  5
955
  8
0
 10
1135.832346574485
 20
-64.22509945497279
 30
0.0
 40
1.0
 50
180.0
 51
270.0
  0
LINE
  5
956
  8
0
 10
1149.832346574485
 20
-61.22509945497279
 30
0.0
 11
1145.232346574485
 21
-61.22509945497279
 31
0.0
  0
LINE
  5
957
  8
0
 10
1139.432346574485
 20
-61.22509945497279
 30
0.0
 11
1134.832346574485
 21
-61.22509945497279
 31
0.0
  0
LINE
  5
958
  8
0
 10
1144.232346574485
 20
-53.76105429105917
 30
0.0
 11
1140.432346574485
 21
-53.76105429105917
 31
0.0
  0
LINE
  5
959
  8
0
 10
1150.877510424379
 20
-57.65631019681427
 30
0.0
 11
1150.877510424379
 21
-64.1203553607279
 31
0.0
  0
LINE
  5
95A
  8
0
 10
1156.677510424379
 20
-57.65631019681427
 30
0.0
 11
1156.677510424379
 21
-64.1203553607279
 31
0.0
  0
ARC
  5
95B
  8
0
 10
1151.877510424379
 20
-64.1203553607279
 30
0.0
 40
1.0
 50
180.0
 51
270.0
  0
ARC
  5
95C
  8
0
 10
1155.677510424379
 20
-64.1203553607279
 30
0.0
 40
1.0
 50
270.0
 51
0.0
  0
LINE
  5
95D
  8
0
 10
1146.277510424379
 20
-57.65631019681427
 30
0.0
 11
1146.277510424379
 21
-54.65631019681427
 31
0.0
  0
LINE
  5
95E
  8
0
 10
1147.277510424379
 20
-53.65631019681427
 30
0.0
 11
1160.277510424379
 21
-53.65631019681427
 31
0.0
  0
LINE
  5
95F
  8
0
 10
1161.277510424379
 20
-54.65631019681427
 30
0.0
 11
1161.277510424379
 21
-57.65631019681427
 31
0.0
  0
ARC
  5
960
  8
0
 10
1147.277510424379
 20
-54.65631019681427
 30
0.0
 40
1.0
 50
90.0
 51
180.0
  0
ARC
  5
961
  8
0
 10
1160.277510424379
 20
-54.65631019681427
 30
0.0
 40
1.0
 50
0.0
 51
90.0
  0
LINE
  5
962
  8
0
 10
1146.277510424379
 20
-57.65631019681427
 30
0.0
 11
1150.877510424379
 21
-57.65631019681427
 31
0.0
  0
LINE
  5
963
  8
0
 10
1156.677510424379
 20
-57.65631019681427
 30
0.0
 11
1161.277510424379
 21
-57.65631019681427
 31
0.0
  0
LINE
  5
964
  8
0
 10
1151.877510424379
 20
-65.1203553607279
 30
0.0
 11
1155.677510424379
 21
-65.1203553607279
 31
0.0
  0
LINE
  5
965
  8
0
 10
1167.907901699046
 20
-61.22509945497279
 30
0.0
 11
1167.907901699046
 21
-54.76105429105917
 31
0.0
  0
LINE
  5
966
  8
0
 10
1162.107901699047
 20
-61.22509945497279
 30
0.0
 11
1162.107901699047
 21
-54.76105429105917
 31
0.0
  0
ARC
  5
967
  8
0
 10
1166.907901699046
 20
-54.76105429105917
 30
0.0
 40
1.0
 50
0.0
 51
90.0
  0
ARC
  5
968
  8
0
 10
1163.107901699047
 20
-54.76105429105917
 30
0.0
 40
1.0
 50
90.0
 51
180.0
  0
LINE
  5
969
  8
0
 10
1172.507901699046
 20
-61.22509945497279
 30
0.0
 11
1172.507901699046
 21
-64.22509945497279
 31
0.0
  0
LINE
  5
96A
  8
0
 10
1171.507901699046
 20
-65.22509945497279
 30
0.0
 11
1158.507901699046
 21
-65.22509945497279
 31
0.0
  0
LINE
  5
96B
  8
0
 10
1157.507901699046
 20
-64.22509945497279
 30
0.0
 11
1157.507901699046
 21
-61.22509945497279
 31
0.0
  0
ARC
  5
96C
  8
0
 10
1171.507901699046
 20
-64.22509945497279
 30
0.0
 40
1.0
 50
270.0
 51
0.0
  0
ARC
  5
96D
  8
0
 10
1158.507901699046
 20
-64.22509945497279
 30
0.0
 40
1.0
 50
180.0
 51
270.0
  0
LINE
  5
96E
  8
0
 10
1172.507901699046
 20
-61.22509945497279
 30
0.0
 11
1167.907901699046
 21
-61.22509945497279
 31
0.0
  0
LINE
  5
96F
  8
0
 10
1162.107901699047
 20
-61.22509945497279
 30
0.0
 11
1157.507901699046
 21
-61.22509945497279
 31
0.0
  0
LINE
  5
970
  8
0
 10
1166.907901699046
 20
-53.76105429105917
 30
0.0
 11
1163.107901699047
 21
-53.76105429105917
 31
0.0
  0
LINE
  5
971
  8
0
 10
1109.234127041643
 20
-36.28927247675472
 30
0.0
 11
1109.234127041643
 21
-42.75331764066834
 31
0.0
  0
LINE
  5
972
  8
0
 10
1115.034127041642
 20
-36.28927247675472
 30
0.0
 11
1115.034127041642
 21
-42.75331764066834
 31
0.0
  0
ARC
  5
973
  8
0
 10
1110.234127041643
 20
-42.75331764066834
 30
0.0
 40
1.0
 50
180.0
 51
270.0
  0
ARC
  5
974
  8
0
 10
1114.034127041642
 20
-42.75331764066834
 30
0.0
 40
1.0
 50
270.0
 51
0.0
  0
LINE
  5
975
  8
0
 10
1104.634127041643
 20
-36.28927247675472
 30
0.0
 11
1104.634127041643
 21
-33.28927247675472
 31
0.0
  0
LINE
  5
976
  8
0
 10
1105.634127041643
 20
-32.28927247675472
 30
0.0
 11
1118.634127041643
 21
-32.28927247675472
 31
0.0
  0
LINE
  5
977
  8
0
 10
1119.634127041643
 20
-33.28927247675472
 30
0.0
 11
1119.634127041643
 21
-36.28927247675472
 31
0.0
  0
ARC
  5
978
  8
0
 10
1105.634127041643
 20
-33.28927247675472
 30
0.0
 40
1.0
 50
90.0
 51
180.0
  0
ARC
  5
979
  8
0
 10
1118.634127041643
 20
-33.28927247675472
 30
0.0
 40
1.0
 50
0.0
 51
90.0
  0
LINE
  5
97A
  8
0
 10
1104.634127041643
 20
-36.28927247675472
 30
0.0
 11
1109.234127041643
 21
-36.28927247675472
 31
0.0
  0
LINE
  5
97B
  8
0
 10
1115.034127041642
 20
-36.28927247675472
 30
0.0
 11
1119.634127041643
 21
-36.28927247675472
 31
0.0
  0
LINE
  5
97C
  8
0
 10
1110.234127041643
 20
-43.75331764066834
 30
0.0
 11
1114.034127041642
 21
-43.75331764066834
 31
0.0
  0
ENDSEC
  0
EOF
