  0
SECTION
  2
HEADER
  9
$ACADVER
  1
AC1009
  9
$DWGCODEPAGE
  3
ansi_1252
  9
$INSBASE
 10
0.0
 20
0.0
 30
0.0
  9
$EXTMIN
 10
0.1241777777777778
 20
305.1788486744639
 30
0.0
  9
$EXTMAX
 10
610.5630833333333
 20
610.2836833333333
 30
0.0
  9
$LIMMIN
 10
0.0
 20
0.0
  9
$LIMMAX
 10
12.0
 20
9.0
  9
$ORTHOMODE
 70
     0
  9
$REGENMODE
 70
     1
  9
$FILLMODE
 70
     1
  9
$QTEXTMODE
 70
     0
  9
$MIRRTEXT
 70
     1
  9
$DRAGMODE
 70
     2
  9
$LTSCALE
 40
1.0
  9
$OSMODE
 70
    37
  9
$ATTMODE
 70
     1
  9
$TEXTSIZE
 40
0.2
  9
$TRACEWID
 40
0.05
  9
$TEXTSTYLE
  7
STANDARD
  9
$CLAYER
  8
0
  9
$CELTYPE
  6
BYLAYER
  9
$CECOLOR
 62
   256
  9
$DIMSCALE
 40
1.0
  9
$DIMASZ
 40
0.18
  9
$DIMEXO
 40
0.0625
  9
$DIMDLI
 40
0.38
  9
$DIMRND
 40
0.0
  9
$DIMDLE
 40
0.0
  9
$DIMEXE
 40
0.18
  9
$DIMTP
 40
0.0
  9
$DIMTM
 40
0.0
  9
$DIMTXT
 40
0.18
  9
$DIMCEN
 40
0.09
  9
$DIMTSZ
 40
0.0
  9
$DIMTOL
 70
     0
  9
$DIMLIM
 70
     0
  9
$DIMTIH
 70
     1
  9
$DIMTOH
 70
     1
  9
$DIMSE1
 70
     0
  9
$DIMSE2
 70
     0
  9
$DIMTAD
 70
     0
  9
$DIMZIN
 70
     0
  9
$DIMBLK
  1

  9
$DIMASO
 70
     1
  9
$DIMSHO
 70
     1
  9
$DIMPOST
  1

  9
$DIMAPOST
  1

  9
$DIMALT
 70
     0
  9
$DIMALTD
 70
     2
  9
$DIMALTF
 40
25.4
  9
$DIMLFAC
 40
1.0
  9
$DIMTOFL
 70
     0
  9
$DIMTVP
 40
0.0
  9
$DIMTIX
 70
     0
  9
$DIMSOXD
 70
     0
  9
$DIMSAH
 70
     0
  9
$DIMBLK1
  1

  9
$DIMBLK2
  1

  9
$DIMSTYLE
  2
STANDARD
  9
$DIMCLRD
 70
     0
  9
$DIMCLRE
 70
     0
  9
$DIMCLRT
 70
     0
  9
$DIMTFAC
 40
1.0
  9
$DIMGAP
 40
0.09
  9
$LUNITS
 70
     2
  9
$LUPREC
 70
     4
  9
$SKETCHINC
 40
0.1
  9
$FILLETRAD
 40
0.5
  9
$AUNITS
 70
     0
  9
$AUPREC
 70
     0
  9
$MENU
  1
.
  9
$ELEVATION
 40
0.0
  9
$PELEVATION
 40
0.0
  9
$THICKNESS
 40
0.0
  9
$LIMCHECK
 70
     0
  9
$CHAMFERA
 40
0.0
  9
$CHAMFERB
 40
0.0
  9
$SKPOLY
 70
     0
  9
$TDCREATE
 40
2454910.5
  9
$TDUPDATE
 40
2456775.693817662
  9
$TDINDWG
 40
0.0000000116
  9
$TDUSRTIMER
 40
0.0000000116
  9
$USRTIMER
 70
     1
  9
$ANGBASE
 50
0.0
  9
$ANGDIR
 70
     0
  9
$PDMODE
 70
     0
  9
$PDSIZE
 40
0.0
  9
$PLINEWID
 40
0.0
  9
$COORDS
 70
     1
  9
$SPLFRAME
 70
     0
  9
$SPLINETYPE
 70
     6
  9
$SPLINESEGS
 70
     8
  9
$ATTDIA
 70
     0
  9
$ATTREQ
 70
     1
  9
$HANDLING
 70
     1
  9
$HANDSEED
  5
30B
  9
$SURFTAB1
 70
     6
  9
$SURFTAB2
 70
     6
  9
$SURFTYPE
 70
     6
  9
$SURFU
 70
     6
  9
$SURFV
 70
     6
  9
$UCSNAME
  2

  9
$UCSORG
 10
0.0
 20
0.0
 30
0.0
  9
$UCSXDIR
 10
1.0
 20
0.0
 30
0.0
  9
$UCSYDIR
 10
0.0
 20
1.0
 30
0.0
  9
$PUCSNAME
  2

  9
$PUCSORG
 10
0.0
 20
0.0
 30
0.0
  9
$PUCSXDIR
 10
1.0
 20
0.0
 30
0.0
  9
$PUCSYDIR
 10
0.0
 20
1.0
 30
0.0
  9
$USERI1
 70
     0
  9
$USERI2
 70
     0
  9
$USERI3
 70
     0
  9
$USERI4
 70
     0
  9
$USERI5
 70
     0
  9
$USERR1
 40
0.0
  9
$USERR2
 40
0.0
  9
$USERR3
 40
0.0
  9
$USERR4
 40
0.0
  9
$USERR5
 40
0.0
  9
$WORLDVIEW
 70
     1
  9
$SHADEDGE
 70
     3
  9
$SHADEDIF
 70
    70
  9
$TILEMODE
 70
     1
  9
$MAXACTVP
 70
    64
  9
$PLIMCHECK
 70
     0
  9
$PEXTMIN
 10
1.000000000000000E+20
 20
1.000000000000000E+20
 30
1.000000000000000E+20
  9
$PEXTMAX
 10
-1.000000000000000E+20
 20
-1.000000000000000E+20
 30
-1.000000000000000E+20
  9
$PLIMMIN
 10
0.0
 20
0.0
  9
$PLIMMAX
 10
12.0
 20
9.0
  9
$UNITMODE
 70
     0
  9
$VISRETAIN
 70
     1
  9
$PLINEGEN
 70
     0
  9
$PSLTSCALE
 70
     1
  0
ENDSEC
  0
SECTION
  2
TABLES
  0
TABLE
  2
VPORT
 70
     1
  0
VPORT
  2
*ACTIVE
 70
     0
 10
0.0
 20
0.0
 11
1.0
 21
1.0
 12
10.42990654205607
 22
4.5
 13
0.0
 23
0.0
 14
0.5
 24
0.5
 15
0.5
 25
0.5
 16
0.0
 26
0.0
 36
1.0
 17
0.0
 27
0.0
 37
0.0
 40
9.0
 41
1.972972972850329
 42
50.0
 43
0.0
 44
0.0
 50
0.0
 51
0.0
 71
     0
 72
   100
 73
     1
 74
     3
 75
     0
 76
     0
 77
     0
 78
     0
  0
ENDTAB
  0
TABLE
  2
LTYPE
 70
     2
  0
LTYPE
  2
CONTINUOUS
 70
     0
  3
Solid line
 72
    65
 73
     0
 40
0.0
  0
LTYPE
  2
CONTINUOUS2
 70
     0
  3
Solid Line
 72
    65
 73
     0
 40
0.0
  0
ENDTAB
  0
TABLE
  2
LAYER
 70
     2
  0
LAYER
  2
0
 70
     0
 62
     7
  6
CONTINUOUS
  0
LAYER
  2
LAYER_1
 70
     0
 62
    18
  6
CONTINUOUS
  0
ENDTAB
  0
TABLE
  2
STYLE
 70
     1
  0
STYLE
  2
STANDARD
 70
     0
 40
0.0
 41
1.0
 50
0.0
 71
     0
 42
0.2
  3
txt
  4

  0
ENDTAB
  0
TABLE
  2
VIEW
 70
     0
  0
ENDTAB
  0
TABLE
  2
UCS
 70
     0
  0
ENDTAB
  0
TABLE
  2
APPID
 70
     1
  0
APPID
  2
ACAD
 70
     0
  0
ENDTAB
  0
TABLE
  2
DIMSTYLE
 70
     1
  0
DIMSTYLE
  2
STANDARD
 70
     0
  3

  4

  5

  6

  7

 40
1.0
 41
0.18
 42
0.0625
 43
0.38
 44
0.18
 45
0.0
 46
0.0
 47
0.0
 48
0.0
140
0.18
141
0.09
142
0.0
143
25.4
144
1.0
145
0.0
146
1.0
147
0.09
 71
     0
 72
     0
 73
     1
 74
     1
 75
     0
 76
     0
 77
     0
 78
     0
170
     0
171
     2
172
     0
173
     0
174
     0
175
     0
176
     0
177
     0
178
     0
  0
ENDTAB
  0
ENDSEC
  0
SECTION
  2
BLOCKS
  0
BLOCK
  8
0
  2
$MODEL_SPACE
 70
     0
 10
0.0
 20
0.0
 30
0.0
  3
$MODEL_SPACE
  1

  0
ENDBLK
  5
21
  8
0
  0
BLOCK
 67
     1
  8
0
  2
$PAPER_SPACE
 70
     0
 10
0.0
 20
0.0
 30
0.0
  3
$PAPER_SPACE
  1

  0
ENDBLK
  5
1D
 67
     1
  8
0
  0
ENDSEC
  0
SECTION
  2
ENTITIES
  0
POLYLINE
  5
6C
  8
LAYER_1
 66
     1
 10
0.0
 20
0.0
 30
0.0
 70
     1
  0
VERTEX
  5
7E
  8
LAYER_1
 10
511.683
 20
610.2593070077969
 30
0.0
  0
VERTEX
  5
7F
  8
LAYER_1
 10
529.2830833333333
 20
610.2593070077969
 30
0.0
  0
VERTEX
  5
80
  8
LAYER_1
 10
529.2830833333333
 20
607.2596375633525
 30
0.0
  0
VERTEX
  5
81
  8
LAYER_1
 10
549.3243888888888
 20
607.2596375633525
 30
0.0
  0
VERTEX
  5
82
  8
LAYER_1
 10
549.3243888888888
 20
610.2593070077969
 30
0.0
  0
VERTEX
  5
83
  8
LAYER_1
 10
569.9230833333332
 20
610.2593070077969
 30
0.0
  0
VERTEX
  5
84
  8
LAYER_1
 10
569.9230833333332
 20
607.2596375633525
 30
0.0
  0
VERTEX
  5
85
  8
LAYER_1
 10
589.9643888888888
 20
607.2596375633525
 30
0.0
  0
VERTEX
  5
86
  8
LAYER_1
 10
589.9643888888888
 20
610.2593070077969
 30
0.0
  0
VERTEX
  5
87
  8
LAYER_1
 10
607.5644722222222
 20
610.2593070077969
 30
0.0
  0
VERTEX
  5
88
  8
LAYER_1
 10
607.5644722222222
 20
579.0592875633522
 30
0.0
  0
VERTEX
  5
89
  8
LAYER_1
 10
610.5630833333333
 20
579.0592875633522
 30
0.0
  0
VERTEX
  5
8A
  8
LAYER_1
 10
610.5630833333333
 20
547.5795153411298
 30
0.0
  0
VERTEX
  5
8B
  8
LAYER_1
 10
607.5644722222222
 20
547.5795153411298
 30
0.0
  0
VERTEX
  5
8C
  8
LAYER_1
 10
607.5644722222222
 20
527.8592375633518
 30
0.0
  0
VERTEX
  5
8D
  8
LAYER_1
 10
610.5630833333333
 20
527.8592375633518
 30
0.0
  0
VERTEX
  5
8E
  8
LAYER_1
 10
610.5630833333333
 20
507.5815708966852
 30
0.0
  0
VERTEX
  5
8F
  8
LAYER_1
 10
607.5644722222222
 20
507.5815708966852
 30
0.0
  0
VERTEX
  5
90
  8
LAYER_1
 10
607.5644722222222
 20
487.8577653411297
 30
0.0
  0
VERTEX
  5
91
  8
LAYER_1
 10
610.5630833333333
 20
487.8577653411297
 30
0.0
  0
VERTEX
  5
92
  8
LAYER_1
 10
610.5630833333333
 20
467.5800986744632
 30
0.0
  0
VERTEX
  5
93
  8
LAYER_1
 10
607.5644722222222
 20
467.5800986744632
 30
0.0
  0
VERTEX
  5
94
  8
LAYER_1
 10
607.5644722222222
 20
447.8598208966855
 30
0.0
  0
VERTEX
  5
95
  8
LAYER_1
 10
610.5630833333333
 20
447.8598208966855
 30
0.0
  0
VERTEX
  5
96
  8
LAYER_1
 10
610.5630833333333
 20
427.5786264522412
 30
0.0
  0
VERTEX
  5
97
  8
LAYER_1
 10
607.5644722222222
 20
427.5786264522412
 30
0.0
  0
VERTEX
  5
98
  8
LAYER_1
 10
607.5644722222222
 20
407.8583486744635
 30
0.0
  0
VERTEX
  5
99
  8
LAYER_1
 10
610.5630833333333
 20
407.8583486744635
 30
0.0
  0
VERTEX
  5
9A
  8
LAYER_1
 10
610.5630833333333
 20
387.5806820077969
 30
0.0
  0
VERTEX
  5
9B
  8
LAYER_1
 10
607.5644722222222
 20
387.5806820077969
 30
0.0
  0
VERTEX
  5
9C
  8
LAYER_1
 10
607.5644722222222
 20
367.8604042300192
 30
0.0
  0
VERTEX
  5
9D
  8
LAYER_1
 10
610.5630833333333
 20
367.8604042300192
 30
0.0
  0
VERTEX
  5
9E
  8
LAYER_1
 10
610.5630833333333
 20
336.3785153411305
 30
0.0
  0
VERTEX
  5
9F
  8
LAYER_1
 10
607.5644722222222
 20
336.3785153411305
 30
0.0
  0
VERTEX
  5
A0
  8
LAYER_1
 10
607.5644722222222
 20
305.1788486744639
 30
0.0
  0
VERTEX
  5
A1
  8
LAYER_1
 10
589.9643888888888
 20
305.1788486744639
 30
0.0
  0
VERTEX
  5
A2
  8
LAYER_1
 10
589.9643888888888
 20
308.1809875633529
 30
0.0
  0
VERTEX
  5
A3
  8
LAYER_1
 10
569.9230833333332
 20
308.1809875633529
 30
0.0
  0
VERTEX
  5
A4
  8
LAYER_1
 10
569.9230833333332
 20
305.1788486744639
 30
0.0
  0
VERTEX
  5
A5
  8
LAYER_1
 10
549.3243888888888
 20
305.1788486744639
 30
0.0
  0
VERTEX
  5
A6
  8
LAYER_1
 10
549.3243888888888
 20
308.1809875633529
 30
0.0
  0
VERTEX
  5
A7
  8
LAYER_1
 10
529.2830833333333
 20
308.1809875633529
 30
0.0
  0
VERTEX
  5
A8
  8
LAYER_1
 10
529.2830833333333
 20
305.1788486744639
 30
0.0
  0
VERTEX
  5
A9
  8
LAYER_1
 10
511.683
 20
305.1788486744639
 30
0.0
  0
VERTEX
  5
AA
  8
LAYER_1
 10
511.683
 20
336.3785153411305
 30
0.0
  0
VERTEX
  5
AB
  8
LAYER_1
 10
508.6843888888889
 20
336.3785153411305
 30
0.0
  0
VERTEX
  5
AC
  8
LAYER_1
 10
508.6843888888889
 20
367.8604042300192
 30
0.0
  0
VERTEX
  5
AD
  8
LAYER_1
 10
511.683
 20
367.8604042300192
 30
0.0
  0
VERTEX
  5
AE
  8
LAYER_1
 10
511.683
 20
387.5806820077969
 30
0.0
  0
VERTEX
  5
AF
  8
LAYER_1
 10
508.6843888888889
 20
387.5806820077969
 30
0.0
  0
VERTEX
  5
B0
  8
LAYER_1
 10
508.6843888888889
 20
407.8583486744635
 30
0.0
  0
VERTEX
  5
B1
  8
LAYER_1
 10
511.683
 20
407.8583486744635
 30
0.0
  0
VERTEX
  5
B2
  8
LAYER_1
 10
511.683
 20
427.5786264522412
 30
0.0
  0
VERTEX
  5
B3
  8
LAYER_1
 10
508.6843888888889
 20
427.5786264522412
 30
0.0
  0
VERTEX
  5
B4
  8
LAYER_1
 10
508.6843888888889
 20
447.8598208966855
 30
0.0
  0
VERTEX
  5
B5
  8
LAYER_1
 10
511.683
 20
447.8598208966855
 30
0.0
  0
VERTEX
  5
B6
  8
LAYER_1
 10
511.683
 20
467.5800986744632
 30
0.0
  0
VERTEX
  5
B7
  8
LAYER_1
 10
508.6843888888889
 20
467.5800986744632
 30
0.0
  0
VERTEX
  5
B8
  8
LAYER_1
 10
508.6843888888889
 20
487.8577653411297
 30
0.0
  0
VERTEX
  5
B9
  8
LAYER_1
 10
511.683
 20
487.8577653411297
 30
0.0
  0
VERTEX
  5
BA
  8
LAYER_1
 10
511.683
 20
507.5815708966852
 30
0.0
  0
VERTEX
  5
BB
  8
LAYER_1
 10
508.6843888888889
 20
507.5815708966852
 30
0.0
  0
VERTEX
  5
BC
  8
LAYER_1
 10
508.6843888888889
 20
527.8592375633518
 30
0.0
  0
VERTEX
  5
BD
  8
LAYER_1
 10
511.683
 20
527.8592375633518
 30
0.0
  0
VERTEX
  5
BE
  8
LAYER_1
 10
511.683
 20
547.5795153411298
 30
0.0
  0
VERTEX
  5
BF
  8
LAYER_1
 10
508.6843888888889
 20
547.5795153411298
 30
0.0
  0
VERTEX
  5
C0
  8
LAYER_1
 10
508.6843888888889
 20
579.0592875633522
 30
0.0
  0
VERTEX
  5
C1
  8
LAYER_1
 10
511.683
 20
579.0592875633522
 30
0.0
  0
SEQEND
  5
300
  8
LAYER_1
  0
POLYLINE
  5
6D
  8
LAYER_1
 66
     1
 10
0.0
 20
0.0
 30
0.0
 70
     1
  0
VERTEX
  5
C2
  8
LAYER_1
 10
131.9632100633794
 20
605.6203168117192
 30
0.0
  0
VERTEX
  5
C3
  8
LAYER_1
 10
157.4626933967128
 20
605.6203168117192
 30
0.0
  0
VERTEX
  5
C4
  8
LAYER_1
 10
157.4626933967128
 20
608.6199862561637
 30
0.0
  0
VERTEX
  5
C5
  8
LAYER_1
 10
186.2430100633794
 20
608.6199862561637
 30
0.0
  0
VERTEX
  5
C6
  8
LAYER_1
 10
186.2430100633794
 20
605.6203168117192
 30
0.0
  0
VERTEX
  5
C7
  8
LAYER_1
 10
205.9625822856016
 20
605.6203168117192
 30
0.0
  0
VERTEX
  5
C8
  8
LAYER_1
 10
205.9625822856016
 20
608.6199862561637
 30
0.0
  0
VERTEX
  5
C9
  8
LAYER_1
 10
226.2430711744905
 20
608.6199862561637
 30
0.0
  0
VERTEX
  5
CA
  8
LAYER_1
 10
226.2430711744905
 20
605.6203168117192
 30
0.0
  0
VERTEX
  5
CB
  8
LAYER_1
 10
245.9629961744905
 20
605.6203168117192
 30
0.0
  0
VERTEX
  5
CC
  8
LAYER_1
 10
245.9629961744905
 20
608.6199862561637
 30
0.0
  0
VERTEX
  5
CD
  8
LAYER_1
 10
266.2420739522683
 20
608.6199862561637
 30
0.0
  0
VERTEX
  5
CE
  8
LAYER_1
 10
266.2420739522683
 20
605.6203168117192
 30
0.0
  0
VERTEX
  5
CF
  8
LAYER_1
 10
285.9634100633794
 20
605.6203168117192
 30
0.0
  0
VERTEX
  5
D0
  8
LAYER_1
 10
285.9634100633794
 20
608.6199862561637
 30
0.0
  0
VERTEX
  5
D1
  8
LAYER_1
 10
306.2424878411572
 20
608.6199862561637
 30
0.0
  0
VERTEX
  5
D2
  8
LAYER_1
 10
306.2424878411572
 20
605.6203168117192
 30
0.0
  0
VERTEX
  5
D3
  8
LAYER_1
 10
325.9620600633794
 20
605.6203168117192
 30
0.0
  0
VERTEX
  5
D4
  8
LAYER_1
 10
325.9620600633794
 20
608.6199862561637
 30
0.0
  0
VERTEX
  5
D5
  8
LAYER_1
 10
354.7423767300461
 20
608.6199862561637
 30
0.0
  0
VERTEX
  5
D6
  8
LAYER_1
 10
354.7423767300461
 20
605.6203168117192
 30
0.0
  0
VERTEX
  5
D7
  8
LAYER_1
 10
380.2432711744905
 20
605.6203168117192
 30
0.0
  0
VERTEX
  5
D8
  8
LAYER_1
 10
380.2432711744905
 20
588.301044589497
 30
0.0
  0
VERTEX
  5
D9
  8
LAYER_1
 10
383.2432933967127
 20
588.301044589497
 30
0.0
  0
VERTEX
  5
DA
  8
LAYER_1
 10
383.2432933967127
 20
567.7005862561637
 30
0.0
  0
VERTEX
  5
DB
  8
LAYER_1
 10
380.2432711744905
 20
567.7005862561637
 30
0.0
  0
VERTEX
  5
DC
  8
LAYER_1
 10
380.2432711744905
 20
547.6582223672748
 30
0.0
  0
VERTEX
  5
DD
  8
LAYER_1
 10
383.2432933967127
 20
547.6582223672748
 30
0.0
  0
VERTEX
  5
DE
  8
LAYER_1
 10
383.2432933967127
 20
527.0595279228303
 30
0.0
  0
VERTEX
  5
DF
  8
LAYER_1
 10
380.2432711744905
 20
527.0595279228303
 30
0.0
  0
VERTEX
  5
E0
  8
LAYER_1
 10
380.2432711744905
 20
509.7416668117194
 30
0.0
  0
VERTEX
  5
E1
  8
LAYER_1
 10
354.7423767300461
 20
509.7416668117194
 30
0.0
  0
VERTEX
  5
E2
  8
LAYER_1
 10
354.7423767300461
 20
506.7395279228305
 30
0.0
  0
VERTEX
  5
E3
  8
LAYER_1
 10
325.9620600633794
 20
506.7395279228305
 30
0.0
  0
VERTEX
  5
E4
  8
LAYER_1
 10
325.9620600633794
 20
509.7416668117194
 30
0.0
  0
VERTEX
  5
E5
  8
LAYER_1
 10
306.2424878411572
 20
509.7416668117194
 30
0.0
  0
VERTEX
  5
E6
  8
LAYER_1
 10
306.2424878411572
 20
506.7395279228305
 30
0.0
  0
VERTEX
  5
E7
  8
LAYER_1
 10
285.9634100633794
 20
506.7395279228305
 30
0.0
  0
VERTEX
  5
E8
  8
LAYER_1
 10
285.9634100633794
 20
509.7416668117194
 30
0.0
  0
VERTEX
  5
E9
  8
LAYER_1
 10
266.2420739522683
 20
509.7416668117194
 30
0.0
  0
VERTEX
  5
EA
  8
LAYER_1
 10
266.2420739522683
 20
506.7395279228305
 30
0.0
  0
VERTEX
  5
EB
  8
LAYER_1
 10
245.9629961744905
 20
506.7395279228305
 30
0.0
  0
VERTEX
  5
EC
  8
LAYER_1
 10
245.9629961744905
 20
509.7416668117194
 30
0.0
  0
VERTEX
  5
ED
  8
LAYER_1
 10
226.2430711744905
 20
509.7416668117194
 30
0.0
  0
VERTEX
  5
EE
  8
LAYER_1
 10
226.2430711744905
 20
506.7395279228305
 30
0.0
  0
VERTEX
  5
EF
  8
LAYER_1
 10
205.9625822856016
 20
506.7395279228305
 30
0.0
  0
VERTEX
  5
F0
  8
LAYER_1
 10
205.9625822856016
 20
509.7416668117194
 30
0.0
  0
VERTEX
  5
F1
  8
LAYER_1
 10
186.2430100633794
 20
509.7416668117194
 30
0.0
  0
VERTEX
  5
F2
  8
LAYER_1
 10
186.2430100633794
 20
506.7395279228305
 30
0.0
  0
VERTEX
  5
F3
  8
LAYER_1
 10
157.4626933967128
 20
506.7395279228305
 30
0.0
  0
VERTEX
  5
F4
  8
LAYER_1
 10
157.4626933967128
 20
509.7416668117194
 30
0.0
  0
VERTEX
  5
F5
  8
LAYER_1
 10
131.9632100633794
 20
509.7416668117194
 30
0.0
  0
VERTEX
  5
F6
  8
LAYER_1
 10
131.9632100633794
 20
527.0595279228303
 30
0.0
  0
VERTEX
  5
F7
  8
LAYER_1
 10
128.963540618935
 20
527.0595279228303
 30
0.0
  0
VERTEX
  5
F8
  8
LAYER_1
 10
128.963540618935
 20
547.6582223672748
 30
0.0
  0
VERTEX
  5
F9
  8
LAYER_1
 10
131.9632100633794
 20
547.6582223672748
 30
0.0
  0
VERTEX
  5
FA
  8
LAYER_1
 10
131.9632100633794
 20
567.7005862561637
 30
0.0
  0
VERTEX
  5
FB
  8
LAYER_1
 10
128.963540618935
 20
567.7005862561637
 30
0.0
  0
VERTEX
  5
FC
  8
LAYER_1
 10
128.963540618935
 20
588.301044589497
 30
0.0
  0
VERTEX
  5
FD
  8
LAYER_1
 10
131.9632100633794
 20
588.301044589497
 30
0.0
  0
SEQEND
  5
301
  8
LAYER_1
  0
POLYLINE
  5
6E
  8
LAYER_1
 66
     1
 10
0.0
 20
0.0
 30
0.0
  0
VERTEX
  5
FE
  8
LAYER_1
 10
411.6846111111112
 20
305.2039305555555
 30
0.0
  0
VERTEX
  5
FF
  8
LAYER_1
 10
411.4023888888889
 20
305.2039305555555
 30
0.0
  0
VERTEX
  5
100
  8
LAYER_1
 10
411.4023888888889
 20
305.2039305555554
 30
0.0
  0
SEQEND
  5
302
  8
LAYER_1
  0
POLYLINE
  5
6F
  8
LAYER_1
 66
     1
 10
0.0
 20
0.0
 30
0.0
 70
     1
  0
VERTEX
  5
101
  8
LAYER_1
 10
170.8769167873032
 20
404.7154571561006
 30
0.0
  0
VERTEX
  5
102
  8
LAYER_1
 10
190.5971945650809
 20
404.7154571561006
 30
0.0
  0
VERTEX
  5
103
  8
LAYER_1
 10
190.5971945650809
 20
401.7133182672117
 30
0.0
  0
VERTEX
  5
104
  8
LAYER_1
 10
219.3768056761921
 20
401.7133182672117
 30
0.0
  0
VERTEX
  5
105
  8
LAYER_1
 10
219.3768056761921
 20
404.7154571561006
 30
0.0
  0
VERTEX
  5
106
  8
LAYER_1
 10
244.8755834539699
 20
404.7154571561006
 30
0.0
  0
VERTEX
  5
107
  8
LAYER_1
 10
244.8755834539699
 20
422.0333182672117
 30
0.0
  0
VERTEX
  5
108
  8
LAYER_1
 10
247.8777223428588
 20
422.0333182672117
 30
0.0
  0
VERTEX
  5
109
  8
LAYER_1
 10
247.8777223428588
 20
442.6320127116562
 30
0.0
  0
VERTEX
  5
10A
  8
LAYER_1
 10
244.8755834539699
 20
442.6320127116562
 30
0.0
  0
VERTEX
  5
10B
  8
LAYER_1
 10
244.8755834539699
 20
462.674376600545
 30
0.0
  0
VERTEX
  5
10C
  8
LAYER_1
 10
247.8777223428588
 20
462.674376600545
 30
0.0
  0
VERTEX
  5
10D
  8
LAYER_1
 10
247.8777223428588
 20
483.2748349338783
 30
0.0
  0
VERTEX
  5
10E
  8
LAYER_1
 10
244.8755834539699
 20
483.2748349338783
 30
0.0
  0
VERTEX
  5
10F
  8
LAYER_1
 10
244.8755834539699
 20
500.5941071561003
 30
0.0
  0
VERTEX
  5
110
  8
LAYER_1
 10
219.3768056761921
 20
500.5941071561003
 30
0.0
  0
VERTEX
  5
111
  8
LAYER_1
 10
219.3768056761921
 20
503.5937766005447
 30
0.0
  0
VERTEX
  5
112
  8
LAYER_1
 10
190.5971945650809
 20
503.5937766005447
 30
0.0
  0
VERTEX
  5
113
  8
LAYER_1
 10
190.5971945650809
 20
500.5941071561003
 30
0.0
  0
VERTEX
  5
114
  8
LAYER_1
 10
170.8769167873032
 20
500.5941071561003
 30
0.0
  0
SEQEND
  5
303
  8
LAYER_1
  0
POLYLINE
  5
70
  8
LAYER_1
 66
     1
 10
0.0
 20
0.0
 30
0.0
  0
VERTEX
  5
115
  8
LAYER_1
 10
431.6835833333333
 20
305.2039305555555
 30
0.0
  0
VERTEX
  5
116
  8
LAYER_1
 10
431.6835833333333
 20
305.2039305555555
 30
0.0
  0
VERTEX
  5
117
  8
LAYER_1
 10
431.4048888888822
 20
305.2039305555555
 30
0.0
  0
SEQEND
  5
304
  8
LAYER_1
  0
POLYLINE
  5
71
  8
LAYER_1
 66
     1
 10
0.0
 20
0.0
 30
0.0
 70
     1
  0
VERTEX
  5
118
  8
LAYER_1
 10
254.1044021077008
 20
480.2820086257297
 30
0.0
  0
VERTEX
  5
119
  8
LAYER_1
 10
349.985874329923
 20
480.2820086257298
 30
0.0
  0
VERTEX
  5
11A
  8
LAYER_1
 10
349.985874329923
 20
480.2820086257297
 30
0.0
  0
VERTEX
  5
11B
  8
LAYER_1
 10
352.9844854410342
 20
480.2820086257297
 30
0.0
  0
VERTEX
  5
11C
  8
LAYER_1
 10
352.9844854410342
 20
448.8022364035079
 30
0.0
  0
VERTEX
  5
11D
  8
LAYER_1
 10
349.985874329923
 20
448.8022364035079
 30
0.0
  0
VERTEX
  5
11E
  8
LAYER_1
 10
349.985874329923
 20
417.6018641812861
 30
0.0
  0
VERTEX
  5
11F
  8
LAYER_1
 10
332.3857909965897
 20
417.6018641812861
 30
0.0
  0
VERTEX
  5
120
  8
LAYER_1
 10
332.3857909965897
 20
420.6018864035083
 30
0.0
  0
VERTEX
  5
121
  8
LAYER_1
 10
312.3444854410341
 20
420.6018864035083
 30
0.0
  0
VERTEX
  5
122
  8
LAYER_1
 10
312.3444854410341
 20
417.6018641812861
 30
0.0
  0
VERTEX
  5
123
  8
LAYER_1
 10
291.7457909965897
 20
417.6018641812861
 30
0.0
  0
VERTEX
  5
124
  8
LAYER_1
 10
291.7457909965897
 20
420.6018864035083
 30
0.0
  0
VERTEX
  5
125
  8
LAYER_1
 10
271.7044854410341
 20
420.6018864035083
 30
0.0
  0
VERTEX
  5
126
  8
LAYER_1
 10
271.7044854410341
 20
417.6018641812861
 30
0.0
  0
VERTEX
  5
127
  8
LAYER_1
 10
254.1044021077008
 20
417.6018641812861
 30
0.0
  0
VERTEX
  5
128
  8
LAYER_1
 10
254.1044021077008
 20
448.8022364035079
 30
0.0
  0
VERTEX
  5
129
  8
LAYER_1
 10
251.1057909965897
 20
448.8022364035079
 30
0.0
  0
VERTEX
  5
12A
  8
LAYER_1
 10
251.1057909965897
 20
480.2820086257297
 30
0.0
  0
SEQEND
  5
305
  8
LAYER_1
  0
POLYLINE
  5
72
  8
LAYER_1
 66
     1
 10
0.0
 20
0.0
 30
0.0
  0
VERTEX
  5
12B
  8
LAYER_1
 10
431.4303050529574
 20
610.2586014522417
 30
0.0
  0
VERTEX
  5
12C
  8
LAYER_1
 10
431.4161248821644
 20
607.9828952284599
 30
0.0
  0
VERTEX
  5
12D
  8
LAYER_1
 10
431.3736964461214
 20
605.690296622427
 30
0.0
  0
VERTEX
  5
12E
  8
LAYER_1
 10
431.3031878593316
 20
603.3813502310643
 30
0.0
  0
VERTEX
  5
12F
  8
LAYER_1
 10
431.2047672362988
 20
601.0566006512925
 30
0.0
  0
VERTEX
  5
130
  8
LAYER_1
 10
431.0786026915266
 20
598.7165924800324
 30
0.0
  0
VERTEX
  5
131
  8
LAYER_1
 10
430.9248623395183
 20
596.3618703142051
 30
0.0
  0
VERTEX
  5
132
  8
LAYER_1
 10
430.7437142947776
 20
593.9929787507315
 30
0.0
  0
VERTEX
  5
133
  8
LAYER_1
 10
430.535326671808
 20
591.6104623865323
 30
0.0
  0
VERTEX
  5
134
  8
LAYER_1
 10
430.299867585113
 20
589.2148658185284
 30
0.0
  0
VERTEX
  5
135
  8
LAYER_1
 10
430.0375051491962
 20
586.8067336436409
 30
0.0
  0
VERTEX
  5
136
  8
LAYER_1
 10
429.7484074785611
 20
584.3866104587904
 30
0.0
  0
VERTEX
  5
137
  8
LAYER_1
 10
429.4327426877114
 20
581.9550408608982
 30
0.0
  0
VERTEX
  5
138
  8
LAYER_1
 10
429.0906788911505
 20
579.5125694468849
 30
0.0
  0
VERTEX
  5
139
  8
LAYER_1
 10
428.7223842033819
 20
577.0597408136714
 30
0.0
  0
VERTEX
  5
13A
  8
LAYER_1
 10
428.3280267389093
 20
574.5970995581788
 30
0.0
  0
VERTEX
  5
13B
  8
LAYER_1
 10
427.9077746122362
 20
572.1251902773278
 30
0.0
  0
VERTEX
  5
13C
  8
LAYER_1
 10
427.461795937866
 20
569.6445575680393
 30
0.0
  0
VERTEX
  5
13D
  8
LAYER_1
 10
426.9902588303023
 20
567.1557460272344
 30
0.0
  0
VERTEX
  5
13E
  8
LAYER_1
 10
426.4933314040487
 20
564.6593002518338
 30
0.0
  0
VERTEX
  5
13F
  8
LAYER_1
 10
425.9711817736088
 20
562.1557648387584
 30
0.0
  0
VERTEX
  5
140
  8
LAYER_1
 10
425.4239780534861
 20
559.6456843849292
 30
0.0
  0
VERTEX
  5
141
  8
LAYER_1
 10
424.8518883581841
 20
557.1296034872671
 30
0.0
  0
VERTEX
  5
142
  8
LAYER_1
 10
424.2550808022063
 20
554.6080667426928
 30
0.0
  0
VERTEX
  5
143
  8
LAYER_1
 10
423.6337235000564
 20
552.0816187481275
 30
0.0
  0
VERTEX
  5
144
  8
LAYER_1
 10
422.9879845662377
 20
549.550804100492
 30
0.0
  0
VERTEX
  5
145
  8
LAYER_1
 10
422.3180321152541
 20
547.0161673967069
 30
0.0
  0
VERTEX
  5
146
  8
LAYER_1
 10
421.6240342616088
 20
544.4782532336935
 30
0.0
  0
VERTEX
  5
147
  8
LAYER_1
 10
420.9061591198055
 20
541.9376062083725
 30
0.0
  0
VERTEX
  5
148
  8
LAYER_1
 10
420.1645748043477
 20
539.3947709176648
 30
0.0
  0
VERTEX
  5
149
  8
LAYER_1
 10
419.399449429739
 20
536.8502919584914
 30
0.0
  0
VERTEX
  5
14A
  8
LAYER_1
 10
418.610951110483
 20
534.3047139277732
 30
0.0
  0
VERTEX
  5
14B
  8
LAYER_1
 10
417.7992479610831
 20
531.7585814224308
 30
0.0
  0
VERTEX
  5
14C
  8
LAYER_1
 10
416.9645080960429
 20
529.2124390393855
 30
0.0
  0
VERTEX
  5
14D
  8
LAYER_1
 10
416.106899629866
 20
526.6668313755579
 30
0.0
  0
VERTEX
  5
14E
  8
LAYER_1
 10
415.2265906770558
 20
524.1223030278691
 30
0.0
  0
VERTEX
  5
14F
  8
LAYER_1
 10
414.323749352116
 20
521.57939859324
 30
0.0
  0
VERTEX
  5
150
  8
LAYER_1
 10
413.39854376955
 20
519.0386626685913
 30
0.0
  0
VERTEX
  5
151
  8
LAYER_1
 10
412.4511420438615
 20
516.500639850844
 30
0.0
  0
VERTEX
  5
152
  8
LAYER_1
 10
411.4817122895539
 20
513.965874736919
 30
0.0
  0
VERTEX
  5
153
  8
LAYER_1
 10
410.4904226211309
 20
511.4349119237372
 30
0.0
  0
VERTEX
  5
154
  8
LAYER_1
 10
409.4774411530959
 20
508.9082960082195
 30
0.0
  0
VERTEX
  5
155
  8
LAYER_1
 10
408.4429359999526
 20
506.3865715872869
 30
0.0
  0
VERTEX
  5
156
  8
LAYER_1
 10
407.3870752762043
 20
503.8702832578601
 30
0.0
  0
VERTEX
  5
157
  8
LAYER_1
 10
406.3100270963547
 20
501.3599756168601
 30
0.0
  0
VERTEX
  5
158
  8
LAYER_1
 10
405.2119595749074
 20
498.8561932612077
 30
0.0
  0
VERTEX
  5
159
  8
LAYER_1
 10
404.0930408263658
 20
496.3594807878241
 30
0.0
  0
VERTEX
  5
15A
  8
LAYER_1
 10
402.9534389652337
 20
493.8703827936299
 30
0.0
  0
VERTEX
  5
15B
  8
LAYER_1
 10
401.7933221060143
 20
491.389443875546
 30
0.0
  0
VERTEX
  5
15C
  8
LAYER_1
 10
400.6128583632113
 20
488.9172086304935
 30
0.0
  0
VERTEX
  5
15D
  8
LAYER_1
 10
399.4122158513284
 20
486.4542216553931
 30
0.0
  0
VERTEX
  5
15E
  8
LAYER_1
 10
398.1915626848688
 20
484.0010275471658
 30
0.0
  0
VERTEX
  5
15F
  8
LAYER_1
 10
396.9510669783364
 20
481.5581709027324
 30
0.0
  0
VERTEX
  5
160
  8
LAYER_1
 10
395.6908968462345
 20
479.1261963190139
 30
0.0
  0
VERTEX
  5
161
  8
LAYER_1
 10
394.4112204030667
 20
476.7056483929312
 30
0.0
  0
VERTEX
  5
162
  8
LAYER_1
 10
393.1122057633366
 20
474.2970717214051
 30
0.0
  0
VERTEX
  5
163
  8
LAYER_1
 10
391.7940210415478
 20
471.9010109013566
 30
0.0
  0
VERTEX
  5
164
  8
LAYER_1
 10
390.4568343522037
 20
469.5180105297065
 30
0.0
  0
VERTEX
  5
165
  8
LAYER_1
 10
389.1008138098079
 20
467.1486152033758
 30
0.0
  0
VERTEX
  5
166
  8
LAYER_1
 10
387.7261275288639
 20
464.7933695192854
 30
0.0
  0
VERTEX
  5
167
  8
LAYER_1
 10
386.3329436238754
 20
462.4528180743561
 30
0.0
  0
VERTEX
  5
168
  8
LAYER_1
 10
384.9214302093458
 20
460.1275054655089
 30
0.0
  0
VERTEX
  5
169
  8
LAYER_1
 10
383.4917553997786
 20
457.8179762896646
 30
0.0
  0
VERTEX
  5
16A
  8
LAYER_1
 10
382.0440873096775
 20
455.524775143744
 30
0.0
  0
VERTEX
  5
16B
  8
LAYER_1
 10
380.578594053546
 20
453.2484466246683
 30
0.0
  0
VERTEX
  5
16C
  8
LAYER_1
 10
379.0954437458876
 20
450.9895353293582
 30
0.0
  0
VERTEX
  5
16D
  8
LAYER_1
 10
377.5948045012058
 20
448.7485858547346
 30
0.0
  0
VERTEX
  5
16E
  8
LAYER_1
 10
376.0768444340042
 20
446.5261427977185
 30
0.0
  0
VERTEX
  5
16F
  8
LAYER_1
 10
374.5417316587864
 20
444.3227507552307
 30
0.0
  0
VERTEX
  5
170
  8
LAYER_1
 10
372.9896342900558
 20
442.1389543241921
 30
0.0
  0
VERTEX
  5
171
  8
LAYER_1
 10
371.4207204423161
 20
439.9752981015237
 30
0.0
  0
VERTEX
  5
172
  8
LAYER_1
 10
369.8351582300708
 20
437.8323266841462
 30
0.0
  0
VERTEX
  5
173
  8
LAYER_1
 10
368.2331157678233
 20
435.7105846689806
 30
0.0
  0
VERTEX
  5
174
  8
LAYER_1
 10
366.6147611700773
 20
433.6106166529479
 30
0.0
  0
VERTEX
  5
175
  8
LAYER_1
 10
364.9802625513364
 20
431.5329672329689
 30
0.0
  0
VERTEX
  5
176
  8
LAYER_1
 10
363.329788026104
 20
429.4781810059644
 30
0.0
  0
VERTEX
  5
177
  8
LAYER_1
 10
361.6635057088837
 20
427.4468025688556
 30
0.0
  0
VERTEX
  5
178
  8
LAYER_1
 10
359.981583714179
 20
425.439376518563
 30
0.0
  0
VERTEX
  5
179
  8
LAYER_1
 10
358.2841901564935
 20
423.4564474520078
 30
0.0
  0
VERTEX
  5
17A
  8
LAYER_1
 10
356.5714931503308
 20
421.4985599661108
 30
0.0
  0
VERTEX
  5
17B
  8
LAYER_1
 10
354.8436608101943
 20
419.5662586577929
 30
0.0
  0
VERTEX
  5
17C
  8
LAYER_1
 10
353.1008612505876
 20
417.660088123975
 30
0.0
  0
VERTEX
  5
17D
  8
LAYER_1
 10
351.3432625860143
 20
415.7805929615779
 30
0.0
  0
VERTEX
  5
17E
  8
LAYER_1
 10
349.5710329309778
 20
413.9283177675226
 30
0.0
  0
VERTEX
  5
17F
  8
LAYER_1
 10
347.7843403999819
 20
412.10380713873
 30
0.0
  0
VERTEX
  5
180
  8
LAYER_1
 10
346.8856230917814
 20
411.202133722845
 30
0.0
  0
VERTEX
  5
181
  8
LAYER_1
 10
345.9833531075299
 20
410.307605672121
 30
0.0
  0
VERTEX
  5
182
  8
LAYER_1
 10
345.0775514615403
 20
409.4202910611731
 30
0.0
  0
VERTEX
  5
183
  8
LAYER_1
 10
344.1682391681255
 20
408.5402579646164
 30
0.0
  0
VERTEX
  5
184
  8
LAYER_1
 10
343.2554372415985
 20
407.6675744570662
 30
0.0
  0
VERTEX
  5
185
  8
LAYER_1
 10
342.3391666962722
 20
406.8023086131374
 30
0.0
  0
VERTEX
  5
186
  8
LAYER_1
 10
341.4194485464594
 20
405.9445285074451
 30
0.0
  0
VERTEX
  5
187
  8
LAYER_1
 10
340.4963038064734
 20
405.0943022146045
 30
0.0
  0
VERTEX
  5
188
  8
LAYER_1
 10
339.5697534906269
 20
404.2516978092306
 30
0.0
  0
VERTEX
  5
189
  8
LAYER_1
 10
338.6398186132329
 20
403.4167833659387
 30
0.0
  0
VERTEX
  5
18A
  8
LAYER_1
 10
337.7065201886043
 20
402.5896269593438
 30
0.0
  0
VERTEX
  5
18B
  8
LAYER_1
 10
336.769879231054
 20
401.7702966640611
 30
0.0
  0
VERTEX
  5
18C
  8
LAYER_1
 10
335.829916754895
 20
400.9588605547056
 30
0.0
  0
VERTEX
  5
18D
  8
LAYER_1
 10
334.8866537744403
 20
400.1553867058924
 30
0.0
  0
VERTEX
  5
18E
  8
LAYER_1
 10
333.9401113040029
 20
399.3599431922366
 30
0.0
  0
VERTEX
  5
18F
  8
LAYER_1
 10
332.9903103578956
 20
398.5725980883535
 30
0.0
  0
VERTEX
  5
190
  8
LAYER_1
 10
332.0372719504313
 20
397.7934194688581
 30
0.0
  0
VERTEX
  5
191
  8
LAYER_1
 10
331.0810170959231
 20
397.0224754083654
 30
0.0
  0
VERTEX
  5
192
  8
LAYER_1
 10
330.1215668086838
 20
396.2598339814907
 30
0.0
  0
VERTEX
  5
193
  8
LAYER_1
 10
329.1589421030266
 20
395.505563262849
 30
0.0
  0
VERTEX
  5
194
  8
LAYER_1
 10
328.1931639932641
 20
394.7597313270554
 30
0.0
  0
VERTEX
  5
195
  8
LAYER_1
 10
327.2242534937094
 20
394.0224062487251
 30
0.0
  0
VERTEX
  5
196
  8
LAYER_1
 10
326.2522316186755
 20
393.2936561024732
 30
0.0
  0
VERTEX
  5
197
  8
LAYER_1
 10
325.2771193824752
 20
392.5735489629147
 30
0.0
  0
VERTEX
  5
198
  8
LAYER_1
 10
324.2989377994217
 20
391.8621529046649
 30
0.0
  0
VERTEX
  5
199
  8
LAYER_1
 10
323.3177078838276
 20
391.1595360023387
 30
0.0
  0
VERTEX
  5
19A
  8
LAYER_1
 10
322.333450650006
 20
390.4657663305513
 30
0.0
  0
VERTEX
  5
19B
  8
LAYER_1
 10
321.3461871122699
 20
389.7809119639178
 30
0.0
  0
VERTEX
  5
19C
  8
LAYER_1
 10
320.3559382849323
 20
389.1050409770535
 30
0.0
  0
VERTEX
  5
19D
  8
LAYER_1
 10
319.362725182306
 20
388.4382214445732
 30
0.0
  0
VERTEX
  5
19E
  8
LAYER_1
 10
318.366568818704
 20
387.7805214410922
 30
0.0
  0
VERTEX
  5
19F
  8
LAYER_1
 10
317.3674902084392
 20
387.1320090412255
 30
0.0
  0
VERTEX
  5
1A0
  8
LAYER_1
 10
316.3655103658245
 20
386.4927523195884
 30
0.0
  0
VERTEX
  5
1A1
  8
LAYER_1
 10
315.3606503051731
 20
385.8628193507958
 30
0.0
  0
VERTEX
  5
1A2
  8
LAYER_1
 10
314.3529310407976
 20
385.2422782094629
 30
0.0
  0
VERTEX
  5
1A3
  8
LAYER_1
 10
313.3423735870111
 20
384.6311969702049
 30
0.0
  0
VERTEX
  5
1A4
  8
LAYER_1
 10
312.3289989581266
 20
384.0296437076368
 30
0.0
  0
VERTEX
  5
1A5
  8
LAYER_1
 10
311.312828168457
 20
383.4376864963737
 30
0.0
  0
VERTEX
  5
1A6
  8
LAYER_1
 10
310.2938822323152
 20
382.8553934110308
 30
0.0
  0
VERTEX
  5
1A7
  8
LAYER_1
 10
309.2721821640143
 20
382.2828325262232
 30
0.0
  0
VERTEX
  5
1A8
  8
LAYER_1
 10
308.247748977867
 20
381.7200719165659
 30
0.0
  0
VERTEX
  5
1A9
  8
LAYER_1
 10
307.2206036881864
 20
381.1671796566741
 30
0.0
  0
VERTEX
  5
1AA
  8
LAYER_1
 10
306.1907673092854
 20
380.624223821163
 30
0.0
  0
VERTEX
  5
1AB
  8
LAYER_1
 10
305.1582608554769
 20
380.0912724846475
 30
0.0
  0
VERTEX
  5
1AC
  8
LAYER_1
 10
304.1231053410739
 20
379.568393721743
 30
0.0
  0
VERTEX
  5
1AD
  8
LAYER_1
 10
303.0853217803893
 20
379.0556556070642
 30
0.0
  0
VERTEX
  5
1AE
  8
LAYER_1
 10
302.0449311877362
 20
378.5531262152266
 30
0.0
  0
VERTEX
  5
1AF
  8
LAYER_1
 10
301.0019545774273
 20
378.0608736208451
 30
0.0
  0
VERTEX
  5
1B0
  8
LAYER_1
 10
299.9564129637757
 20
377.578965898535
 30
0.0
  0
VERTEX
  5
1B1
  8
LAYER_1
 10
298.9083273610943
 20
377.1074711229112
 30
0.0
  0
VERTEX
  5
1B2
  8
LAYER_1
 10
297.8577187836961
 20
376.6464573685889
 30
0.0
  0
VERTEX
  5
1B3
  8
LAYER_1
 10
296.804608245894
 20
376.1959927101833
 30
0.0
  0
VERTEX
  5
1B4
  8
LAYER_1
 10
295.7490167620008
 20
375.7561452223093
 30
0.0
  0
VERTEX
  5
1B5
  8
LAYER_1
 10
294.6909653463297
 20
375.3269829795822
 30
0.0
  0
VERTEX
  5
1B6
  8
LAYER_1
 10
293.6304750131935
 20
374.9085740566171
 30
0.0
  0
VERTEX
  5
1B7
  8
LAYER_1
 10
292.5675667769051
 20
374.500986528029
 30
0.0
  0
VERTEX
  5
1B8
  8
LAYER_1
 10
291.5022616517775
 20
374.1042884684331
 30
0.0
  0
VERTEX
  5
1B9
  8
LAYER_1
 10
290.4345806521237
 20
373.7185479524445
 30
0.0
  0
VERTEX
  5
1BA
  8
LAYER_1
 10
289.3645447922567
 20
373.3438330546782
 30
0.0
  0
VERTEX
  5
1BB
  8
LAYER_1
 10
288.2921750864891
 20
372.9802118497495
 30
0.0
  0
VERTEX
  5
1BC
  8
LAYER_1
 10
287.2174925491342
 20
372.6277524122734
 30
0.0
  0
VERTEX
  5
1BD
  8
LAYER_1
 10
286.1405181945048
 20
372.286522816865
 30
0.0
  0
VERTEX
  5
1BE
  8
LAYER_1
 10
285.0612730369139
 20
371.9565911381396
 30
0.0
  0
VERTEX
  5
1BF
  8
LAYER_1
 10
283.9797780906744
 20
371.638025450712
 30
0.0
  0
VERTEX
  5
1C0
  8
LAYER_1
 10
282.8960543700993
 20
371.3308938291975
 30
0.0
  0
VERTEX
  5
1C1
  8
LAYER_1
 10
281.8101228895014
 20
371.0352643482113
 30
0.0
  0
VERTEX
  5
1C2
  8
LAYER_1
 10
280.7220046631938
 20
370.7512050823683
 30
0.0
  0
VERTEX
  5
1C3
  8
LAYER_1
 10
279.6317207054893
 20
370.4787841062837
 30
0.0
  0
VERTEX
  5
1C4
  8
LAYER_1
 10
278.539292030701
 20
370.2180694945727
 30
0.0
  0
VERTEX
  5
1C5
  8
LAYER_1
 10
277.4447396531417
 20
369.9691293218502
 30
0.0
  0
VERTEX
  5
1C6
  8
LAYER_1
 10
276.3480845871244
 20
369.7320316627315
 30
0.0
  0
VERTEX
  5
1C7
  8
LAYER_1
 10
275.2493478469621
 20
369.5068445918316
 30
0.0
  0
VERTEX
  5
1C8
  8
LAYER_1
 10
274.1485504469676
 20
369.2936361837658
 30
0.0
  0
VERTEX
  5
1C9
  8
LAYER_1
 10
273.0457134014541
 20
369.092474513149
 30
0.0
  0
VERTEX
  5
1CA
  8
LAYER_1
 10
271.9408577247343
 20
368.9034276545964
 30
0.0
  0
VERTEX
  5
1CB
  8
LAYER_1
 10
270.8340044311212
 20
368.7265636827232
 30
0.0
  0
VERTEX
  5
1CC
  8
LAYER_1
 10
269.7251745349279
 20
368.5619506721443
 30
0.0
  0
VERTEX
  5
1CD
  8
LAYER_1
 10
268.614389050467
 20
368.4096566974749
 30
0.0
  0
VERTEX
  5
1CE
  8
LAYER_1
 10
267.5016689920518
 20
368.2697498333303
 30
0.0
  0
VERTEX
  5
1CF
  8
LAYER_1
 10
266.387035373995
 20
368.1422981543253
 30
0.0
  0
VERTEX
  5
1D0
  8
LAYER_1
 10
265.2705092106098
 20
368.0273697350752
 30
0.0
  0
VERTEX
  5
1D1
  8
LAYER_1
 10
264.1521115162088
 20
367.9250326501952
 30
0.0
  0
VERTEX
  5
1D2
  8
LAYER_1
 10
263.0318633051052
 20
367.8353549743002
 30
0.0
  0
VERTEX
  5
1D3
  8
LAYER_1
 10
261.9097855916118
 20
367.7584047820054
 30
0.0
  0
VERTEX
  5
1D4
  8
LAYER_1
 10
260.7858993900417
 20
367.6942501479259
 30
0.0
  0
VERTEX
  5
1D5
  8
LAYER_1
 10
259.6602257147077
 20
367.642959146677
 30
0.0
  0
VERTEX
  5
1D6
  8
LAYER_1
 10
258.5327855799228
 20
367.6045998528734
 30
0.0
  0
VERTEX
  5
1D7
  8
LAYER_1
 10
257.4036
 20
367.5792403411306
 30
0.0
  0
VERTEX
  5
1D8
  8
LAYER_1
 10
257.4036
 20
336.6589736744639
 30
0.0
  0
VERTEX
  5
1D9
  8
LAYER_1
 10
254.4039305555555
 20
336.6589736744639
 30
0.0
  0
VERTEX
  5
1DA
  8
LAYER_1
 10
254.4039305555555
 20
305.1788486744639
 30
0.0
  0
VERTEX
  5
1DB
  8
LAYER_1
 10
283.1842472222222
 20
305.1788486744639
 30
0.0
  0
VERTEX
  5
1DC
  8
LAYER_1
 10
283.1842472222222
 20
308.1788708966862
 30
0.0
  0
VERTEX
  5
1DD
  8
LAYER_1
 10
311.4036472222222
 20
308.1788708966862
 30
0.0
  0
VERTEX
  5
1DE
  8
LAYER_1
 10
311.4036472222222
 20
305.1788486744639
 30
0.0
  0
VERTEX
  5
1DF
  8
LAYER_1
 10
331.6827249999999
 20
305.1788486744639
 30
0.0
  0
VERTEX
  5
1E0
  8
LAYER_1
 10
331.6827249999999
 20
308.1788708966862
 30
0.0
  0
VERTEX
  5
1E1
  8
LAYER_1
 10
351.4037083333333
 20
308.1788708966862
 30
0.0
  0
VERTEX
  5
1E2
  8
LAYER_1
 10
351.4037083333333
 20
305.1788486744639
 30
0.0
  0
VERTEX
  5
1E3
  8
LAYER_1
 10
371.6831388888888
 20
305.1788486744639
 30
0.0
  0
VERTEX
  5
1E4
  8
LAYER_1
 10
371.6831388888888
 20
308.1788708966862
 30
0.0
  0
VERTEX
  5
1E5
  8
LAYER_1
 10
391.4034166666667
 20
308.1788708966862
 30
0.0
  0
VERTEX
  5
1E6
  8
LAYER_1
 10
391.4034166666667
 20
305.1788486744639
 30
0.0
  0
VERTEX
  5
1E7
  8
LAYER_1
 10
411.6846111111111
 20
305.1788486744639
 30
0.0
  0
VERTEX
  5
1E8
  8
LAYER_1
 10
411.6846111111111
 20
308.1788708966862
 30
0.0
  0
VERTEX
  5
1E9
  8
LAYER_1
 10
431.4048888888889
 20
308.1788708966862
 30
0.0
  0
VERTEX
  5
1EA
  8
LAYER_1
 10
431.4048888888889
 20
305.1788486744639
 30
0.0
  0
VERTEX
  5
1EB
  8
LAYER_1
 10
451.6825555555555
 20
305.1788486744639
 30
0.0
  0
VERTEX
  5
1EC
  8
LAYER_1
 10
451.6825555555555
 20
308.1788708966862
 30
0.0
  0
VERTEX
  5
1ED
  8
LAYER_1
 10
479.9047777777777
 20
308.1788708966862
 30
0.0
  0
VERTEX
  5
1EE
  8
LAYER_1
 10
479.9047777777777
 20
305.1788486744639
 30
0.0
  0
VERTEX
  5
1EF
  8
LAYER_1
 10
508.6843888888889
 20
305.1788486744639
 30
0.0
  0
VERTEX
  5
1F0
  8
LAYER_1
 10
508.6843888888889
 20
336.6589736744639
 30
0.0
  0
VERTEX
  5
1F1
  8
LAYER_1
 10
505.68225
 20
336.6589736744639
 30
0.0
  0
VERTEX
  5
1F2
  8
LAYER_1
 10
505.68225
 20
367.5792403411306
 30
0.0
  0
VERTEX
  5
1F3
  8
LAYER_1
 10
508.6843888888889
 20
367.5792403411306
 30
0.0
  0
VERTEX
  5
1F4
  8
LAYER_1
 10
508.6843888888889
 20
387.8600820077973
 30
0.0
  0
VERTEX
  5
1F5
  8
LAYER_1
 10
505.68225
 20
387.8600820077973
 30
0.0
  0
VERTEX
  5
1F6
  8
LAYER_1
 10
505.68225
 20
407.5796542300195
 30
0.0
  0
VERTEX
  5
1F7
  8
LAYER_1
 10
508.6843888888889
 20
407.5796542300195
 30
0.0
  0
VERTEX
  5
1F8
  8
LAYER_1
 10
508.6843888888889
 20
427.8587320077972
 30
0.0
  0
VERTEX
  5
1F9
  8
LAYER_1
 10
505.68225
 20
427.8587320077972
 30
0.0
  0
VERTEX
  5
1FA
  8
LAYER_1
 10
505.68225
 20
447.5800681189083
 30
0.0
  0
VERTEX
  5
1FB
  8
LAYER_1
 10
508.6843888888889
 20
447.5800681189083
 30
0.0
  0
VERTEX
  5
1FC
  8
LAYER_1
 10
508.6843888888889
 20
467.8591458966862
 30
0.0
  0
VERTEX
  5
1FD
  8
LAYER_1
 10
505.68225
 20
467.8591458966862
 30
0.0
  0
VERTEX
  5
1FE
  8
LAYER_1
 10
505.68225
 20
487.5790708966861
 30
0.0
  0
VERTEX
  5
1FF
  8
LAYER_1
 10
508.6843888888889
 20
487.5790708966861
 30
0.0
  0
VERTEX
  5
200
  8
LAYER_1
 10
508.6843888888889
 20
507.859559785575
 30
0.0
  0
VERTEX
  5
201
  8
LAYER_1
 10
505.68225
 20
507.859559785575
 30
0.0
  0
VERTEX
  5
202
  8
LAYER_1
 10
505.68225
 20
527.5791320077972
 30
0.0
  0
VERTEX
  5
203
  8
LAYER_1
 10
508.6843888888889
 20
527.5791320077972
 30
0.0
  0
VERTEX
  5
204
  8
LAYER_1
 10
508.6843888888889
 20
547.8599736744638
 30
0.0
  0
VERTEX
  5
205
  8
LAYER_1
 10
505.68225
 20
547.8599736744638
 30
0.0
  0
VERTEX
  5
206
  8
LAYER_1
 10
505.68225
 20
578.7788292300195
 30
0.0
  0
VERTEX
  5
207
  8
LAYER_1
 10
508.6843888888889
 20
578.7788292300195
 30
0.0
  0
VERTEX
  5
208
  8
LAYER_1
 10
508.6843888888889
 20
610.2586014522417
 30
0.0
  0
VERTEX
  5
209
  8
LAYER_1
 10
479.9047777777777
 20
610.2586014522417
 30
0.0
  0
VERTEX
  5
20A
  8
LAYER_1
 10
479.9047777777777
 20
607.2589320077973
 30
0.0
  0
VERTEX
  5
20B
  8
LAYER_1
 10
451.6825555555555
 20
607.2589320077973
 30
0.0
  0
VERTEX
  5
20C
  8
LAYER_1
 10
451.6825555555555
 20
610.2586014522417
 30
0.0
  0
VERTEX
  5
20D
  8
LAYER_1
 10
431.4048888888889
 20
610.2586014522417
 30
0.0
  0
VERTEX
  5
20E
  8
LAYER_1
 10
431.4048888888889
 20
607.2589320077973
 30
0.0
  0
VERTEX
  5
20F
  8
LAYER_1
 10
431.4015278196968
 20
607.2589320077973
 30
0.0
  0
SEQEND
  5
306
  8
LAYER_1
  0
POLYLINE
  5
73
  8
LAYER_1
 66
     1
 10
0.0
 20
0.0
 30
0.0
  0
VERTEX
  5
210
  8
LAYER_1
 10
508.6843888888889
 20
305.4586014522415
 30
0.0
  0
VERTEX
  5
211
  8
LAYER_1
 10
508.6843888888889
 20
305.1788486744639
 30
0.0
  0
VERTEX
  5
212
  8
LAYER_1
 10
508.6843888888891
 20
305.1788486744639
 30
0.0
  0
SEQEND
  5
307
  8
LAYER_1
  0
POLYLINE
  5
74
  8
LAYER_1
 66
     1
 10
0.0
 20
0.0
 30
0.0
  0
VERTEX
  5
213
  8
LAYER_1
 10
508.684388888889
 20
305.4586014522458
 30
0.0
  0
VERTEX
  5
214
  8
LAYER_1
 10
508.6843888888889
 20
305.4586014522458
 30
0.0
  0
VERTEX
  5
215
  8
LAYER_1
 10
508.6843888888889
 20
305.1788486744639
 30
0.0
  0
SEQEND
  5
308
  8
LAYER_1
  0
POLYLINE
  5
75
  8
LAYER_1
 66
     1
 10
0.0
 20
0.0
 30
0.0
  0
VERTEX
  5
216
  8
LAYER_1
 10
508.6843888888889
 20
305.4600125633498
 30
0.0
  0
VERTEX
  5
217
  8
LAYER_1
 10
508.6843888888889
 20
305.1788486744639
 30
0.0
  0
SEQEND
  5
309
  8
LAYER_1
  0
POLYLINE
  5
76
  8
LAYER_1
 66
     1
 10
0.0
 20
0.0
 30
0.0
  0
VERTEX
  5
218
  8
LAYER_1
 10
77.37755605815371
 20
610.2836833333333
 30
0.0
  0
VERTEX
  5
219
  8
LAYER_1
 10
77.39174450381384
 20
608.0070922620409
 30
0.0
  0
VERTEX
  5
21A
  8
LAYER_1
 10
77.43419750315462
 20
605.713633747342
 30
0.0
  0
VERTEX
  5
21B
  8
LAYER_1
 10
77.50474654971664
 20
603.4038521241516
 30
0.0
  0
VERTEX
  5
21C
  8
LAYER_1
 10
77.60322313704052
 20
601.078291727385
 30
0.0
  0
VERTEX
  5
21D
  8
LAYER_1
 10
77.72945875866682
 20
598.7374968919576
 30
0.0
  0
VERTEX
  5
21E
  8
LAYER_1
 10
77.88328490813615
 20
596.3820119527844
 30
0.0
  0
VERTEX
  5
21F
  8
LAYER_1
 10
78.06453307898911
 20
594.012381244781
 30
0.0
  0
VERTEX
  5
220
  8
LAYER_1
 10
78.27303476476632
 20
591.6291491028621
 30
0.0
  0
VERTEX
  5
221
  8
LAYER_1
 10
78.50862145900834
 20
589.2328598619433
 30
0.0
  0
VERTEX
  5
222
  8
LAYER_1
 10
78.77112465525578
 20
586.8240578569398
 30
0.0
  0
VERTEX
  5
223
  8
LAYER_1
 10
79.06037584704923
 20
584.4032874227668
 30
0.0
  0
VERTEX
  5
224
  8
LAYER_1
 10
79.37620652792927
 20
581.9710928943396
 30
0.0
  0
VERTEX
  5
225
  8
LAYER_1
 10
79.71844819143652
 20
579.5280186065733
 30
0.0
  0
VERTEX
  5
226
  8
LAYER_1
 10
80.08693233111157
 20
577.0746088943831
 30
0.0
  0
VERTEX
  5
227
  8
LAYER_1
 10
80.481490440495
 20
574.6114080926843
 30
0.0
  0
VERTEX
  5
228
  8
LAYER_1
 10
80.90195401312742
 20
572.1389605363922
 30
0.0
  0
VERTEX
  5
229
  8
LAYER_1
 10
81.34815454254944
 20
569.657810560422
 30
0.0
  0
VERTEX
  5
22A
  8
LAYER_1
 10
81.81992352230162
 20
567.168502499689
 30
0.0
  0
VERTEX
  5
22B
  8
LAYER_1
 10
82.3170924459246
 20
564.6715806891083
 30
0.0
  0
VERTEX
  5
22C
  8
LAYER_1
 10
82.83949280695894
 20
562.1675894635953
 30
0.0
  0
VERTEX
  5
22D
  8
LAYER_1
 10
83.38695609894525
 20
559.6570731580651
 30
0.0
  0
VERTEX
  5
22E
  8
LAYER_1
 10
83.95931381542412
 20
557.140576107433
 30
0.0
  0
VERTEX
  5
22F
  8
LAYER_1
 10
84.55639744993616
 20
554.6186426466143
 30
0.0
  0
VERTEX
  5
230
  8
LAYER_1
 10
85.17803849602194
 20
552.091817110524
 30
0.0
  0
VERTEX
  5
231
  8
LAYER_1
 10
85.82406844722209
 20
549.5606438340775
 30
0.0
  0
VERTEX
  5
232
  8
LAYER_1
 10
86.49431879707716
 20
547.0256671521901
 30
0.0
  0
VERTEX
  5
233
  8
LAYER_1
 10
87.18862103912778
 20
544.4874313997768
 30
0.0
  0
VERTEX
  5
234
  8
LAYER_1
 10
87.90680666691453
 20
541.9464809117533
 30
0.0
  0
VERTEX
  5
235
  8
LAYER_1
 10
88.64870717397801
 20
539.4033600230342
 30
0.0
  0
VERTEX
  5
236
  8
LAYER_1
 10
89.41415405385884
 20
536.8586130685353
 30
0.0
  0
VERTEX
  5
237
  8
LAYER_1
 10
90.20297880009757
 20
534.3127843831714
 30
0.0
  0
VERTEX
  5
238
  8
LAYER_1
 10
91.01501290623483
 20
531.766418301858
 30
0.0
  0
VERTEX
  5
239
  8
LAYER_1
 10
91.8500878658112
 20
529.2200591595104
 30
0.0
  0
VERTEX
  5
23A
  8
LAYER_1
 10
92.70803517236727
 20
526.6742512910434
 30
0.0
  0
VERTEX
  5
23B
  8
LAYER_1
 10
93.58868631944367
 20
524.1295390313728
 30
0.0
  0
VERTEX
  5
23C
  8
LAYER_1
 10
94.49187280058094
 20
521.5864667154135
 30
0.0
  0
VERTEX
  5
23D
  8
LAYER_1
 10
95.4174261093197
 20
519.0455786780808
 30
0.0
  0
VERTEX
  5
23E
  8
LAYER_1
 10
96.36517773920059
 20
516.50741925429
 30
0.0
  0
VERTEX
  5
23F
  8
LAYER_1
 10
97.33495918376414
 20
513.9725327789563
 30
0.0
  0
VERTEX
  5
240
  8
LAYER_1
 10
98.32660193655099
 20
511.4414635869948
 30
0.0
  0
VERTEX
  5
241
  8
LAYER_1
 10
99.3399374911017
 20
508.9147560133209
 30
0.0
  0
VERTEX
  5
242
  8
LAYER_1
 10
100.3747973409569
 20
506.3929543928498
 30
0.0
  0
VERTEX
  5
243
  8
LAYER_1
 10
101.4310129796572
 20
503.8766030604967
 30
0.0
  0
VERTEX
  5
244
  8
LAYER_1
 10
102.5084159007431
 20
501.3662463511769
 30
0.0
  0
VERTEX
  5
245
  8
LAYER_1
 10
103.6068375977553
 20
498.8624285998055
 30
0.0
  0
VERTEX
  5
246
  8
LAYER_1
 10
104.7261095642343
 20
496.3656941412979
 30
0.0
  0
VERTEX
  5
247
  8
LAYER_1
 10
105.8660632937208
 20
493.8765873105692
 30
0.0
  0
VERTEX
  5
248
  8
LAYER_1
 10
107.0265302797553
 20
491.3956524425348
 30
0.0
  0
VERTEX
  5
249
  8
LAYER_1
 10
108.2073420158785
 20
488.9234338721097
 30
0.0
  0
VERTEX
  5
24A
  8
LAYER_1
 10
109.408329995631
 20
486.4604759342095
 30
0.0
  0
VERTEX
  5
24B
  8
LAYER_1
 10
110.6293257125532
 20
484.007322963749
 30
0.0
  0
VERTEX
  5
24C
  8
LAYER_1
 10
111.8701606601859
 20
481.5645192956437
 30
0.0
  0
VERTEX
  5
24D
  8
LAYER_1
 10
113.1306663320696
 20
479.1326092648087
 30
0.0
  0
VERTEX
  5
24E
  8
LAYER_1
 10
114.4106742217449
 20
476.7121372061594
 30
0.0
  0
VERTEX
  5
24F
  8
LAYER_1
 10
115.7100158227525
 20
474.303647454611
 30
0.0
  0
VERTEX
  5
250
  8
LAYER_1
 10
117.0285226286328
 20
471.9076843450786
 30
0.0
  0
VERTEX
  5
251
  8
LAYER_1
 10
118.3660261329266
 20
469.5247922124775
 30
0.0
  0
VERTEX
  5
252
  8
LAYER_1
 10
119.7223578291744
 20
467.1555153917229
 30
0.0
  0
VERTEX
  5
253
  8
LAYER_1
 10
121.0973492109167
 20
464.8003982177302
 30
0.0
  0
VERTEX
  5
254
  8
LAYER_1
 10
122.4908317716943
 20
462.4599850254145
 30
0.0
  0
VERTEX
  5
255
  8
LAYER_1
 10
123.9026370050476
 20
460.134820149691
 30
0.0
  0
VERTEX
  5
256
  8
LAYER_1
 10
125.3325964045173
 20
457.825447925475
 30
0.0
  0
VERTEX
  5
257
  8
LAYER_1
 10
126.7805414636441
 20
455.5324126876818
 30
0.0
  0
VERTEX
  5
258
  8
LAYER_1
 10
128.2463036759684
 20
453.2562587712265
 30
0.0
  0
VERTEX
  5
259
  8
LAYER_1
 10
129.7297145350308
 20
450.9975305110244
 30
0.0
  0
VERTEX
  5
25A
  8
LAYER_1
 10
131.230605534372
 20
448.7567722419907
 30
0.0
  0
VERTEX
  5
25B
  8
LAYER_1
 10
132.7488081675326
 20
446.5345282990407
 30
0.0
  0
VERTEX
  5
25C
  8
LAYER_1
 10
134.2841539280532
 20
444.3313430170897
 30
0.0
  0
VERTEX
  5
25D
  8
LAYER_1
 10
135.8364743094743
 20
442.1477607310528
 30
0.0
  0
VERTEX
  5
25E
  8
LAYER_1
 10
137.4056008053365
 20
439.9843257758452
 30
0.0
  0
VERTEX
  5
25F
  8
LAYER_1
 10
138.9913649091805
 20
437.8415824863822
 30
0.0
  0
VERTEX
  5
260
  8
LAYER_1
 10
140.5935981145468
 20
435.7200751975791
 30
0.0
  0
VERTEX
  5
261
  8
LAYER_1
 10
142.2121319149761
 20
433.6203482443511
 30
0.0
  0
VERTEX
  5
262
  8
LAYER_1
 10
143.8467978040089
 20
431.5429459616134
 30
0.0
  0
VERTEX
  5
263
  8
LAYER_1
 10
145.4974272751858
 20
429.4884126842813
 30
0.0
  0
VERTEX
  5
264
  8
LAYER_1
 10
147.1638518220475
 20
427.4572927472699
 30
0.0
  0
VERTEX
  5
265
  8
LAYER_1
 10
148.8459029381344
 20
425.4501304854946
 30
0.0
  0
VERTEX
  5
266
  8
LAYER_1
 10
150.5434121169873
 20
423.4674702338705
 30
0.0
  0
VERTEX
  5
267
  8
LAYER_1
 10
152.2562108521467
 20
421.5098563273129
 30
0.0
  0
VERTEX
  5
268
  8
LAYER_1
 10
153.9841306371532
 20
419.5778331007371
 30
0.0
  0
VERTEX
  5
269
  8
LAYER_1
 10
155.7270029655474
 20
417.6719448890582
 30
0.0
  0
VERTEX
  5
26A
  8
LAYER_1
 10
157.48465933087
 20
415.7927360271915
 30
0.0
  0
VERTEX
  5
26B
  8
LAYER_1
 10
159.2569312266614
 20
413.9407508500523
 30
0.0
  0
VERTEX
  5
26C
  8
LAYER_1
 10
161.0436501464622
 20
412.1165336925557
 30
0.0
  0
VERTEX
  5
26D
  8
LAYER_1
 10
161.9423745820976
 20
411.2150082258344
 30
0.0
  0
VERTEX
  5
26E
  8
LAYER_1
 10
162.8446475838132
 20
410.320628889617
 30
0.0
  0
VERTEX
  5
26F
  8
LAYER_1
 10
163.7504480883013
 20
409.4334637257679
 30
0.0
  0
VERTEX
  5
270
  8
LAYER_1
 10
164.6597550322548
 20
408.5535807761514
 30
0.0
  0
VERTEX
  5
271
  8
LAYER_1
 10
165.5725473523661
 20
407.6810480826321
 30
0.0
  0
VERTEX
  5
272
  8
LAYER_1
 10
166.4888039853277
 20
406.8159336870742
 30
0.0
  0
VERTEX
  5
273
  8
LAYER_1
 10
167.4085038678323
 20
405.9583056313423
 30
0.0
  0
VERTEX
  5
274
  8
LAYER_1
 10
168.3316259365725
 20
405.1082319573007
 30
0.0
  0
VERTEX
  5
275
  8
LAYER_1
 10
169.2581491282407
 20
404.2657807068138
 30
0.0
  0
VERTEX
  5
276
  8
LAYER_1
 10
170.1880523795297
 20
403.431019921746
 30
0.0
  0
VERTEX
  5
277
  8
LAYER_1
 10
171.1213146271319
 20
402.6040176439618
 30
0.0
  0
VERTEX
  5
278
  8
LAYER_1
 10
172.05791480774
 20
401.7848419153254
 30
0.0
  0
VERTEX
  5
279
  8
LAYER_1
 10
172.9978318580465
 20
400.9735607777014
 30
0.0
  0
VERTEX
  5
27A
  8
LAYER_1
 10
173.941044714744
 20
400.1702422729541
 30
0.0
  0
VERTEX
  5
27B
  8
LAYER_1
 10
174.887532314525
 20
399.3749544429479
 30
0.0
  0
VERTEX
  5
27C
  8
LAYER_1
 10
175.8372735940822
 20
398.5877653295473
 30
0.0
  0
VERTEX
  5
27D
  8
LAYER_1
 10
176.7902474901081
 20
397.8087429746166
 30
0.0
  0
VERTEX
  5
27E
  8
LAYER_1
 10
177.7464329392952
 20
397.0379554200204
 30
0.0
  0
VERTEX
  5
27F
  8
LAYER_1
 10
178.7058088783363
 20
396.2754707076227
 30
0.0
  0
VERTEX
  5
280
  8
LAYER_1
 10
179.6683542439237
 20
395.5213568792884
 30
0.0
  0
VERTEX
  5
281
  8
LAYER_1
 10
180.6340479727502
 20
394.7756819768816
 30
0.0
  0
VERTEX
  5
282
  8
LAYER_1
 10
181.6028690015083
 20
394.0385140422667
 30
0.0
  0
VERTEX
  5
283
  8
LAYER_1
 10
182.5747962668905
 20
393.3099211173082
 30
0.0
  0
VERTEX
  5
284
  8
LAYER_1
 10
183.5498087055894
 20
392.5899712438705
 30
0.0
  0
VERTEX
  5
285
  8
LAYER_1
 10
184.5278852542977
 20
391.878732463818
 30
0.0
  0
VERTEX
  5
286
  8
LAYER_1
 10
185.5090048497078
 20
391.1762728190151
 30
0.0
  0
VERTEX
  5
287
  8
LAYER_1
 10
186.4931464285124
 20
390.4826603513262
 30
0.0
  0
VERTEX
  5
288
  8
LAYER_1
 10
187.480288927404
 20
389.7979631026156
 30
0.0
  0
VERTEX
  5
289
  8
LAYER_1
 10
188.4704112830753
 20
389.1222491147479
 30
0.0
  0
VERTEX
  5
28A
  8
LAYER_1
 10
189.4634924322187
 20
388.4555864295873
 30
0.0
  0
VERTEX
  5
28B
  8
LAYER_1
 10
190.4595113115269
 20
387.7980430889984
 30
0.0
  0
VERTEX
  5
28C
  8
LAYER_1
 10
191.4584468576924
 20
387.1496871348454
 30
0.0
  0
VERTEX
  5
28D
  8
LAYER_1
 10
192.4602780074078
 20
386.5105866089929
 30
0.0
  0
VERTEX
  5
28E
  8
LAYER_1
 10
193.4649836973657
 20
385.8808095533052
 30
0.0
  0
VERTEX
  5
28F
  8
LAYER_1
 10
194.4725428642586
 20
385.2604240096468
 30
0.0
  0
VERTEX
  5
290
  8
LAYER_1
 10
195.4829344447791
 20
384.649498019882
 30
0.0
  0
VERTEX
  5
291
  8
LAYER_1
 10
196.4961373756199
 20
384.0480996258752
 30
0.0
  0
VERTEX
  5
292
  8
LAYER_1
 10
197.5121305934734
 20
383.4562968694909
 30
0.0
  0
VERTEX
  5
293
  8
LAYER_1
 10
198.5308930350323
 20
382.8741577925933
 30
0.0
  0
VERTEX
  5
294
  8
LAYER_1
 10
199.5524036369891
 20
382.3017504370471
 30
0.0
  0
VERTEX
  5
295
  8
LAYER_1
 10
200.5766413360364
 20
381.7391428447166
 30
0.0
  0
VERTEX
  5
296
  8
LAYER_1
 10
201.6035850688667
 20
381.186403057466
 30
0.0
  0
VERTEX
  5
297
  8
LAYER_1
 10
202.6332137721728
 20
380.6435991171599
 30
0.0
  0
VERTEX
  5
298
  8
LAYER_1
 10
203.665506382647
 20
380.1107990656627
 30
0.0
  0
VERTEX
  5
299
  8
LAYER_1
 10
204.7004418369821
 20
379.5880709448388
 30
0.0
  0
VERTEX
  5
29A
  8
LAYER_1
 10
205.7379990718705
 20
379.0754827965525
 30
0.0
  0
VERTEX
  5
29B
  8
LAYER_1
 10
206.7781570240048
 20
378.5731026626684
 30
0.0
  0
VERTEX
  5
29C
  8
LAYER_1
 10
207.8208946300777
 20
378.0809985850506
 30
0.0
  0
VERTEX
  5
29D
  8
LAYER_1
 10
208.8661908267817
 20
377.5992386055639
 30
0.0
  0
VERTEX
  5
29E
  8
LAYER_1
 10
209.9140245508093
 20
377.1278907660723
 30
0.0
  0
VERTEX
  5
29F
  8
LAYER_1
 10
210.9643747388532
 20
376.6670231084404
 30
0.0
  0
VERTEX
  5
2A0
  8
LAYER_1
 10
212.0172203276059
 20
376.2167036745327
 30
0.0
  0
VERTEX
  5
2A1
  8
LAYER_1
 10
213.0725402537599
 20
375.7770005062135
 30
0.0
  0
VERTEX
  5
2A2
  8
LAYER_1
 10
214.130313454008
 20
375.3479816453472
 30
0.0
  0
VERTEX
  5
2A3
  8
LAYER_1
 10
215.1905188650426
 20
374.9297151337982
 30
0.0
  0
VERTEX
  5
2A4
  8
LAYER_1
 10
216.2531354235563
 20
374.522269013431
 30
0.0
  0
VERTEX
  5
2A5
  8
LAYER_1
 10
217.3181420662417
 20
374.1257113261099
 30
0.0
  0
VERTEX
  5
2A6
  8
LAYER_1
 10
218.3855177297914
 20
373.7401101136992
 30
0.0
  0
VERTEX
  5
2A7
  8
LAYER_1
 10
219.4552413508979
 20
373.3655334180635
 30
0.0
  0
VERTEX
  5
2A8
  8
LAYER_1
 10
220.5272918662538
 20
373.0020492810672
 30
0.0
  0
VERTEX
  5
2A9
  8
LAYER_1
 10
221.6016482125517
 20
372.6497257445745
 30
0.0
  0
VERTEX
  5
2AA
  8
LAYER_1
 10
222.6782893264842
 20
372.3086308504501
 30
0.0
  0
VERTEX
  5
2AB
  8
LAYER_1
 10
223.7571941447438
 20
371.9788326405582
 30
0.0
  0
VERTEX
  5
2AC
  8
LAYER_1
 10
224.8383416040231
 20
371.6603991567632
 30
0.0
  0
VERTEX
  5
2AD
  8
LAYER_1
 10
225.9217106410147
 20
371.3533984409296
 30
0.0
  0
VERTEX
  5
2AE
  8
LAYER_1
 10
227.0072801924111
 20
371.0578985349217
 30
0.0
  0
VERTEX
  5
2AF
  8
LAYER_1
 10
228.095029194905
 20
370.773967480604
 30
0.0
  0
VERTEX
  5
2B0
  8
LAYER_1
 10
229.1849365851889
 20
370.501673319841
 30
0.0
  0
VERTEX
  5
2B1
  8
LAYER_1
 10
230.2769812999554
 20
370.2410840944968
 30
0.0
  0
VERTEX
  5
2B2
  8
LAYER_1
 10
231.371142275897
 20
369.9922678464361
 30
0.0
  0
VERTEX
  5
2B3
  8
LAYER_1
 10
232.4673984497064
 20
369.7552926175232
 30
0.0
  0
VERTEX
  5
2B4
  8
LAYER_1
 10
233.5657287580761
 20
369.5302264496224
 30
0.0
  0
VERTEX
  5
2B5
  8
LAYER_1
 10
234.6661121376986
 20
369.3171373845983
 30
0.0
  0
VERTEX
  5
2B6
  8
LAYER_1
 10
235.7685275252666
 20
369.1160934643151
 30
0.0
  0
VERTEX
  5
2B7
  8
LAYER_1
 10
236.8729538574727
 20
368.9271627306373
 30
0.0
  0
VERTEX
  5
2B8
  8
LAYER_1
 10
237.9793700710093
 20
368.7504132254294
 30
0.0
  0
VERTEX
  5
2B9
  8
LAYER_1
 10
239.0877551025691
 20
368.5859129905556
 30
0.0
  0
VERTEX
  5
2BA
  8
LAYER_1
 10
240.1980878888447
 20
368.4337300678806
 30
0.0
  0
VERTEX
  5
2BB
  8
LAYER_1
 10
241.3103473665286
 20
368.2939324992685
 30
0.0
  0
VERTEX
  5
2BC
  8
LAYER_1
 10
242.4245124723134
 20
368.1665883265838
 30
0.0
  0
VERTEX
  5
2BD
  8
LAYER_1
 10
243.5405621428917
 20
368.051765591691
 30
0.0
  0
VERTEX
  5
2BE
  8
LAYER_1
 10
244.658475314956
 20
367.9495323364544
 30
0.0
  0
VERTEX
  5
2BF
  8
LAYER_1
 10
245.778230925199
 20
367.8599566027384
 30
0.0
  0
VERTEX
  5
2C0
  8
LAYER_1
 10
246.8998079103132
 20
367.7831064324074
 30
0.0
  0
VERTEX
  5
2C1
  8
LAYER_1
 10
248.0231852069911
 20
367.7190498673259
 30
0.0
  0
VERTEX
  5
2C2
  8
LAYER_1
 10
249.1483417519254
 20
367.6678549493583
 30
0.0
  0
VERTEX
  5
2C3
  8
LAYER_1
 10
250.2752564818086
 20
367.6295897203689
 30
0.0
  0
VERTEX
  5
2C4
  8
LAYER_1
 10
251.4039083333333
 20
367.6043222222222
 30
0.0
  0
VERTEX
  5
2C5
  8
LAYER_1
 10
251.4039083333333
 20
367.6043222222238
 30
0.0
  0
VERTEX
  5
2C6
  8
LAYER_1
 10
251.4039083333333
 20
336.6840555555555
 30
0.0
  0
VERTEX
  5
2C7
  8
LAYER_1
 10
254.4039305555555
 20
336.6840555555555
 30
0.0
  0
VERTEX
  5
2C8
  8
LAYER_1
 10
254.4039305555555
 20
305.2039305555555
 30
0.0
  0
VERTEX
  5
2C9
  8
LAYER_1
 10
225.6236138888889
 20
305.2039305555555
 30
0.0
  0
VERTEX
  5
2CA
  8
LAYER_1
 10
225.6236138888889
 20
308.2039527777778
 30
0.0
  0
VERTEX
  5
2CB
  8
LAYER_1
 10
197.4038611111111
 20
308.2039527777778
 30
0.0
  0
VERTEX
  5
2CC
  8
LAYER_1
 10
197.4038611111111
 20
305.2039305555555
 30
0.0
  0
VERTEX
  5
2CD
  8
LAYER_1
 10
177.1233722222222
 20
305.2039305555555
 30
0.0
  0
VERTEX
  5
2CE
  8
LAYER_1
 10
177.1233722222222
 20
308.2039527777778
 30
0.0
  0
VERTEX
  5
2CF
  8
LAYER_1
 10
157.4038
 20
308.2039527777778
 30
0.0
  0
VERTEX
  5
2D0
  8
LAYER_1
 10
157.4038
 20
305.2039305555555
 30
0.0
  0
VERTEX
  5
2D1
  8
LAYER_1
 10
137.1229583333333
 20
305.2039305555555
 30
0.0
  0
VERTEX
  5
2D2
  8
LAYER_1
 10
137.1229583333333
 20
308.2039527777778
 30
0.0
  0
VERTEX
  5
2D3
  8
LAYER_1
 10
117.4033861111111
 20
308.2039527777778
 30
0.0
  0
VERTEX
  5
2D4
  8
LAYER_1
 10
117.4033861111111
 20
305.2039305555555
 30
0.0
  0
VERTEX
  5
2D5
  8
LAYER_1
 10
97.12430833333332
 20
305.2039305555555
 30
0.0
  0
VERTEX
  5
2D6
  8
LAYER_1
 10
97.12430833333332
 20
308.2039527777778
 30
0.0
  0
VERTEX
  5
2D7
  8
LAYER_1
 10
77.40297222222222
 20
308.2039527777778
 30
0.0
  0
VERTEX
  5
2D8
  8
LAYER_1
 10
77.40297222222222
 20
305.2039305555555
 30
0.0
  0
VERTEX
  5
2D9
  8
LAYER_1
 10
57.12389444444443
 20
305.2039305555555
 30
0.0
  0
VERTEX
  5
2DA
  8
LAYER_1
 10
57.12389444444443
 20
308.2039527777778
 30
0.0
  0
VERTEX
  5
2DB
  8
LAYER_1
 10
28.90308333333333
 20
308.2039527777778
 30
0.0
  0
VERTEX
  5
2DC
  8
LAYER_1
 10
28.90308333333333
 20
305.2039305555555
 30
0.0
  0
VERTEX
  5
2DD
  8
LAYER_1
 10
0.1241777777777778
 20
305.2039305555555
 30
0.0
  0
VERTEX
  5
2DE
  8
LAYER_1
 10
0.1241777777777778
 20
336.6840555555555
 30
0.0
  0
VERTEX
  5
2DF
  8
LAYER_1
 10
3.123847222222222
 20
336.6840555555555
 30
0.0
  0
VERTEX
  5
2E0
  8
LAYER_1
 10
3.123847222222222
 20
367.6043222222222
 30
0.0
  0
VERTEX
  5
2E1
  8
LAYER_1
 10
0.1241777777777778
 20
367.6043222222222
 30
0.0
  0
VERTEX
  5
2E2
  8
LAYER_1
 10
0.1241777777777778
 20
387.8851638888889
 30
0.0
  0
VERTEX
  5
2E3
  8
LAYER_1
 10
3.123847222222222
 20
387.8851638888889
 30
0.0
  0
VERTEX
  5
2E4
  8
LAYER_1
 10
3.123847222222222
 20
407.604736111111
 30
0.0
  0
VERTEX
  5
2E5
  8
LAYER_1
 10
0.1241777777777778
 20
407.604736111111
 30
0.0
  0
VERTEX
  5
2E6
  8
LAYER_1
 10
0.1241777777777778
 20
427.8838138888888
 30
0.0
  0
VERTEX
  5
2E7
  8
LAYER_1
 10
3.123847222222222
 20
427.8838138888888
 30
0.0
  0
VERTEX
  5
2E8
  8
LAYER_1
 10
3.123847222222222
 20
447.6051499999999
 30
0.0
  0
VERTEX
  5
2E9
  8
LAYER_1
 10
0.1241777777777778
 20
447.6051499999999
 30
0.0
  0
VERTEX
  5
2EA
  8
LAYER_1
 10
0.1241777777777778
 20
467.8842277777778
 30
0.0
  0
VERTEX
  5
2EB
  8
LAYER_1
 10
3.123847222222222
 20
467.8842277777778
 30
0.0
  0
VERTEX
  5
2EC
  8
LAYER_1
 10
3.123847222222222
 20
487.6041527777777
 30
0.0
  0
VERTEX
  5
2ED
  8
LAYER_1
 10
0.1241777777777778
 20
487.6041527777777
 30
0.0
  0
VERTEX
  5
2EE
  8
LAYER_1
 10
0.1241777777777778
 20
507.8846416666666
 30
0.0
  0
VERTEX
  5
2EF
  8
LAYER_1
 10
3.123847222222222
 20
507.8846416666666
 30
0.0
  0
VERTEX
  5
2F0
  8
LAYER_1
 10
3.123847222222222
 20
527.6042138888888
 30
0.0
  0
VERTEX
  5
2F1
  8
LAYER_1
 10
0.1241777777777778
 20
527.6042138888888
 30
0.0
  0
VERTEX
  5
2F2
  8
LAYER_1
 10
0.1241777777777778
 20
547.8850555555555
 30
0.0
  0
VERTEX
  5
2F3
  8
LAYER_1
 10
3.123847222222222
 20
547.8850555555555
 30
0.0
  0
VERTEX
  5
2F4
  8
LAYER_1
 10
3.123847222222222
 20
578.803911111111
 30
0.0
  0
VERTEX
  5
2F5
  8
LAYER_1
 10
0.1241777777777778
 20
578.803911111111
 30
0.0
  0
VERTEX
  5
2F6
  8
LAYER_1
 10
0.1241777777777778
 20
610.2836833333333
 30
0.0
  0
VERTEX
  5
2F7
  8
LAYER_1
 10
28.90308333333333
 20
610.2836833333333
 30
0.0
  0
VERTEX
  5
2F8
  8
LAYER_1
 10
28.90308333333333
 20
607.2840138888888
 30
0.0
  0
VERTEX
  5
2F9
  8
LAYER_1
 10
57.12389444444443
 20
607.2840138888888
 30
0.0
  0
VERTEX
  5
2FA
  8
LAYER_1
 10
57.12389444444443
 20
610.2836833333333
 30
0.0
  0
VERTEX
  5
2FB
  8
LAYER_1
 10
77.40297222222222
 20
610.2836833333333
 30
0.0
  0
VERTEX
  5
2FC
  8
LAYER_1
 10
77.40297222222222
 20
607.2840138888888
 30
0.0
  0
VERTEX
  5
2FD
  8
LAYER_1
 10
77.4063332914239
 20
607.2840138888888
 30
0.0
  0
SEQEND
  5
30A
  8
LAYER_1
  0
ENDSEC
  0
EOF
