  0
SECTION
  2
HEADER
  9
$ACADVER
  1
AC1009
  9
$INSBASE
 10
0.0
 20
0.0
 30
0.0
  9
$EXTMIN
 10
0.937331
 20
-8.205184
 30
0.0
  9
$EXTMAX
 10
17.185993
 20
0.314545
 30
0.0
  9
$LIMMIN
 10
0.0
 20
0.0
  9
$LIMMAX
 10
0.0
 20
0.0
  9
$ORTHOMODE
 70
     0
  9
$REGENMODE
 70
     1
  9
$FILLMODE
 70
     1
  9
$QTEXTMODE
 70
     0
  9
$MIRRTEXT
 70
     1
  9
$DRAGMODE
 70
     2
  9
$LTSCALE
 40
1.0
  9
$OSMODE
 70
     0
  9
$ATTMODE
 70
     1
  9
$TEXTSIZE
 40
0.2
  9
$TRACEWID
 40
0.05
  9
$TEXTSTYLE
  7
STANDARD
  9
$CLAYER
  8
0
  9
$CELTYPE
  6
CONTINUOUS
  9
$CECOLOR
 62
   256
  9
$DIMSCALE
 40
1.0
  9
$DIMASZ
 40
0.18
  9
$DIMEXO
 40
0.0625
  9
$DIMDLI
 40
0.38
  9
$DIMRND
 40
0.0
  9
$DIMDLE
 40
0.0
  9
$DIMEXE
 40
0.18
  9
$DIMTP
 40
0.0
  9
$DIMTM
 40
0.0
  9
$DIMTXT
 40
0.18
  9
$DIMCEN
 40
0.09
  9
$DIMTSZ
 40
0.0
  9
$DIMTOL
 70
     0
  9
$DIMLIM
 70
     0
  9
$DIMTIH
 70
     1
  9
$DIMTOH
 70
     1
  9
$DIMSE1
 70
     0
  9
$DIMSE2
 70
     0
  9
$DIMTAD
 70
     0
  9
$DIMZIN
 70
     0
  9
$DIMBLK
  1

  9
$DIMASO
 70
     1
  9
$DIMSHO
 70
     1
  9
$DIMPOST
  1

  9
$DIMAPOST
  1

  9
$DIMALT
 70
     0
  9
$DIMALTD
 70
     2
  9
$DIMALTF
 40
25.4
  9
$DIMLFAC
 40
1.0
  9
$DIMTOFL
 70
     0
  9
$DIMTVP
 40
0.0
  9
$DIMTIX
 70
     0
  9
$DIMSOXD
 70
     0
  9
$DIMSAH
 70
     0
  9
$DIMBLK1
  1

  9
$DIMBLK2
  1

  9
$DIMSTYLE
  2
STANDARD
  9
$DIMCLRD
 70
     0
  9
$DIMCLRE
 70
     0
  9
$DIMCLRT
 70
     0
  9
$DIMTFAC
 40
1.0
  9
$DIMGAP
 40
0.09
  9
$LUNITS
 70
     2
  9
$LUPREC
 70
     4
  9
$AXISMODE
 70
     0
  9
$AXISUNIT
 10
0.0
 20
0.0
  9
$SKETCHINC
 40
0.1
  9
$FILLETRAD
 40
0.0
  9
$AUNITS
 70
     0
  9
$AUPREC
 70
     0
  9
$MENU
  1
acad
  9
$ELEVATION
 40
0.0
  9
$PELEVATION
 40
0.0
  9
$THICKNESS
 40
0.0
  9
$LIMCHECK
 70
     0
  9
$BLIPMODE
 70
     1
  9
$CHAMFERA
 40
0.0
  9
$CHAMFERB
 40
0.0
  9
$SKPOLY
 70
     0
  9
$TDCREATE
 40
0.000000000
  9
$TDUPDATE
 40
0.000000000
  9
$TDINDWG
 40
0.0000000000
  9
$TDUSRTIMER
 40
0.0000000000
  9
$USRTIMER
 70
     1
  9
$ANGBASE
 50
0.0
  9
$ANGDIR
 70
     0
  9
$PDMODE
 70
     0
  9
$PDSIZE
 40
0.0
  9
$PLINEWID
 40
0.0
  9
$COORDS
 70
     0
  9
$SPLFRAME
 70
     0
  9
$SPLINETYPE
 70
     6
  9
$SPLINESEGS
 70
     8
  9
$ATTDIA
 70
     0
  9
$ATTREQ
 70
     1
  9
$HANDLING
 70
     1
  9
$HANDSEED
  5
138
  9
$SURFTAB1
 70
     6
  9
$SURFTAB2
 70
     6
  9
$SURFTYPE
 70
     6
  9
$SURFU
 70
     6
  9
$SURFV
 70
     6
  9
$UCSNAME
  2

  9
$UCSORG
 10
0.0
 20
0.0
 30
0.0
  9
$UCSXDIR
 10
1.0
 20
0.0
 30
0.0
  9
$UCSYDIR
 10
0.0
 20
1.0
 30
0.0
  9
$PUCSNAME
  2

  9
$PUCSORG
 10
0.0
 20
0.0
 30
0.0
  9
$PUCSXDIR
 10
1.0
 20
0.0
 30
0.0
  9
$PUCSYDIR
 10
0.0
 20
1.0
 30
0.0
  9
$USERI1
 70
     0
  9
$USERI2
 70
     0
  9
$USERI3
 70
     0
  9
$USERI4
 70
     0
  9
$USERI5
 70
     0
  9
$USERR1
 40
0.0
  9
$USERR2
 40
0.0
  9
$USERR3
 40
0.0
  9
$USERR4
 40
0.0
  9
$USERR5
 40
0.0
  9
$WORLDVIEW
 70
     1
  9
$SHADEDGE
 70
     3
  9
$SHADEDIF
 70
    70
  9
$TILEMODE
 70
     1
  9
$MAXACTVP
 70
    16
  9
$PINSBASE
 10
0.0
 20
0.0
 30
0.0
  9
$PLIMCHECK
 70
     0
  9
$PEXTMIN
 10
1.000000E+20
 20
1.000000E+20
 30
1.000000E+20
  9
$PEXTMAX
 10
-1.000000E+20
 20
-1.000000E+20
 30
-1.000000E+20
  9
$PLIMMIN
 10
0.0
 20
0.0
  9
$PLIMMAX
 10
12.0
 20
9.0
  9
$UNITMODE
 70
     0
  9
$VISRETAIN
 70
     0
  9
$PLINEGEN
 70
     1
  9
$PSLTSCALE
 70
     0
  9
$TREEDEPTH
 70
  3020
  9
$DWGCODEPAGE
  3
dos850
  0
ENDSEC
  0
SECTION
  2
TABLES
  0
TABLE
  2
VPORT
 70
     1
  0
VPORT
  2
*ACTIVE
 70
     0
 10
0.0
 20
0.0
 11
1.0
 21
1.0
 12
6.591288
 22
4.579184
 13
0.0
 23
0.0
 14
1.0
 24
1.0
 15
0.0
 25
0.0
 16
0.0
 26
0.0
 36
1.0
 17
0.0
 27
0.0
 37
0.0
 40
9.158369
 41
0.688564
 42
50.0
 43
0.0
 44
0.0
 50
0.0
 51
0.0
 71
     0
 72
   100
 73
     1
 74
     1
 75
     0
 76
     0
 77
     0
 78
     0
  0
ENDTAB
  0
TABLE
  2
LTYPE
 70
     1
  0
LTYPE
  2
CONTINUOUS
 70
     0
  3
Solid line
 72
    65
 73
     0
 40
0.0
  0
ENDTAB
  0
TABLE
  2
LAYER
 70
     5
  0
LAYER
  2
0
 70
     0
 62
     7
  6
CONTINUOUS
  0
LAYER
  2
MERGE
 70
     0
 62
     7
  6
CONTINUOUS
  0
LAYER
  2
STANDARD
 70
     0
 62
     7
  6
CONTINUOUS
  0
LAYER
  2
holder1
 70
     0
 62
     7
  6
CONTINUOUS
  0
LAYER
  2
holder2
 70
     0
 62
     7
  6
CONTINUOUS
  0
ENDTAB
  0
TABLE
  2
STYLE
 70
     1
  0
STYLE
  2
STANDARD
 70
     0
 40
0.0
 41
1.0
 50
0.0
 71
     0
 42
0.0
  3
txt
  4

  0
ENDTAB
  0
TABLE
  2
VIEW
 70
     0
  0
ENDTAB
  0
TABLE
  2
UCS
 70
     0
  0
ENDTAB
  0
TABLE
  2
APPID
 70
     1
  0
APPID
  2
ACAD
 70
     0
  0
ENDTAB
  0
TABLE
  2
DIMSTYLE
 70
     1
  0
DIMSTYLE
  2
STANDARD
 70
     0
  3

  4

  5

  6

  7

 40
1.0
 41
0.18
 42
0.0625
 43
0.38
 44
0.18
 45
0.0
 46
0.0
 47
0.0
 48
0.0
140
0.18
141
0.09
142
0.0
143
25.4
144
1.0
145
0.0
146
1.0
147
0.09
 71
     0
 72
     0
 73
     1
 74
     1
 75
     0
 76
     0
 77
     0
 78
     0
170
     0
171
     2
172
     0
173
     0
174
     0
175
     0
176
     0
177
     0
178
     0
  0
ENDTAB
  0
ENDSEC
  0
SECTION
  2
BLOCKS
  0
ENDSEC
  0
SECTION
  2
ENTITIES
  0
LINE
  8
STANDARD
 62
   250
  5
21
 10
1.566012
 20
-2.955184
 30
0.0
 11
1.566012
 21
-7.330184
 31
0.0
  0
ARC
  8
STANDARD
 62
   250
  5
22
 10
1.691012
 20
-7.330184
 30
0.0
 40
0.125
 50
180.000005
 51
270.000001
  0
LINE
  8
STANDARD
 62
   250
  5
23
 10
8.308653
 20
-2.555184
 30
0.0
 11
8.308653
 21
-7.330184
 31
0.0
  0
ARC
  8
STANDARD
 62
   250
  5
24
 10
8.183653
 20
-7.330184
 30
0.0
 40
0.125
 50
270.000001
 51
360.000003
  0
LINE
  8
STANDARD
 62
   250
  5
25
 10
4.837332
 20
-2.055184
 30
0.0
 11
4.837332
 21
-4.155184
 31
0.0
  0
LINE
  8
STANDARD
 62
   250
  5
26
 10
5.037332
 20
-3.355184
 30
0.0
 11
5.037332
 21
-4.155184
 31
0.0
  0
LINE
  8
STANDARD
 62
   250
  5
27
 10
8.683653
 20
-2.555184
 30
0.0
 11
8.683653
 21
-2.955184
 31
0.0
  0
ARC
  8
holder1
 62
     1
  5
28
 10
6.490124
 20
-5.598169
 30
0.0
 40
1.818529
 50
247.991929
 51
251.302
  0
LINE
  8
holder1
 62
     1
  5
29
 10
8.159037
 20
0.028015
 30
0.0
 11
7.966354
 21
0.081616
 31
0.0
  0
LINE
  8
holder1
 62
     1
  5
2A
 10
5.907141
 20
-7.320719
 30
0.0
 11
6.006906
 21
-6.962089
 31
0.0
  0
LINE
  8
holder1
 62
     1
  5
2B
 10
6.099823
 20
-7.374321
 30
0.0
 11
6.199589
 21
-7.01569
 31
0.0
  0
LINE
  8
holder1
 62
     1
  5
2C
 10
7.966354
 20
0.081616
 30
0.0
 11
7.864779
 21
-0.283524
 31
0.0
  0
LINE
  8
holder1
 62
     1
  5
2D
 10
8.159037
 20
0.028015
 30
0.0
 11
8.057461
 21
-0.337125
 31
0.0
  0
ARC
  8
holder1
 62
     1
  5
2E
 10
6.058653
 20
-4.161563
 30
0.0
 40
0.25
 50
179.999868
 51
286.717087
  0
ARC
  8
holder1
 62
     1
  5
2F
 10
7.627183
 20
-1.510737
 30
0.0
 40
1.25
 50
66.114264
 51
286.749414
  0
ARC
  8
holder1
 62
     1
  5
30
 10
8.058653
 20
-2.947341
 30
0.0
 40
0.25
 50
359.999819
 51
466.55564
  0
LINE
  8
holder1
 62
     1
  5
31
 10
8.308653
 20
-3.045643
 30
0.0
 11
8.308653
 21
-2.947342
 31
0.0
  0
ARC
  8
holder1
 62
     1
  5
32
 10
8.058655
 20
-3.045643
 30
0.0
 40
0.25
 50
314.09174
 51
359.99989
  0
ARC
  8
holder1
 62
     1
  5
33
 10
9.102369
 20
-4.122983
 30
0.0
 40
1.25
 50
134.091804
 51
225.908083
  0
LINE
  8
holder1
 62
     1
  5
34
 10
8.308653
 20
-5.598168
 30
0.0
 11
8.308653
 21
-5.200319
 31
0.0
  0
ARC
  8
holder1
 62
     1
  5
35
 10
8.058653
 20
-5.200319
 30
0.0
 40
0.25
 50
0.000051
 51
45.908092
  0
ARC
  8
holder1
 62
     1
  5
36
 10
5.014937
 20
-2.985923
 30
0.0
 40
1.25
 50
314.09185
 51
361.321484
  0
LINE
  8
holder1
 62
     1
  5
37
 10
5.808653
 20
-4.161563
 30
0.0
 11
5.808653
 21
-4.063261
 31
0.0
  0
ARC
  8
holder1
 62
     1
  5
38
 10
6.058654
 20
-4.063261
 30
0.0
 40
0.25
 50
134.091831
 51
180.000056
  0
ARC
  8
holder1
 62
     1
  5
39
 10
5.014937
 20
-2.985923
 30
0.0
 40
1.25
 50
1.321501
 51
45.908143
  0
LINE
  8
holder1
 62
     1
  5
3A
 10
5.808653
 20
-1.908586
 30
0.0
 11
5.808653
 21
-1.510738
 31
0.0
  0
ARC
  8
holder1
 62
     1
  5
3B
 10
6.058654
 20
-1.908587
 30
0.0
 40
0.25
 50
179.999855
 51
225.907977
  0
LINE
  8
holder1
 62
     1
  5
3C
 10
6.006906
 20
-6.962089
 30
0.0
 11
6.199589
 21
-7.01569
 31
0.0
  0
ARC
  8
holder1
 62
     1
  5
3D
 10
6.490124
 20
-5.598169
 30
0.0
 40
1.818529
 50
257.60654
 51
360.000003
  0
LINE
  8
holder1
 62
     1
  5
3E
 10
5.808653
 20
-7.284184
 30
0.0
 11
5.808654
 21
-6.855533
 31
0.0
  0
ARC
  8
holder1
 62
     1
  5
3F
 10
6.490124
 20
-5.598169
 30
0.0
 40
1.25
 50
246.127287
 51
429.865687
  0
ARC
  8
holder1
 62
     1
  5
40
 10
5.933654
 20
-6.855533
 30
0.0
 40
0.125
 50
66.127317
 51
179.999868
  0
ARC
  8
holder1
 62
     1
  5
41
 10
7.627183
 20
-1.510737
 30
0.0
 40
1.25
 50
66.127344
 51
69.865712
  0
ARC
  8
holder1
 62
     1
  5
42
 10
8.183653
 20
-0.253372
 30
0.0
 40
0.125
 50
246.258017
 51
359.99986
  0
LINE
  8
holder1
 62
     1
  5
43
 10
8.308653
 20
-0.253373
 30
0.0
 11
8.308653
 21
0.088756
 31
0.0
  0
ARC
  8
holder1
 62
     1
  5
44
 10
7.627183
 20
-1.510737
 30
0.0
 40
1.81853
 50
70.817006
 51
179.999991
  0
ARC
  8
holder1
 62
     1
  5
45
 10
8.183653
 20
0.088757
 30
0.0
 40
0.125
 50
359.999928
 51
430.817112
  0
LINE
  8
holder1
 62
     1
  5
46
 10
6.727717
 20
-4.370957
 30
0.0
 11
6.935512
 21
-3.623994
 31
0.0
  0
LINE
  8
holder1
 62
     1
  5
47
 10
6.920401
 20
-4.424559
 30
0.0
 11
7.128195
 21
-3.677596
 31
0.0
  0
ARC
  8
holder1
 62
     1
  5
48
 10
6.490124
 20
-5.598169
 30
0.0
 40
1.25
 50
79.042829
 51
106.717167
  0
LINE
  8
STANDARD
 62
   250
  5
49
 10
1.312332
 20
-2.555184
 30
0.0
 11
1.312332
 21
-2.955184
 31
0.0
  0
LINE
  8
STANDARD
 62
   250
  5
4A
 10
5.037332
 20
-3.355184
 30
0.0
 11
5.812332
 21
-3.355184
 31
0.0
  0
LINE
  8
STANDARD
 62
   250
  5
4B
 10
4.062332
 20
-0.455184
 30
0.0
 11
4.499087
 21
-0.455184
 31
0.0
  0
ARC
  8
STANDARD
 62
   250
  5
4C
 10
4.499046
 20
-0.425184
 30
0.0
 40
0.03
 50
270.078329
 51
390.000113
  0
LINE
  8
STANDARD
 62
   250
  5
4D
 10
5.375619
 20
-0.455184
 30
0.0
 11
5.812332
 21
-0.455184
 31
0.0
  0
ARC
  8
STANDARD
 62
   250
  5
4E
 10
5.375619
 20
-0.425184
 30
0.0
 40
0.03
 50
150.000093
 51
270.000001
  0
LINE
  8
STANDARD
 62
   250
  5
4F
 10
4.288313
 20
-0.000184
 30
0.0
 11
4.525026
 21
-0.410184
 31
0.0
  0
ARC
  8
STANDARD
 62
   250
  5
50
 10
4.314293
 20
0.014816
 30
0.0
 40
0.03
 50
89.999989
 51
210.000224
  0
LINE
  8
STANDARD
 62
   250
  5
51
 10
5.586352
 20
-0.000184
 30
0.0
 11
5.349638
 21
-0.410184
 31
0.0
  0
LINE
  8
STANDARD
 62
   250
  5
52
 10
4.314293
 20
0.044816
 30
0.0
 11
5.560396
 21
0.044816
 31
0.0
  0
ARC
  8
STANDARD
 62
   250
  5
53
 10
5.560371
 20
0.014816
 30
0.0
 40
0.03
 50
329.999797
 51
449.952645
  0
ARC
  8
STANDARD
 62
   250
  5
54
 10
8.278652
 20
-1.949026
 30
0.0
 40
0.03
 50
359.998343
 51
480.000355
  0
ARC
  8
STANDARD
 62
   250
  5
55
 10
8.278654
 20
-1.072448
 30
0.0
 40
0.03
 50
240.000116
 51
360.516714
  0
LINE
  8
STANDARD
 62
   250
  5
56
 10
8.308653
 20
-1.072177
 30
0.0
 11
8.308653
 21
-0.462834
 31
0.0
  0
LINE
  8
STANDARD
 62
   250
  5
57
 10
8.308653
 20
-2.558639
 30
0.0
 11
8.308653
 21
-1.949026
 31
0.0
  0
LINE
  8
STANDARD
 62
   250
  5
58
 10
9.814672
 20
-3.355184
 30
0.0
 11
9.814672
 21
-7.330184
 31
0.0
  0
ARC
  8
STANDARD
 62
   250
  5
59
 10
9.939672
 20
-7.330184
 30
0.0
 40
0.125
 50
180.000005
 51
270.000001
  0
LINE
  8
STANDARD
 62
   250
  5
5A
 10
16.557312
 20
-2.955184
 30
0.0
 11
16.557312
 21
-7.330184
 31
0.0
  0
ARC
  8
STANDARD
 62
   250
  5
5B
 10
16.432312
 20
-7.330184
 30
0.0
 40
0.125
 50
270.000001
 51
360.000003
  0
LINE
  8
STANDARD
 62
   250
  5
5C
 10
13.085993
 20
-4.155184
 30
0.0
 11
13.085993
 21
-6.955184
 31
0.0
  0
LINE
  8
STANDARD
 62
   250
  5
5D
 10
13.285992
 20
-4.155184
 30
0.0
 11
13.285992
 21
-6.955184
 31
0.0
  0
LINE
  8
STANDARD
 62
   250
  5
5E
 10
16.932312
 20
-2.955184
 30
0.0
 11
16.932312
 21
-3.355184
 31
0.0
  0
LINE
  8
STANDARD
 62
   250
  5
5F
 10
9.560992
 20
-2.955184
 30
0.0
 11
9.560992
 21
-3.355184
 31
0.0
  0
LINE
  8
STANDARD
 62
   250
  5
60
 10
9.560992
 20
-3.355184
 30
0.0
 11
9.814672
 21
-3.355184
 31
0.0
  0
LINE
  8
STANDARD
 62
   250
  5
61
 10
16.932312
 20
-3.355184
 30
0.0
 11
17.185993
 21
-3.355184
 31
0.0
  0
LINE
  8
holder1
 62
     1
  5
62
 10
6.935512
 20
-3.623994
 30
0.0
 11
7.128195
 21
-3.677596
 31
0.0
  0
LINE
  8
STANDARD
 62
   250
  5
63
 10
1.691012
 20
-7.455184
 30
0.0
 11
3.812332
 21
-7.455184
 31
0.0
  0
LINE
  8
holder2
 62
   250
  5
64
 10
4.062332
 20
-0.455184
 30
0.0
 11
4.062332
 21
-7.205184
 31
0.0
  0
ARC
  8
holder2
 62
   250
  5
65
 10
3.812332
 20
-7.205184
 30
0.0
 40
0.25
 50
270.000001
 51
360.000003
  0
LINE
  8
STANDARD
 62
   250
  5
66
 10
6.062332
 20
-7.455184
 30
0.0
 11
8.183653
 21
-7.455184
 31
0.0
  0
LINE
  8
holder2
 62
   250
  5
67
 10
5.812332
 20
-0.455184
 30
0.0
 11
5.812332
 21
-2.555184
 31
0.0
  0
LINE
  8
holder2
 62
   250
  5
68
 10
5.812332
 20
-3.355184
 30
0.0
 11
5.812332
 21
-7.205184
 31
0.0
  0
ARC
  8
holder2
 62
   250
  5
69
 10
6.062332
 20
-7.205184
 30
0.0
 40
0.25
 50
180.000005
 51
270.000008
  0
LINE
  8
STANDARD
 62
   250
  5
6A
 10
9.939672
 20
-7.455184
 30
0.0
 11
12.060993
 21
-7.455184
 31
0.0
  0
ARC
  8
holder2
 62
   250
  5
6B
 10
12.060993
 20
-7.205184
 30
0.0
 40
0.25
 50
270.000001
 51
360.000003
  0
LINE
  8
STANDARD
 62
   250
  5
6C
 10
14.310993
 20
-7.455184
 30
0.0
 11
16.432312
 21
-7.455184
 31
0.0
  0
ARC
  8
holder2
 62
   250
  5
6D
 10
14.310993
 20
-7.205184
 30
0.0
 40
0.25
 50
180.000005
 51
270.000008
  0
LINE
  8
holder2
 62
   250
  5
6E
 10
5.037332
 20
-2.555184
 30
0.0
 11
5.812332
 21
-2.555184
 31
0.0
  0
LINE
  8
holder2
 62
   250
  5
6F
 10
4.837332
 20
-4.155184
 30
0.0
 11
5.037332
 21
-4.155184
 31
0.0
  0
LINE
  8
holder2
 62
   250
  5
70
 10
13.085993
 20
-4.155184
 30
0.0
 11
13.285992
 21
-4.155184
 31
0.0
  0
LINE
  8
holder2
 62
   250
  5
71
 10
4.837332
 20
-6.955184
 30
0.0
 11
5.037332
 21
-6.955184
 31
0.0
  0
LINE
  8
holder2
 62
   250
  5
72
 10
13.085993
 20
-6.955184
 30
0.0
 11
13.285992
 21
-6.955184
 31
0.0
  0
LINE
  8
STANDARD
 62
   250
  5
73
 10
12.310993
 20
-5.979632
 30
0.0
 11
12.797707
 21
-5.979632
 31
0.0
  0
ARC
  8
STANDARD
 62
   250
  5
74
 10
12.797707
 20
-5.949632
 30
0.0
 40
0.03
 50
270.000001
 51
390.0001
  0
LINE
  8
STANDARD
 62
   250
  5
75
 10
13.57428
 20
-5.979632
 30
0.0
 11
14.060993
 21
-5.979632
 31
0.0
  0
ARC
  8
STANDARD
 62
   250
  5
76
 10
13.57428
 20
-5.949632
 30
0.0
 40
0.03
 50
150.000093
 51
270.000001
  0
LINE
  8
STANDARD
 62
   250
  5
77
 10
12.586973
 20
-5.524632
 30
0.0
 11
12.823687
 21
-5.934632
 31
0.0
  0
ARC
  8
STANDARD
 62
   250
  5
78
 10
12.612954
 20
-5.509632
 30
0.0
 40
0.03
 50
89.757756
 51
210.000231
  0
LINE
  8
STANDARD
 62
   250
  5
79
 10
13.785013
 20
-5.524632
 30
0.0
 11
13.5483
 21
-5.934632
 31
0.0
  0
LINE
  8
STANDARD
 62
   250
  5
7A
 10
12.613081
 20
-5.479632
 30
0.0
 11
13.75916
 21
-5.479632
 31
0.0
  0
ARC
  8
STANDARD
 62
   250
  5
7B
 10
13.759033
 20
-5.509632
 30
0.0
 40
0.03
 50
329.999797
 51
449.757753
  0
LINE
  8
holder2
 62
   250
  5
7C
 10
13.085993
 20
-2.855184
 30
0.0
 11
13.085993
 21
-0.305184
 31
0.0
  0
LINE
  8
holder2
 62
   250
  5
7D
 10
13.285992
 20
-2.855184
 30
0.0
 11
13.285992
 21
-0.305184
 31
0.0
  0
LINE
  8
holder2
 62
   250
  5
7E
 10
12.310993
 20
-3.355184
 30
0.0
 11
14.060993
 21
-3.355184
 31
0.0
  0
ARC
  8
holder2
 62
   212
  5
7F
 10
3.384543
 20
-5.591416
 30
0.0
 40
1.818529
 50
288.697999
 51
292.00807
  0
LINE
  8
holder2
 62
   212
  5
80
 10
1.715626
 20
0.034766
 30
0.0
 11
1.908309
 21
0.088368
 31
0.0
  0
LINE
  8
holder2
 62
   212
  5
81
 10
3.967527
 20
-7.313967
 30
0.0
 11
3.867761
 21
-6.955336
 31
0.0
  0
LINE
  8
holder2
 62
   212
  5
82
 10
3.774844
 20
-7.367568
 30
0.0
 11
3.675078
 21
-7.008937
 31
0.0
  0
LINE
  8
holder2
 62
   212
  5
83
 10
1.908309
 20
0.088368
 30
0.0
 11
2.009885
 21
-0.276773
 31
0.0
  0
LINE
  8
holder2
 62
   212
  5
84
 10
1.715626
 20
0.034766
 30
0.0
 11
1.817202
 21
-0.330374
 31
0.0
  0
ARC
  8
holder2
 62
   212
  5
85
 10
3.816012
 20
-4.15481
 30
0.0
 40
0.25
 50
253.282949
 51
360.000167
  0
ARC
  8
holder2
 62
   212
  5
86
 10
2.247481
 20
-1.503985
 30
0.0
 40
1.25
 50
253.282921
 51
460.957214
  0
ARC
  8
holder2
 62
   212
  5
87
 10
1.816011
 20
-2.940589
 30
0.0
 40
0.25
 50
73.282889
 51
180.000189
  0
LINE
  8
holder2
 62
   212
  5
88
 10
1.56601
 20
-3.038892
 30
0.0
 11
1.566013
 21
-2.94059
 31
0.0
  0
ARC
  8
holder2
 62
   212
  5
89
 10
1.816012
 20
-3.038891
 30
0.0
 40
0.25
 50
180.000114
 51
225.908264
  0
ARC
  8
holder2
 62
   212
  5
8A
 10
0.772296
 20
-4.116231
 30
0.0
 40
1.25
 50
314.091959
 51
405.908239
  0
LINE
  8
holder2
 62
   212
  5
8B
 10
1.566014
 20
-5.591417
 30
0.0
 11
1.566012
 21
-5.193568
 31
0.0
  0
ARC
  8
holder2
 62
   212
  5
8C
 10
1.816014
 20
-5.193567
 30
0.0
 40
0.25
 50
134.09194
 51
179.999981
  0
ARC
  8
holder2
 62
   212
  5
8D
 10
4.859728
 20
-2.979169
 30
0.0
 40
1.25
 50
200.134324
 51
225.908155
  0
LINE
  8
holder2
 62
   212
  5
8E
 10
4.066012
 20
-4.154809
 30
0.0
 11
4.066013
 21
-4.056508
 31
0.0
  0
ARC
  8
holder2
 62
   212
  5
8F
 10
3.816012
 20
-4.056508
 30
0.0
 40
0.25
 50
359.999983
 51
405.908208
  0
ARC
  8
holder2
 62
   212
  5
90
 10
4.859728
 20
-2.979169
 30
0.0
 40
1.25
 50
134.091886
 51
178.678527
  0
LINE
  8
holder2
 62
   212
  5
91
 10
4.066011
 20
-1.901832
 30
0.0
 11
4.06601
 21
-1.503985
 31
0.0
  0
ARC
  8
holder2
 62
   212
  5
92
 10
3.816011
 20
-1.901833
 30
0.0
 40
0.25
 50
314.092068
 51
360.000191
  0
LINE
  8
holder2
 62
   212
  5
93
 10
3.867761
 20
-6.955336
 30
0.0
 11
3.675078
 21
-7.008937
 31
0.0
  0
ARC
  8
holder2
 62
   212
  5
94
 10
3.384543
 20
-5.591416
 30
0.0
 40
1.818529
 50
180.000032
 51
282.393495
  0
LINE
  8
holder2
 62
   212
  5
95
 10
4.066014
 20
-7.27743
 30
0.0
 11
4.066014
 21
-6.84878
 31
0.0
  0
ARC
  8
holder2
 62
   212
  5
96
 10
3.384543
 20
-5.591416
 30
0.0
 40
1.25
 50
73.282882
 51
293.872721
  0
ARC
  8
holder2
 62
   212
  5
97
 10
3.941014
 20
-6.84878
 30
0.0
 40
0.125
 50
0.000164
 51
113.872716
  0
ARC
  8
holder2
 62
   212
  5
98
 10
2.247481
 20
-1.503985
 30
0.0
 40
1.25
 50
110.134321
 51
113.872689
  0
ARC
  8
holder2
 62
   212
  5
99
 10
1.69101
 20
-0.246621
 30
0.0
 40
0.125
 50
180.000142
 51
293.872693
  0
LINE
  8
holder2
 62
   212
  5
9A
 10
1.56601
 20
-0.246621
 30
0.0
 11
1.56601
 21
0.095508
 31
0.0
  0
ARC
  8
holder2
 62
   212
  5
9B
 10
2.247481
 20
-1.503985
 30
0.0
 40
1.81853
 50
0.000041
 51
109.183026
  0
ARC
  8
holder2
 62
   212
  5
9C
 10
1.691009
 20
0.095508
 30
0.0
 40
0.125
 50
109.182896
 51
180.00008
  0
LINE
  8
holder2
 62
   212
  5
9D
 10
3.632515
 20
-3.216764
 30
0.0
 11
2.885553
 21
-3.424558
 31
0.0
  0
LINE
  8
holder2
 62
   212
  5
9E
 10
3.686117
 20
-3.409447
 30
0.0
 11
2.939154
 21
-3.617241
 31
0.0
  0
LINE
  8
holder2
 62
   212
  5
9F
 10
2.885553
 20
-3.424558
 30
0.0
 11
2.939154
 21
-3.617241
 31
0.0
  0
ARC
  8
holder2
 62
   212
  5
A0
 10
4.859728
 20
-2.979169
 30
0.0
 40
1.25
 50
178.678527
 51
190.957207
  0
ARC
  8
holder1
 62
     1
  5
A1
 10
11.633202
 20
-5.598169
 30
0.0
 40
1.818529
 50
288.697999
 51
292.00807
  0
LINE
  8
holder1
 62
     1
  5
A2
 10
9.964289
 20
0.028015
 30
0.0
 11
10.156971
 21
0.081616
 31
0.0
  0
LINE
  8
holder1
 62
     1
  5
A3
 10
12.216185
 20
-7.320719
 30
0.0
 11
12.116421
 21
-6.962089
 31
0.0
  0
LINE
  8
holder1
 62
     1
  5
A4
 10
12.023502
 20
-7.374321
 30
0.0
 11
11.923737
 21
-7.01569
 31
0.0
  0
LINE
  8
holder1
 62
     1
  5
A5
 10
10.156971
 20
0.081616
 30
0.0
 11
10.258547
 21
-0.283524
 31
0.0
  0
LINE
  8
holder1
 62
     1
  5
A6
 10
9.964289
 20
0.028015
 30
0.0
 11
10.065865
 21
-0.337125
 31
0.0
  0
ARC
  8
holder1
 62
     1
  5
A7
 10
12.064672
 20
-4.161563
 30
0.0
 40
0.25
 50
253.282921
 51
360.00014
  0
ARC
  8
holder1
 62
     1
  5
A8
 10
10.496143
 20
-1.510737
 30
0.0
 40
1.25
 50
253.282894
 51
460.957186
  0
ARC
  8
holder1
 62
     1
  5
A9
 10
10.064672
 20
-2.947341
 30
0.0
 40
0.25
 50
73.282882
 51
180.000183
  0
LINE
  8
holder1
 62
     1
  5
AA
 10
9.814672
 20
-3.045643
 30
0.0
 11
9.814672
 21
-2.947342
 31
0.0
  0
ARC
  8
holder1
 62
     1
  5
AB
 10
10.064671
 20
-3.045643
 30
0.0
 40
0.25
 50
180.000114
 51
225.908264
  0
ARC
  8
holder1
 62
     1
  5
AC
 10
9.020956
 20
-4.122983
 30
0.0
 40
1.25
 50
314.091932
 51
405.908211
  0
LINE
  8
holder1
 62
     1
  5
AD
 10
9.814672
 20
-5.598168
 30
0.0
 11
9.814672
 21
-5.200319
 31
0.0
  0
ARC
  8
holder1
 62
     1
  5
AE
 10
10.064672
 20
-5.200319
 30
0.0
 40
0.25
 50
134.091913
 51
179.999954
  0
ARC
  8
holder1
 62
     1
  5
AF
 10
13.108387
 20
-2.985923
 30
0.0
 40
1.25
 50
178.678514
 51
225.908148
  0
LINE
  8
holder1
 62
     1
  5
B0
 10
12.314672
 20
-4.161563
 30
0.0
 11
12.314672
 21
-4.063261
 31
0.0
  0
ARC
  8
holder1
 62
     1
  5
B1
 10
12.064671
 20
-4.063261
 30
0.0
 40
0.25
 50
359.999955
 51
405.908181
  0
ARC
  8
holder1
 62
     1
  5
B2
 10
13.108387
 20
-2.985923
 30
0.0
 40
1.25
 50
134.091858
 51
178.6785
  0
LINE
  8
holder1
 62
     1
  5
B3
 10
12.314672
 20
-1.908586
 30
0.0
 11
12.314672
 21
-1.510738
 31
0.0
  0
ARC
  8
holder1
 62
     1
  5
B4
 10
12.064671
 20
-1.908587
 30
0.0
 40
0.25
 50
314.092014
 51
360.000136
  0
LINE
  8
holder1
 62
     1
  5
B5
 10
12.116421
 20
-6.962089
 30
0.0
 11
11.923737
 21
-7.01569
 31
0.0
  0
ARC
  8
holder1
 62
     1
  5
B6
 10
11.633202
 20
-5.598169
 30
0.0
 40
1.818529
 50
180.000005
 51
282.393468
  0
LINE
  8
holder1
 62
     1
  5
B7
 10
12.314672
 20
-7.284184
 30
0.0
 11
12.314671
 21
-6.855533
 31
0.0
  0
ARC
  8
holder1
 62
     1
  5
B8
 10
11.633202
 20
-5.598169
 30
0.0
 40
1.25
 50
110.134314
 51
293.872714
  0
ARC
  8
holder1
 62
     1
  5
B9
 10
12.189671
 20
-6.855533
 30
0.0
 40
0.125
 50
0.000133
 51
113.872685
  0
ARC
  8
holder1
 62
     1
  5
BA
 10
10.496143
 20
-1.510737
 30
0.0
 40
1.25
 50
110.134287
 51
113.872655
  0
ARC
  8
holder1
 62
     1
  5
BB
 10
9.939672
 20
-0.253372
 30
0.0
 40
0.125
 50
180.000142
 51
293.872693
  0
LINE
  8
holder1
 62
     1
  5
BC
 10
9.814672
 20
-0.253373
 30
0.0
 11
9.814672
 21
0.088756
 31
0.0
  0
ARC
  8
holder1
 62
     1
  5
BD
 10
10.496143
 20
-1.510737
 30
0.0
 40
1.81853
 50
0.00001
 51
109.182995
  0
ARC
  8
holder1
 62
     1
  5
BE
 10
9.939672
 20
0.088756
 30
0.0
 40
0.125
 50
109.182889
 51
180.000073
  0
LINE
  8
holder1
 62
     1
  5
BF
 10
11.395607
 20
-4.370957
 30
0.0
 11
11.187813
 21
-3.623994
 31
0.0
  0
LINE
  8
holder1
 62
     1
  5
C0
 10
11.202925
 20
-4.424559
 30
0.0
 11
10.995131
 21
-3.677596
 31
0.0
  0
ARC
  8
holder1
 62
     1
  5
C1
 10
11.633202
 20
-5.598169
 30
0.0
 40
1.25
 50
73.282834
 51
100.957173
  0
LINE
  8
holder1
 62
     1
  5
C2
 10
11.187813
 20
-3.623994
 30
0.0
 11
10.995131
 21
-3.677596
 31
0.0
  0
ARC
  8
holder2
 62
   212
  5
C3
 10
14.738782
 20
-5.591416
 30
0.0
 40
1.818529
 50
247.991929
 51
251.302
  0
LINE
  8
holder2
 62
   212
  5
C4
 10
16.407698
 20
0.034766
 30
0.0
 11
16.215015
 21
0.088368
 31
0.0
  0
LINE
  8
holder2
 62
   212
  5
C5
 10
14.155799
 20
-7.313967
 30
0.0
 11
14.255563
 21
-6.955336
 31
0.0
  0
LINE
  8
holder2
 62
   212
  5
C6
 10
14.348481
 20
-7.367568
 30
0.0
 11
14.448247
 21
-7.008937
 31
0.0
  0
LINE
  8
holder2
 62
   212
  5
C7
 10
16.215015
 20
0.088368
 30
0.0
 11
16.113438
 21
-0.276772
 31
0.0
  0
LINE
  8
holder2
 62
   212
  5
C8
 10
16.407698
 20
0.034766
 30
0.0
 11
16.306122
 21
-0.330374
 31
0.0
  0
ARC
  8
holder2
 62
   212
  5
C9
 10
14.307312
 20
-4.154811
 30
0.0
 40
0.25
 50
179.999841
 51
286.717059
  0
ARC
  8
holder2
 62
   212
  5
CA
 10
15.875843
 20
-1.503985
 30
0.0
 40
1.25
 50
79.042794
 51
286.717087
  0
ARC
  8
holder2
 62
   212
  5
CB
 10
16.307312
 20
-2.940589
 30
0.0
 40
0.25
 50
359.999819
 51
466.717119
  0
LINE
  8
holder2
 62
   212
  5
CC
 10
16.557314
 20
-3.038892
 30
0.0
 11
16.557312
 21
-2.94059
 31
0.0
  0
ARC
  8
holder2
 62
   212
  5
CD
 10
16.307312
 20
-3.038891
 30
0.0
 40
0.25
 50
314.09174
 51
359.99989
  0
ARC
  8
holder2
 62
   212
  5
CE
 10
17.351028
 20
-4.116231
 30
0.0
 40
1.25
 50
134.091763
 51
159.86568
  0
LINE
  8
holder2
 62
   212
  5
CF
 10
16.55731
 20
-5.591417
 30
0.0
 11
16.557312
 21
-5.193568
 31
0.0
  0
ARC
  8
holder2
 62
   212
  5
D0
 10
16.30731
 20
-5.193567
 30
0.0
 40
0.25
 50
0.000024
 51
45.908065
  0
LINE
  8
holder2
 62
   212
  5
D1
 10
14.057312
 20
-4.15481
 30
0.0
 11
14.057312
 21
-4.056508
 31
0.0
  0
ARC
  8
holder2
 62
   212
  5
D2
 10
14.307312
 20
-4.056508
 30
0.0
 40
0.25
 50
134.091804
 51
180.000029
  0
ARC
  8
holder2
 62
   212
  5
D3
 10
13.263596
 20
-2.97917
 30
0.0
 40
1.25
 50
1.321478
 51
45.908119
  0
LINE
  8
holder2
 62
   212
  5
D4
 10
14.057312
 20
-1.901833
 30
0.0
 11
14.057312
 21
-1.503985
 31
0.0
  0
ARC
  8
holder2
 62
   212
  5
D5
 10
14.307312
 20
-1.901834
 30
0.0
 40
0.25
 50
179.999841
 51
225.907964
  0
LINE
  8
holder2
 62
   212
  5
D6
 10
14.255563
 20
-6.955336
 30
0.0
 11
14.448247
 21
-7.008937
 31
0.0
  0
ARC
  8
holder2
 62
   212
  5
D7
 10
14.738782
 20
-5.591416
 30
0.0
 40
1.818529
 50
257.606513
 51
359.999976
  0
LINE
  8
holder2
 62
   212
  5
D8
 10
14.057311
 20
-7.277431
 30
0.0
 11
14.057311
 21
-6.84878
 31
0.0
  0
ARC
  8
holder2
 62
   212
  5
D9
 10
14.738782
 20
-5.591416
 30
0.0
 40
1.25
 50
246.127287
 51
466.717126
  0
ARC
  8
holder2
 62
   212
  5
DA
 10
14.182311
 20
-6.848781
 30
0.0
 40
0.125
 50
66.127296
 51
179.999848
  0
ARC
  8
holder2
 62
   212
  5
DB
 10
15.875843
 20
-1.503985
 30
0.0
 40
1.25
 50
66.127323
 51
69.865691
  0
ARC
  8
holder2
 62
   212
  5
DC
 10
16.432312
 20
-0.246621
 30
0.0
 40
0.125
 50
246.127315
 51
359.999867
  0
LINE
  8
holder2
 62
   212
  5
DD
 10
16.557312
 20
-0.246621
 30
0.0
 11
16.557314
 21
0.095508
 31
0.0
  0
ARC
  8
holder2
 62
   212
  5
DE
 10
15.875843
 20
-1.503985
 30
0.0
 40
1.81853
 50
70.816986
 51
179.999971
  0
ARC
  8
holder2
 62
   212
  5
DF
 10
16.432314
 20
0.095508
 30
0.0
 40
0.125
 50
359.999928
 51
430.817112
  0
LINE
  8
holder2
 62
   212
  5
E0
 10
16.177418
 20
-3.685953
 30
0.0
 11
15.430457
 21
-3.47816
 31
0.0
  0
LINE
  8
holder2
 62
   212
  5
E1
 10
16.123816
 20
-3.878636
 30
0.0
 11
15.376854
 21
-3.670843
 31
0.0
  0
LINE
  8
holder2
 62
   212
  5
E2
 10
15.430457
 20
-3.47816
 30
0.0
 11
15.376854
 21
-3.670843
 31
0.0
  0
ARC
  8
holder2
 62
   212
  5
E3
 10
13.263596
 20
-2.97917
 30
0.0
 40
1.25
 50
314.091877
 51
361.321474
  0
LINE
  8
holder2
 62
   250
  5
E4
 10
0.937332
 20
-2.555184
 30
0.0
 11
1.312332
 21
-2.555184
 31
0.0
  0
LINE
  8
holder2
 62
   250
  5
E5
 10
8.308653
 20
-2.555184
 30
0.0
 11
8.683653
 21
-2.555184
 31
0.0
  0
LINE
  8
holder2
 62
   250
  5
E6
 10
12.310993
 20
-0.805184
 30
0.0
 11
12.310993
 21
-3.355184
 31
0.0
  0
LINE
  8
holder2
 62
   250
  5
E7
 10
12.310993
 20
-3.355184
 30
0.0
 11
12.310993
 21
-7.205184
 31
0.0
  0
LINE
  8
holder2
 62
   250
  5
E8
 10
12.810993
 20
-0.305184
 30
0.0
 11
13.085993
 21
-0.305184
 31
0.0
  0
ARC
  8
holder2
 62
   250
  5
E9
 10
12.810993
 20
-0.805184
 30
0.0
 40
0.5
 50
89.999989
 51
179.999998
  0
LINE
  8
holder2
 62
   250
  5
EA
 10
13.285992
 20
-0.305184
 30
0.0
 11
13.560993
 21
-0.305184
 31
0.0
  0
LINE
  8
holder2
 62
   250
  5
EB
 10
14.060993
 20
-0.805184
 30
0.0
 11
14.060993
 21
-3.355184
 31
0.0
  0
LINE
  8
holder2
 62
   250
  5
EC
 10
14.060993
 20
-3.355184
 30
0.0
 11
14.060993
 21
-7.205184
 31
0.0
  0
ARC
  8
holder2
 62
   250
  5
ED
 10
13.560993
 20
-0.805184
 30
0.0
 40
0.5
 50
0.00001
 51
90.000013
  0
CIRCLE
  8
holder2
 62
   250
  5
EE
 10
7.227183
 20
-2.010602
 30
0.0
 40
0.4
  0
CIRCLE
  8
holder2
 62
   250
  5
EF
 10
7.227183
 20
-1.010601
 30
0.0
 40
0.4
  0
LINE
  8
STANDARD
 62
   250
  5
F0
 10
0.937332
 20
-2.555184
 30
0.0
 11
0.937332
 21
-7.705184
 31
0.0
  0
ARC
  8
holder2
 62
   250
  5
F1
 10
1.437332
 20
-7.705184
 30
0.0
 40
0.5
 50
180.000005
 51
270.000001
  0
LINE
  8
holder2
 62
   250
  5
F2
 10
1.437332
 20
-8.205184
 30
0.0
 11
4.837332
 21
-8.205184
 31
0.0
  0
LINE
  8
STANDARD
 62
   250
  5
F3
 10
4.837332
 20
-6.955184
 30
0.0
 11
4.837332
 21
-8.205184
 31
0.0
  0
LINE
  8
STANDARD
 62
   250
  5
F4
 10
5.037332
 20
-6.955184
 30
0.0
 11
5.037332
 21
-8.205184
 31
0.0
  0
LINE
  8
STANDARD
 62
   250
  5
F5
 10
8.937332
 20
-2.955184
 30
0.0
 11
8.937332
 21
-7.705184
 31
0.0
  0
LINE
  8
holder2
 62
   250
  5
F6
 10
5.037332
 20
-8.205184
 30
0.0
 11
8.437332
 21
-8.205184
 31
0.0
  0
ARC
  8
holder2
 62
   250
  5
F7
 10
8.437332
 20
-7.705184
 30
0.0
 40
0.5
 50
270.000001
 51
360.000003
  0
LINE
  8
STANDARD
 62
   250
  5
F8
 10
9.185992
 20
-2.955184
 30
0.0
 11
9.185992
 21
-7.705184
 31
0.0
  0
ARC
  8
holder2
 62
   250
  5
F9
 10
9.685992
 20
-7.705184
 30
0.0
 40
0.5
 50
180.000005
 51
270.000001
  0
LINE
  8
STANDARD
 62
   250
  5
FA
 10
17.185993
 20
-3.355184
 30
0.0
 11
17.185993
 21
-7.705184
 31
0.0
  0
LINE
  8
holder2
 62
   250
  5
FB
 10
9.685992
 20
-8.205184
 30
0.0
 11
16.685993
 21
-8.205184
 31
0.0
  0
ARC
  8
holder2
 62
   250
  5
FC
 10
16.685993
 20
-7.705184
 30
0.0
 40
0.5
 50
270.000001
 51
360.000003
  0
LINE
  8
holder2
 62
   250
  5
FD
 10
13.085993
 20
-2.855184
 30
0.0
 11
13.285992
 21
-2.855184
 31
0.0
  0
LINE
  8
holder2
 62
   250
  5
FE
 10
4.837332
 20
-2.055184
 30
0.0
 11
5.037332
 21
-2.055184
 31
0.0
  0
LINE
  8
holder2
 62
   250
  5
FF
 10
5.037332
 20
-2.055184
 30
0.0
 11
5.037332
 21
-2.555184
 31
0.0
  0
LINE
  8
holder2
 62
   250
  5
100
 10
1.312332
 20
-2.955184
 30
0.0
 11
1.566012
 21
-2.955184
 31
0.0
  0
LINE
  8
holder2
 62
   250
  5
101
 10
8.683653
 20
-2.955184
 30
0.0
 11
8.937332
 21
-2.955184
 31
0.0
  0
ARC
  8
holder2
 62
   212
  5
102
 10
17.351028
 20
-4.116231
 30
0.0
 40
1.25
 50
169.042824
 51
225.908049
  0
LINE
  8
holder2
 62
   250
  5
103
 10
9.185992
 20
-2.955184
 30
0.0
 11
9.560992
 21
-2.955184
 31
0.0
  0
LINE
  8
holder2
 62
   250
  5
104
 10
16.557312
 20
-2.955184
 30
0.0
 11
16.932312
 21
-2.955184
 31
0.0
  0
LINE
  8
STANDARD
 62
   250
  5
105
 10
7.853653
 20
-2.159755
 30
0.0
 11
8.263653
 21
-1.923046
 31
0.0
  0
ARC
  8
holder2
 62
   250
  5
106
 10
7.838653
 20
-2.133775
 30
0.0
 40
0.03
 50
180.000005
 51
299.999831
  0
LINE
  8
STANDARD
 62
   250
  5
107
 10
8.263655
 20
-1.098427
 30
0.0
 11
7.853652
 21
-0.861718
 31
0.0
  0
LINE
  8
STANDARD
 62
   250
  5
108
 10
7.808653
 20
-2.133775
 30
0.0
 11
7.808653
 21
-0.887699
 31
0.0
  0
ARC
  8
holder2
 62
   250
  5
109
 10
7.838653
 20
-0.887699
 30
0.0
 40
0.03
 50
60.000459
 51
179.999998
  0
LINE
  8
holder2
 62
   250
  5
10A
 10
8.308653
 20
-0.462834
 30
0.0
 11
7.189525
 21
-0.339859
 31
0.0
  0
LINE
  8
holder2
 62
   250
  5
10B
 10
8.308653
 20
-2.55864
 30
0.0
 11
7.189524
 21
-2.681615
 31
0.0
  0
LINE
  8
holder2
 62
   250
  5
10C
 10
2.037973
 20
-2.993484
 30
0.0
 11
2.212123
 21
-3.09183
 31
0.0
  0
LINE
  8
holder2
 62
   250
  5
10D
 10
1.939628
 20
-3.167634
 30
0.0
 11
2.113777
 21
-3.265979
 31
0.0
  0
LINE
  8
holder2
 62
   250
  5
10E
 10
2.113778
 20
-3.265979
 30
0.0
 11
2.212123
 21
-3.09183
 31
0.0
  0
LINE
  8
holder2
 62
   250
  5
10F
 10
1.939628
 20
-3.167634
 30
0.0
 11
2.037973
 21
-2.993484
 31
0.0
  0
LINE
  8
holder2
 62
   250
  5
110
 10
7.901998
 20
-2.963356
 30
0.0
 11
7.662542
 21
-3.098582
 31
0.0
  0
LINE
  8
holder2
 62
   250
  5
111
 10
8.000343
 20
-3.137506
 30
0.0
 11
7.760888
 21
-3.272731
 31
0.0
  0
LINE
  8
holder2
 62
   250
  5
112
 10
7.760888
 20
-3.272731
 30
0.0
 11
7.662542
 21
-3.098582
 31
0.0
  0
LINE
  8
holder2
 62
   250
  5
113
 10
8.000343
 20
-3.137506
 30
0.0
 11
7.901998
 21
-2.963356
 31
0.0
  0
LINE
  8
holder2
 62
   250
  5
114
 10
11.643475
 20
-2.732878
 30
0.0
 11
11.520543
 21
-2.950564
 31
0.0
  0
LINE
  8
holder2
 62
   250
  5
115
 10
11.469325
 20
-2.634531
 30
0.0
 11
11.346394
 21
-2.852218
 31
0.0
  0
LINE
  8
holder2
 62
   250
  5
116
 10
11.346394
 20
-2.852218
 30
0.0
 11
11.520543
 21
-2.950564
 31
0.0
  0
LINE
  8
holder2
 62
   250
  5
117
 10
11.469325
 20
-2.634531
 30
0.0
 11
11.643475
 21
-2.732877
 31
0.0
  0
LINE
  8
holder2
 62
   250
  5
118
 10
14.914952
 20
-2.649548
 30
0.0
 11
15.025591
 21
-2.845466
 31
0.0
  0
LINE
  8
holder2
 62
   250
  5
119
 10
14.740803
 20
-2.747893
 30
0.0
 11
14.851441
 21
-2.943812
 31
0.0
  0
LINE
  8
holder2
 62
   250
  5
11A
 10
14.851441
 20
-2.943812
 30
0.0
 11
15.025591
 21
-2.845466
 31
0.0
  0
LINE
  8
holder2
 62
   250
  5
11B
 10
14.740803
 20
-2.747894
 30
0.0
 11
14.914952
 21
-2.649548
 31
0.0
  0
LINE
  8
holder2
 62
   250
  5
11C
 10
6.207758
 20
-5.314447
 30
0.0
 11
7.007759
 21
-5.314447
 31
0.0
  0
LINE
  8
holder2
 62
   250
  5
11D
 10
7.007759
 20
-5.314447
 30
0.0
 11
7.007759
 21
-5.114447
 31
0.0
  0
LINE
  8
holder2
 62
   250
  5
11E
 10
6.207758
 20
-5.314447
 30
0.0
 11
6.207758
 21
-5.014447
 31
0.0
  0
LINE
  8
holder2
 62
   250
  5
11F
 10
6.207758
 20
-5.014447
 30
0.0
 11
7.007759
 21
-5.114447
 31
0.0
  0
LINE
  8
holder2
 62
   250
  5
120
 10
7.365221
 20
-5.931564
 30
0.0
 11
7.365221
 21
-5.131564
 31
0.0
  0
LINE
  8
holder2
 62
   250
  5
121
 10
7.365221
 20
-5.131564
 30
0.0
 11
7.165221
 21
-5.131564
 31
0.0
  0
LINE
  8
holder2
 62
   250
  5
122
 10
7.365221
 20
-5.931564
 30
0.0
 11
7.06522
 21
-5.931564
 31
0.0
  0
LINE
  8
holder2
 62
   250
  5
123
 10
7.06522
 20
-5.931564
 30
0.0
 11
7.165221
 21
-5.131564
 31
0.0
  0
LINE
  8
holder2
 62
   250
  5
124
 10
5.947634
 20
-5.617645
 30
0.0
 11
6.513319
 21
-6.183331
 31
0.0
  0
LINE
  8
holder2
 62
   250
  5
125
 10
6.513319
 20
-6.183331
 30
0.0
 11
6.65474
 21
-6.04191
 31
0.0
  0
LINE
  8
holder2
 62
   250
  5
126
 10
5.947634
 20
-5.617645
 30
0.0
 11
6.159766
 21
-5.405513
 31
0.0
  0
LINE
  8
holder2
 62
   250
  5
127
 10
6.159766
 20
-5.405513
 30
0.0
 11
6.65474
 21
-6.04191
 31
0.0
  0
ARC
  8
STANDARD
 62
   250
  5
128
 10
0.967333
 20
-1.945571
 30
0.0
 40
0.03
 50
59.999653
 51
180.001665
  0
ARC
  8
STANDARD
 62
   250
  5
129
 10
0.967331
 20
-1.068992
 30
0.0
 40
0.03
 50
179.483288
 51
299.999885
  0
LINE
  8
STANDARD
 62
   250
  5
12A
 10
0.937332
 20
-1.068722
 30
0.0
 11
0.937332
 21
-0.459379
 31
0.0
  0
LINE
  8
STANDARD
 62
   250
  5
12B
 10
0.937332
 20
-2.555184
 30
0.0
 11
0.937332
 21
-1.945571
 31
0.0
  0
CIRCLE
  8
holder2
 62
   250
  5
12C
 10
2.374191
 20
-2.010602
 30
0.0
 40
0.4
  0
CIRCLE
  8
holder2
 62
   250
  5
12D
 10
2.374191
 20
-1.010602
 30
0.0
 40
0.4
  0
LINE
  8
STANDARD
 62
   250
  5
12E
 10
1.392332
 20
-2.1563
 30
0.0
 11
0.982332
 21
-1.919591
 31
0.0
  0
ARC
  8
holder2
 62
   250
  5
12F
 10
1.407332
 20
-2.13032
 30
0.0
 40
0.03
 50
240.000171
 51
359.999996
  0
LINE
  8
STANDARD
 62
   250
  5
130
 10
0.98233
 20
-1.094972
 30
0.0
 11
1.392332
 21
-0.858263
 31
0.0
  0
LINE
  8
STANDARD
 62
   250
  5
131
 10
1.437332
 20
-2.13032
 30
0.0
 11
1.437332
 21
-0.884243
 31
0.0
  0
ARC
  8
holder2
 62
   250
  5
132
 10
1.407332
 20
-0.884243
 30
0.0
 40
0.03
 50
0.000007
 51
119.999546
  0
LINE
  8
holder2
 62
   250
  5
133
 10
2.685139
 20
-2.681616
 30
0.0
 11
1.312332
 21
-2.555184
 31
0.0
  0
LINE
  8
holder2
 62
   250
  5
134
 10
0.937332
 20
-0.459379
 30
0.0
 11
1.312332
 21
-0.459379
 31
0.0
  0
LINE
  8
holder2
 62
   250
  5
135
 10
2.685139
 20
-0.33986
 30
0.0
 11
1.312332
 21
-0.459379
 31
0.0
  0
ENDSEC
  0
EOF
