  0
SECTION
  2
HEADER
  9
$ACADVER
  1
AC1015
  9
$ACADMAINTVER
 70
     6
  9
$DWGCODEPAGE
  3
ANSI_1252
  9
$INSBASE
 10
0.0
 20
0.0
 30
0.0
  9
$EXTMIN
 10
-13.80337
 20
-10.01181
 30
0.0
  9
$EXTMAX
 10
13.41163
 20
9.95607
 30
0.0
  9
$LIMMIN
 10
0.0
 20
0.0
  9
$LIMMAX
 10
12.0
 20
9.0
  9
$ORTHOMODE
 70
     0
  9
$REGENMODE
 70
     1
  9
$FILLMODE
 70
     1
  9
$QTEXTMODE
 70
     0
  9
$MIRRTEXT
 70
     1
  9
$LTSCALE
 40
1.0
  9
$ATTMODE
 70
     1
  9
$TEXTSIZE
 40
0.2
  9
$TRACEWID
 40
0.05
  9
$TEXTSTYLE
  7
Standard
  9
$CLAYER
  8
0
  9
$CELTYPE
  6
ByLayer
  9
$CECOLOR
 62
   256
  9
$CELTSCALE
 40
1.0
  9
$DISPSILH
 70
     0
  9
$DIMSCALE
 40
1.0
  9
$DIMASZ
 40
0.18
  9
$DIMEXO
 40
0.0625
  9
$DIMDLI
 40
0.38
  9
$DIMRND
 40
0.0
  9
$DIMDLE
 40
0.0
  9
$DIMEXE
 40
0.18
  9
$DIMTP
 40
0.0
  9
$DIMTM
 40
0.0
  9
$DIMTXT
 40
0.18
  9
$DIMCEN
 40
0.09
  9
$DIMTSZ
 40
0.0
  9
$DIMTOL
 70
     0
  9
$DIMLIM
 70
     0
  9
$DIMTIH
 70
     1
  9
$DIMTOH
 70
     1
  9
$DIMSE1
 70
     0
  9
$DIMSE2
 70
     0
  9
$DIMTAD
 70
     0
  9
$DIMZIN
 70
     0
  9
$DIMBLK
  1

  9
$DIMASO
 70
     1
  9
$DIMSHO
 70
     1
  9
$DIMPOST
  1

  9
$DIMAPOST
  1

  9
$DIMALT
 70
     0
  9
$DIMALTD
 70
     2
  9
$DIMALTF
 40
25.4
  9
$DIMLFAC
 40
1.0
  9
$DIMTOFL
 70
     0
  9
$DIMTVP
 40
0.0
  9
$DIMTIX
 70
     0
  9
$DIMSOXD
 70
     0
  9
$DIMSAH
 70
     0
  9
$DIMBLK1
  1

  9
$DIMBLK2
  1

  9
$DIMSTYLE
  2
Standard
  9
$DIMCLRD
 70
     0
  9
$DIMCLRE
 70
     0
  9
$DIMCLRT
 70
     0
  9
$DIMTFAC
 40
1.0
  9
$DIMGAP
 40
0.09
  9
$DIMJUST
 70
     0
  9
$DIMSD1
 70
     0
  9
$DIMSD2
 70
     0
  9
$DIMTOLJ
 70
     1
  9
$DIMTZIN
 70
     0
  9
$DIMALTZ
 70
     0
  9
$DIMALTTZ
 70
     0
  9
$DIMUPT
 70
     0
  9
$DIMDEC
 70
     4
  9
$DIMTDEC
 70
     4
  9
$DIMALTU
 70
     2
  9
$DIMALTTD
 70
     2
  9
$DIMTXSTY
  7
Standard
  9
$DIMAUNIT
 70
     0
  9
$DIMADEC
 70
     0
  9
$DIMALTRND
 40
0.0
  9
$DIMAZIN
 70
     0
  9
$DIMDSEP
 70
    46
  9
$DIMATFIT
 70
     3
  9
$DIMFRAC
 70
     0
  9
$DIMLDRBLK
  1

  9
$DIMLUNIT
 70
     2
  9
$DIMLWD
 70
    -2
  9
$DIMLWE
 70
    -2
  9
$DIMTMOVE
 70
     0
  9
$LUNITS
 70
     2
  9
$LUPREC
 70
     4
  9
$SKETCHINC
 40
0.1
  9
$FILLETRAD
 40
0.5
  9
$AUNITS
 70
     0
  9
$AUPREC
 70
     0
  9
$MENU
  1
.
  9
$ELEVATION
 40
0.0
  9
$PELEVATION
 40
0.0
  9
$THICKNESS
 40
0.0
  9
$LIMCHECK
 70
     0
  9
$CHAMFERA
 40
0.5
  9
$CHAMFERB
 40
0.5
  9
$CHAMFERC
 40
1.0
  9
$CHAMFERD
 40
0.0
  9
$SKPOLY
 70
     0
  9
$TDCREATE
 40
2456088.747449722
  9
$TDUCREATE
 40
2456088.664116389
  9
$TDUPDATE
 40
2456088.747449734
  9
$TDUUPDATE
 40
2456088.6641164
  9
$TDINDWG
 40
0.0000000116
  9
$TDUSRTIMER
 40
0.0000000116
  9
$USRTIMER
 70
     1
  9
$ANGBASE
 50
0.0
  9
$ANGDIR
 70
     0
  9
$PDMODE
 70
     0
  9
$PDSIZE
 40
0.0
  9
$PLINEWID
 40
0.0
  9
$SPLFRAME
 70
     0
  9
$SPLINETYPE
 70
     6
  9
$SPLINESEGS
 70
     8
  9
$HANDSEED
  5
7A
  9
$SURFTAB1
 70
     6
  9
$SURFTAB2
 70
     6
  9
$SURFTYPE
 70
     6
  9
$SURFU
 70
     6
  9
$SURFV
 70
     6
  9
$UCSBASE
  2

  9
$UCSNAME
  2

  9
$UCSORG
 10
0.0
 20
0.0
 30
0.0
  9
$UCSXDIR
 10
1.0
 20
0.0
 30
0.0
  9
$UCSYDIR
 10
0.0
 20
1.0
 30
0.0
  9
$UCSORTHOREF
  2

  9
$UCSORTHOVIEW
 70
     0
  9
$UCSORGTOP
 10
0.0
 20
0.0
 30
0.0
  9
$UCSORGBOTTOM
 10
0.0
 20
0.0
 30
0.0
  9
$UCSORGLEFT
 10
0.0
 20
0.0
 30
0.0
  9
$UCSORGRIGHT
 10
0.0
 20
0.0
 30
0.0
  9
$UCSORGFRONT
 10
0.0
 20
0.0
 30
0.0
  9
$UCSORGBACK
 10
0.0
 20
0.0
 30
0.0
  9
$PUCSBASE
  2

  9
$PUCSNAME
  2

  9
$PUCSORG
 10
0.0
 20
0.0
 30
0.0
  9
$PUCSXDIR
 10
1.0
 20
0.0
 30
0.0
  9
$PUCSYDIR
 10
0.0
 20
1.0
 30
0.0
  9
$PUCSORTHOREF
  2

  9
$PUCSORTHOVIEW
 70
     0
  9
$PUCSORGTOP
 10
0.0
 20
0.0
 30
0.0
  9
$PUCSORGBOTTOM
 10
0.0
 20
0.0
 30
0.0
  9
$PUCSORGLEFT
 10
0.0
 20
0.0
 30
0.0
  9
$PUCSORGRIGHT
 10
0.0
 20
0.0
 30
0.0
  9
$PUCSORGFRONT
 10
0.0
 20
0.0
 30
0.0
  9
$PUCSORGBACK
 10
0.0
 20
0.0
 30
0.0
  9
$USERI1
 70
     0
  9
$USERI2
 70
     0
  9
$USERI3
 70
     0
  9
$USERI4
 70
     0
  9
$USERI5
 70
     0
  9
$USERR1
 40
0.0
  9
$USERR2
 40
0.0
  9
$USERR3
 40
0.0
  9
$USERR4
 40
0.0
  9
$USERR5
 40
0.0
  9
$WORLDVIEW
 70
     1
  9
$SHADEDGE
 70
     3
  9
$SHADEDIF
 70
    70
  9
$TILEMODE
 70
     1
  9
$MAXACTVP
 70
    64
  9
$PINSBASE
 10
0.0
 20
0.0
 30
0.0
  9
$PLIMCHECK
 70
     0
  9
$PEXTMIN
 10
1.000000000000000E+20
 20
1.000000000000000E+20
 30
1.000000000000000E+20
  9
$PEXTMAX
 10
-1.000000000000000E+20
 20
-1.000000000000000E+20
 30
-1.000000000000000E+20
  9
$PLIMMIN
 10
0.0
 20
0.0
  9
$PLIMMAX
 10
12.0
 20
9.0
  9
$UNITMODE
 70
     0
  9
$VISRETAIN
 70
     1
  9
$PLINEGEN
 70
     0
  9
$PSLTSCALE
 70
     1
  9
$TREEDEPTH
 70
  3020
  9
$CMLSTYLE
  2
Standard
  9
$CMLJUST
 70
     0
  9
$CMLSCALE
 40
1.0
  9
$PROXYGRAPHICS
 70
     1
  9
$MEASUREMENT
 70
     0
  9
$CELWEIGHT
370
    -1
  9
$ENDCAPS
280
     0
  9
$JOINSTYLE
280
     0
  9
$LWDISPLAY
290
     0
  9
$INSUNITS
 70
     5
  9
$HYPERLINKBASE
  1

  9
$STYLESHEET
  1

  9
$XEDIT
290
     1
  9
$CEPSNTYPE
380
     0
  9
$PSTYLEMODE
290
     1
  9
$FINGERPRINTGUID
  2
{7807911A-C06F-47FD-A160-ABE7F89DB056}
  9
$VERSIONGUID
  2
{FAEB1C32-E019-11D5-929B-00C0DF256EC4}
  9
$EXTNAMES
290
     1
  9
$PSVPSCALE
 40
0.0
  9
$OLESTARTUP
290
     0
  0
ENDSEC
  0
SECTION
  2
CLASSES
  0
CLASS
  1
ACDBDICTIONARYWDFLT
  2
AcDbDictionaryWithDefault
  3
ObjectDBX Classes
 90
        0
280
     0
281
     0
  0
CLASS
  1
VISUALSTYLE
  2
AcDbVisualStyle
  3
ObjectDBX Classes
 90
     4095
280
     0
281
     0
  0
CLASS
  1
SCALE
  2
AcDbScale
  3
ObjectDBX Classes
 90
     1153
280
     0
281
     0
  0
CLASS
  1
DICTIONARYVAR
  2
AcDbDictionaryVar
  3
ObjectDBX Classes
 90
        0
280
     0
281
     0
  0
CLASS
  1
ACDBPLACEHOLDER
  2
AcDbPlaceHolder
  3
ObjectDBX Classes
 90
        0
280
     0
281
     0
  0
CLASS
  1
LAYOUT
  2
AcDbLayout
  3
ObjectDBX Classes
 90
        0
280
     0
281
     0
  0
ENDSEC
  0
SECTION
  2
TABLES
  0
TABLE
  2
VPORT
  5
8
330
0
100
AcDbSymbolTable
 70
     1
  0
VPORT
  5
29
330
8
100
AcDbSymbolTableRecord
100
AcDbViewportTableRecord
  2
*Active
 70
     0
 10
0.0
 20
0.0
 11
1.0
 21
1.0
 12
10.42990654205607
 22
4.5
 13
0.0
 23
0.0
 14
0.5
 24
0.5
 15
0.5
 25
0.5
 16
0.0
 26
0.0
 36
1.0
 17
0.0
 27
0.0
 37
0.0
 40
9.0
 41
1.972972972850329
 42
50.0
 43
0.0
 44
0.0
 50
0.0
 51
0.0
 71
     0
 72
   100
 73
     1
 74
     3
 75
     0
 76
     0
 77
     0
 78
     0
281
     0
 65
     1
110
0.0
120
0.0
130
0.0
111
1.0
121
0.0
131
0.0
112
0.0
122
1.0
132
0.0
 79
     0
146
0.0
  0
ENDTAB
  0
TABLE
  2
LTYPE
  5
5
330
0
100
AcDbSymbolTable
 70
     1
  0
LTYPE
  5
14
330
5
100
AcDbSymbolTableRecord
100
AcDbLinetypeTableRecord
  2
ByBlock
 70
     0
  3

 72
    65
 73
     0
 40
0.0
  0
LTYPE
  5
15
330
5
100
AcDbSymbolTableRecord
100
AcDbLinetypeTableRecord
  2
ByLayer
 70
     0
  3

 72
    65
 73
     0
 40
0.0
  0
LTYPE
  5
16
330
5
100
AcDbSymbolTableRecord
100
AcDbLinetypeTableRecord
  2
Continuous
 70
     0
  3
Solid line
 72
    65
 73
     0
 40
0.0
  0
ENDTAB
  0
TABLE
  2
LAYER
  5
2
330
0
100
AcDbSymbolTable
 70
     2
  0
LAYER
  5
10
330
2
100
AcDbSymbolTableRecord
100
AcDbLayerTableRecord
  2
0
 70
     0
 62
     7
  6
Continuous
370
    -3
390
F
  0
LAYER
  5
5E
330
2
100
AcDbSymbolTableRecord
100
AcDbLayerTableRecord
  2
layer 1
 70
     0
 62
     7
  6
Continuous
370
    -3
390
F
  0
ENDTAB
  0
TABLE
  2
STYLE
  5
3
330
0
100
AcDbSymbolTable
 70
     1
  0
STYLE
  5
11
330
3
100
AcDbSymbolTableRecord
100
AcDbTextStyleTableRecord
  2
Standard
 70
     0
 40
0.0
 41
1.0
 50
0.0
 71
     0
 42
0.2
  3
txt
  4

  0
ENDTAB
  0
TABLE
  2
VIEW
  5
6
330
0
100
AcDbSymbolTable
 70
     0
  0
ENDTAB
  0
TABLE
  2
UCS
  5
7
330
0
100
AcDbSymbolTable
 70
     0
  0
ENDTAB
  0
TABLE
  2
APPID
  5
9
330
0
100
AcDbSymbolTable
 70
     2
  0
APPID
  5
12
330
9
100
AcDbSymbolTableRecord
100
AcDbRegAppTableRecord
  2
ACAD
 70
     0
  0
APPID
  5
5D
330
9
100
AcDbSymbolTableRecord
100
AcDbRegAppTableRecord
  2
ODA
 70
     0
  0
ENDTAB
  0
TABLE
  2
DIMSTYLE
  5
A
330
0
100
AcDbSymbolTable
 70
     1
100
AcDbDimStyleTable
  0
DIMSTYLE
105
27
330
A
100
AcDbSymbolTableRecord
100
AcDbDimStyleTableRecord
  2
Standard
 70
     0
340
11
  0
ENDTAB
  0
TABLE
  2
BLOCK_RECORD
  5
1
330
0
100
AcDbSymbolTable
 70
     1
  0
BLOCK_RECORD
  5
1F
330
1
100
AcDbSymbolTableRecord
100
AcDbBlockTableRecord
  2
*Model_Space
340
22
  0
BLOCK_RECORD
  5
1B
330
1
100
AcDbSymbolTableRecord
100
AcDbBlockTableRecord
  2
*Paper_Space
340
1E
  0
BLOCK_RECORD
  5
23
330
1
100
AcDbSymbolTableRecord
100
AcDbBlockTableRecord
  2
*Paper_Space0
340
26
  0
ENDTAB
  0
ENDSEC
  0
SECTION
  2
BLOCKS
  0
BLOCK
  5
20
330
1F
100
AcDbEntity
  8
0
100
AcDbBlockBegin
  2
*Model_Space
 70
     0
 10
0.0
 20
0.0
 30
0.0
  3
*Model_Space
  1

  0
ENDBLK
  5
21
330
1F
100
AcDbEntity
  8
0
100
AcDbBlockEnd
  0
BLOCK
  5
1C
330
1B
100
AcDbEntity
 67
     1
  8
0
100
AcDbBlockBegin
  2
*Paper_Space
 70
     0
 10
0.0
 20
0.0
 30
0.0
  3
*Paper_Space
  1

  0
ENDBLK
  5
1D
330
1B
100
AcDbEntity
 67
     1
  8
0
100
AcDbBlockEnd
  0
BLOCK
  5
24
330
23
100
AcDbEntity
  8
0
100
AcDbBlockBegin
  2
*Paper_Space0
 70
     0
 10
0.0
 20
0.0
 30
0.0
  3
*Paper_Space0
  1

  0
ENDBLK
  5
25
330
23
100
AcDbEntity
  8
0
100
AcDbBlockEnd
  0
ENDSEC
  0
SECTION
  2
ENTITIES
  0
SPLINE
  5
5F
330
1F
100
AcDbEntity
  8
layer 1
 62
   250
370
     9
100
AcDbSpline
210
0.0
220
0.0
230
1.0
 70
    11
 71
     3
 72
   140
 73
   136
 74
     0
 42
0.0000000001
 43
0.0000000001
 40
0.0
 40
0.0
 40
0.0
 40
0.0
 40
0.0294117647058824
 40
0.0294117647058824
 40
0.0294117647058824
 40
0.0294117647058824
 40
0.0588235294117647
 40
0.0588235294117647
 40
0.0588235294117647
 40
0.0588235294117647
 40
0.0882352941176471
 40
0.0882352941176471
 40
0.0882352941176471
 40
0.0882352941176471
 40
0.1176470588235294
 40
0.1176470588235294
 40
0.1176470588235294
 40
0.1176470588235294
 40
0.1470588235294118
 40
0.1470588235294118
 40
0.1470588235294118
 40
0.1470588235294118
 40
0.1764705882352941
 40
0.1764705882352941
 40
0.1764705882352941
 40
0.1764705882352941
 40
0.2058823529411765
 40
0.2058823529411765
 40
0.2058823529411765
 40
0.2058823529411765
 40
0.2352941176470588
 40
0.2352941176470588
 40
0.2352941176470588
 40
0.2352941176470588
 40
0.2647058823529412
 40
0.2647058823529412
 40
0.2647058823529412
 40
0.2647058823529412
 40
0.2941176470588235
 40
0.2941176470588235
 40
0.2941176470588235
 40
0.2941176470588235
 40
0.3235294117647059
 40
0.3235294117647059
 40
0.3235294117647059
 40
0.3235294117647059
 40
0.3529411764705883
 40
0.3529411764705883
 40
0.3529411764705883
 40
0.3529411764705883
 40
0.3823529411764706
 40
0.3823529411764706
 40
0.3823529411764706
 40
0.3823529411764706
 40
0.411764705882353
 40
0.411764705882353
 40
0.411764705882353
 40
0.411764705882353
 40
0.4411764705882353
 40
0.4411764705882353
 40
0.4411764705882353
 40
0.4411764705882353
 40
0.4705882352941177
 40
0.4705882352941177
 40
0.4705882352941177
 40
0.4705882352941177
 40
0.5
 40
0.5
 40
0.5
 40
0.5
 40
0.5294117647058824
 40
0.5294117647058824
 40
0.5294117647058824
 40
0.5294117647058824
 40
0.5588235294117647
 40
0.5588235294117647
 40
0.5588235294117647
 40
0.5588235294117647
 40
0.5882352941176471
 40
0.5882352941176471
 40
0.5882352941176471
 40
0.5882352941176471
 40
0.6176470588235294
 40
0.6176470588235294
 40
0.6176470588235294
 40
0.6176470588235294
 40
0.6470588235294118
 40
0.6470588235294118
 40
0.6470588235294118
 40
0.6470588235294118
 40
0.6764705882352942
 40
0.6764705882352942
 40
0.6764705882352942
 40
0.6764705882352942
 40
0.7058823529411765
 40
0.7058823529411765
 40
0.7058823529411765
 40
0.7058823529411765
 40
0.7352941176470589
 40
0.7352941176470589
 40
0.7352941176470589
 40
0.7352941176470589
 40
0.7647058823529412
 40
0.7647058823529412
 40
0.7647058823529412
 40
0.7647058823529412
 40
0.7941176470588236
 40
0.7941176470588236
 40
0.7941176470588236
 40
0.7941176470588236
 40
0.823529411764706
 40
0.823529411764706
 40
0.823529411764706
 40
0.823529411764706
 40
0.8529411764705883
 40
0.8529411764705883
 40
0.8529411764705883
 40
0.8529411764705883
 40
0.8823529411764707
 40
0.8823529411764707
 40
0.8823529411764707
 40
0.8823529411764707
 40
0.911764705882353
 40
0.911764705882353
 40
0.911764705882353
 40
0.911764705882353
 40
0.9411764705882354
 40
0.9411764705882354
 40
0.9411764705882354
 40
0.9411764705882354
 40
0.9705882352941178
 40
0.9705882352941178
 40
0.9705882352941178
 40
0.9705882352941178
 40
1.0
 40
1.0
 40
1.0
 40
1.0
 10
-9.84286
 20
9.1145
 30
0.0
 10
-10.36261
 20
8.61927
 30
0.0
 10
-10.83076
 20
8.09823
 30
0.0
 10
-11.40212
 20
7.62879
 30
0.0
 10
-11.40212
 20
7.62879
 30
0.0
 10
-11.99786
 20
7.10704
 30
0.0
 10
-12.52269
 20
6.64601
 30
0.0
 10
-12.88783
 20
5.98127
 30
0.0
 10
-12.88783
 20
5.98127
 30
0.0
 10
-13.49744
 20
4.87144
 30
0.0
 10
-13.67262
 20
3.62343
 30
0.0
 10
-13.78514
 20
2.39203
 30
0.0
 10
-13.78514
 20
2.39203
 30
0.0
 10
-13.85081
 20
1.67325
 30
0.0
 10
-13.69129
 20
0.77877
 30
0.0
 10
-13.34384
 20
0.20024
 30
0.0
 10
-13.34384
 20
0.20024
 30
0.0
 10
-12.9066
 20
-0.52777
 30
0.0
 10
-12.39424
 20
-0.8502
 30
0.0
 10
-11.87284
 20
-1.05011
 30
0.0
 10
-11.87284
 20
-1.05011
 30
0.0
 10
-11.08744
 20
-1.35125
 30
0.0
 10
-10.28607
 20
-1.35237
 30
0.0
 10
-9.65163
 20
-0.78533
 30
0.0
 10
-9.65163
 20
-0.78533
 30
0.0
 10
-9.23202
 20
-0.4103
 30
0.0
 10
-9.03714
 20
0.13138
 30
0.0
 10
-8.97497
 20
0.74451
 30
0.0
 10
-8.97497
 20
0.74451
 30
0.0
 10
-9.0035
 20
1.00929
 30
0.0
 10
-8.96442
 20
1.26575
 30
0.0
 10
-8.85729
 20
1.53885
 30
0.0
 10
-8.85729
 20
1.53885
 30
0.0
 10
-8.62907
 20
2.12059
 30
0.0
 10
-9.00462
 20
2.13673
 30
0.0
 10
-9.23975
 20
2.06841
 30
0.0
 10
-9.23975
 20
2.06841
 30
0.0
 10
-9.45033
 20
2.00722
 30
0.0
 10
-9.61404
 20
2.052
 30
0.0
 10
-9.76931
 20
2.12725
 30
0.0
 10
-9.76931
 20
2.12725
 30
0.0
 10
-10.0173
 20
2.24744
 30
0.0
 10
-10.11164
 20
2.11068
 30
0.0
 10
-10.18402
 20
1.97653
 30
0.0
 10
-10.18402
 20
1.97653
 30
0.0
 10
-10.30741
 20
1.74784
 30
0.0
 10
-10.1262
 20
1.51856
 30
0.0
 10
-9.96054
 20
1.27407
 30
0.0
 10
-9.96054
 20
1.27407
 30
0.0
 10
-9.7229
 20
0.92334
 30
0.0
 10
-9.8089
 20
0.5032
 30
0.0
 10
-10.0488
 20
0.2885
 30
0.0
 10
-10.0488
 20
0.2885
 30
0.0
 10
-10.51253
 20
-0.12652
 30
0.0
 10
-11.09179
 20
-0.12855
 30
0.0
 10
-11.48857
 20
0.25625
 30
0.0
 10
-11.48857
 20
0.25625
 30
0.0
 10
-11.94884
 20
0.70263
 30
0.0
 10
-12.20941
 20
1.32682
 30
0.0
 10
-12.12008
 20
2.10247
 30
0.0
 10
-12.12008
 20
2.10247
 30
0.0
 10
-12.06841
 20
2.55106
 30
0.0
 10
-11.93768
 20
2.94278
 30
0.0
 10
-11.65219
 20
3.30405
 30
0.0
 10
-11.65219
 20
3.30405
 30
0.0
 10
-11.55404
 20
3.40363
 30
0.0
 10
-11.47225
 20
3.39441
 30
0.0
 10
-11.44806
 20
3.23514
 30
0.0
 10
-11.44806
 20
3.23514
 30
0.0
 10
-11.39081
 20
2.85835
 30
0.0
 10
-11.66563
 20
2.32472
 30
0.0
 10
-11.34973
 20
2.10247
 30
0.0
 10
-11.34973
 20
2.10247
 30
0.0
 10
-11.15822
 20
1.96773
 30
0.0
 10
-10.94736
 20
2.2053
 30
0.0
 10
-10.90198
 20
2.55384
 30
0.0
 10
-10.90198
 20
2.55384
 30
0.0
 10
-10.8691
 20
2.80639
 30
0.0
 10
-10.7175
 20
2.92137
 30
0.0
 10
-10.51307
 20
3.0034
 30
0.0
 10
-10.51307
 20
3.0034
 30
0.0
 10
-10.77563
 20
3.2979
 30
0.0
 10
-10.70098
 20
3.61377
 30
0.0
 10
-10.28416
 20
3.60832
 30
0.0
 10
-10.28416
 20
3.60832
 30
0.0
 10
-9.34276
 20
3.59599
 30
0.0
 10
-8.76392
 20
3.83865
 30
0.0
 10
-8.38012
 20
4.34846
 30
0.0
 10
-8.38012
 20
4.34846
 30
0.0
 10
-8.05571
 20
4.88253
 30
0.0
 10
-7.95669
 20
5.40559
 30
0.0
 10
-7.95998
 20
5.92243
 30
0.0
 10
-7.95998
 20
5.92243
 30
0.0
 10
-7.96278
 20
6.36121
 30
0.0
 10
-7.81449
 20
6.57417
 30
0.0
 10
-7.57752
 20
6.65793
 30
0.0
 10
-7.57752
 20
6.65793
 30
0.0
 10
-7.39078
 20
6.72394
 30
0.0
 10
-7.39299
 20
6.55612
 30
0.0
 10
-7.42114
 20
6.33069
 30
0.0
 10
-7.42114
 20
6.33069
 30
0.0
 10
-7.45098
 20
6.09178
 30
0.0
 10
-7.19448
 20
6.14844
 30
0.0
 10
-7.08202
 20
6.38591
 30
0.0
 10
-7.08202
 20
6.38591
 30
0.0
 10
-6.91709
 20
6.73417
 30
0.0
 10
-6.71923
 20
7.02104
 30
0.0
 10
-6.32819
 20
7.35473
 30
0.0
 10
-6.32819
 20
7.35473
 30
0.0
 10
-5.95934
 20
7.60131
 30
0.0
 10
-5.47818
 20
7.64392
 30
0.0
 10
-4.93617
 20
7.46313
 30
0.0
 10
-4.93617
 20
7.46313
 30
0.0
 10
-4.55692
 20
7.33662
 30
0.0
 10
-4.12663
 20
7.14366
 30
0.0
 10
-3.83473
 20
7.11937
 30
0.0
 10
-3.83473
 20
7.11937
 30
0.0
 10
-3.54334
 20
7.1252
 30
0.0
 10
-3.74186
 20
7.38125
 30
0.0
 10
-4.00299
 20
7.62879
 30
0.0
 10
-4.00299
 20
7.62879
 30
0.0
 10
-4.27429
 20
7.90164
 30
0.0
 10
-4.33597
 20
8.1675
 30
0.0
 10
-4.09125
 20
8.42313
 30
0.0
 10
-4.09125
 20
8.42313
 30
0.0
 10
-3.9274
 20
8.56018
 30
0.0
 10
-4.02375
 20
8.67355
 30
0.0
 10
-4.23835
 20
8.77617
 30
0.0
 10
-4.23835
 20
8.77617
 30
0.0
 10
-5.15279
 20
9.19668
 30
0.0
 10
-6.01601
 20
9.62113
 30
0.0
 10
-7.02578
 20
9.86188
 30
0.0
 10
-7.02578
 20
9.86188
 30
0.0
 10
-8.09146
 20
10.11595
 30
0.0
 10
-9.07796
 20
9.82547
 30
0.0
 10
-9.84286
 20
9.1145
 30
0.0
  0
SPLINE
  5
60
330
1F
100
AcDbEntity
  8
layer 1
 62
   250
370
     9
100
AcDbSpline
210
0.0
220
0.0
230
1.0
 70
    11
 71
     3
 72
    20
 73
    16
 74
     0
 42
0.0000000001
 43
0.0000000001
 40
0.0
 40
0.0
 40
0.0
 40
0.0
 40
0.25
 40
0.25
 40
0.25
 40
0.25
 40
0.5
 40
0.5
 40
0.5
 40
0.5
 40
0.75
 40
0.75
 40
0.75
 40
0.75
 40
1.0
 40
1.0
 40
1.0
 40
1.0
 10
-10.13536
 20
6.46849
 30
0.0
 10
-10.01874
 20
6.46849
 30
0.0
 10
-9.92416
 20
6.37391
 30
0.0
 10
-9.92416
 20
6.25729
 30
0.0
 10
-9.92416
 20
6.25729
 30
0.0
 10
-9.92416
 20
6.14067
 30
0.0
 10
-10.01874
 20
6.04609
 30
0.0
 10
-10.13536
 20
6.04609
 30
0.0
 10
-10.13536
 20
6.04609
 30
0.0
 10
-10.25198
 20
6.04609
 30
0.0
 10
-10.34656
 20
6.14067
 30
0.0
 10
-10.34656
 20
6.25729
 30
0.0
 10
-10.34656
 20
6.25729
 30
0.0
 10
-10.34656
 20
6.37391
 30
0.0
 10
-10.25198
 20
6.46849
 30
0.0
 10
-10.13536
 20
6.46849
 30
0.0
  0
SPLINE
  5
61
330
1F
100
AcDbEntity
  8
layer 1
 62
   250
370
     9
100
AcDbSpline
210
0.0
220
0.0
230
1.0
 70
     8
 71
     3
 72
    12
 73
     8
 74
     0
 42
0.0000000001
 43
0.0000000001
 40
0.0
 40
0.0
 40
0.0
 40
0.0
 40
0.5
 40
0.5
 40
0.5
 40
0.5
 40
1.0
 40
1.0
 40
1.0
 40
1.0
 10
-8.2157
 20
-3.19341
 30
0.0
 10
-8.32105
 20
-4.04276
 30
0.0
 10
-7.82368
 20
-4.33588
 30
0.0
 10
-7.32327
 20
-4.23219
 30
0.0
 10
-7.32327
 20
-4.23219
 30
0.0
 10
-6.96715
 20
-4.15839
 30
0.0
 10
-6.48158
 20
-3.8968
 30
0.0
 10
-6.26962
 20
-3.43697
 30
0.0
  0
SPLINE
  5
62
330
1F
100
AcDbEntity
  8
layer 1
 62
   250
370
     9
100
AcDbSpline
210
0.0
220
0.0
230
1.0
 70
     8
 71
     3
 72
    12
 73
     8
 74
     0
 42
0.0000000001
 43
0.0000000001
 40
0.0
 40
0.0
 40
0.0
 40
0.0
 40
0.5
 40
0.5
 40
0.5
 40
0.5
 40
1.0
 40
1.0
 40
1.0
 40
1.0
 10
-6.43073
 20
-8.2637
 30
0.0
 10
-6.67947
 20
-8.51126
 30
0.0
 10
-6.54372
 20
-8.87286
 30
0.0
 10
-6.65532
 20
-8.90712
 30
0.0
 10
-6.65532
 20
-8.90712
 30
0.0
 10
-7.05779
 20
-9.0307
 30
0.0
 10
-7.23424
 20
-9.33528
 30
0.0
 10
-7.29267
 20
-9.71443
 30
0.0
  0
SPLINE
  5
63
330
1F
100
AcDbEntity
  8
layer 1
 62
   250
370
     9
100
AcDbSpline
210
0.0
220
0.0
230
1.0
 70
    11
 71
     3
 72
    20
 73
    16
 74
     0
 42
0.0000000001
 43
0.0000000001
 40
0.0
 40
0.0
 40
0.0
 40
0.0
 40
0.25
 40
0.25
 40
0.25
 40
0.25
 40
0.5
 40
0.5
 40
0.5
 40
0.5
 40
0.75
 40
0.75
 40
0.75
 40
0.75
 40
1.0
 40
1.0
 40
1.0
 40
1.0
 10
-7.32136
 20
-2.06162
 30
0.0
 10
-7.26162
 20
-2.06162
 30
0.0
 10
-7.21318
 20
-2.11006
 30
0.0
 10
-7.21318
 20
-2.1698
 30
0.0
 10
-7.21318
 20
-2.1698
 30
0.0
 10
-7.21318
 20
-2.22954
 30
0.0
 10
-7.26162
 20
-2.27798
 30
0.0
 10
-7.32136
 20
-2.27798
 30
0.0
 10
-7.32136
 20
-2.27798
 30
0.0
 10
-7.3811
 20
-2.27798
 30
0.0
 10
-7.42954
 20
-2.22954
 30
0.0
 10
-7.42954
 20
-2.1698
 30
0.0
 10
-7.42954
 20
-2.1698
 30
0.0
 10
-7.42954
 20
-2.11006
 30
0.0
 10
-7.3811
 20
-2.06162
 30
0.0
 10
-7.32136
 20
-2.06162
 30
0.0
  0
SPLINE
  5
64
330
1F
100
AcDbEntity
  8
layer 1
 62
   250
370
     9
100
AcDbSpline
210
0.0
220
0.0
230
1.0
 70
    11
 71
     3
 72
   136
 73
   132
 74
     0
 42
0.0000000001
 43
0.0000000001
 40
0.0
 40
0.0
 40
0.0
 40
0.0
 40
0.0303030303030303
 40
0.0303030303030303
 40
0.0303030303030303
 40
0.0303030303030303
 40
0.0606060606060606
 40
0.0606060606060606
 40
0.0606060606060606
 40
0.0606060606060606
 40
0.0909090909090909
 40
0.0909090909090909
 40
0.0909090909090909
 40
0.0909090909090909
 40
0.1212121212121212
 40
0.1212121212121212
 40
0.1212121212121212
 40
0.1212121212121212
 40
0.1515151515151515
 40
0.1515151515151515
 40
0.1515151515151515
 40
0.1515151515151515
 40
0.1818181818181818
 40
0.1818181818181818
 40
0.1818181818181818
 40
0.1818181818181818
 40
0.2121212121212121
 40
0.2121212121212121
 40
0.2121212121212121
 40
0.2121212121212121
 40
0.2424242424242424
 40
0.2424242424242424
 40
0.2424242424242424
 40
0.2424242424242424
 40
0.2727272727272727
 40
0.2727272727272727
 40
0.2727272727272727
 40
0.2727272727272727
 40
0.303030303030303
 40
0.303030303030303
 40
0.303030303030303
 40
0.303030303030303
 40
0.3333333333333333
 40
0.3333333333333333
 40
0.3333333333333333
 40
0.3333333333333333
 40
0.3636363636363635
 40
0.3636363636363635
 40
0.3636363636363635
 40
0.3636363636363635
 40
0.3939393939393938
 40
0.3939393939393938
 40
0.3939393939393938
 40
0.3939393939393938
 40
0.4242424242424241
 40
0.4242424242424241
 40
0.4242424242424241
 40
0.4242424242424241
 40
0.4545454545454544
 40
0.4545454545454544
 40
0.4545454545454544
 40
0.4545454545454544
 40
0.4848484848484846
 40
0.4848484848484846
 40
0.4848484848484846
 40
0.4848484848484846
 40
0.5151515151515149
 40
0.5151515151515149
 40
0.5151515151515149
 40
0.5151515151515149
 40
0.5454545454545452
 40
0.5454545454545452
 40
0.5454545454545452
 40
0.5454545454545452
 40
0.5757575757575755
 40
0.5757575757575755
 40
0.5757575757575755
 40
0.5757575757575755
 40
0.6060606060606057
 40
0.6060606060606057
 40
0.6060606060606057
 40
0.6060606060606057
 40
0.636363636363636
 40
0.636363636363636
 40
0.636363636363636
 40
0.636363636363636
 40
0.6666666666666663
 40
0.6666666666666663
 40
0.6666666666666663
 40
0.6666666666666663
 40
0.6969696969696966
 40
0.6969696969696966
 40
0.6969696969696966
 40
0.6969696969696966
 40
0.7272727272727268
 40
0.7272727272727268
 40
0.7272727272727268
 40
0.7272727272727268
 40
0.7575757575757571
 40
0.7575757575757571
 40
0.7575757575757571
 40
0.7575757575757571
 40
0.7878787878787874
 40
0.7878787878787874
 40
0.7878787878787874
 40
0.7878787878787874
 40
0.8181818181818177
 40
0.8181818181818177
 40
0.8181818181818177
 40
0.8181818181818177
 40
0.848484848484848
 40
0.848484848484848
 40
0.848484848484848
 40
0.848484848484848
 40
0.8787878787878782
 40
0.8787878787878782
 40
0.8787878787878782
 40
0.8787878787878782
 40
0.9090909090909085
 40
0.9090909090909085
 40
0.9090909090909085
 40
0.9090909090909085
 40
0.9393939393939388
 40
0.9393939393939388
 40
0.9393939393939388
 40
0.9393939393939388
 40
0.9696969696969691
 40
0.9696969696969691
 40
0.9696969696969691
 40
0.9696969696969691
 40
1.0
 40
1.0
 40
1.0
 40
1.0
 10
-5.28884
 20
-0.39546
 30
0.0
 10
-5.05622
 20
-0.45354
 30
0.0
 10
-4.8213
 20
-0.53344
 30
0.0
 10
-4.6055
 20
-0.49502
 30
0.0
 10
-4.6055
 20
-0.49502
 30
0.0
 10
-4.17341
 20
-0.4181
 30
0.0
 10
-4.16427
 20
-0.15568
 30
0.0
 10
-4.4359
 20
0.14766
 30
0.0
 10
-4.4359
 20
0.14766
 30
0.0
 10
-4.6101
 20
0.3422
 30
0.0
 10
-4.71406
 20
0.56371
 30
0.0
 10
-4.36806
 20
0.50382
 30
0.0
 10
-4.36806
 20
0.50382
 30
0.0
 10
-4.08901
 20
0.45552
 30
0.0
 10
-3.60357
 20
0.27132
 30
0.0
 10
-3.29167
 20
0.1668
 30
0.0
 10
-3.29167
 20
0.1668
 30
0.0
 10
-3.20256
 20
0.12299
 30
0.0
 10
-3.24011
 20
-0.04439
 30
0.0
 10
-3.42768
 20
-0.19443
 30
0.0
 10
-3.42768
 20
-0.19443
 30
0.0
 10
-3.60517
 20
-0.33641
 30
0.0
 10
-3.71372
 20
-0.55024
 30
0.0
 10
-3.7575
 20
-0.81906
 30
0.0
 10
-3.7575
 20
-0.81906
 30
0.0
 10
-3.86917
 20
-1.50473
 30
0.0
 10
-4.38658
 20
-1.468
 30
0.0
 10
-4.8599
 20
-1.41266
 30
0.0
 10
-4.8599
 20
-1.41266
 30
0.0
 10
-5.3206
 20
-1.35879
 30
0.0
 10
-6.02612
 20
-0.98191
 30
0.0
 10
-6.27985
 20
-1.1503
 30
0.0
 10
-6.27985
 20
-1.1503
 30
0.0
 10
-6.45995
 20
-1.26982
 30
0.0
 10
-6.52802
 20
-1.42847
 30
0.0
 10
-6.42889
 20
-1.75835
 30
0.0
 10
-6.42889
 20
-1.75835
 30
0.0
 10
-6.24905
 20
-2.35683
 30
0.0
 10
-6.04054
 20
-2.81652
 30
0.0
 10
-6.18965
 20
-3.33961
 30
0.0
 10
-6.18965
 20
-3.33961
 30
0.0
 10
-5.30439
 20
-4.1838
 30
0.0
 10
-4.67919
 20
-5.17283
 30
0.0
 10
-4.6055
 20
-6.51762
 30
0.0
 10
-4.6055
 20
-6.51762
 30
0.0
 10
-4.57883
 20
-7.00437
 30
0.0
 10
-4.20174
 20
-6.88066
 30
0.0
 10
-4.0967
 20
-6.58546
 30
0.0
 10
-4.0967
 20
-6.58546
 30
0.0
 10
-3.91096
 20
-6.06351
 30
0.0
 10
-3.72396
 20
-6.06169
 30
0.0
 10
-3.62182
 20
-6.33106
 30
0.0
 10
-3.62182
 20
-6.33106
 30
0.0
 10
-3.50333
 20
-6.64351
 30
0.0
 10
-3.6318
 20
-7.02435
 30
0.0
 10
-3.74234
 20
-7.35226
 30
0.0
 10
-3.74234
 20
-7.35226
 30
0.0
 10
-5.16918
 20
-7.05234
 30
0.0
 10
-5.39842
 20
-8.45255
 30
0.0
 10
-5.74182
 20
-9.8775
 30
0.0
 10
-5.74182
 20
-9.8775
 30
0.0
 10
-5.74182
 20
-9.8775
 30
0.0
 10
-8.74373
 20
-9.8775
 30
0.0
 10
-8.74373
 20
-9.8775
 30
0.0
 10
-8.74373
 20
-9.8775
 30
0.0
 10
-9.13987
 20
-9.8961
 30
0.0
 10
-9.03617
 20
-9.26311
 30
0.0
 10
-8.71958
 20
-9.04466
 30
0.0
 10
-8.71958
 20
-9.04466
 30
0.0
 10
-8.07082
 20
-8.59701
 30
0.0
 10
-7.71009
 20
-7.99641
 30
0.0
 10
-8.03142
 20
-7.14514
 30
0.0
 10
-8.03142
 20
-7.14514
 30
0.0
 10
-8.32806
 20
-6.35925
 30
0.0
 10
-8.85858
 20
-5.81324
 30
0.0
 10
-9.4391
 20
-5.36434
 30
0.0
 10
-9.4391
 20
-5.36434
 30
0.0
 10
-9.84369
 20
-5.05147
 30
0.0
 10
-10.12945
 20
-5.19035
 30
0.0
 10
-10.42278
 20
-5.31346
 30
0.0
 10
-10.42278
 20
-5.31346
 30
0.0
 10
-11.01251
 20
-5.56099
 30
0.0
 10
-11.4282
 20
-5.10909
 30
0.0
 10
-11.81333
 20
-4.53781
 30
0.0
 10
-11.81333
 20
-4.53781
 30
0.0
 10
-11.81333
 20
-4.53781
 30
0.0
 10
-11.81041
 20
-4.53663
 30
0.0
 10
-11.81041
 20
-4.53663
 30
0.0
 10
-11.81041
 20
-4.53663
 30
0.0
 10
-11.81858
 20
-4.52746
 30
0.0
 10
-11.82641
 20
-4.51826
 30
0.0
 10
-11.83393
 20
-4.50906
 30
0.0
 10
-11.83393
 20
-4.50906
 30
0.0
 10
-11.85416
 20
-4.48101
 30
0.0
 10
-11.87409
 20
-4.45284
 30
0.0
 10
-11.8938
 20
-4.42456
 30
0.0
 10
-11.8938
 20
-4.42456
 30
0.0
 10
-12.04859
 20
-4.16737
 30
0.0
 10
-11.94561
 20
-3.92695
 30
0.0
 10
-11.5815
 20
-3.93171
 30
0.0
 10
-11.5815
 20
-3.93171
 30
0.0
 10
-10.6401
 20
-3.94404
 30
0.0
 10
-10.06126
 20
-3.70138
 30
0.0
 10
-9.67746
 20
-3.19157
 30
0.0
 10
-9.67746
 20
-3.19157
 30
0.0
 10
-9.35305
 20
-2.6575
 30
0.0
 10
-9.25403
 20
-2.13444
 30
0.0
 10
-9.25732
 20
-1.6176
 30
0.0
 10
-9.25732
 20
-1.6176
 30
0.0
 10
-9.26012
 20
-1.17882
 30
0.0
 10
-9.11183
 20
-0.96586
 30
0.0
 10
-8.87486
 20
-0.8821
 30
0.0
 10
-8.87486
 20
-0.8821
 30
0.0
 10
-8.68812
 20
-0.81609
 30
0.0
 10
-8.69033
 20
-0.98391
 30
0.0
 10
-8.71848
 20
-1.20934
 30
0.0
 10
-8.71848
 20
-1.20934
 30
0.0
 10
-8.74832
 20
-1.44825
 30
0.0
 10
-8.49182
 20
-1.39159
 30
0.0
 10
-8.37936
 20
-1.15412
 30
0.0
 10
-8.37936
 20
-1.15412
 30
0.0
 10
-8.21443
 20
-0.80586
 30
0.0
 10
-8.01657
 20
-0.51899
 30
0.0
 10
-7.62553
 20
-0.1853
 30
0.0
 10
-7.62553
 20
-0.1853
 30
0.0
 10
-7.25668
 20
0.06128
 30
0.0
 10
-6.77552
 20
0.10389
 30
0.0
 10
-6.23351
 20
-0.0769
 30
0.0
 10
-6.23351
 20
-0.0769
 30
0.0
 10
-5.91751
 20
-0.18231
 30
0.0
 10
-5.56613
 20
-0.33379
 30
0.0
 10
-5.28884
 20
-0.39546
 30
0.0
  0
SPLINE
  5
65
330
1F
100
AcDbEntity
  8
layer 1
 62
   250
370
     9
100
AcDbSpline
210
0.0
220
0.0
230
1.0
 70
    11
 71
     3
 72
   104
 73
   100
 74
     0
 42
0.0000000001
 43
0.0000000001
 40
0.0
 40
0.0
 40
0.0
 40
0.0
 40
0.04
 40
0.04
 40
0.04
 40
0.04
 40
0.08
 40
0.08
 40
0.08
 40
0.08
 40
0.12
 40
0.12
 40
0.12
 40
0.12
 40
0.16
 40
0.16
 40
0.16
 40
0.16
 40
0.2
 40
0.2
 40
0.2
 40
0.2
 40
0.24
 40
0.24
 40
0.24
 40
0.24
 40
0.28
 40
0.28
 40
0.28
 40
0.28
 40
0.32
 40
0.32
 40
0.32
 40
0.32
 40
0.36
 40
0.36
 40
0.36
 40
0.36
 40
0.4
 40
0.4
 40
0.4
 40
0.4
 40
0.4399999999999999
 40
0.4399999999999999
 40
0.4399999999999999
 40
0.4399999999999999
 40
0.4799999999999999
 40
0.4799999999999999
 40
0.4799999999999999
 40
0.4799999999999999
 40
0.5199999999999999
 40
0.5199999999999999
 40
0.5199999999999999
 40
0.5199999999999999
 40
0.5599999999999999
 40
0.5599999999999999
 40
0.5599999999999999
 40
0.5599999999999999
 40
0.6
 40
0.6
 40
0.6
 40
0.6
 40
0.64
 40
0.64
 40
0.64
 40
0.64
 40
0.68
 40
0.68
 40
0.68
 40
0.68
 40
0.7200000000000001
 40
0.7200000000000001
 40
0.7200000000000001
 40
0.7200000000000001
 40
0.7600000000000001
 40
0.7600000000000001
 40
0.7600000000000001
 40
0.7600000000000001
 40
0.8000000000000002
 40
0.8000000000000002
 40
0.8000000000000002
 40
0.8000000000000002
 40
0.8400000000000002
 40
0.8400000000000002
 40
0.8400000000000002
 40
0.8400000000000002
 40
0.8800000000000002
 40
0.8800000000000002
 40
0.8800000000000002
 40
0.8800000000000002
 40
0.9200000000000003
 40
0.9200000000000003
 40
0.9200000000000003
 40
0.9200000000000003
 40
0.9600000000000003
 40
0.9600000000000003
 40
0.9600000000000003
 40
0.9600000000000003
 40
1.0
 40
1.0
 40
1.0
 40
1.0
 10
1.17188
 20
-4.42532
 30
0.0
 10
1.17757
 20
-4.42711
 30
0.0
 10
1.18327
 20
-4.4289
 30
0.0
 10
1.18896
 20
-4.43067
 30
0.0
 10
1.18896
 20
-4.43067
 30
0.0
 10
1.91221
 20
-4.65572
 30
0.0
 10
2.62062
 20
-4.73317
 30
0.0
 10
3.33425
 20
-4.74717
 30
0.0
 10
3.33425
 20
-4.74717
 30
0.0
 10
3.66773
 20
-4.75371
 30
0.0
 10
3.78565
 20
-4.82913
 30
0.0
 10
3.67081
 20
-5.02363
 30
0.0
 10
3.67081
 20
-5.02363
 30
0.0
 10
3.58165
 20
-5.17462
 30
0.0
 10
3.15563
 20
-5.10161
 30
0.0
 10
2.84143
 20
-5.20633
 30
0.0
 10
2.84143
 20
-5.20633
 30
0.0
 10
2.53934
 20
-5.30702
 30
0.0
 10
2.62032
 20
-5.50451
 30
0.0
 10
2.86547
 20
-5.55251
 30
0.0
 10
2.86547
 20
-5.55251
 30
0.0
 10
3.14859
 20
-5.60794
 30
0.0
 10
3.49209
 20
-5.60541
 30
0.0
 10
3.71889
 20
-5.69675
 30
0.0
 10
3.71889
 20
-5.69675
 30
0.0
 10
3.67966
 20
-6.03827
 30
0.0
 10
3.82459
 20
-6.20148
 30
0.0
 10
4.09151
 20
-6.26169
 30
0.0
 10
4.09151
 20
-6.26169
 30
0.0
 10
4.30879
 20
-6.31071
 30
0.0
 10
4.8052
 20
-6.07305
 30
0.0
 10
5.14927
 20
-6.10543
 30
0.0
 10
5.14927
 20
-6.10543
 30
0.0
 10
5.5571
 20
-6.14382
 30
0.0
 10
5.85195
 20
-6.49928
 30
0.0
 10
5.70461
 20
-7.02616
 30
0.0
 10
5.70461
 20
-7.02616
 30
0.0
 10
5.55608
 20
-7.55725
 30
0.0
 10
5.33693
 20
-8.00673
 30
0.0
 10
4.63478
 20
-8.18727
 30
0.0
 10
4.63478
 20
-8.18727
 30
0.0
 10
4.16358
 20
-8.30843
 30
0.0
 10
3.7431
 20
-8.13602
 30
0.0
 10
3.69485
 20
-7.74015
 30
0.0
 10
3.69485
 20
-7.74015
 30
0.0
 10
3.65339
 20
-7.39995
 30
0.0
 10
3.77298
 20
-7.16679
 30
0.0
 10
4.05545
 20
-6.97567
 30
0.0
 10
4.05545
 20
-6.97567
 30
0.0
 10
3.70177
 20
-7.11565
 30
0.0
 10
3.47379
 20
-7.19862
 30
0.0
 10
3.16597
 20
-7.50214
 30
0.0
 10
3.16597
 20
-7.50214
 30
0.0
 10
2.37823
 20
-8.35057
 30
0.0
 10
1.86696
 20
-8.45054
 30
0.0
 10
1.25719
 20
-8.29307
 30
0.0
 10
1.25719
 20
-8.29307
 30
0.0
 10
1.08105
 20
-8.59086
 30
0.0
 10
0.80679
 20
-8.84335
 30
0.0
 10
0.24511
 20
-8.85801
 30
0.0
 10
0.24511
 20
-8.85801
 30
0.0
 10
0.01385
 20
-8.86404
 30
0.0
 10
-0.16872
 20
-8.879
 30
0.0
 10
-0.07943
 20
-9.18255
 30
0.0
 10
-0.07943
 20
-9.18255
 30
0.0
 10
0.06094
 20
-9.65976
 30
0.0
 10
0.02945
 20
-9.98993
 30
0.0
 10
-0.33762
 20
-9.98823
 30
0.0
 10
-0.33762
 20
-9.98823
 30
0.0
 10
-0.60296
 20
-9.18581
 30
0.0
 10
-1.09423
 20
-8.52576
 30
0.0
 10
-1.71232
 20
-7.93634
 30
0.0
 10
-1.71232
 20
-7.93634
 30
0.0
 10
-1.56321
 20
-7.41325
 30
0.0
 10
-1.77172
 20
-6.95356
 30
0.0
 10
-1.95156
 20
-6.35508
 30
0.0
 10
-1.95156
 20
-6.35508
 30
0.0
 10
-2.05069
 20
-6.0252
 30
0.0
 10
-1.98262
 20
-5.86655
 30
0.0
 10
-1.80252
 20
-5.74703
 30
0.0
 10
-1.80252
 20
-5.74703
 30
0.0
 10
-1.54879
 20
-5.57864
 30
0.0
 10
-0.84327
 20
-5.95552
 30
0.0
 10
-0.38257
 20
-6.00939
 30
0.0
 10
-0.38257
 20
-6.00939
 30
0.0
 10
0.09075
 20
-6.06473
 30
0.0
 10
0.60816
 20
-6.10146
 30
0.0
 10
0.71983
 20
-5.41579
 30
0.0
 10
0.71983
 20
-5.41579
 30
0.0
 10
0.76361
 20
-5.14697
 30
0.0
 10
0.87216
 20
-4.93314
 30
0.0
 10
1.04965
 20
-4.79116
 30
0.0
 10
1.04965
 20
-4.79116
 30
0.0
 10
1.23722
 20
-4.64112
 30
0.0
 10
1.27477
 20
-4.47374
 30
0.0
 10
1.18566
 20
-4.42993
 30
0.0
 10
1.18566
 20
-4.42993
 30
0.0
 10
1.18566
 20
-4.42993
 30
0.0
 10
1.17188
 20
-4.42532
 30
0.0
 10
1.17188
 20
-4.42532
 30
0.0
  0
SPLINE
  5
66
330
1F
100
AcDbEntity
  8
layer 1
 62
   250
370
     9
100
AcDbSpline
210
0.0
220
0.0
230
1.0
 70
    11
 71
     3
 72
    20
 73
    16
 74
     0
 42
0.0000000001
 43
0.0000000001
 40
0.0
 40
0.0
 40
0.0
 40
0.0
 40
0.25
 40
0.25
 40
0.25
 40
0.25
 40
0.5
 40
0.5
 40
0.5
 40
0.5
 40
0.75
 40
0.75
 40
0.75
 40
0.75
 40
1.0
 40
1.0
 40
1.0
 40
1.0
 10
2.66714
 20
-6.89875
 30
0.0
 10
2.72356
 20
-6.89875
 30
0.0
 10
2.76931
 20
-6.9445
 30
0.0
 10
2.76931
 20
-7.00092
 30
0.0
 10
2.76931
 20
-7.00092
 30
0.0
 10
2.76931
 20
-7.05734
 30
0.0
 10
2.72356
 20
-7.10309
 30
0.0
 10
2.66714
 20
-7.10309
 30
0.0
 10
2.66714
 20
-7.10309
 30
0.0
 10
2.61072
 20
-7.10309
 30
0.0
 10
2.56497
 20
-7.05734
 30
0.0
 10
2.56497
 20
-7.00092
 30
0.0
 10
2.56497
 20
-7.00092
 30
0.0
 10
2.56497
 20
-6.9445
 30
0.0
 10
2.61072
 20
-6.89875
 30
0.0
 10
2.66714
 20
-6.89875
 30
0.0
  0
SPLINE
  5
67
330
1F
100
AcDbEntity
  8
layer 1
 62
   250
370
     9
100
AcDbSpline
210
0.0
220
0.0
230
1.0
 70
    11
 71
     3
 72
   112
 73
   108
 74
     0
 42
0.0000000001
 43
0.0000000001
 40
0.0
 40
0.0
 40
0.0
 40
0.0
 40
0.037037037037037
 40
0.037037037037037
 40
0.037037037037037
 40
0.037037037037037
 40
0.0740740740740741
 40
0.0740740740740741
 40
0.0740740740740741
 40
0.0740740740740741
 40
0.1111111111111111
 40
0.1111111111111111
 40
0.1111111111111111
 40
0.1111111111111111
 40
0.1481481481481481
 40
0.1481481481481481
 40
0.1481481481481481
 40
0.1481481481481481
 40
0.1851851851851852
 40
0.1851851851851852
 40
0.1851851851851852
 40
0.1851851851851852
 40
0.2222222222222222
 40
0.2222222222222222
 40
0.2222222222222222
 40
0.2222222222222222
 40
0.2592592592592592
 40
0.2592592592592592
 40
0.2592592592592592
 40
0.2592592592592592
 40
0.2962962962962963
 40
0.2962962962962963
 40
0.2962962962962963
 40
0.2962962962962963
 40
0.3333333333333333
 40
0.3333333333333333
 40
0.3333333333333333
 40
0.3333333333333333
 40
0.3703703703703703
 40
0.3703703703703703
 40
0.3703703703703703
 40
0.3703703703703703
 40
0.4074074074074074
 40
0.4074074074074074
 40
0.4074074074074074
 40
0.4074074074074074
 40
0.4444444444444444
 40
0.4444444444444444
 40
0.4444444444444444
 40
0.4444444444444444
 40
0.4814814814814815
 40
0.4814814814814815
 40
0.4814814814814815
 40
0.4814814814814815
 40
0.5185185185185185
 40
0.5185185185185185
 40
0.5185185185185185
 40
0.5185185185185185
 40
0.5555555555555556
 40
0.5555555555555556
 40
0.5555555555555556
 40
0.5555555555555556
 40
0.5925925925925926
 40
0.5925925925925926
 40
0.5925925925925926
 40
0.5925925925925926
 40
0.6296296296296295
 40
0.6296296296296295
 40
0.6296296296296295
 40
0.6296296296296295
 40
0.6666666666666665
 40
0.6666666666666665
 40
0.6666666666666665
 40
0.6666666666666665
 40
0.7037037037037035
 40
0.7037037037037035
 40
0.7037037037037035
 40
0.7037037037037035
 40
0.7407407407407405
 40
0.7407407407407405
 40
0.7407407407407405
 40
0.7407407407407405
 40
0.7777777777777775
 40
0.7777777777777775
 40
0.7777777777777775
 40
0.7777777777777775
 40
0.8148148148148144
 40
0.8148148148148144
 40
0.8148148148148144
 40
0.8148148148148144
 40
0.8518518518518514
 40
0.8518518518518514
 40
0.8518518518518514
 40
0.8518518518518514
 40
0.8888888888888884
 40
0.8888888888888884
 40
0.8888888888888884
 40
0.8888888888888884
 40
0.9259259259259254
 40
0.9259259259259254
 40
0.9259259259259254
 40
0.9259259259259254
 40
0.9629629629629624
 40
0.9629629629629624
 40
0.9629629629629624
 40
0.9629629629629624
 40
1.0
 40
1.0
 40
1.0
 40
1.0
 10
0.76889
 20
-3.17328
 30
0.0
 10
0.76889
 20
-3.17328
 30
0.0
 10
0.775
 20
-3.17614
 30
0.0
 10
0.775
 20
-3.17614
 30
0.0
 10
0.775
 20
-3.17614
 30
0.0
 10
1.32562
 20
-3.32845
 30
0.0
 10
1.82904
 20
-3.34764
 30
0.0
 10
2.3439
 20
-2.98096
 30
0.0
 10
2.3439
 20
-2.98096
 30
0.0
 10
2.53673
 20
-3.34024
 30
0.0
 10
3.22959
 20
-3.67564
 30
0.0
 10
3.98822
 20
-3.14684
 30
0.0
 10
3.98822
 20
-3.14684
 30
0.0
 10
4.40491
 20
-2.88641
 30
0.0
 10
4.75886
 20
-2.63207
 30
0.0
 10
5.18062
 20
-2.37996
 30
0.0
 10
5.18062
 20
-2.37996
 30
0.0
 10
5.67527
 20
-2.08429
 30
0.0
 10
6.12559
 20
-1.78548
 30
0.0
 10
6.26482
 20
-1.36306
 30
0.0
 10
6.26482
 20
-1.36306
 30
0.0
 10
6.4601
 20
-0.77055
 30
0.0
 10
6.35485
 20
-0.24698
 30
0.0
 10
5.99798
 20
-0.10818
 30
0.0
 10
5.99798
 20
-0.10818
 30
0.0
 10
5.69183
 20
0.01088
 30
0.0
 10
5.26469
 20
0.04645
 30
0.0
 10
4.94263
 20
-0.18991
 30
0.0
 10
4.94263
 20
-0.18991
 30
0.0
 10
4.50856
 20
-0.50848
 30
0.0
 10
4.68223
 20
-0.92152
 30
0.0
 10
4.93544
 20
-0.78853
 30
0.0
 10
4.93544
 20
-0.78853
 30
0.0
 10
5.18386
 20
-0.65807
 30
0.0
 10
5.43213
 20
-0.63636
 30
0.0
 10
5.5292
 20
-0.79332
 30
0.0
 10
5.5292
 20
-0.79332
 30
0.0
 10
5.6998
 20
-1.06919
 30
0.0
 10
5.5615
 20
-1.24957
 30
0.0
 10
5.38496
 20
-1.35826
 30
0.0
 10
5.38496
 20
-1.35826
 30
0.0
 10
5.05732
 20
-1.55997
 30
0.0
 10
4.61443
 20
-1.66496
 30
0.0
 10
4.31518
 20
-1.43038
 30
0.0
 10
4.31518
 20
-1.43038
 30
0.0
 10
3.91119
 20
-1.11368
 30
0.0
 10
3.98215
 20
-0.39387
 30
0.0
 10
4.21422
 20
0.0
 30
0.0
 10
4.21422
 20
0.0
 30
0.0
 10
4.40405
 20
0.3222
 30
0.0
 10
4.56658
 20
0.50496
 30
0.0
 10
4.98164
 20
0.69332
 30
0.0
 10
4.98164
 20
0.69332
 30
0.0
 10
4.98164
 20
0.69332
 30
0.0
 10
4.98128
 20
0.69391
 30
0.0
 10
4.98128
 20
0.69391
 30
0.0
 10
4.98128
 20
0.69391
 30
0.0
 10
4.89157
 20
0.6517
 30
0.0
 10
4.79116
 20
0.61566
 30
0.0
 10
4.67815
 20
0.5866
 30
0.0
 10
4.67815
 20
0.5866
 30
0.0
 10
4.20695
 20
0.46544
 30
0.0
 10
3.78647
 20
0.63785
 30
0.0
 10
3.73822
 20
1.03372
 30
0.0
 10
3.73822
 20
1.03372
 30
0.0
 10
3.69676
 20
1.37392
 30
0.0
 10
3.81635
 20
1.60708
 30
0.0
 10
4.09882
 20
1.7982
 30
0.0
 10
4.09882
 20
1.7982
 30
0.0
 10
3.74514
 20
1.65822
 30
0.0
 10
3.51716
 20
1.57525
 30
0.0
 10
3.20934
 20
1.27173
 30
0.0
 10
3.20934
 20
1.27173
 30
0.0
 10
2.4216
 20
0.4233
 30
0.0
 10
1.91033
 20
0.32333
 30
0.0
 10
1.30056
 20
0.4808
 30
0.0
 10
1.30056
 20
0.4808
 30
0.0
 10
1.12442
 20
0.18301
 30
0.0
 10
0.85016
 20
-0.06948
 30
0.0
 10
0.28848
 20
-0.08414
 30
0.0
 10
0.28848
 20
-0.08414
 30
0.0
 10
0.05722
 20
-0.09017
 30
0.0
 10
-0.12534
 20
-0.10513
 30
0.0
 10
-0.03606
 20
-0.40868
 30
0.0
 10
-0.03606
 20
-0.40868
 30
0.0
 10
0.10431
 20
-0.88588
 30
0.0
 10
0.07105
 20
-1.21606
 30
0.0
 10
-0.29602
 20
-1.21436
 30
0.0
 10
-0.29602
 20
-1.21436
 30
0.0
 10
-0.28859
 20
-1.18859
 30
0.0
 10
-0.09112
 20
-1.91332
 30
0.0
 10
-0.0848
 20
-2.34048
 30
0.0
 10
-0.0848
 20
-2.34048
 30
0.0
 10
-0.07758
 20
-2.82789
 30
0.0
 10
0.31896
 20
-2.70352
 30
0.0
 10
0.424
 20
-2.40832
 30
0.0
 10
0.424
 20
-2.40832
 30
0.0
 10
0.60974
 20
-1.88637
 30
0.0
 10
0.79674
 20
-1.88455
 30
0.0
 10
0.89888
 20
-2.15392
 30
0.0
 10
0.89888
 20
-2.15392
 30
0.0
 10
1.01737
 20
-2.46637
 30
0.0
 10
0.8889
 20
-2.84721
 30
0.0
 10
0.77836
 20
-3.17512
 30
0.0
 10
0.77836
 20
-3.17512
 30
0.0
 10
0.77516
 20
-3.17445
 30
0.0
 10
0.77208
 20
-3.17393
 30
0.0
 10
0.76889
 20
-3.17328
 30
0.0
  0
SPLINE
  5
68
330
1F
100
AcDbEntity
  8
layer 1
 62
   250
370
     9
100
AcDbSpline
210
0.0
220
0.0
230
1.0
 70
    11
 71
     3
 72
    20
 73
    16
 74
     0
 42
0.0000000001
 43
0.0000000001
 40
0.0
 40
0.0
 40
0.0
 40
0.0
 40
0.25
 40
0.25
 40
0.25
 40
0.25
 40
0.5
 40
0.5
 40
0.5
 40
0.5
 40
0.75
 40
0.75
 40
0.75
 40
0.75
 40
1.0
 40
1.0
 40
1.0
 40
1.0
 10
3.57595
 20
-2.47612
 30
0.0
 10
3.63237
 20
-2.47612
 30
0.0
 10
3.67812
 20
-2.52187
 30
0.0
 10
3.67812
 20
-2.57829
 30
0.0
 10
3.67812
 20
-2.57829
 30
0.0
 10
3.67812
 20
-2.63471
 30
0.0
 10
3.63237
 20
-2.68046
 30
0.0
 10
3.57595
 20
-2.68046
 30
0.0
 10
3.57595
 20
-2.68046
 30
0.0
 10
3.51953
 20
-2.68046
 30
0.0
 10
3.47378
 20
-2.63471
 30
0.0
 10
3.47378
 20
-2.57829
 30
0.0
 10
3.47378
 20
-2.57829
 30
0.0
 10
3.47378
 20
-2.52187
 30
0.0
 10
3.51953
 20
-2.47612
 30
0.0
 10
3.57595
 20
-2.47612
 30
0.0
  0
SPLINE
  5
69
330
1F
100
AcDbEntity
  8
layer 1
 62
   250
370
     9
100
AcDbSpline
210
0.0
220
0.0
230
1.0
 70
    11
 71
     3
 72
    96
 73
    92
 74
     0
 42
0.0000000001
 43
0.0000000001
 40
0.0
 40
0.0
 40
0.0
 40
0.0
 40
0.0434782608695652
 40
0.0434782608695652
 40
0.0434782608695652
 40
0.0434782608695652
 40
0.0869565217391304
 40
0.0869565217391304
 40
0.0869565217391304
 40
0.0869565217391304
 40
0.1304347826086956
 40
0.1304347826086956
 40
0.1304347826086956
 40
0.1304347826086956
 40
0.1739130434782609
 40
0.1739130434782609
 40
0.1739130434782609
 40
0.1739130434782609
 40
0.2173913043478261
 40
0.2173913043478261
 40
0.2173913043478261
 40
0.2173913043478261
 40
0.2608695652173913
 40
0.2608695652173913
 40
0.2608695652173913
 40
0.2608695652173913
 40
0.3043478260869565
 40
0.3043478260869565
 40
0.3043478260869565
 40
0.3043478260869565
 40
0.3478260869565217
 40
0.3478260869565217
 40
0.3478260869565217
 40
0.3478260869565217
 40
0.3913043478260869
 40
0.3913043478260869
 40
0.3913043478260869
 40
0.3913043478260869
 40
0.4347826086956521
 40
0.4347826086956521
 40
0.4347826086956521
 40
0.4347826086956521
 40
0.4782608695652173
 40
0.4782608695652173
 40
0.4782608695652173
 40
0.4782608695652173
 40
0.5217391304347825
 40
0.5217391304347825
 40
0.5217391304347825
 40
0.5217391304347825
 40
0.5652173913043477
 40
0.5652173913043477
 40
0.5652173913043477
 40
0.5652173913043477
 40
0.6086956521739129
 40
0.6086956521739129
 40
0.6086956521739129
 40
0.6086956521739129
 40
0.652173913043478
 40
0.652173913043478
 40
0.652173913043478
 40
0.652173913043478
 40
0.6956521739130432
 40
0.6956521739130432
 40
0.6956521739130432
 40
0.6956521739130432
 40
0.7391304347826084
 40
0.7391304347826084
 40
0.7391304347826084
 40
0.7391304347826084
 40
0.7826086956521736
 40
0.7826086956521736
 40
0.7826086956521736
 40
0.7826086956521736
 40
0.8260869565217388
 40
0.8260869565217388
 40
0.8260869565217388
 40
0.8260869565217388
 40
0.869565217391304
 40
0.869565217391304
 40
0.869565217391304
 40
0.869565217391304
 40
0.9130434782608692
 40
0.9130434782608692
 40
0.9130434782608692
 40
0.9130434782608692
 40
0.9565217391304344
 40
0.9565217391304344
 40
0.9565217391304344
 40
0.9565217391304344
 40
1.0
 40
1.0
 40
1.0
 40
1.0
 10
8.11532
 20
-7.34843
 30
0.0
 10
8.10876
 20
-7.43257
 30
0.0
 10
8.1297
 20
-7.51399
 30
0.0
 10
8.2029
 20
-7.58544
 30
0.0
 10
8.2029
 20
-7.58544
 30
0.0
 10
8.43841
 20
-7.85978
 30
0.0
 10
8.70428
 20
-7.8318
 30
0.0
 10
8.94248
 20
-7.78732
 30
0.0
 10
8.94248
 20
-7.78732
 30
0.0
 10
9.2309
 20
-7.73346
 30
0.0
 10
9.50671
 20
-7.77896
 30
0.0
 10
9.72116
 20
-8.03246
 30
0.0
 10
9.72116
 20
-8.03246
 30
0.0
 10
9.9575
 20
-8.31185
 30
0.0
 10
10.17267
 20
-8.78817
 30
0.0
 10
9.91063
 20
-8.92872
 30
0.0
 10
9.91063
 20
-8.92872
 30
0.0
 10
9.40503
 20
-9.1999
 30
0.0
 10
9.21107
 20
-9.37209
 30
0.0
 10
9.4512
 20
-9.74643
 30
0.0
 10
9.4512
 20
-9.74643
 30
0.0
 10
9.51758
 20
-9.85234
 30
0.0
 10
9.66892
 20
-10.008
 30
0.0
 10
9.80768
 20
-10.008
 30
0.0
 10
9.80768
 20
-10.008
 30
0.0
 10
9.80768
 20
-10.008
 30
0.0
 10
12.37444
 20
-10.008
 30
0.0
 10
12.37444
 20
-10.008
 30
0.0
 10
12.37444
 20
-10.008
 30
0.0
 10
13.1931
 20
-9.15774
 30
0.0
 10
13.32005
 20
-8.46646
 30
0.0
 10
12.87914
 20
-7.38356
 30
0.0
 10
12.87914
 20
-7.38356
 30
0.0
 10
12.56679
 20
-6.61638
 30
0.0
 10
12.32285
 20
-5.90631
 30
0.0
 10
12.8503
 20
-5.29266
 30
0.0
 10
12.8503
 20
-5.29266
 30
0.0
 10
13.1789
 20
-4.91035
 30
0.0
 10
13.49978
 20
-4.46528
 30
0.0
 10
13.38384
 20
-3.67762
 30
0.0
 10
13.38384
 20
-3.67762
 30
0.0
 10
13.30164
 20
-3.11921
 30
0.0
 10
12.97254
 20
-2.74991
 30
0.0
 10
12.37444
 20
-2.65179
 30
0.0
 10
12.37444
 20
-2.65179
 30
0.0
 10
11.83453
 20
-2.56322
 30
0.0
 10
11.35125
 20
-2.69601
 30
0.0
 10
10.84592
 20
-3.0143
 30
0.0
 10
10.84592
 20
-3.0143
 30
0.0
 10
10.20571
 20
-3.41754
 30
0.0
 10
9.46344
 20
-3.3945
 30
0.0
 10
8.87479
 20
-3.64683
 30
0.0
 10
8.87479
 20
-3.64683
 30
0.0
 10
8.50353
 20
-3.82565
 30
0.0
 10
8.34778
 20
-4.0059
 30
0.0
 10
8.16738
 20
-4.3121
 30
0.0
 10
8.16738
 20
-4.3121
 30
0.0
 10
7.93531
 20
-4.70597
 30
0.0
 10
7.86435
 20
-5.42578
 30
0.0
 10
8.26834
 20
-5.74248
 30
0.0
 10
8.26834
 20
-5.74248
 30
0.0
 10
8.56759
 20
-5.97706
 30
0.0
 10
9.01048
 20
-5.87207
 30
0.0
 10
9.33812
 20
-5.67036
 30
0.0
 10
9.33812
 20
-5.67036
 30
0.0
 10
9.51466
 20
-5.56167
 30
0.0
 10
9.65296
 20
-5.38129
 30
0.0
 10
9.48236
 20
-5.10542
 30
0.0
 10
9.48236
 20
-5.10542
 30
0.0
 10
9.38529
 20
-4.94846
 30
0.0
 10
9.13702
 20
-4.97017
 30
0.0
 10
8.8886
 20
-5.10063
 30
0.0
 10
8.8886
 20
-5.10063
 30
0.0
 10
8.63539
 20
-5.23362
 30
0.0
 10
8.46172
 20
-4.82058
 30
0.0
 10
8.89579
 20
-4.50201
 30
0.0
 10
8.89579
 20
-4.50201
 30
0.0
 10
9.21785
 20
-4.26565
 30
0.0
 10
9.64499
 20
-4.30122
 30
0.0
 10
9.95114
 20
-4.42028
 30
0.0
 10
9.95114
 20
-4.42028
 30
0.0
 10
10.30801
 20
-4.55908
 30
0.0
 10
10.41326
 20
-5.08265
 30
0.0
 10
10.21798
 20
-5.67516
 30
0.0
 10
10.21798
 20
-5.67516
 30
0.0
 10
10.07875
 20
-6.09758
 30
0.0
 10
9.62843
 20
-6.39639
 30
0.0
 10
9.13378
 20
-6.69206
 30
0.0
 10
9.13378
 20
-6.69206
 30
0.0
 10
8.77185
 20
-6.9084
 30
0.0
 10
8.45987
 20
-7.12636
 30
0.0
 10
8.11532
 20
-7.34843
 30
0.0
  0
SPLINE
  5
6A
330
1F
100
AcDbEntity
  8
layer 1
 62
   250
370
     9
100
AcDbSpline
210
0.0
220
0.0
230
1.0
 70
    11
 71
     3
 72
    20
 73
    16
 74
     0
 42
0.0000000001
 43
0.0000000001
 40
0.0
 40
0.0
 40
0.0
 40
0.0
 40
0.25
 40
0.25
 40
0.25
 40
0.25
 40
0.5
 40
0.5
 40
0.5
 40
0.5
 40
0.75
 40
0.75
 40
0.75
 40
0.75
 40
1.0
 40
1.0
 40
1.0
 40
1.0
 10
11.66399
 20
-3.37454
 30
0.0
 10
11.72041
 20
-3.37454
 30
0.0
 10
11.76616
 20
-3.42029
 30
0.0
 10
11.76616
 20
-3.47671
 30
0.0
 10
11.76616
 20
-3.47671
 30
0.0
 10
11.76616
 20
-3.53313
 30
0.0
 10
11.72041
 20
-3.57888
 30
0.0
 10
11.66399
 20
-3.57888
 30
0.0
 10
11.66399
 20
-3.57888
 30
0.0
 10
11.60757
 20
-3.57888
 30
0.0
 10
11.56182
 20
-3.53313
 30
0.0
 10
11.56182
 20
-3.47671
 30
0.0
 10
11.56182
 20
-3.47671
 30
0.0
 10
11.56182
 20
-3.42029
 30
0.0
 10
11.60757
 20
-3.37454
 30
0.0
 10
11.66399
 20
-3.37454
 30
0.0
  0
SPLINE
  5
6B
330
1F
100
AcDbEntity
  8
layer 1
 62
   250
370
     9
100
AcDbSpline
210
0.0
220
0.0
230
1.0
 70
    11
 71
     3
 72
   128
 73
   124
 74
     0
 42
0.0000000001
 43
0.0000000001
 40
0.0
 40
0.0
 40
0.0
 40
0.0
 40
0.032258064516129
 40
0.032258064516129
 40
0.032258064516129
 40
0.032258064516129
 40
0.0645161290322581
 40
0.0645161290322581
 40
0.0645161290322581
 40
0.0645161290322581
 40
0.0967741935483871
 40
0.0967741935483871
 40
0.0967741935483871
 40
0.0967741935483871
 40
0.1290322580645161
 40
0.1290322580645161
 40
0.1290322580645161
 40
0.1290322580645161
 40
0.1612903225806452
 40
0.1612903225806452
 40
0.1612903225806452
 40
0.1612903225806452
 40
0.1935483870967742
 40
0.1935483870967742
 40
0.1935483870967742
 40
0.1935483870967742
 40
0.2258064516129032
 40
0.2258064516129032
 40
0.2258064516129032
 40
0.2258064516129032
 40
0.2580645161290323
 40
0.2580645161290323
 40
0.2580645161290323
 40
0.2580645161290323
 40
0.2903225806451613
 40
0.2903225806451613
 40
0.2903225806451613
 40
0.2903225806451613
 40
0.3225806451612903
 40
0.3225806451612903
 40
0.3225806451612903
 40
0.3225806451612903
 40
0.3548387096774193
 40
0.3548387096774193
 40
0.3548387096774193
 40
0.3548387096774193
 40
0.3870967741935483
 40
0.3870967741935483
 40
0.3870967741935483
 40
0.3870967741935483
 40
0.4193548387096773
 40
0.4193548387096773
 40
0.4193548387096773
 40
0.4193548387096773
 40
0.4516129032258063
 40
0.4516129032258063
 40
0.4516129032258063
 40
0.4516129032258063
 40
0.4838709677419353
 40
0.4838709677419353
 40
0.4838709677419353
 40
0.4838709677419353
 40
0.5161290322580643
 40
0.5161290322580643
 40
0.5161290322580643
 40
0.5161290322580643
 40
0.5483870967741933
 40
0.5483870967741933
 40
0.5483870967741933
 40
0.5483870967741933
 40
0.5806451612903223
 40
0.5806451612903223
 40
0.5806451612903223
 40
0.5806451612903223
 40
0.6129032258064513
 40
0.6129032258064513
 40
0.6129032258064513
 40
0.6129032258064513
 40
0.6451612903225803
 40
0.6451612903225803
 40
0.6451612903225803
 40
0.6451612903225803
 40
0.6774193548387093
 40
0.6774193548387093
 40
0.6774193548387093
 40
0.6774193548387093
 40
0.7096774193548383
 40
0.7096774193548383
 40
0.7096774193548383
 40
0.7096774193548383
 40
0.7419354838709673
 40
0.7419354838709673
 40
0.7419354838709673
 40
0.7419354838709673
 40
0.7741935483870963
 40
0.7741935483870963
 40
0.7741935483870963
 40
0.7741935483870963
 40
0.8064516129032253
 40
0.8064516129032253
 40
0.8064516129032253
 40
0.8064516129032253
 40
0.8387096774193543
 40
0.8387096774193543
 40
0.8387096774193543
 40
0.8387096774193543
 40
0.8709677419354833
 40
0.8709677419354833
 40
0.8709677419354833
 40
0.8709677419354833
 40
0.9032258064516123
 40
0.9032258064516123
 40
0.9032258064516123
 40
0.9032258064516123
 40
0.9354838709677413
 40
0.9354838709677413
 40
0.9354838709677413
 40
0.9354838709677413
 40
0.9677419354838703
 40
0.9677419354838703
 40
0.9677419354838703
 40
0.9677419354838703
 40
1.0
 40
1.0
 40
1.0
 40
1.0
 10
2.39689
 20
8.5235
 30
0.0
 10
2.62171
 20
8.73431
 30
0.0
 10
2.76187
 20
8.84376
 30
0.0
 10
3.14639
 20
8.80789
 30
0.0
 10
3.14639
 20
8.80789
 30
0.0
 10
4.2351
 20
8.70633
 30
0.0
 10
5.01514
 20
8.76026
 30
0.0
 10
5.96243
 20
8.76785
 30
0.0
 10
5.96243
 20
8.76785
 30
0.0
 10
6.9811
 20
8.77602
 30
0.0
 10
7.91143
 20
9.07409
 30
0.0
 10
9.02871
 20
8.89725
 30
0.0
 10
9.02871
 20
8.89725
 30
0.0
 10
10.14543
 20
8.7205
 30
0.0
 10
11.2311
 20
8.25161
 30
0.0
 10
12.29655
 20
7.05021
 30
0.0
 10
12.29655
 20
7.05021
 30
0.0
 10
13.37381
 20
5.83551
 30
0.0
 10
13.63801
 20
4.38451
 30
0.0
 10
13.02839
 20
2.92989
 30
0.0
 10
13.02839
 20
2.92989
 30
0.0
 10
12.84379
 20
2.48939
 30
0.0
 10
12.50064
 20
2.04199
 30
0.0
 10
12.27287
 20
1.55645
 30
0.0
 10
12.27287
 20
1.55645
 30
0.0
 10
12.18104
 20
1.36068
 30
0.0
 10
12.01328
 20
1.34515
 30
0.0
 10
11.83445
 20
1.37085
 30
0.0
 10
11.83445
 20
1.37085
 30
0.0
 10
11.77923
 20
1.75356
 30
0.0
 10
11.83856
 20
2.11423
 30
0.0
 10
12.12425
 20
2.44661
 30
0.0
 10
12.12425
 20
2.44661
 30
0.0
 10
12.45285
 20
2.82892
 30
0.0
 10
12.77373
 20
3.27399
 30
0.0
 10
12.65779
 20
4.06165
 30
0.0
 10
12.65779
 20
4.06165
 30
0.0
 10
12.57559
 20
4.62006
 30
0.0
 10
12.24649
 20
4.98936
 30
0.0
 10
11.64839
 20
5.08748
 30
0.0
 10
11.64839
 20
5.08748
 30
0.0
 10
11.10848
 20
5.17605
 30
0.0
 10
10.6252
 20
5.04326
 30
0.0
 10
10.11987
 20
4.72497
 30
0.0
 10
10.11987
 20
4.72497
 30
0.0
 10
9.47966
 20
4.32173
 30
0.0
 10
8.73739
 20
4.34477
 30
0.0
 10
8.14874
 20
4.09244
 30
0.0
 10
8.14874
 20
4.09244
 30
0.0
 10
8.14874
 20
4.09244
 30
0.0
 10
8.13207
 20
4.08435
 30
0.0
 10
8.13207
 20
4.08435
 30
0.0
 10
8.13207
 20
4.08435
 30
0.0
 10
8.14391
 20
4.09015
 30
0.0
 10
8.21044
 20
4.12202
 30
0.0
 10
8.20509
 20
4.11956
 30
0.0
 10
8.20509
 20
4.11956
 30
0.0
 10
8.67524
 20
4.33934
 30
0.0
 10
8.85017
 20
4.72822
 30
0.0
 10
8.97509
 20
5.17488
 30
0.0
 10
8.97509
 20
5.17488
 30
0.0
 10
9.12243
 20
5.70176
 30
0.0
 10
8.82758
 20
6.05722
 30
0.0
 10
8.41975
 20
6.09561
 30
0.0
 10
8.41975
 20
6.09561
 30
0.0
 10
8.07568
 20
6.12799
 30
0.0
 10
7.57927
 20
5.89033
 30
0.0
 10
7.36199
 20
5.93935
 30
0.0
 10
7.36199
 20
5.93935
 30
0.0
 10
7.09507
 20
5.99956
 30
0.0
 10
6.95014
 20
6.16277
 30
0.0
 10
6.98937
 20
6.50429
 30
0.0
 10
6.98937
 20
6.50429
 30
0.0
 10
6.76257
 20
6.59563
 30
0.0
 10
6.41907
 20
6.5931
 30
0.0
 10
6.13595
 20
6.64853
 30
0.0
 10
6.13595
 20
6.64853
 30
0.0
 10
5.8908
 20
6.69653
 30
0.0
 10
5.80982
 20
6.89402
 30
0.0
 10
6.11191
 20
6.99471
 30
0.0
 10
6.11191
 20
6.99471
 30
0.0
 10
6.42611
 20
7.09943
 30
0.0
 10
6.85213
 20
7.02642
 30
0.0
 10
6.94129
 20
7.17741
 30
0.0
 10
6.94129
 20
7.17741
 30
0.0
 10
7.05613
 20
7.37191
 30
0.0
 10
6.93821
 20
7.44733
 30
0.0
 10
6.60473
 20
7.45387
 30
0.0
 10
6.60473
 20
7.45387
 30
0.0
 10
5.8911
 20
7.46787
 30
0.0
 10
5.18269
 20
7.54532
 30
0.0
 10
4.45944
 20
7.77037
 30
0.0
 10
4.45944
 20
7.77037
 30
0.0
 10
4.10318
 20
7.88228
 30
0.0
 10
3.74955
 20
8.04412
 30
0.0
 10
3.37975
 20
8.10813
 30
0.0
 10
3.37975
 20
8.10813
 30
0.0
 10
3.03375
 20
8.16802
 30
0.0
 10
3.13771
 20
7.94651
 30
0.0
 10
3.31191
 20
7.75197
 30
0.0
 10
3.31191
 20
7.75197
 30
0.0
 10
3.58354
 20
7.44863
 30
0.0
 10
3.5744
 20
7.18621
 30
0.0
 10
3.14231
 20
7.10929
 30
0.0
 10
3.14231
 20
7.10929
 30
0.0
 10
2.92689
 20
7.07094
 30
0.0
 10
2.69243
 20
7.15049
 30
0.0
 10
2.46021
 20
7.20854
 30
0.0
 10
2.46021
 20
7.20854
 30
0.0
 10
2.51527
 20
7.19634
 30
0.0
 10
2.56741
 20
7.18767
 30
0.0
 10
2.61574
 20
7.18365
 30
0.0
 10
2.61574
 20
7.18365
 30
0.0
 10
2.90713
 20
7.18948
 30
0.0
 10
2.70861
 20
7.44553
 30
0.0
 10
2.44748
 20
7.69307
 30
0.0
 10
2.44748
 20
7.69307
 30
0.0
 10
2.17618
 20
7.96592
 30
0.0
 10
2.1145
 20
8.23178
 30
0.0
 10
2.35922
 20
8.48741
 30
0.0
 10
2.35922
 20
8.48741
 30
0.0
 10
2.37383
 20
8.49963
 30
0.0
 10
2.38632
 20
8.51165
 30
0.0
 10
2.39689
 20
8.5235
 30
0.0
  0
SPLINE
  5
6C
330
1F
100
AcDbEntity
  8
layer 1
 62
   250
370
     9
100
AcDbSpline
210
0.0
220
0.0
230
1.0
 70
    11
 71
     3
 72
    12
 73
     8
 74
     0
 42
0.0000000001
 43
0.0000000001
 40
0.0
 40
0.0
 40
0.0
 40
0.0
 40
0.5
 40
0.5
 40
0.5
 40
0.5
 40
1.0
 40
1.0
 40
1.0
 40
1.0
 10
8.12558
 20
4.08517
 30
0.0
 10
8.13082
 20
4.08726
 30
0.0
 10
8.13604
 20
4.08937
 30
0.0
 10
8.14121
 20
4.0915
 30
0.0
 10
8.14121
 20
4.0915
 30
0.0
 10
8.13604
 20
4.08937
 30
0.0
 10
8.13082
 20
4.08726
 30
0.0
 10
8.12558
 20
4.08517
 30
0.0
  0
SPLINE
  5
6D
330
1F
100
AcDbEntity
  8
layer 1
 62
   250
370
     9
100
AcDbSpline
210
0.0
220
0.0
230
1.0
 70
    11
 71
     3
 72
    20
 73
    16
 74
     0
 42
0.0000000001
 43
0.0000000001
 40
0.0
 40
0.0
 40
0.0
 40
0.0
 40
0.25
 40
0.25
 40
0.25
 40
0.25
 40
0.5
 40
0.5
 40
0.5
 40
0.5
 40
0.75
 40
0.75
 40
0.75
 40
0.75
 40
1.0
 40
1.0
 40
1.0
 40
1.0
 10
7.76466
 20
8.28325
 30
0.0
 10
7.82108
 20
8.28325
 30
0.0
 10
7.86683
 20
8.2375
 30
0.0
 10
7.86683
 20
8.18108
 30
0.0
 10
7.86683
 20
8.18108
 30
0.0
 10
7.86683
 20
8.12466
 30
0.0
 10
7.82108
 20
8.07891
 30
0.0
 10
7.76466
 20
8.07891
 30
0.0
 10
7.76466
 20
8.07891
 30
0.0
 10
7.70824
 20
8.07891
 30
0.0
 10
7.66249
 20
8.12466
 30
0.0
 10
7.66249
 20
8.18108
 30
0.0
 10
7.66249
 20
8.18108
 30
0.0
 10
7.66249
 20
8.2375
 30
0.0
 10
7.70824
 20
8.28325
 30
0.0
 10
7.76466
 20
8.28325
 30
0.0
  0
SPLINE
  5
6E
330
1F
100
AcDbEntity
  8
layer 1
 62
   250
370
     9
100
AcDbSpline
210
0.0
220
0.0
230
1.0
 70
     8
 71
     3
 72
     8
 73
     4
 74
     0
 42
0.0000000001
 43
0.0000000001
 40
0.0
 40
0.0
 40
0.0
 40
0.0
 40
1.0
 40
1.0
 40
1.0
 40
1.0
 10
8.0483
 20
6.75576
 30
0.0
 10
7.738
 20
6.72569
 30
0.0
 10
7.50871
 20
6.65806
 30
0.0
 10
7.4409
 20
6.32392
 30
0.0
  0
SPLINE
  5
6F
330
1F
100
AcDbEntity
  8
layer 1
 62
   250
370
     9
100
AcDbSpline
210
0.0
220
0.0
230
1.0
 70
     8
 71
     3
 72
    12
 73
     8
 74
     0
 42
0.0000000001
 43
0.0000000001
 40
0.0
 40
0.0
 40
0.0
 40
0.0
 40
0.5
 40
0.5
 40
0.5
 40
0.5
 40
1.0
 40
1.0
 40
1.0
 40
1.0
 10
9.01491
 20
8.6498
 30
0.0
 10
9.25565
 20
8.11146
 30
0.0
 10
9.45807
 20
7.56427
 30
0.0
 10
9.18074
 20
7.04918
 30
0.0
 10
9.18074
 20
7.04918
 30
0.0
 10
8.85121
 20
6.43715
 30
0.0
 10
8.32558
 20
6.80832
 30
0.0
 10
8.12087
 20
7.34479
 30
0.0
  0
SPLINE
  5
70
330
1F
100
AcDbEntity
  8
layer 1
 62
   250
370
     9
100
AcDbSpline
210
0.0
220
0.0
230
1.0
 70
     8
 71
     3
 72
     8
 73
     4
 74
     0
 42
0.0000000001
 43
0.0000000001
 40
0.0
 40
0.0
 40
0.0
 40
0.0
 40
1.0
 40
1.0
 40
1.0
 40
1.0
 10
9.44648
 20
5.68302
 30
0.0
 10
9.85204
 20
5.80828
 30
0.0
 10
10.17047
 20
6.08165
 30
0.0
 10
10.38378
 20
6.5338
 30
0.0
  0
SPLINE
  5
71
330
1F
100
AcDbEntity
  8
layer 1
 62
   250
370
     9
100
AcDbSpline
210
0.0
220
0.0
230
1.0
 70
     8
 71
     3
 72
    20
 73
    16
 74
     0
 42
0.0000000001
 43
0.0000000001
 40
0.0
 40
0.0
 40
0.0
 40
0.0
 40
0.25
 40
0.25
 40
0.25
 40
0.25
 40
0.5
 40
0.5
 40
0.5
 40
0.5
 40
0.75
 40
0.75
 40
0.75
 40
0.75
 40
1.0
 40
1.0
 40
1.0
 40
1.0
 10
4.08807
 20
1.79529
 30
0.0
 10
4.30376
 20
1.88158
 30
0.0
 10
4.5134
 20
1.95718
 30
0.0
 10
4.7479
 20
1.94107
 30
0.0
 10
4.7479
 20
1.94107
 30
0.0
 10
4.99501
 20
1.92409
 30
0.0
 10
5.06979
 20
1.78126
 30
0.0
 10
5.00453
 20
1.60615
 30
0.0
 10
5.00453
 20
1.60615
 30
0.0
 10
4.87308
 20
1.25348
 30
0.0
 10
4.6275
 20
1.15333
 30
0.0
 10
4.502
 20
1.21913
 30
0.0
 10
4.502
 20
1.21913
 30
0.0
 10
4.36538
 20
1.29076
 30
0.0
 10
4.40961
 20
1.44409
 30
0.0
 10
4.46579
 20
1.47305
 30
0.0
  0
SPLINE
  5
72
330
1F
100
AcDbEntity
  8
layer 1
 62
   250
370
     9
100
AcDbSpline
210
0.0
220
0.0
230
1.0
 70
     8
 71
     3
 72
     8
 73
     4
 74
     0
 42
0.0000000001
 43
0.0000000001
 40
0.0
 40
0.0
 40
0.0
 40
0.0
 40
1.0
 40
1.0
 40
1.0
 40
1.0
 10
1.30104
 20
-6.90552
 30
0.0
 10
1.15873
 20
-7.29666
 30
0.0
 10
1.176
 20
-7.69439
 30
0.0
 10
1.31354
 20
-8.08554
 30
0.0
  0
SPLINE
  5
73
330
1F
100
AcDbEntity
  8
layer 1
 62
   250
370
     9
100
AcDbSpline
210
0.0
220
0.0
230
1.0
 70
     8
 71
     3
 72
     8
 73
     4
 74
     0
 42
0.0000000001
 43
0.0000000001
 40
0.0
 40
0.0
 40
0.0
 40
0.0
 40
1.0
 40
1.0
 40
1.0
 40
1.0
 10
1.89586
 20
-0.8987
 30
0.0
 10
2.13044
 20
-0.55488
 30
0.0
 10
2.21202
 20
-0.16522
 30
0.0
 10
2.17544
 20
0.24779
 30
0.0
  0
SPLINE
  5
74
330
1F
100
AcDbEntity
  8
layer 1
 62
   250
370
     9
100
AcDbSpline
210
0.0
220
0.0
230
1.0
 70
     8
 71
     3
 72
    12
 73
     8
 74
     0
 42
0.0000000001
 43
0.0000000001
 40
0.0
 40
0.0
 40
0.0
 40
0.0
 40
0.5
 40
0.5
 40
0.5
 40
0.5
 40
1.0
 40
1.0
 40
1.0
 40
1.0
 10
2.57958
 20
-2.84818
 30
0.0
 10
2.39093
 20
-2.50932
 30
0.0
 10
2.3133
 20
-2.00347
 30
0.0
 10
2.42386
 20
-1.70527
 30
0.0
 10
2.42386
 20
-1.70527
 30
0.0
 10
2.63891
 20
-1.12528
 30
0.0
 10
3.19807
 20
-1.07352
 30
0.0
 10
3.45857
 20
-1.48157
 30
0.0
  0
SPLINE
  5
75
330
1F
100
AcDbEntity
  8
layer 1
 62
   250
370
     9
100
AcDbSpline
210
0.0
220
0.0
230
1.0
 70
     8
 71
     3
 72
     8
 73
     4
 74
     0
 42
0.0000000001
 43
0.0000000001
 40
0.0
 40
0.0
 40
0.0
 40
0.0
 40
1.0
 40
1.0
 40
1.0
 40
1.0
 10
11.78545
 20
-4.60799
 30
0.0
 10
11.57207
 20
-5.23954
 30
0.0
 10
12.22223
 20
-5.46018
 30
0.0
 10
12.79485
 20
-5.17037
 30
0.0
  0
ENDSEC
  0
SECTION
  2
OBJECTS
  0
DICTIONARY
  5
C
330
0
100
AcDbDictionary
281
     1
  3
ACAD_GROUP
350
D
  3
ACAD_LAYOUT
350
1A
  3
ACAD_MLEADERSTYLE
350
79
  3
ACAD_MLINESTYLE
350
17
  3
ACAD_PLOTSETTINGS
350
19
  3
ACAD_PLOTSTYLENAME
350
E
  3
ACAD_SCALELIST
350
3B
  3
ACAD_TABLESTYLE
350
78
  3
ACAD_VISUALSTYLE
350
2A
  3
AcDbVariableDictionary
350
76
  0
DICTIONARY
  5
D
102
{ACAD_REACTORS
330
C
102
}
330
C
100
AcDbDictionary
281
     1
  0
DICTIONARY
  5
1A
102
{ACAD_REACTORS
330
C
102
}
330
C
100
AcDbDictionary
281
     1
  3
Layout1
350
1E
  3
Layout2
350
26
  3
Model
350
22
  0
DICTIONARY
  5
79
102
{ACAD_REACTORS
330
C
102
}
330
C
100
AcDbDictionary
281
     1
  0
DICTIONARY
  5
17
102
{ACAD_REACTORS
330
C
102
}
330
C
100
AcDbDictionary
281
     1
  3
Standard
350
18
  0
DICTIONARY
  5
19
102
{ACAD_REACTORS
330
C
102
}
330
C
100
AcDbDictionary
281
     1
  0
ACDBDICTIONARYWDFLT
  5
E
102
{ACAD_REACTORS
330
C
102
}
330
C
100
AcDbDictionary
281
     1
  3
Normal
350
F
100
AcDbDictionaryWithDefault
340
F
  0
DICTIONARY
  5
3B
102
{ACAD_REACTORS
330
C
102
}
330
C
100
AcDbDictionary
281
     1
  3
A0
350
3C
  3
A1
350
3D
  3
A2
350
3E
  3
A3
350
3F
  3
A4
350
40
  3
A5
350
41
  3
A6
350
42
  3
A7
350
43
  3
A8
350
44
  3
A9
350
45
  3
B0
350
46
  3
B1
350
47
  3
B2
350
48
  3
B3
350
49
  3
B4
350
4A
  3
B5
350
4B
  3
B6
350
4C
  3
B7
350
4D
  3
B8
350
4E
  3
B9
350
4F
  3
C0
350
50
  3
C1
350
51
  3
C2
350
52
  3
C3
350
53
  3
C4
350
54
  3
C5
350
55
  3
C6
350
56
  3
C7
350
57
  3
C8
350
58
  3
C9
350
59
  3
D0
350
5A
  3
D1
350
5B
  3
D2
350
5C
  0
DICTIONARY
  5
78
102
{ACAD_REACTORS
330
C
102
}
330
C
100
AcDbDictionary
281
     1
  0
DICTIONARY
  5
2A
102
{ACAD_REACTORS
330
C
102
}
330
C
100
AcDbDictionary
281
     1
  3
2dWireframe
350
2F
  3
3D Hidden
350
31
  3
3dWireframe
350
30
  3
Basic
350
32
  3
Brighten
350
36
  3
ColorChange
350
3A
  3
Conceptual
350
34
  3
Dim
350
35
  3
Facepattern
350
39
  3
Flat
350
2B
  3
FlatWithEdges
350
2C
  3
Gouraud
350
2D
  3
GouraudWithEdges
350
2E
  3
Linepattern
350
38
  3
Realistic
350
33
  3
Thicken
350
37
  0
DICTIONARY
  5
76
102
{ACAD_REACTORS
330
C
102
}
330
C
100
AcDbDictionary
281
     1
  3
CANNOSCALE
350
77
  0
LAYOUT
  5
1E
102
{ACAD_REACTORS
330
1A
102
}
330
1A
100
AcDbPlotSettings
  1

  2
none_device
  4

  6

 40
0.0
 41
0.0
 42
0.0
 43
0.0
 44
0.0
 45
0.0
 46
0.0
 47
0.0
 48
0.0
 49
0.0
140
0.0
141
0.0
142
1.0
143
1.0
 70
   688
 72
     0
 73
     0
 74
     5
  7

 75
    16
147
1.0
148
0.0
149
0.0
100
AcDbLayout
  1
Layout1
 70
     1
 71
     1
 10
0.0
 20
0.0
 11
12.0
 21
9.0
 12
0.0
 22
0.0
 32
0.0
 14
1.000000000000000E+20
 24
1.000000000000000E+20
 34
1.000000000000000E+20
 15
-1.000000000000000E+20
 25
-1.000000000000000E+20
 35
-1.000000000000000E+20
146
0.0
 13
0.0
 23
0.0
 33
0.0
 16
1.0
 26
0.0
 36
0.0
 17
0.0
 27
1.0
 37
0.0
 76
     0
330
1B
  0
LAYOUT
  5
26
102
{ACAD_REACTORS
330
1A
102
}
330
1A
100
AcDbPlotSettings
  1

  2
none_device
  4

  6

 40
0.0
 41
0.0
 42
0.0
 43
0.0
 44
0.0
 45
0.0
 46
0.0
 47
0.0
 48
0.0
 49
0.0
140
0.0
141
0.0
142
1.0
143
1.0
 70
   688
 72
     0
 73
     0
 74
     5
  7

 75
    16
147
1.0
148
0.0
149
0.0
100
AcDbLayout
  1
Layout2
 70
     1
 71
     2
 10
0.0
 20
0.0
 11
0.0
 21
0.0
 12
0.0
 22
0.0
 32
0.0
 14
0.0
 24
0.0
 34
0.0
 15
0.0
 25
0.0
 35
0.0
146
0.0
 13
0.0
 23
0.0
 33
0.0
 16
1.0
 26
0.0
 36
0.0
 17
0.0
 27
1.0
 37
0.0
 76
     0
330
23
  0
LAYOUT
  5
22
102
{ACAD_REACTORS
330
1A
102
}
330
1A
100
AcDbPlotSettings
  1

  2
none_device
  4

  6

 40
0.0
 41
0.0
 42
0.0
 43
0.0
 44
0.0
 45
0.0
 46
0.0
 47
0.0
 48
0.0
 49
0.0
140
0.0
141
0.0
142
1.0
143
1.0
 70
  1712
 72
     0
 73
     0
 74
     0
  7

 75
     0
147
1.0
148
0.0
149
0.0
100
AcDbLayout
  1
Model
 70
     1
 71
     0
 10
0.0
 20
0.0
 11
12.0
 21
9.0
 12
0.0
 22
0.0
 32
0.0
 14
-13.80337
 24
-10.01181
 34
0.0
 15
13.41163
 25
9.95607
 35
0.0
146
0.0
 13
0.0
 23
0.0
 33
0.0
 16
1.0
 26
0.0
 36
0.0
 17
0.0
 27
1.0
 37
0.0
 76
     0
330
1F
331
29
  0
MLINESTYLE
  5
18
102
{ACAD_REACTORS
330
17
102
}
330
17
100
AcDbMlineStyle
  2
Standard
 70
     0
  3

 62
   256
 51
90.0
 52
90.0
 71
     2
 49
0.5
 62
   256
  6
BYLAYER
 49
-0.5
 62
   256
  6
BYLAYER
  0
ACDBPLACEHOLDER
  5
F
102
{ACAD_REACTORS
330
E
102
}
330
E
  0
SCALE
  5
3C
102
{ACAD_REACTORS
330
3B
102
}
330
3B
100
AcDbScale
 70
     0
300
1:1
140
1.0
141
1.0
290
     1
  0
SCALE
  5
3D
102
{ACAD_REACTORS
330
3B
102
}
330
3B
100
AcDbScale
 70
     0
300
1:2
140
1.0
141
2.0
290
     0
  0
SCALE
  5
3E
102
{ACAD_REACTORS
330
3B
102
}
330
3B
100
AcDbScale
 70
     0
300
1:4
140
1.0
141
4.0
290
     0
  0
SCALE
  5
3F
102
{ACAD_REACTORS
330
3B
102
}
330
3B
100
AcDbScale
 70
     0
300
1:5
140
1.0
141
5.0
290
     0
  0
SCALE
  5
40
102
{ACAD_REACTORS
330
3B
102
}
330
3B
100
AcDbScale
 70
     0
300
1:8
140
1.0
141
8.0
290
     0
  0
SCALE
  5
41
102
{ACAD_REACTORS
330
3B
102
}
330
3B
100
AcDbScale
 70
     0
300
1:10
140
1.0
141
10.0
290
     0
  0
SCALE
  5
42
102
{ACAD_REACTORS
330
3B
102
}
330
3B
100
AcDbScale
 70
     0
300
1:16
140
1.0
141
16.0
290
     0
  0
SCALE
  5
43
102
{ACAD_REACTORS
330
3B
102
}
330
3B
100
AcDbScale
 70
     0
300
1:20
140
1.0
141
20.0
290
     0
  0
SCALE
  5
44
102
{ACAD_REACTORS
330
3B
102
}
330
3B
100
AcDbScale
 70
     0
300
1:30
140
1.0
141
30.0
290
     0
  0
SCALE
  5
45
102
{ACAD_REACTORS
330
3B
102
}
330
3B
100
AcDbScale
 70
     0
300
1:40
140
1.0
141
40.0
290
     0
  0
SCALE
  5
46
102
{ACAD_REACTORS
330
3B
102
}
330
3B
100
AcDbScale
 70
     0
300
1:50
140
1.0
141
50.0
290
     0
  0
SCALE
  5
47
102
{ACAD_REACTORS
330
3B
102
}
330
3B
100
AcDbScale
 70
     0
300
1:100
140
1.0
141
100.0
290
     0
  0
SCALE
  5
48
102
{ACAD_REACTORS
330
3B
102
}
330
3B
100
AcDbScale
 70
     0
300
2:1
140
2.0
141
1.0
290
     0
  0
SCALE
  5
49
102
{ACAD_REACTORS
330
3B
102
}
330
3B
100
AcDbScale
 70
     0
300
4:1
140
4.0
141
1.0
290
     0
  0
SCALE
  5
4A
102
{ACAD_REACTORS
330
3B
102
}
330
3B
100
AcDbScale
 70
     0
300
8:1
140
8.0
141
1.0
290
     0
  0
SCALE
  5
4B
102
{ACAD_REACTORS
330
3B
102
}
330
3B
100
AcDbScale
 70
     0
300
10:1
140
10.0
141
1.0
290
     0
  0
SCALE
  5
4C
102
{ACAD_REACTORS
330
3B
102
}
330
3B
100
AcDbScale
 70
     0
300
100:1
140
100.0
141
1.0
290
     0
  0
SCALE
  5
4D
102
{ACAD_REACTORS
330
3B
102
}
330
3B
100
AcDbScale
 70
     0
300
1/128" = 1'-0"
140
0.0078125
141
12.0
290
     0
  0
SCALE
  5
4E
102
{ACAD_REACTORS
330
3B
102
}
330
3B
100
AcDbScale
 70
     0
300
1/64" = 1'-0"
140
0.015625
141
12.0
290
     0
  0
SCALE
  5
4F
102
{ACAD_REACTORS
330
3B
102
}
330
3B
100
AcDbScale
 70
     0
300
1/32" = 1'-0"
140
0.03125
141
12.0
290
     0
  0
SCALE
  5
50
102
{ACAD_REACTORS
330
3B
102
}
330
3B
100
AcDbScale
 70
     0
300
1/16" = 1'-0"
140
0.0625
141
12.0
290
     0
  0
SCALE
  5
51
102
{ACAD_REACTORS
330
3B
102
}
330
3B
100
AcDbScale
 70
     0
300
3/32" = 1'-0"
140
0.09375
141
12.0
290
     0
  0
SCALE
  5
52
102
{ACAD_REACTORS
330
3B
102
}
330
3B
100
AcDbScale
 70
     0
300
1/8" = 1'-0"
140
0.125
141
12.0
290
     0
  0
SCALE
  5
53
102
{ACAD_REACTORS
330
3B
102
}
330
3B
100
AcDbScale
 70
     0
300
3/16" = 1'-0"
140
0.1875
141
12.0
290
     0
  0
SCALE
  5
54
102
{ACAD_REACTORS
330
3B
102
}
330
3B
100
AcDbScale
 70
     0
300
1/4" = 1'-0"
140
0.25
141
12.0
290
     0
  0
SCALE
  5
55
102
{ACAD_REACTORS
330
3B
102
}
330
3B
100
AcDbScale
 70
     0
300
3/8" = 1'-0"
140
0.375
141
12.0
290
     0
  0
SCALE
  5
56
102
{ACAD_REACTORS
330
3B
102
}
330
3B
100
AcDbScale
 70
     0
300
1/2" = 1'-0"
140
0.5
141
12.0
290
     0
  0
SCALE
  5
57
102
{ACAD_REACTORS
330
3B
102
}
330
3B
100
AcDbScale
 70
     0
300
3/4" = 1'-0"
140
0.75
141
12.0
290
     0
  0
SCALE
  5
58
102
{ACAD_REACTORS
330
3B
102
}
330
3B
100
AcDbScale
 70
     0
300
1" = 1'-0"
140
1.0
141
12.0
290
     0
  0
SCALE
  5
59
102
{ACAD_REACTORS
330
3B
102
}
330
3B
100
AcDbScale
 70
     0
300
1-1/2" = 1'-0"
140
1.5
141
12.0
290
     0
  0
SCALE
  5
5A
102
{ACAD_REACTORS
330
3B
102
}
330
3B
100
AcDbScale
 70
     0
300
3" = 1'-0"
140
3.0
141
12.0
290
     0
  0
SCALE
  5
5B
102
{ACAD_REACTORS
330
3B
102
}
330
3B
100
AcDbScale
 70
     0
300
6" = 1'-0"
140
6.0
141
12.0
290
     0
  0
SCALE
  5
5C
102
{ACAD_REACTORS
330
3B
102
}
330
3B
100
AcDbScale
 70
     0
300
1'-0" = 1'-0"
140
12.0
141
12.0
290
     0
  0
VISUALSTYLE
  5
2F
102
{ACAD_REACTORS
330
2A
102
}
330
2A
100
AcDbVisualStyle
  2
2dWireframe
 70
     4
 71
     0
 72
     2
 73
     0
 90
        0
 40
-0.6
 41
-30.0
 62
     5
 63
     7
 74
     1
 91
        4
 64
     7
 65
   257
 75
     1
175
     1
 42
1.0
 92
        0
 66
   257
 43
1.0
 76
     1
 77
     6
 78
     2
 67
     7
 79
     5
170
     0
171
     0
290
     0
174
     0
 93
        1
 44
0.0
173
     0
291
     0
 45
0.0
1001
ACAD
1000
AcDbSavedByObjectVersion
1070
     0
  0
VISUALSTYLE
  5
31
102
{ACAD_REACTORS
330
2A
102
}
330
2A
100
AcDbVisualStyle
  2
3D Hidden
 70
     6
 71
     1
 72
     2
 73
     2
 90
        0
 40
-0.6
 41
-30.0
 62
     5
 63
     7
 74
     2
 91
        2
 64
     7
 65
   257
 75
     2
175
     1
 42
40.0
 92
        0
 66
   257
 43
1.0
 76
     1
 77
     6
 78
     2
 67
     7
 79
     3
170
     0
171
     0
290
     0
174
     0
 93
        1
 44
0.0
173
     0
291
     0
 45
0.0
1001
ACAD
1000
AcDbSavedByObjectVersion
1070
     0
  0
VISUALSTYLE
  5
30
102
{ACAD_REACTORS
330
2A
102
}
330
2A
100
AcDbVisualStyle
  2
3dWireframe
 70
     5
 71
     0
 72
     2
 73
     0
 90
        0
 40
-0.6
 41
-30.0
 62
     5
 63
     7
 74
     1
 91
        4
 64
     7
 65
   257
 75
     1
175
     1
 42
1.0
 92
        0
 66
   257
 43
1.0
 76
     1
 77
     6
 78
     2
 67
     7
 79
     5
170
     0
171
     0
290
     0
174
     0
 93
        1
 44
0.0
173
     0
291
     0
 45
0.0
1001
ACAD
1000
AcDbSavedByObjectVersion
1070
     0
  0
VISUALSTYLE
  5
32
102
{ACAD_REACTORS
330
2A
102
}
330
2A
100
AcDbVisualStyle
  2
Basic
 70
     7
 71
     1
 72
     0
 73
     1
 90
        0
 40
-0.6
 41
-30.0
 62
     5
 63
     7
 74
     0
 91
        4
 64
     7
 65
   257
 75
     1
175
     1
 42
1.0
 92
        8
 66
     7
 43
1.0
 76
     1
 77
     6
 78
     2
 67
     7
 79
     5
170
     0
171
     0
290
     0
174
     0
 93
        1
 44
0.0
173
     0
291
     1
 45
0.0
1001
ACAD
1000
AcDbSavedByObjectVersion
1070
     0
  0
VISUALSTYLE
  5
36
102
{ACAD_REACTORS
330
2A
102
}
330
2A
100
AcDbVisualStyle
  2
Brighten
 70
    12
 71
     2
 72
     2
 73
     0
 90
        0
 40
-0.6
 41
-30.0
 62
     5
 63
     7
 74
     1
 91
        4
 64
     7
 65
   257
 75
     1
175
     1
 42
1.0
 92
        8
 66
     7
 43
1.0
 76
     1
 77
     6
 78
     2
 67
     7
 79
     5
170
     0
171
     0
290
     0
174
     0
 93
        1
 44
50.0
173
     0
291
     1
 45
0.0
1001
ACAD
1000
AcDbSavedByObjectVersion
1070
     0
  0
VISUALSTYLE
  5
3A
102
{ACAD_REACTORS
330
2A
102
}
330
2A
100
AcDbVisualStyle
  2
ColorChange
 70
    16
 71
     2
 72
     2
 73
     3
 90
        0
 40
-0.6
 41
-30.0
 62
     5
 63
     8
 74
     1
 91
        4
 64
     7
 65
   257
 75
     1
175
     1
 42
1.0
 92
        8
 66
     8
 43
1.0
 76
     1
 77
     6
 78
     2
 67
     7
 79
     5
170
     0
171
     0
290
     0
174
     0
 93
        1
 44
0.0
173
     0
291
     1
 45
0.0
1001
ACAD
1000
AcDbSavedByObjectVersion
1070
     0
  0
VISUALSTYLE
  5
34
102
{ACAD_REACTORS
330
2A
102
}
330
2A
100
AcDbVisualStyle
  2
Conceptual
 70
     9
 71
     3
 72
     2
 73
     0
 90
        0
 40
-0.6
 41
-30.0
 62
     5
 63
     7
 74
     2
 91
        2
 64
     7
 65
   257
 75
     1
175
     1
 42
40.0
 92
        8
 66
     7
 43
1.0
 76
     1
 77
     6
 78
     2
 67
     7
 79
     3
170
     0
171
     0
290
     0
174
     0
 93
        1
 44
0.0
173
     0
291
     0
 45
0.0
1001
ACAD
1000
AcDbSavedByObjectVersion
1070
     0
  0
VISUALSTYLE
  5
35
102
{ACAD_REACTORS
330
2A
102
}
330
2A
100
AcDbVisualStyle
  2
Dim
 70
    11
 71
     2
 72
     2
 73
     0
 90
        0
 40
-0.6
 41
-30.0
 62
     5
 63
     7
 74
     1
 91
        4
 64
     7
 65
   257
 75
     1
175
     1
 42
1.0
 92
        8
 66
     7
 43
1.0
 76
     1
 77
     6
 78
     2
 67
     7
 79
     5
170
     0
171
     0
290
     0
174
     0
 93
        1
 44
-50.0
173
     0
291
     1
 45
0.0
1001
ACAD
1000
AcDbSavedByObjectVersion
1070
     0
  0
VISUALSTYLE
  5
39
102
{ACAD_REACTORS
330
2A
102
}
330
2A
100
AcDbVisualStyle
  2
Facepattern
 70
    15
 71
     2
 72
     2
 73
     0
 90
        0
 40
-0.6
 41
-30.0
 62
     5
 63
     7
 74
     1
 91
        4
 64
     7
 65
   257
 75
     1
175
     1
 42
1.0
 92
        8
 66
     7
 43
1.0
 76
     1
 77
     6
 78
     2
 67
     7
 79
     5
170
     0
171
     0
290
     0
174
     0
 93
        1
 44
0.0
173
     0
291
     1
 45
0.0
1001
ACAD
1000
AcDbSavedByObjectVersion
1070
     0
  0
VISUALSTYLE
  5
2B
102
{ACAD_REACTORS
330
2A
102
}
330
2A
100
AcDbVisualStyle
  2
Flat
 70
     0
 71
     2
 72
     1
 73
     1
 90
        2
 40
-0.6
 41
30.0
 62
     5
 63
     7
 74
     0
 91
        4
 64
     7
 65
   257
 75
     1
175
     1
 42
1.0
 92
        8
 66
     7
 43
1.0
 76
     1
 77
     6
 78
     2
 67
     7
 79
     5
170
     0
171
     0
290
     0
174
     0
 93
       13
 44
0.0
173
     0
291
     1
 45
0.0
1001
ACAD
1000
AcDbSavedByObjectVersion
1070
     0
  0
VISUALSTYLE
  5
2C
102
{ACAD_REACTORS
330
2A
102
}
330
2A
100
AcDbVisualStyle
  2
FlatWithEdges
 70
     1
 71
     2
 72
     1
 73
     1
 90
        2
 40
-0.6
 41
30.0
 62
     5
 63
     7
 74
     1
 91
        4
 64
     7
 65
   257
 75
     1
175
     1
 42
1.0
 92
        0
 66
   257
 43
1.0
 76
     1
 77
     6
 78
     2
 67
     7
 79
     5
170
     0
171
     0
290
     0
174
     0
 93
       13
 44
0.0
173
     0
291
     1
 45
0.0
1001
ACAD
1000
AcDbSavedByObjectVersion
1070
     0
  0
VISUALSTYLE
  5
2D
102
{ACAD_REACTORS
330
2A
102
}
330
2A
100
AcDbVisualStyle
  2
Gouraud
 70
     2
 71
     2
 72
     2
 73
     1
 90
        2
 40
-0.6
 41
30.0
 62
     5
 63
     7
 74
     0
 91
        4
 64
     7
 65
   257
 75
     1
175
     1
 42
1.0
 92
        0
 66
     7
 43
1.0
 76
     1
 77
     6
 78
     2
 67
     7
 79
     5
170
     0
171
     0
290
     0
174
     0
 93
       13
 44
0.0
173
     0
291
     1
 45
0.0
1001
ACAD
1000
AcDbSavedByObjectVersion
1070
     0
  0
VISUALSTYLE
  5
2E
102
{ACAD_REACTORS
330
2A
102
}
330
2A
100
AcDbVisualStyle
  2
GouraudWithEdges
 70
     3
 71
     2
 72
     2
 73
     1
 90
        2
 40
-0.6
 41
30.0
 62
     5
 63
     7
 74
     1
 91
        4
 64
     7
 65
   257
 75
     1
175
     1
 42
1.0
 92
        0
 66
   257
 43
1.0
 76
     1
 77
     6
 78
     2
 67
     7
 79
     5
170
     0
171
     0
290
     0
174
     0
 93
       13
 44
0.0
173
     0
291
     1
 45
0.0
1001
ACAD
1000
AcDbSavedByObjectVersion
1070
     0
  0
VISUALSTYLE
  5
38
102
{ACAD_REACTORS
330
2A
102
}
330
2A
100
AcDbVisualStyle
  2
Linepattern
 70
    14
 71
     2
 72
     2
 73
     0
 90
        0
 40
-0.6
 41
-30.0
 62
     5
 63
     7
 74
     1
 91
        4
 64
     7
 65
   257
 75
     7
175
     7
 42
1.0
 92
        8
 66
     7
 43
1.0
 76
     1
 77
     6
 78
     2
 67
     7
 79
     5
170
     0
171
     0
290
     0
174
     0
 93
        1
 44
0.0
173
     0
291
     1
 45
0.0
1001
ACAD
1000
AcDbSavedByObjectVersion
1070
     0
  0
VISUALSTYLE
  5
33
102
{ACAD_REACTORS
330
2A
102
}
330
2A
100
AcDbVisualStyle
  2
Realistic
 70
     8
 71
     2
 72
     2
 73
     0
 90
        0
 40
-0.6
 41
-30.0
 62
     5
 63
     7
 74
     1
 91
        0
 64
     7
 65
   257
 75
     1
175
     1
 42
1.0
 92
        8
 66
     8
 43
1.0
 76
     1
 77
     6
 78
     2
 67
     7
 79
     5
170
     0
171
     0
290
     0
174
     0
 93
       13
 44
0.0
173
     0
291
     0
 45
0.0
1001
ACAD
1000
AcDbSavedByObjectVersion
1070
     0
  0
VISUALSTYLE
  5
37
102
{ACAD_REACTORS
330
2A
102
}
330
2A
100
AcDbVisualStyle
  2
Thicken
 70
    13
 71
     2
 72
     2
 73
     0
 90
        0
 40
-0.6
 41
-30.0
 62
     5
 63
     7
 74
     1
 91
        4
 64
     7
 65
   257
 75
     1
175
     1
 42
1.0
 92
       12
 66
     7
 43
1.0
 76
     1
 77
     6
 78
     2
 67
     7
 79
     5
170
     0
171
     0
290
     0
174
     0
 93
        1
 44
0.0
173
     0
291
     1
 45
0.0
1001
ACAD
1000
AcDbSavedByObjectVersion
1070
     0
  0
DICTIONARYVAR
  5
77
102
{ACAD_REACTORS
330
76
102
}
330
76
100
DictionaryVariables
280
     0
  1
1:1
  0
ENDSEC
  0
EOF
