  0
SECTION
  2
HEADER
  9
$ACADVER
  1
AC1014
  9
$ACADMAINTVER
 70
     0
  9
$DWGCODEPAGE
  3
ANSI_1252
  9
$INSBASE
 10
0.0
 20
0.0
 30
0.0
  9
$EXTMIN
 10
0.0
 20
0.0
 30
0.0
  9
$EXTMAX
 10
32.0
 20
18.0
 30
0.0
  9
$LIMMIN
 10
0.0
 20
0.0
  9
$LIMMAX
 10
12.0
 20
9.0
  9
$ORTHOMODE
 70
     0
  9
$REGENMODE
 70
     1
  9
$FILLMODE
 70
     0
  9
$QTEXTMODE
 70
     0
  9
$MIRRTEXT
 70
     1
  9
$DRAGMODE
 70
     2
  9
$LTSCALE
 40
1.0
  9
$OSMODE
 70
     0
  9
$ATTMODE
 70
     1
  9
$TEXTSIZE
 40
0.2
  9
$TRACEWID
 40
0.05
  9
$TEXTSTYLE
  7
STANDARD
  9
$CLAYER
  8
0
  9
$CELTYPE
  6
BYLAYER
  9
$CECOLOR
 62
   256
  9
$CELTSCALE
 40
1.0
  9
$DELOBJ
 70
     1
  9
$DISPSILH
 70
     0
  9
$DIMSCALE
 40
1.0
  9
$DIMASZ
 40
0.18
  9
$DIMEXO
 40
0.0625
  9
$DIMDLI
 40
0.38
  9
$DIMRND
 40
0.0
  9
$DIMDLE
 40
0.0
  9
$DIMEXE
 40
0.18
  9
$DIMTP
 40
0.0
  9
$DIMTM
 40
0.0
  9
$DIMTXT
 40
0.18
  9
$DIMCEN
 40
0.09
  9
$DIMTSZ
 40
0.0
  9
$DIMTOL
 70
     0
  9
$DIMLIM
 70
     0
  9
$DIMTIH
 70
     0
  9
$DIMTOH
 70
     0
  9
$DIMSE1
 70
     0
  9
$DIMSE2
 70
     0
  9
$DIMTAD
 70
     1
  9
$DIMZIN
 70
     0
  9
$DIMBLK
  1

  9
$DIMASO
 70
     1
  9
$DIMSHO
 70
     1
  9
$DIMPOST
  1

  9
$DIMAPOST
  1

  9
$DIMALT
 70
     0
  9
$DIMALTD
 70
     2
  9
$DIMALTF
 40
25.4
  9
$DIMLFAC
 40
1.0
  9
$DIMTOFL
 70
     0
  9
$DIMTVP
 40
0.0
  9
$DIMTIX
 70
     0
  9
$DIMSOXD
 70
     0
  9
$DIMSAH
 70
     0
  9
$DIMBLK1
  1

  9
$DIMBLK2
  1

  9
$DIMSTYLE
  2
STANDARD
  9
$DIMCLRD
 70
     0
  9
$DIMCLRE
 70
     0
  9
$DIMCLRT
 70
     0
  9
$DIMTFAC
 40
1.0
  9
$DIMGAP
 40
0.09
  9
$DIMJUST
 70
     0
  9
$DIMSD1
 70
     0
  9
$DIMSD2
 70
     0
  9
$DIMTOLJ
 70
     1
  9
$DIMTZIN
 70
     0
  9
$DIMALTZ
 70
     0
  9
$DIMALTTZ
 70
     0
  9
$DIMFIT
 70
     3
  9
$DIMUPT
 70
     0
  9
$DIMUNIT
 70
     2
  9
$DIMDEC
 70
     2
  9
$DIMTDEC
 70
     4
  9
$DIMALTU
 70
     2
  9
$DIMALTTD
 70
     2
  9
$DIMTXSTY
  7
STANDARD
  9
$DIMAUNIT
 70
     0
  9
$LUNITS
 70
     2
  9
$LUPREC
 70
     4
  9
$SKETCHINC
 40
0.1
  9
$FILLETRAD
 40
0.5
  9
$AUNITS
 70
     0
  9
$AUPREC
 70
     0
  9
$MENU
  1
.
  9
$ELEVATION
 40
0.0
  9
$PELEVATION
 40
0.0
  9
$THICKNESS
 40
0.0
  9
$LIMCHECK
 70
     0
  9
$BLIPMODE
 70
     0
  9
$CHAMFERA
 40
0.5
  9
$CHAMFERB
 40
0.5
  9
$CHAMFERC
 40
1.0
  9
$CHAMFERD
 40
0.0
  9
$SKPOLY
 70
     0
  9
$TDCREATE
 40
2450772.666465926
  9
$TDUPDATE
 40
2455605.064490729
  9
$TDINDWG
 40
0.0011564931
  9
$TDUSRTIMER
 40
0.0000000000
  9
$USRTIMER
 70
     1
  9
$ANGBASE
 50
0.0
  9
$ANGDIR
 70
     0
  9
$PDMODE
 70
     0
  9
$PDSIZE
 40
0.0
  9
$PLINEWID
 40
0.0
  9
$COORDS
 70
     1
  9
$SPLFRAME
 70
     0
  9
$SPLINETYPE
 70
     6
  9
$SPLINESEGS
 70
     8
  9
$ATTDIA
 70
     0
  9
$ATTREQ
 70
     1
  9
$HANDLING
 70
     1
  9
$HANDSEED
  5
E0
  9
$SURFTAB1
 70
     6
  9
$SURFTAB2
 70
     6
  9
$SURFTYPE
 70
     6
  9
$SURFU
 70
     6
  9
$SURFV
 70
     6
  9
$UCSNAME
  2

  9
$UCSORG
 10
0.0
 20
0.0
 30
0.0
  9
$UCSXDIR
 10
1.0
 20
0.0
 30
0.0
  9
$UCSYDIR
 10
0.0
 20
1.0
 30
0.0
  9
$PUCSNAME
  2

  9
$PUCSORG
 10
0.0
 20
0.0
 30
0.0
  9
$PUCSXDIR
 10
1.0
 20
0.0
 30
0.0
  9
$PUCSYDIR
 10
0.0
 20
1.0
 30
0.0
  9
$USERI1
 70
     0
  9
$USERI2
 70
     0
  9
$USERI3
 70
     0
  9
$USERI4
 70
     0
  9
$USERI5
 70
     0
  9
$USERR1
 40
0.0
  9
$USERR2
 40
0.0
  9
$USERR3
 40
0.0
  9
$USERR4
 40
0.0
  9
$USERR5
 40
0.0
  9
$WORLDVIEW
 70
     1
  9
$SHADEDGE
 70
     3
  9
$SHADEDIF
 70
    70
  9
$TILEMODE
 70
     1
  9
$MAXACTVP
 70
    48
  9
$PINSBASE
 10
0.0
 20
0.0
 30
0.0
  9
$PLIMCHECK
 70
     0
  9
$PEXTMIN
 10
0.0
 20
0.0
 30
0.0
  9
$PEXTMAX
 10
0.0
 20
0.0
 30
0.0
  9
$PLIMMIN
 10
0.0
 20
0.0
  9
$PLIMMAX
 10
12.0
 20
9.0
  9
$UNITMODE
 70
     0
  9
$VISRETAIN
 70
     1
  9
$PLINEGEN
 70
     0
  9
$PSLTSCALE
 70
     1
  9
$TREEDEPTH
 70
  3020
  9
$PICKSTYLE
 70
     1
  9
$CMLSTYLE
  2
STANDARD
  9
$CMLJUST
 70
     0
  9
$CMLSCALE
 40
1.0
  9
$PROXYGRAPHICS
 70
     1
  9
$MEASUREMENT
 70
     0
  0
ENDSEC
  0
SECTION
  2
CLASSES
  0
CLASS
  1
LWPOLYLINE
  2
AcDbPolyline
  3
"AutoCAD"
 90
        0
280
     0
281
     1
  0
CLASS
  1
IMAGE
  2
AcDbRasterImage
  3
ISM
 90
      127
280
     0
281
     1
  0
CLASS
  1
OLE2FRAME
  2
AcDbOle2Frame
  3
""
 90
        0
280
     0
281
     1
  0
CLASS
  1
HATCH
  2
AcDbHatch
  3
"ACAD_SEDONA"
 90
        0
280
     0
281
     1
  0
CLASS
  1
DICTIONARYVAR
  2
AcDbDictionaryVar
  3
"AutoCAD"
 90
        0
280
     0
281
     0
  0
CLASS
  1
RASTERVARIABLES
  2
AcDbRasterVariables
  3
ISM
 90
        0
280
     0
281
     0
  0
CLASS
  1
IMAGEDEF
  2
AcDbRasterImageDef
  3
ISM
 90
        0
280
     0
281
     0
  0
CLASS
  1
IMAGEDEF_REACTOR
  2
AcDbRasterImageDefReactor
  3
ISM
 90
        1
280
     0
281
     0
  0
CLASS
  1
IDBUFFER
  2
AcDbIdBuffer
  3
"Acad"
 90
        0
280
     0
281
     0
  0
CLASS
  1
SPATIAL_FILTER
  2
AcDbSpatialFilter
  3
"Acad"
 90
        0
280
     0
281
     0
  0
CLASS
  1
XRECORD
  2
AcDbXrecord
  3
"<Built In>"
 90
        0
280
     0
281
     0
  0
CLASS
  1
SORTENTSTABLE
  2
AcDbSortentsTable
  3
"AutoCAD"
 90
        0
280
     0
281
     0
  0
CLASS
  1
LAYER_INDEX
  2
AcDbLayerIndex
  3
"Acad"
 90
        0
280
     0
281
     0
  0
CLASS
  1
SPATIAL_INDEX
  2
AcDbSpatialIndex
  3
"Acad"
 90
        0
280
     0
281
     0
  0
CLASS
  1
OBJECT_PTR
  2
CAseDLPNTableRecord
  3
"ASE-LPNTableRecord"
 90
        1
280
     0
281
     0
  0
CLASS
  1
LAYOUT
  2
AcDbLayout
  3
"AutoCAD 2000"
 90
        1
280
     0
281
     0
  0
CLASS
  1
PLOTSETTINGS
  2
AcDbPlotSettings
  3
"AutoCAD 2000"
 90
        1
280
     0
281
     0
  0
CLASS
  1
ACDBDICTIONARYWDFLT
  2
AcDbDictionaryWithDefault
  3
"AutoCAD 2000"
 90
        1
280
     0
281
     0
  0
CLASS
  1
ACDBPLACEHOLDER
  2
AcDbPlaceHolder
  3
"AutoCAD 2000"
 90
        1
280
     0
281
     0
  0
CLASS
  1
VBA_PROJECT
  2
AcDbVbaProject
  3
"acadvba"
 90
        1
280
     0
281
     0
  0
CLASS
  1
WIPEOUT
  2
AcDbWipeout
  3
WipeOut|AutoCAD Express Tool|expresstools@autodesk.com
 90
      127
280
     0
281
     1
  0
CLASS
  1
WIPEOUTVARIABLES
  2
AcDbWipeoutVariables
  3
WipeOut|AutoCAD Express Tool|expresstools@autodesk.com
 90
        0
280
     0
281
     0
  0
CLASS
  1
RTEXT
  2
RText
  3
RText|AutoCAD Express Tool|expresstools@autodesk.com
 90
        0
280
     0
281
     1
  0
CLASS
  1
ARCALIGNEDTEXT
  2
AcDbArcAlignedText
  3
ATEXT|AutoCAD Express Tool|expresstools@autodesk.com
 90
        0
280
     0
281
     1
  0
ENDSEC
  0
SECTION
  2
TABLES
  0
TABLE
  2
VPORT
  5
8
100
AcDbSymbolTable
 70
     1
  0
VPORT
  5
25
100
AcDbSymbolTableRecord
100
AcDbViewportTableRecord
  2
*ACTIVE
 70
     0
 10
0.0
 20
0.0
 11
1.0
 21
1.0
 12
16.0
 22
9.0
 13
0.0
 23
0.0
 14
0.5
 24
0.5
 15
0.5
 25
0.5
 16
0.0
 26
0.0
 36
1.0
 17
0.0
 27
0.0
 37
0.0
 40
18.0
 41
1.777778
 42
50.0
 43
0.0
 44
0.0
 50
0.0
 51
0.0
 71
     0
 72
   100
 73
     1
 74
     1
 75
     0
 76
     0
 77
     0
 78
     0
  0
ENDTAB
  0
TABLE
  2
LTYPE
  5
5
100
AcDbSymbolTable
 70
     3
  0
LTYPE
  5
12
100
AcDbSymbolTableRecord
100
AcDbLinetypeTableRecord
  2
BYBLOCK
 70
    64
  3

 72
    65
 73
     0
 40
0.0
  0
LTYPE
  5
13
100
AcDbSymbolTableRecord
100
AcDbLinetypeTableRecord
  2
BYLAYER
 70
    64
  3

 72
    65
 73
     0
 40
0.0
  0
LTYPE
  5
14
100
AcDbSymbolTableRecord
100
AcDbLinetypeTableRecord
  2
CONTINUOUS
 70
     0
  3
Solid line
 72
    65
 73
     0
 40
0.0
  0
ENDTAB
  0
TABLE
  2
LAYER
  5
2
100
AcDbSymbolTable
 70
     1
  0
LAYER
  5
E
100
AcDbSymbolTableRecord
100
AcDbLayerTableRecord
  2
0
 70
     0
 62
     7
  6
CONTINUOUS
  0
ENDTAB
  0
TABLE
  2
STYLE
  5
3
100
AcDbSymbolTable
 70
     1
  0
STYLE
  5
F
100
AcDbSymbolTableRecord
100
AcDbTextStyleTableRecord
  2
STANDARD
 70
     0
 40
0.0
 41
1.0
 50
0.0
 71
     0
 42
0.2
  3
txt.shx
  4

  0
ENDTAB
  0
TABLE
  2
VIEW
  5
6
100
AcDbSymbolTable
 70
     0
  0
ENDTAB
  0
TABLE
  2
UCS
  5
7
100
AcDbSymbolTable
 70
     0
  0
ENDTAB
  0
TABLE
  2
APPID
  5
9
100
AcDbSymbolTable
 70
     1
  0
APPID
  5
10
100
AcDbSymbolTableRecord
100
AcDbRegAppTableRecord
  2
ACAD
 70
     0
  0
ENDTAB
  0
TABLE
  2
DIMSTYLE
  5
A
100
AcDbSymbolTable
 70
     1
  0
DIMSTYLE
105
1D
100
AcDbSymbolTableRecord
100
AcDbDimStyleTableRecord
  2
STANDARD
 70
     0
  3

  4

  5

  6

  7

 40
1.0
 41
0.18
 42
0.0625
 43
0.38
 44
0.18
 45
0.0
 46
0.0
 47
0.0
 48
0.0
 71
     0
 72
     0
 73
     1
 74
     1
 75
     0
 76
     0
 77
     0
 78
     0
140
0.18
141
0.09
142
0.0
143
25.4
144
1.0
145
0.0
146
1.0
147
0.09
170
     0
171
     2
172
     0
173
     0
174
     0
175
     0
176
     0
177
     0
178
     0
270
     2
271
     4
272
     4
273
     2
274
     2
275
     0
280
     0
281
     0
282
     0
283
     1
284
     0
285
     0
286
     0
287
     3
288
     0
340
F
  0
ENDTAB
  0
TABLE
  2
BLOCK_RECORD
  5
1
100
AcDbSymbolTable
 70
     0
  0
BLOCK_RECORD
  5
18
100
AcDbSymbolTableRecord
100
AcDbBlockTableRecord
  2
*MODEL_SPACE
  0
BLOCK_RECORD
  5
15
100
AcDbSymbolTableRecord
100
AcDbBlockTableRecord
  2
*PAPER_SPACE
  0
ENDTAB
  0
ENDSEC
  0
SECTION
  2
BLOCKS
  0
BLOCK
  5
19
100
AcDbEntity
  8
0
100
AcDbBlockBegin
  2
*MODEL_SPACE
 70
     0
 10
0.0
 20
0.0
 30
0.0
  3
*MODEL_SPACE
  1

  0
ENDBLK
  5
1A
100
AcDbEntity
  8
0
100
AcDbBlockEnd
  0
BLOCK
  5
16
100
AcDbEntity
 67
     1
  8
0
100
AcDbBlockBegin
  2
*PAPER_SPACE
 70
     0
 10
0.0
 20
0.0
 30
0.0
  3
*PAPER_SPACE
  1

  0
ENDBLK
  5
17
100
AcDbEntity
 67
     1
  8
0
100
AcDbBlockEnd
  0
ENDSEC
  0
SECTION
  2
ENTITIES
  0
SPLINE
  5
32
102
{ACAD_REACTORS
330
31
102
}
100
AcDbEntity
  8
0
  6
CONTINUOUS
 62
     7
100
AcDbSpline
210
0.0
220
0.0
230
1.0
 70
     8
 71
     3
 72
    11
 73
     7
 74
     0
 42
0.0000001
 43
0.0000001
 40
0.0
 40
0.0
 40
0.0
 40
0.0
 40
3.7183434259990999
 40
3.7183434259990999
 40
3.7183434259990999
 40
8.1840064740865994
 40
8.1840064740865994
 40
8.1840064740865994
 40
8.1840064740865994
 10
4.1268003283058672
 20
16.086631072001921
 30
0.0
 10
4.6348548490263672
 20
16.197974473449179
 30
0.0
 10
4.842928001304986
 20
16.289879195822909
 30
0.0
 10
5.1759716453202991
 20
16.329767683743601
 30
0.0
 10
5.5759510243309736
 20
16.377673034633435
 30
0.0
 10
6.1561825239541292
 20
16.350552381895152
 30
0.0
 10
6.5146565756922428
 20
16.649115299149138
 30
0.0
  0
SPLINE
  5
33
102
{ACAD_REACTORS
330
31
102
}
100
AcDbEntity
  8
0
  6
CONTINUOUS
 62
     7
100
AcDbSpline
210
0.0
220
0.0
230
1.0
 70
     8
 71
     3
 72
    11
 73
     7
 74
     0
 42
0.0000001
 43
0.0000001
 40
0.0
 40
0.0
 40
0.0
 40
0.0
 40
4.4656630480875004
 40
4.4656630480875004
 40
4.4656630480875004
 40
8.1840064740865994
 40
8.1840064740865994
 40
8.1840064740865994
 40
8.1840064740865994
 10
6.5146565756922428
 20
16.649115299149138
 30
0.0
 10
6.1561825239541292
 20
16.947983487357941
 30
0.0
 10
5.575951024330938
 20
16.920862834619633
 30
0.0
 10
5.1759716453202635
 20
16.968768185509468
 30
0.0
 10
4.8429280013049869
 20
17.008656673430139
 30
0.0
 10
4.6348548490263672
 20
17.100561395803869
 30
0.0
 10
4.1268003283058468
 20
17.211904797251094
 30
0.0
  0
SPLINE
  5
34
102
{ACAD_REACTORS
330
31
102
}
100
AcDbEntity
  8
0
  6
CONTINUOUS
 62
     7
100
AcDbSpline
210
0.0
220
0.0
230
1.0
 70
     8
 71
     3
 72
    14
 73
    10
 74
     0
 42
0.0000001
 43
0.0000001
 40
0.0
 40
0.0
 40
0.0
 40
0.0
 40
2.3486116898493998
 40
2.3486116898493998
 40
2.3486116898493998
 40
3.2953213616350001
 40
3.2953213616350001
 40
3.2953213616350001
 40
5.0933614292616003
 40
5.0933614292616003
 40
5.0933614292616003
 40
5.0933614292616003
 10
4.1268003283058468
 20
17.211904797251094
 30
0.0
 10
4.0759948762338007
 20
17.462427450507349
 30
0.0
 10
3.897972638198004
 20
17.681387218522122
 30
0.0
 10
3.812486817540667
 20
17.736361630909105
 30
0.0
 10
3.7780280547036602
 20
17.758521449040135
 30
0.0
 10
3.7586049995236994
 20
17.754036234468256
 30
0.0
 10
3.691321847468346
 20
17.76046980283331
 30
0.0
 10
3.5635341984380196
 20
17.77268876926297
 30
0.0
 10
3.2631076430809811
 20
17.824293505210829
 30
0.0
 10
3.0009684243077706
 20
17.768621804487218
 30
0.0
  0
LINE
  5
35
102
{ACAD_REACTORS
330
31
102
}
100
AcDbEntity
  8
0
  6
CONTINUOUS
 62
     7
100
AcDbLine
 10
3.000968
 20
17.768622
 30
0.0
 11
3.000968
 21
16.71111
 31
0.0
  0
LINE
  5
36
102
{ACAD_REACTORS
330
31
102
}
100
AcDbEntity
  8
0
  6
CONTINUOUS
 62
     7
100
AcDbLine
 10
3.000968
 20
16.71111
 30
0.0
 11
4.1268
 21
16.71111
 31
0.0
  0
LINE
  5
37
102
{ACAD_REACTORS
330
31
102
}
100
AcDbEntity
  8
0
  6
CONTINUOUS
 62
     7
100
AcDbLine
 10
4.1268
 20
16.71111
 30
0.0
 11
4.78125
 21
16.71111
 31
0.0
  0
LINE
  5
38
102
{ACAD_REACTORS
330
31
102
}
100
AcDbEntity
  8
0
  6
CONTINUOUS
 62
     7
100
AcDbLine
 10
4.78125
 20
16.71111
 30
0.0
 11
4.78125
 21
16.652266
 31
0.0
  0
LINE
  5
39
102
{ACAD_REACTORS
330
31
102
}
100
AcDbEntity
  8
0
  6
CONTINUOUS
 62
     7
100
AcDbLine
 10
4.78125
 20
16.652266
 30
0.0
 11
4.78125
 21
16.60011
 31
0.0
  0
LINE
  5
3A
102
{ACAD_REACTORS
330
31
102
}
100
AcDbEntity
  8
0
  6
CONTINUOUS
 62
     7
100
AcDbLine
 10
4.78125
 20
16.60011
 30
0.0
 11
4.1268
 21
16.60011
 31
0.0
  0
LINE
  5
3B
102
{ACAD_REACTORS
330
31
102
}
100
AcDbEntity
  8
0
  6
CONTINUOUS
 62
     7
100
AcDbLine
 10
4.1268
 20
16.60011
 30
0.0
 11
3.0
 21
16.60011
 31
0.0
  0
LINE
  5
3C
102
{ACAD_REACTORS
330
31
102
}
100
AcDbEntity
  8
0
  6
CONTINUOUS
 62
     7
100
AcDbLine
 10
3.0
 20
16.60011
 30
0.0
 11
3.000968
 21
15.548779
 31
0.0
  0
SPLINE
  5
3D
102
{ACAD_REACTORS
330
31
102
}
100
AcDbEntity
  8
0
  6
CONTINUOUS
 62
     7
100
AcDbSpline
210
0.0
220
0.0
230
1.0
 70
     8
 71
     3
 72
    14
 73
    10
 74
     0
 42
0.0000001
 43
0.0000001
 40
0.0
 40
0.0
 40
0.0
 40
0.0
 40
1.7980400676267001
 40
1.7980400676267001
 40
1.7980400676267001
 40
2.7447497394122
 40
2.7447497394122
 40
2.7447497394122
 40
5.0933614292616003
 40
5.0933614292616003
 40
5.0933614292616003
 40
5.0933614292616003
 10
3.0009684243077741
 20
15.525347430174621
 30
0.0
 10
3.2631076430809811
 20
15.469675729451104
 30
0.0
 10
3.56353419843802
 20
15.521280465398863
 30
0.0
 10
3.691321847468346
 20
15.533499431828549
 30
0.0
 10
3.7586049995236994
 20
15.539933000193599
 30
0.0
 10
3.7780280547036602
 20
15.535447785621715
 30
0.0
 10
3.812486817540667
 20
15.557607603752746
 30
0.0
 10
3.897972638198004
 20
15.612582016139728
 30
0.0
 10
4.0759948762338007
 20
15.831541784154515
 30
0.0
 10
4.1268003283058405
 20
16.082064437410757
 30
0.0
  0
SPLINE
  5
3E
100
AcDbEntity
  8
0
  6
CONTINUOUS
 62
     7
100
AcDbSpline
210
0.0
220
0.0
230
1.0
 70
     8
 71
     3
 72
     8
 73
     4
 74
     0
 42
0.0000001
 43
0.0000001
 40
0.0
 40
0.0
 40
0.0
 40
0.0
 40
0.0052665736412
 40
0.0052665736412
 40
0.0052665736412
 40
0.0052665736412
 10
6.6764433379897339
 20
16.199913531626699
 30
0.0
 10
6.6765627569923147
 20
16.200396975170392
 30
0.0
 10
6.6766821899200313
 20
16.20088047508715
 30
0.0
 10
6.6768016367824732
 20
16.20136403141564
 30
0.0
  0
SPLINE
  5
3F
100
AcDbEntity
  8
0
  6
CONTINUOUS
 62
     7
100
AcDbSpline
210
0.0
220
0.0
230
1.0
 70
     8
 71
     3
 72
    17
 73
    13
 74
     0
 42
0.0000001
 43
0.0000001
 40
0.0
 40
0.0
 40
0.0
 40
0.0
 40
0.11488410281934
 40
0.11488410281934
 40
0.11488410281934
 40
0.26794937429253
 40
0.26794937429253
 40
0.26794937429253
 40
0.41258384541915
 40
0.41258384541915
 40
0.41258384541915
 40
0.64538938484807
 40
0.64538938484807
 40
0.64538938484807
 40
0.64538938484807
 10
6.6768016367824732
 20
16.20136403141564
 30
0.0
 10
6.6785797226651145
 20
16.205991826037746
 30
0.0
 10
6.684040598313274
 20
16.218606363758035
 30
0.0
 10
6.6884335108275579
 20
16.226086949761548
 30
0.0
 10
6.6942863862912612
 20
16.236053671869357
 30
0.0
 10
6.6982434739760954
 20
16.236906893133337
 30
0.0
 10
6.7074855553546033
 20
16.240375983156824
 30
0.0
 10
6.7162185849923404
 20
16.243653996490664
 30
0.0
 10
6.7296704493374522
 20
16.249267651645027
 30
0.0
 10
6.7392389628996279
 20
16.245138994288602
 30
0.0
 10
6.7546405676762387
 20
16.238493453322452
 30
0.0
 10
6.7599809762562098
 20
16.206606999788814
 30
0.0
 10
6.7622601833697686
 20
16.189570531084762
 30
0.0
  0
SPLINE
  5
40
100
AcDbEntity
  8
0
  6
CONTINUOUS
 62
     7
100
AcDbSpline
210
0.0
220
0.0
230
1.0
 70
     8
 71
     3
 72
    11
 73
     7
 74
     0
 42
0.0000001
 43
0.0000001
 40
0.0
 40
0.0
 40
0.0
 40
0.0
 40
0.38183972951958
 40
0.38183972951958
 40
0.38183972951958
 40
0.8302311025551
 40
0.8302311025551
 40
0.8302311025551
 40
0.8302311025551
 10
6.7622601833697686
 20
16.189570531084762
 30
0.0
 10
6.7601155805018429
 20
16.142987087590608
 30
0.0
 10
6.7745695174656255
 20
16.119029006185798
 30
0.0
 10
6.7750202701335782
 20
16.081864684769261
 30
0.0
 10
6.7755495854249137
 20
16.038222916195672
 30
0.0
 10
6.7567690430017162
 20
15.976370245716824
 30
0.0
 10
6.7559095018607547
 20
15.935543270724512
 30
0.0
  0
SPLINE
  5
41
100
AcDbEntity
  8
0
  6
CONTINUOUS
 62
     7
100
AcDbSpline
210
0.0
220
0.0
230
1.0
 70
     8
 71
     3
 72
    17
 73
    13
 74
     0
 42
0.0000001
 43
0.0000001
 40
0.0
 40
0.0
 40
0.0
 40
0.0
 40
0.1144215186713
 40
0.1144215186713
 40
0.1144215186713
 40
0.77177002224142
 40
0.77177002224142
 40
0.77177002224142
 40
1.1628329224306
 40
1.1628329224306
 40
1.1628329224306
 40
1.3202265052208
 40
1.3202265052208
 40
1.3202265052208
 40
1.3202265052208
 10
6.7559095018607547
 20
15.935543270724512
 30
0.0
 10
6.7448615376662691
 20
15.877049619786749
 30
0.0
 10
6.7444096182305122
 20
15.862261365915305
 30
0.0
 10
6.7436870824066171
 20
15.848801933371536
 30
0.0
 10
6.7395361338077802
 20
15.771477860554395
 30
0.0
 10
6.7264535693710075
 20
15.738011152389154
 30
0.0
 10
6.7228017001868992
 20
15.70838044610133
 30
0.0
 10
6.7206291683464938
 20
15.69075285605942
 30
0.0
 10
6.7217943233538229
 20
15.674482893707896
 30
0.0
 10
6.7173434445603597
 20
15.642578241372746
 30
0.0
 10
6.7155520709487986
 20
15.629737372202371
 30
0.0
 10
6.7128509715145599
 20
15.614363882732448
 30
0.0
 10
6.7098929164350807
 20
15.59948318271654
 30
0.0
  0
LINE
  5
42
100
AcDbEntity
  8
0
  6
CONTINUOUS
 62
     7
100
AcDbLine
 10
6.709893
 20
15.599483
 30
0.0
 11
6.706503
 21
15.602327
 31
0.0
  0
LINE
  5
43
100
AcDbEntity
  8
0
  6
CONTINUOUS
 62
     7
100
AcDbLine
 10
6.706503
 20
15.602327
 30
0.0
 11
5.577224
 21
14.256505
 31
0.0
  0
LINE
  5
44
100
AcDbEntity
  8
0
  6
CONTINUOUS
 62
     7
100
AcDbLine
 10
5.577224
 20
14.256505
 30
0.0
 11
5.593491
 21
14.242855
 31
0.0
  0
LINE
  5
45
100
AcDbEntity
  8
0
  6
CONTINUOUS
 62
     7
100
AcDbLine
 10
5.593491
 20
14.242855
 30
0.0
 11
5.662255
 21
14.185155
 31
0.0
  0
LINE
  5
46
100
AcDbEntity
  8
0
  6
CONTINUOUS
 62
     7
100
AcDbLine
 10
5.662255
 20
14.185155
 30
0.0
 11
6.652301
 21
15.365047
 31
0.0
  0
SPLINE
  5
47
100
AcDbEntity
  8
0
  6
CONTINUOUS
 62
     7
100
AcDbSpline
210
0.0
220
0.0
230
1.0
 70
     8
 71
     3
 72
    23
 73
    19
 74
     0
 42
0.0000001
 43
0.0000001
 40
0.0
 40
0.0
 40
0.0
 40
0.0
 40
0.15197266883239
 40
0.15197266883239
 40
0.15197266883239
 40
0.37656012634117
 40
0.37656012634117
 40
0.37656012634117
 40
1.0577287974338001
 40
1.0577287974338001
 40
1.0577287974338001
 40
2.2183751825821001
 40
2.2183751825821001
 40
2.2183751825821001
 40
2.9574313262752998
 40
2.9574313262752998
 40
2.9574313262752998
 40
3.6531015262227
 40
3.6531015262227
 40
3.6531015262227
 40
3.6531015262227
 10
6.6523013731800544
 20
15.365046888848372
 30
0.0
 10
6.6492114958652504
 20
15.35488515983505
 30
0.0
 10
6.6461204158436455
 20
15.345360800260329
 30
0.0
 10
6.6432699547527143
 20
15.337582003693871
 30
0.0
 10
6.6390575011973416
 20
15.326086383088207
 30
0.0
 10
6.6353705441192909
 20
15.318402961337116
 30
0.0
 10
6.6310875524750372
 20
15.307059556408213
 30
0.0
 10
6.618097335839626
 20
15.272655266218798
 30
0.0
 10
6.599624226084452
 20
15.204582967961688
 30
0.0
 10
6.5762643758412755
 20
15.141182885587881
 30
0.0
 10
6.536461421165134
 20
15.0331551979562
 30
0.0
 10
6.4824708385153489
 20
14.938692311019031
 30
0.0
 10
6.4235604859315512
 20
14.829593701928371
 30
0.0
 10
6.3860485800131244
 20
14.760123794169607
 30
0.0
 10
6.3465418720210085
 20
14.684719590845537
 30
0.0
 10
6.3127522230113584
 20
14.6146827959132
 30
0.0
 10
6.2809461794741637
 20
14.548757478127676
 30
0.0
 10
6.2542056626491984
 20
14.487587883637469
 30
0.0
 10
6.2288029366131585
 20
14.411379705529381
 30
0.0
  0
SPLINE
  5
48
100
AcDbEntity
  8
0
  6
CONTINUOUS
 62
     7
100
AcDbSpline
210
0.0
220
0.0
230
1.0
 70
     8
 71
     3
 72
    11
 73
     7
 74
     0
 42
0.0000001
 43
0.0000001
 40
0.0
 40
0.0
 40
0.0
 40
0.0
 40
2.8733796050484002
 40
2.8733796050484002
 40
2.8733796050484002
 40
4.4398219513267003
 40
4.4398219513267003
 40
4.4398219513267003
 40
4.4398219513267003
 10
6.2288029366131585
 20
14.411379705529381
 30
0.0
 10
6.1779974845410903
 20
14.309768801385268
 30
0.0
 10
5.9112083454370916
 20
13.98302148955201
 30
0.0
 10
5.730003303457945
 20
13.772797634040426
 30
0.0
 10
5.6312181479509498
 20
13.65819267586059
 30
0.0
 10
5.5578682356051621
 20
13.578218011685042
 30
0.0
 10
5.4667211555323538
 20
13.496881568232498
 30
0.0
  0
SPLINE
  5
49
100
AcDbEntity
  8
0
  6
CONTINUOUS
 62
     7
100
AcDbSpline
210
0.0
220
0.0
230
1.0
 70
     8
 71
     3
 72
    17
 73
    13
 74
     0
 42
0.0000001
 43
0.0000001
 40
0.0
 40
0.0
 40
0.0
 40
0.0
 40
1.0960907144495
 40
1.0960907144495
 40
1.0960907144495
 40
2.1177517667195001
 40
2.1177517667195001
 40
2.1177517667195001
 40
3.6204777201246001
 40
3.6204777201246001
 40
3.6204777201246001
 40
4.5115863963771003
 40
4.5115863963771003
 40
4.5115863963771003
 40
4.5115863963771003
 10
5.4667211555323538
 20
13.496881568232498
 30
0.0
 10
5.4597371624871549
 20
13.384689362781446
 30
0.0
 10
5.4700795965332949
 20
13.258445208629887
 30
0.0
 10
5.4730718370413554
 20
13.147594088270775
 30
0.0
 10
5.4758608904890345
 20
13.04427027503303
 30
0.0
 10
5.4722640830635862
 20
12.954319956207931
 30
0.0
 10
5.4603704740233212
 20
12.861813420365486
 30
0.0
 10
5.4428765752936741
 20
12.725748751989274
 30
0.0
 10
5.4074330009282399
 20
12.584153848174678
 30
0.0
 10
5.3651102513882147
 20
12.442668440771074
 30
0.0
 10
5.3400130809876334
 20
12.358768329899366
 30
0.0
 10
5.3124968979408225
 20
12.274906722655828
 30
0.0
 10
5.2505256766604553
 20
12.226837561433314
 30
0.0
  0
LINE
  5
4A
100
AcDbEntity
  8
0
  6
CONTINUOUS
 62
     7
100
AcDbLine
 10
5.250526
 20
12.226838
 30
0.0
 11
4.463525
 21
12.887209
 31
0.0
  0
LINE
  5
4B
100
AcDbEntity
  8
0
  6
CONTINUOUS
 62
     7
100
AcDbLine
 10
4.463525
 20
12.887209
 30
0.0
 11
4.461116
 21
12.889231
 31
0.0
  0
LINE
  5
4C
100
AcDbEntity
  8
0
  6
CONTINUOUS
 62
     7
100
AcDbLine
 10
4.461116
 20
12.889231
 30
0.0
 11
3.666055
 21
13.556366
 31
0.0
  0
LINE
  5
4D
100
AcDbEntity
  8
0
  6
CONTINUOUS
 62
     7
100
AcDbLine
 10
3.666055
 20
13.556366
 30
0.0
 11
3.653641
 21
13.541572
 31
0.0
  0
LINE
  5
4E
100
AcDbEntity
  8
0
  6
CONTINUOUS
 62
     7
100
AcDbLine
 10
3.653641
 20
13.541572
 30
0.0
 11
3.652263
 21
13.539929
 31
0.0
  0
LINE
  5
4F
100
AcDbEntity
  8
0
  6
CONTINUOUS
 62
     7
100
AcDbLine
 10
3.652263
 20
13.539929
 30
0.0
 11
3.594706
 21
13.471335
 31
0.0
  0
LINE
  5
50
100
AcDbEntity
  8
0
  6
CONTINUOUS
 62
     7
100
AcDbLine
 10
3.594706
 20
13.471335
 30
0.0
 11
4.39257
 21
12.801848
 31
0.0
  0
LINE
  5
51
100
AcDbEntity
  8
0
  6
CONTINUOUS
 62
     7
100
AcDbLine
 10
4.39257
 20
12.801848
 30
0.0
 11
5.130916
 21
12.182302
 31
0.0
  0
SPLINE
  5
52
100
AcDbEntity
  8
0
  6
CONTINUOUS
 62
     7
100
AcDbSpline
210
0.0
220
0.0
230
1.0
 70
     8
 71
     3
 72
     8
 73
     4
 74
     0
 42
0.0000001
 43
0.0000001
 40
0.0
 40
0.0
 40
0.0
 40
0.0
 40
1.1463950947193999
 40
1.1463950947193999
 40
1.1463950947193999
 40
1.1463950947193999
 10
5.1309157991494754
 20
12.182301956422052
 30
0.0
 10
5.0180911994109296
 20
12.168751422999483
 30
0.0
 10
4.8928198322796748
 20
12.210426454952371
 30
0.0
 10
4.9078611827397429
 20
12.277550721536921
 30
0.0
  0
SPLINE
  5
53
100
AcDbEntity
  8
0
  6
CONTINUOUS
 62
     7
100
AcDbSpline
210
0.0
220
0.0
230
1.0
 70
     8
 71
     3
 72
    11
 73
     7
 74
     0
 42
0.0000001
 43
0.0000001
 40
0.0
 40
0.0
 40
0.0
 40
0.0
 40
0.13890625
 40
0.13890625
 40
0.13890625
 40
1.2528463265769001
 40
1.2528463265769001
 40
1.2528463265769001
 40
1.2528463265769001
 10
4.9078611827397429
 20
12.277550721536921
 30
0.0
 10
4.8951598197217283
 20
12.290252084554936
 30
0.0
 10
4.8778734742508378
 20
12.286827068395578
 30
0.0
 10
4.8631712163900458
 20
12.283224726949426
 30
0.0
 10
4.7452684276580834
 20
12.254336231965349
 30
0.0
 10
4.7935489155776354
 20
12.214043906446879
 30
0.0
 10
4.6538339223794889
 20
12.252147995500907
 30
0.0
  0
SPLINE
  5
54
100
AcDbEntity
  8
0
  6
CONTINUOUS
 62
     7
100
AcDbSpline
210
0.0
220
0.0
230
1.0
 70
     8
 71
     3
 72
    11
 73
     7
 74
     0
 42
0.0000001
 43
0.0000001
 40
0.0
 40
0.0
 40
0.0
 40
0.0
 40
0.98101178028508
 40
0.98101178028508
 40
0.98101178028508
 40
1.8076399817983999
 40
1.8076399817983999
 40
1.8076399817983999
 40
1.8076399817983999
 10
4.6538339223794889
 20
12.252147995500907
 30
0.0
 10
4.6037084445574736
 20
12.169205191555225
 30
0.0
 10
4.5408916595964701
 20
12.12439476328797
 30
0.0
 10
4.4442614325822554
 20
12.112433002302749
 30
0.0
 10
4.3628380772527962
 20
12.102353685041948
 30
0.0
 10
4.2574064239520322
 20
12.115597654148399
 30
0.0
 10
4.2473903058030791
 20
12.175939817392845
 30
0.0
  0
SPLINE
  5
55
100
AcDbEntity
  8
0
  6
CONTINUOUS
 62
     7
100
AcDbSpline
210
0.0
220
0.0
230
1.0
 70
     8
 71
     3
 72
     8
 73
     4
 74
     0
 42
0.0000001
 43
0.0000001
 40
0.0
 40
0.0
 40
0.0
 40
0.0
 40
1.3258293091786
 40
1.3258293091786
 40
1.3258293091786
 40
1.3258293091786
 10
4.2473903058030791
 20
12.175939817392845
 30
0.0
 10
4.1103372027238647
 20
12.148601250834112
 30
0.0
 10
3.9744363739750073
 20
12.123602285859823
 30
0.0
 10
3.8358346250059476
 20
12.132081154348425
 30
0.0
  0
SPLINE
  5
56
100
AcDbEntity
  8
0
  6
CONTINUOUS
 62
     7
100
AcDbSpline
210
0.0
220
0.0
230
1.0
 70
     8
 71
     3
 72
    47
 73
    43
 74
     0
 42
0.0000001
 43
0.0000001
 40
0.0
 40
0.0
 40
0.0
 40
0.0
 40
0.12225363448332
 40
0.12225363448332
 40
0.12225363448332
 40
0.90084435841184
 40
0.90084435841184
 40
0.90084435841184
 40
2.6270144037504002
 40
2.6270144037504002
 40
2.6270144037504002
 40
3.6493690656367002
 40
3.6493690656367002
 40
3.6493690656367002
 40
4.3797729913327004
 40
4.3797729913327004
 40
4.3797729913327004
 40
4.7149919167745002
 40
4.7149919167745002
 40
4.7149919167745002
 40
4.8621177171529002
 40
4.8621177171529002
 40
4.8621177171529002
 40
5.0785359238890999
 40
5.0785359238890999
 40
5.0785359238890999
 40
5.5368863410450002
 40
5.5368863410450002
 40
5.5368863410450002
 40
7.6593021384105997
 40
7.6593021384105997
 40
7.6593021384105997
 40
8.5983575118365003
 40
8.5983575118365003
 40
8.5983575118365003
 40
9.0986829443929
 40
9.0986829443929
 40
9.0986829443929
 40
9.4617807182888001
 40
9.4617807182888001
 40
9.4617807182888001
 40
11.042906244614
 40
11.042906244614
 40
11.042906244614
 40
11.042906244614
 10
3.8358346250059476
 20
12.132081154348425
 30
0.0
 10
3.8230542712756881
 20
12.132862983865888
 30
0.0
 10
3.8102509528820927
 20
12.133929459767966
 30
0.0
 10
3.7974216488759334
 20
12.135304994789781
 30
0.0
 10
3.7157162898825562
 20
12.144065297196736
 30
0.0
 10
3.6329569618536377
 20
12.165360949347889
 30
0.0
 10
3.5540945861542368
 20
12.182356020479039
 30
0.0
 10
3.379253213848163
 20
12.220034844286403
 30
0.0
 10
3.223566472740468
 20
12.236575086861663
 30
0.0
 10
3.0651890066233234
 20
12.301524800827073
 30
0.0
 10
2.9713871582713409
 20
12.33999241474493
 30
0.0
 10
2.8766414548191319
 20
12.395441149479973
 30
0.0
 10
2.7861955669676401
 20
12.444000782946372
 30
0.0
 10
2.7215780384204491
 20
12.47869338839581
 30
0.0
 10
2.6591551982579631
 20
12.509869696417747
 30
0.0
 10
2.5978654391698344
 20
12.544263498587974
 30
0.0
 10
2.56973650056573
 20
12.56004853615382
 30
0.0
 10
2.5418462286721568
 20
12.576511291106243
 30
0.0
 10
2.5197244480466678
 20
12.590447131118001
 30
0.0
 10
2.5100153163918195
 20
12.596563497051005
 30
0.0
 10
2.5014173607488894
 20
12.602193107065384
 30
0.0
 10
2.4913059176956036
 20
12.608171300684498
 30
0.0
 10
2.4764322492602977
 20
12.616965067238315
 30
0.0
 10
2.4582837510978943
 20
12.626513086482536
 30
0.0
 10
2.4412915579206098
 20
12.634772780539134
 30
0.0
 10
2.4053039256938753
 20
12.652265921589979
 30
0.0
 10
2.3745028614130561
 20
12.663980322422491
 30
0.0
 10
2.3452902572048249
 20
12.678028648878435
 30
0.0
 10
2.2100197516417035
 20
12.743080165972405
 30
0.0
 10
2.1088090371795105
 20
12.858175760694479
 30
0.0
 10
1.9820253397801633
 20
12.948210014387824
 30
0.0
 10
1.9259303406506429
 20
12.988045351944248
 30
0.0
 10
1.8648292030959199
 20
13.022974709520987
 30
0.0
 10
1.817397852193003
 20
13.075796754541308
 30
0.0
 10
1.7921265936189461
 20
13.103940156167205
 30
0.0
 10
1.7707358064832355
 20
13.137162793069427
 30
0.0
 10
1.7320895352493859
 20
13.172826665306324
 30
0.0
 10
1.7040430396261428
 20
13.198708764786176
 30
0.0
 10
1.6669085263610168
 20
13.225876599842259
 30
0.0
 10
1.6371065075011115
 20
13.252189101879111
 30
0.0
 10
1.5073322809893699
 20
13.366768071024538
 30
0.0
 10
1.5165972569304125
 20
13.465128163721262
 30
0.0
 10
1.4530904418403447
 20
13.598492475410412
 30
0.0
  0
SPLINE
  5
57
100
AcDbEntity
  8
0
  6
CONTINUOUS
 62
     7
100
AcDbSpline
210
0.0
220
0.0
230
1.0
 70
     8
 71
     3
 72
     8
 73
     4
 74
     0
 42
0.0000001
 43
0.0000001
 40
0.0
 40
0.0
 40
0.0
 40
0.0
 40
1.9526273025242
 40
1.9526273025242
 40
1.9526273025242
 40
1.9526273025242
 10
1.4530904418403447
 20
13.598492475410412
 30
0.0
 10
1.3197261301511762
 20
13.592141793901408
 30
0.0
 10
1.0689738388643906
 20
13.621052912735511
 30
0.0
 10
0.9958413731918805
 20
13.750908831626566
 30
0.0
  0
SPLINE
  5
58
100
AcDbEntity
  8
0
  6
CONTINUOUS
 62
     7
100
AcDbSpline
210
0.0
220
0.0
230
1.0
 70
     8
 71
     3
 72
     8
 73
     4
 74
     0
 42
0.0000001
 43
0.0000001
 40
0.0
 40
0.0
 40
0.0
 40
0.0
 40
2.3601923462783998
 40
2.3601923462783998
 40
2.3601923462783998
 40
2.3601923462783998
 10
0.9958413731918805
 20
13.750908831626566
 30
0.0
 10
0.7989702464126847
 20
13.71598008332704
 30
0.0
 10
0.5131895785073772
 20
13.747733490872097
 30
0.0
 10
0.3353704962552087
 20
13.801714283698646
 30
0.0
  0
LINE
  5
59
100
AcDbEntity
  8
0
  6
CONTINUOUS
 62
     7
100
AcDbLine
 10
0.33537
 20
13.801714
 30
0.0
 11
0.33537
 21
13.97649
 31
0.0
  0
LINE
  5
5A
100
AcDbEntity
  8
0
  6
CONTINUOUS
 62
     7
100
AcDbLine
 10
0.33537
 20
13.97649
 30
0.0
 11
0.224969
 21
13.97649
 31
0.0
  0
LINE
  5
5B
100
AcDbEntity
  8
0
  6
CONTINUOUS
 62
     7
100
AcDbLine
 10
0.224969
 20
13.97649
 30
0.0
 11
0.224969
 21
15.515697
 31
0.0
  0
LINE
  5
5C
100
AcDbEntity
  8
0
  6
CONTINUOUS
 62
     7
100
AcDbLine
 10
0.224969
 20
15.515697
 30
0.0
 11
0.33537
 21
15.515697
 31
0.0
  0
LINE
  5
5D
100
AcDbEntity
  8
0
  6
CONTINUOUS
 62
     7
100
AcDbLine
 10
0.33537
 20
15.515697
 30
0.0
 11
0.681281
 21
15.515697
 31
0.0
  0
LINE
  5
5E
100
AcDbEntity
  8
0
  6
CONTINUOUS
 62
     7
100
AcDbLine
 10
0.681281
 20
15.515697
 30
0.0
 11
0.681281
 21
15.626697
 31
0.0
  0
LINE
  5
5F
100
AcDbEntity
  8
0
  6
CONTINUOUS
 62
     7
100
AcDbLine
 10
0.681281
 20
15.626697
 30
0.0
 11
0.33537
 21
15.626697
 31
0.0
  0
LINE
  5
60
100
AcDbEntity
  8
0
  6
CONTINUOUS
 62
     7
100
AcDbLine
 10
0.33537
 20
15.626697
 30
0.0
 11
0.224969
 21
15.626697
 31
0.0
  0
LINE
  5
61
100
AcDbEntity
  8
0
  6
CONTINUOUS
 62
     7
100
AcDbLine
 10
0.224969
 20
15.626697
 30
0.0
 11
0.224969
 21
17.765553
 31
0.0
  0
LINE
  5
62
100
AcDbEntity
  8
0
  6
CONTINUOUS
 62
     7
100
AcDbLine
 10
0.224969
 20
17.765553
 30
0.0
 11
0.335969
 21
17.765553
 31
0.0
  0
LINE
  5
63
100
AcDbEntity
  8
0
  6
CONTINUOUS
 62
     7
100
AcDbLine
 10
0.335969
 20
17.765553
 30
0.0
 11
0.33537
 21
17.887111
 31
0.0
  0
SPLINE
  5
64
100
AcDbEntity
  8
0
  6
CONTINUOUS
 62
     7
100
AcDbSpline
210
0.0
220
0.0
230
1.0
 70
     8
 71
     3
 72
    14
 73
    10
 74
     0
 42
0.0000001
 43
0.0000001
 40
0.0
 40
0.0
 40
0.0
 40
0.0
 40
0.22743693254629
 40
0.22743693254629
 40
0.22743693254629
 40
3.0611290375947
 40
3.0611290375947
 40
3.0611290375947
 40
3.0789264031885
 40
3.0789264031885
 40
3.0789264031885
 40
3.0789264031885
 10
0.3353704962553925
 20
17.887111388262984
 30
0.0
 10
0.3675956229924093
 20
17.896114855582525
 30
0.0
 10
0.3764404193911446
 20
17.885848917643173
 30
0.0
 10
0.3864492150374148
 20
17.87564188460825
 30
0.0
 10
0.5111512363250634
 20
17.748469975440486
 30
0.0
 10
0.8165440578284753
 20
17.630442036360961
 30
0.0
 10
1.0683013986029541
 20
17.499090522117722
 30
0.0
 10
1.0698825927724336
 20
17.498265552137376
 30
0.0
 10
1.0714616712213876
 20
17.497440056591461
 30
0.0
 10
1.0730386590153844
 20
17.496614046563405
 30
0.0
  0
LINE
  5
65
100
AcDbEntity
  8
0
  6
CONTINUOUS
 62
     7
100
AcDbLine
 10
1.073039
 20
17.496614
 30
0.0
 11
1.015386
 21
15.845652
 31
0.0
  0
LINE
  5
66
100
AcDbEntity
  8
0
  6
CONTINUOUS
 62
     7
100
AcDbLine
 10
1.015386
 20
15.845652
 30
0.0
 11
1.069134
 21
15.843775
 31
0.0
  0
LINE
  5
67
100
AcDbEntity
  8
0
  6
CONTINUOUS
 62
     7
100
AcDbLine
 10
1.069134
 20
15.843775
 30
0.0
 11
1.126318
 21
15.841778
 31
0.0
  0
LINE
  5
68
100
AcDbEntity
  8
0
  6
CONTINUOUS
 62
     7
100
AcDbLine
 10
1.126318
 20
15.841778
 30
0.0
 11
1.182029
 21
17.437134
 31
0.0
  0
SPLINE
  5
69
100
AcDbEntity
  8
0
  6
CONTINUOUS
 62
     7
100
AcDbSpline
210
0.0
220
0.0
230
1.0
 70
     8
 71
     3
 72
     8
 73
     4
 74
     0
 42
0.0000001
 43
0.0000001
 40
0.0
 40
0.0
 40
0.0
 40
0.0
 40
1.021474036918
 40
1.021474036918
 40
1.021474036918
 40
1.021474036918
 10
1.1820292182387462
 20
17.437133679319516
 30
0.0
 10
1.2676581946635084
 20
17.388682396261977
 30
0.0
 10
1.3483581734475134
 20
17.339402089638764
 30
0.0
 10
1.4288682086891717
 20
17.291388272092071
 30
0.0
  0
SPLINE
  5
6A
100
AcDbEntity
  8
0
  6
CONTINUOUS
 62
     7
100
AcDbSpline
210
0.0
220
0.0
230
1.0
 70
     8
 71
     3
 72
    11
 73
     7
 74
     0
 42
0.0000001
 43
0.0000001
 40
0.0
 40
0.0
 40
0.0
 40
0.0
 40
0.57071084722704
 40
0.57071084722704
 40
0.57071084722704
 40
4.2052231051750999
 40
4.2052231051750999
 40
4.2052231051750999
 40
4.2052231051750999
 10
1.4288682086891717
 20
17.291388272092071
 30
0.0
 10
1.4738502138722755
 20
17.264562326937991
 30
0.0
 10
1.5187729262332339
 20
17.238131729320873
 30
0.0
 10
1.5644628746842768
 20
17.212461953394062
 30
0.0
 10
1.8554345261209169
 20
17.048986673893225
 30
0.0
 10
2.1775225560297593
 20
16.916367627528736
 30
0.0
 10
2.4183940312094405
 20
16.748430503877508
 30
0.0
  0
SPLINE
  5
6B
100
AcDbEntity
  8
0
  6
CONTINUOUS
 62
     7
100
AcDbSpline
210
0.0
220
0.0
230
1.0
 70
     8
 71
     3
 72
     8
 73
     4
 74
     0
 42
0.0000001
 43
0.0000001
 40
0.0
 40
0.0
 40
0.0
 40
0.0
 40
1.7218417960421999
 40
1.7218417960421999
 40
1.7218417960421999
 40
1.7218417960421999
 10
2.4183940312094405
 20
16.748430503877508
 30
0.0
 10
2.5367713412047372
 20
16.545181745077766
 30
0.0
 10
2.6149746025857485
 20
16.375484639402469
 30
0.0
 10
2.6754521330525565
 20
16.229071568691431
 30
0.0
  0
LINE
  5
6C
100
AcDbEntity
  8
0
  6
CONTINUOUS
 62
     7
100
AcDbLine
 10
2.675452
 20
16.229072
 30
0.0
 11
2.022183
 21
14.889672
 31
0.0
  0
LINE
  5
6D
100
AcDbEntity
  8
0
  6
CONTINUOUS
 62
     7
100
AcDbLine
 10
2.022183
 20
14.889672
 30
0.0
 11
1.951448
 21
14.744643
 31
0.0
  0
LINE
  5
6E
100
AcDbEntity
  8
0
  6
CONTINUOUS
 62
     7
100
AcDbLine
 10
1.951448
 20
14.744643
 30
0.0
 11
2.000943
 21
14.720503
 31
0.0
  0
LINE
  5
6F
100
AcDbEntity
  8
0
  6
CONTINUOUS
 62
     7
100
AcDbLine
 10
2.000943
 20
14.720503
 30
0.0
 11
2.051214
 21
14.695984
 31
0.0
  0
LINE
  5
70
100
AcDbEntity
  8
0
  6
CONTINUOUS
 62
     7
100
AcDbLine
 10
2.051214
 20
14.695984
 30
0.0
 11
2.116753
 21
14.830359
 31
0.0
  0
LINE
  5
71
100
AcDbEntity
  8
0
  6
CONTINUOUS
 62
     7
100
AcDbLine
 10
2.116753
 20
14.830359
 30
0.0
 11
2.123764
 21
14.844733
 31
0.0
  0
LINE
  5
72
100
AcDbEntity
  8
0
  6
CONTINUOUS
 62
     7
100
AcDbLine
 10
2.123764
 20
14.844733
 30
0.0
 11
2.73098
 21
16.08971
 31
0.0
  0
SPLINE
  5
73
100
AcDbEntity
  8
0
  6
CONTINUOUS
 62
     7
100
AcDbSpline
210
0.0
220
0.0
230
1.0
 70
     8
 71
     3
 72
     8
 73
     4
 74
     0
 42
0.0000001
 43
0.0000001
 40
0.0
 40
0.0
 40
0.0
 40
0.0
 40
2.5725890367605002
 40
2.5725890367605002
 40
2.5725890367605002
 40
2.5725890367605002
 10
2.7309800021005617
 20
16.089710476285006
 30
0.0
 10
2.807384291635207
 20
15.892493058736354
 30
0.0
 10
2.8609647707782262
 20
15.739593594022278
 30
0.0
 10
2.9665927279313227
 20
15.596766763151024
 30
0.0
  0
SPLINE
  5
74
100
AcDbEntity
  8
0
  6
CONTINUOUS
 62
     7
100
AcDbSpline
210
0.0
220
0.0
230
1.0
 70
     8
 71
     3
 72
    14
 73
    10
 74
     0
 42
0.0000001
 43
0.0000001
 40
0.0
 40
0.0
 40
0.0
 40
0.0
 40
0.70573864333494
 40
0.70573864333494
 40
0.70573864333494
 40
1.1057944850610999
 40
1.1057944850610999
 40
1.1057944850610999
 40
1.1374019419788
 40
1.1374019419788
 40
1.1374019419788
 40
1.1374019419788
 10
2.9665927279313227
 20
15.596766763151024
 30
0.0
 10
2.9972997946160458
 20
15.545908151173162
 30
0.0
 10
3.0022068638177513
 20
15.507398904182164
 30
0.0
 10
3.0441809274955602
 20
15.432171488717465
 30
0.0
 10
3.0679743948561322
 20
15.389527987048988
 30
0.0
 10
3.1036786588570919
 20
15.335085777557488
 30
0.0
 10
3.1199973234747649
 20
15.309704939791894
 30
0.0
 10
3.121286622205234
 20
15.307699660397017
 30
0.0
 10
3.1224549120923109
 20
15.305875787979042
 30
0.0
 10
3.1235261524948252
 20
15.304199214960978
 30
0.0
  0
SPLINE
  5
75
100
AcDbEntity
  8
0
  6
CONTINUOUS
 62
     7
100
AcDbSpline
210
0.0
220
0.0
230
1.0
 70
     8
 71
     3
 72
     8
 73
     4
 74
     0
 42
0.0000001
 43
0.0000001
 40
0.0
 40
0.0
 40
0.0
 40
0.0
 40
0.38529859111506
 40
0.38529859111506
 40
0.38529859111506
 40
0.38529859111506
 10
3.1235261524948252
 20
15.304199214960978
 30
0.0
 10
3.1399637144856265
 20
15.273618448006747
 30
0.0
 10
3.1608807610838809
 20
15.243955153381354
 30
0.0
 10
3.1835245336390101
 20
15.218014947186678
 30
0.0
  0
SPLINE
  5
76
100
AcDbEntity
  8
0
  6
CONTINUOUS
 62
     7
100
AcDbSpline
210
0.0
220
0.0
230
1.0
 70
     8
 71
     3
 72
    11
 73
     7
 74
     0
 42
0.0000001
 43
0.0000001
 40
0.0
 40
0.0
 40
0.0
 40
0.0
 40
0.10039312218003
 40
0.10039312218003
 40
0.10039312218003
 40
0.18098710457092
 40
0.18098710457092
 40
0.18098710457092
 40
0.18098710457092
 10
3.1835245336390101
 20
15.218014947186678
 30
0.0
 10
3.1894245786356876
 20
15.211255985825453
 30
0.0
 10
3.2015276614130954
 20
15.198545987629252
 30
0.0
 10
3.206598575614013
 20
15.193376757298648
 30
0.0
 10
3.2106694239046227
 20
15.189226982401767
 30
0.0
 10
3.2149153436579012
 20
15.185138647768031
 30
0.0
 10
3.2193434101731229
 20
15.181107014273884
 30
0.0
  0
SPLINE
  5
77
100
AcDbEntity
  8
0
  6
CONTINUOUS
 62
     7
100
AcDbSpline
210
0.0
220
0.0
230
1.0
 70
     8
 71
     3
 72
     8
 73
     4
 74
     0
 42
0.0000001
 43
0.0000001
 40
0.0
 40
0.0
 40
0.0
 40
0.0
 40
0.080921496016601
 40
0.080921496016601
 40
0.080921496016601
 40
0.080921496016601
 10
3.2193434101731229
 20
15.181107014273884
 30
0.0
 10
3.2246191231164998
 20
15.176826820729506
 30
0.0
 10
3.230035348688324
 20
15.172140739212354
 30
0.0
 10
3.2356080776001974
 20
15.167211118110426
 30
0.0
  0
SPLINE
  5
78
100
AcDbEntity
  8
0
  6
CONTINUOUS
 62
     7
100
AcDbSpline
210
0.0
220
0.0
230
1.0
 70
     8
 71
     3
 72
    14
 73
    10
 74
     0
 42
0.0000001
 43
0.0000001
 40
0.0
 40
0.0
 40
0.0
 40
0.0
 40
0.32073579831679
 40
0.32073579831679
 40
0.32073579831679
 40
0.59628216075398
 40
0.59628216075398
 40
0.59628216075398
 40
0.83028130402241
 40
0.83028130402241
 40
0.83028130402241
 40
0.83028130402241
 10
3.2356080776001974
 20
15.167211118110426
 30
0.0
 10
3.2576958261507816
 20
15.147672354773775
 30
0.0
 10
3.2822421905430934
 20
15.124307664905064
 30
0.0
 10
3.3102428475788681
 20
15.10722582462652
 30
0.0
 10
3.3342984074275877
 20
15.092550696445674
 30
0.0
 10
3.3609034590843123
 20
15.082512718389093
 30
0.0
 10
3.3873567836697487
 20
15.073400431374385
 30
0.0
 10
3.409821443463624
 20
15.065662106194527
 30
0.0
 10
3.4321766818629467
 20
15.058591363957131
 30
0.0
 10
3.4546590728593509
 20
15.053138541527916
 30
0.0
  0
SPLINE
  5
79
100
AcDbEntity
  8
0
  6
CONTINUOUS
 62
     7
100
AcDbSpline
210
0.0
220
0.0
230
1.0
 70
     8
 71
     3
 72
     8
 73
     4
 74
     0
 42
0.0000001
 43
0.0000001
 40
0.0
 40
0.0
 40
0.0
 40
0.0
 40
0.10193881829364
 40
0.10193881829364
 40
0.10193881829364
 40
0.10193881829364
 10
3.4546590728593509
 20
15.053138541527916
 30
0.0
 10
3.4644532470540828
 20
15.050763087211992
 30
0.0
 10
3.4742715522805057
 20
15.048694681867595
 30
0.0
 10
3.484133547373415
 20
15.047011894916938
 30
0.0
  0
SPLINE
  5
7A
100
AcDbEntity
  8
0
  6
CONTINUOUS
 62
     7
100
AcDbSpline
210
0.0
220
0.0
230
1.0
 70
     8
 71
     3
 72
     8
 73
     4
 74
     0
 42
0.0000001
 43
0.0000001
 40
0.0
 40
0.0
 40
0.0
 40
0.0
 40
0.12326941964459
 40
0.12326941964459
 40
0.12326941964459
 40
0.12326941964459
 10
3.484133547373415
 20
15.047011894916938
 30
0.0
 10
3.4960591556156508
 20
15.044976986387811
 30
0.0
 10
3.5080486508190161
 20
15.043505961186735
 30
0.0
 10
3.5201366181802118
 20
15.042737750846976
 30
0.0
  0
SPLINE
  5
7B
100
AcDbEntity
  8
0
  6
CONTINUOUS
 62
     7
100
AcDbSpline
210
0.0
220
0.0
230
1.0
 70
     8
 71
     3
 72
     8
 73
     4
 74
     0
 42
0.0000001
 43
0.0000001
 40
0.0
 40
0.0
 40
0.0
 40
0.0
 40
0.098997299274306
 40
0.098997299274306
 40
0.098997299274306
 40
0.098997299274306
 10
3.5201366181802118
 20
15.042737750846976
 30
0.0
 10
3.5298444283242452
 20
15.042120803439168
 30
0.0
 10
3.539615749540661
 20
15.041957146855021
 30
0.0
 10
3.5494684958980964
 20
15.04231874335813
 30
0.0
  0
SPLINE
  5
7C
100
AcDbEntity
  8
0
  6
CONTINUOUS
 62
     7
100
AcDbSpline
210
0.0
220
0.0
230
1.0
 70
     8
 71
     3
 72
    11
 73
     7
 74
     0
 42
0.0000001
 43
0.0000001
 40
0.0
 40
0.0
 40
0.0
 40
0.0
 40
0.33411131972393
 40
0.33411131972393
 40
0.33411131972393
 40
2.3554068437716
 40
2.3554068437716
 40
2.3554068437716
 40
2.3554068437716
 10
3.5494684958980964
 20
15.04231874335813
 30
0.0
 10
3.572551625925227
 20
15.046390691271093
 30
0.0
 10
3.5962297066776787
 20
15.059731497439007
 30
0.0
 10
3.6234732544144772
 20
15.074665235948974
 30
0.0
 10
3.7882903613145906
 20
15.165010869351681
 30
0.0
 10
4.0836024070747952
 20
15.313657311455525
 30
0.0
 10
4.1640349557908065
 20
15.400898543016405
 30
0.0
  0
SPLINE
  5
7D
100
AcDbEntity
  8
0
  6
CONTINUOUS
 62
     7
100
AcDbSpline
210
0.0
220
0.0
230
1.0
 70
     8
 71
     3
 72
    11
 73
     7
 74
     0
 42
0.0000001
 43
0.0000001
 40
0.0
 40
0.0
 40
0.0
 40
0.0
 40
1.9604120280902
 40
1.9604120280902
 40
1.9604120280902
 40
2.4824689494030001
 40
2.4824689494030001
 40
2.4824689494030001
 40
2.4824689494030001
 10
4.1640349557908065
 20
15.400898543016405
 30
0.0
 10
4.3087345233334124
 20
15.522679880572895
 30
0.0
 10
4.4070896086349576
 20
15.632871244894751
 30
0.0
 10
4.5646978243464655
 20
15.763842784048514
 30
0.0
 10
4.6066688277319532
 20
15.798720451360557
 30
0.0
 10
4.6528417948384764
 20
15.835071754582675
 30
0.0
 10
4.6959122798316422
 20
15.85326259452275
 30
0.0
  0
LINE
  5
7E
100
AcDbEntity
  8
0
  6
CONTINUOUS
 62
     7
100
AcDbLine
 10
4.695912
 20
15.853263
 30
0.0
 11
3.967471
 21
14.98514
 31
0.0
  0
LINE
  5
7F
100
AcDbEntity
  8
0
  6
CONTINUOUS
 62
     7
100
AcDbLine
 10
3.967471
 20
14.98514
 30
0.0
 11
4.012624
 21
14.947251
 31
0.0
  0
LINE
  5
80
100
AcDbEntity
  8
0
  6
CONTINUOUS
 62
     7
100
AcDbLine
 10
4.012624
 20
14.947251
 30
0.0
 11
4.052502
 21
14.91379
 31
0.0
  0
LINE
  5
81
100
AcDbEntity
  8
0
  6
CONTINUOUS
 62
     7
100
AcDbLine
 10
4.052502
 20
14.91379
 30
0.0
 11
4.815812
 21
15.823468
 31
0.0
  0
SPLINE
  5
82
100
AcDbEntity
  8
0
  6
CONTINUOUS
 62
     7
100
AcDbSpline
210
0.0
220
0.0
230
1.0
 70
     8
 71
     3
 72
    23
 73
    19
 74
     0
 42
0.0000001
 43
0.0000001
 40
0.0
 40
0.0
 40
0.0
 40
0.0
 40
0.55184052543852
 40
0.55184052543852
 40
0.55184052543852
 40
1.4803775535288
 40
1.4803775535288
 40
1.4803775535288
 40
1.8574088035287999
 40
1.8574088035287999
 40
1.8574088035287999
 40
2.6327253054205002
 40
2.6327253054205002
 40
2.6327253054205002
 40
4.1660742085743001
 40
4.1660742085743001
 40
4.1660742085743001
 40
4.9966961685299003
 40
4.9966961685299003
 40
4.9966961685299003
 40
4.9966961685299003
 10
4.8158117891271708
 20
15.82346792069448
 30
0.0
 10
4.8452672220663739
 20
15.778368688887699
 30
0.0
 10
4.8628689872660118
 20
15.699595835198297
 30
0.0
 10
4.863175033935252
 20
15.626319014423292
 30
0.0
 10
4.8636899936955498
 20
15.503022086680797
 30
0.0
 10
4.8152372335626445
 20
15.395285553252169
 30
0.0
 10
4.7937532328332795
 20
15.319444352041696
 30
0.0
 10
4.7850296823394052
 20
15.2886491311416
 30
0.0
 10
4.7807526207234083
 20
15.263112670492429
 30
0.0
 10
4.7754403147406279
 20
15.234147386366807
 30
0.0
 10
4.7645162375148029
 20
15.17458398740558
 30
0.0
 10
4.7492144578800666
 20
15.100521240006668
 30
0.0
 10
4.741436318018371
 20
15.031280400799757
 30
0.0
 10
4.726053436064567
 20
14.894342305721928
 30
0.0
 10
4.7400979554367115
 20
14.776264261337941
 30
0.0
 10
4.7710452039318483
 20
14.661747514796252
 30
0.0
 10
4.7878094668776896
 20
14.599713280927789
 30
0.0
 10
4.8095337298124958
 20
14.53872408760461
 30
0.0
 10
4.8570557306677467
 20
14.411379708563107
 30
0.0
  0
SPLINE
  5
83
100
AcDbEntity
  8
0
  6
CONTINUOUS
 62
     7
100
AcDbSpline
210
0.0
220
0.0
230
1.0
 70
     8
 71
     3
 72
     8
 73
     4
 74
     0
 42
0.0000001
 43
0.0000001
 40
0.0
 40
0.0
 40
0.0
 40
0.0
 40
0.16798654407136
 40
0.16798654407136
 40
0.16798654407136
 40
0.16798654407136
 10
4.8570557306677467
 20
14.411379708563107
 30
0.0
 10
4.865464832279514
 20
14.400149096438762
 30
0.0
 10
4.87475006230357
 20
14.390236453551005
 30
0.0
 10
4.8848091093711172
 20
14.38155252455984
 30
0.0
  0
SPLINE
  5
84
100
AcDbEntity
  8
0
  6
CONTINUOUS
 62
     7
100
AcDbSpline
210
0.0
220
0.0
230
1.0
 70
     8
 71
     3
 72
    14
 73
    10
 74
     0
 42
0.0000001
 43
0.0000001
 40
0.0
 40
0.0
 40
0.0
 40
0.0
 40
1.8617169634954001
 40
1.8617169634954001
 40
1.8617169634954001
 40
3.8639224227027
 40
3.8639224227027
 40
3.8639224227027
 40
10.223419079757999
 40
10.223419079757999
 40
10.223419079757999
 40
10.223419079757999
 10
4.8848091093711172
 20
14.38155252455984
 30
0.0
 10
4.9962888630965798
 20
14.285312566758481
 30
0.0
 10
5.202810845491876
 20
14.339986456237215
 30
0.0
 10
5.3651102513882192
 20
14.424081071581075
 30
0.0
 10
5.5396570610717486
 20
14.514521617181151
 30
0.0
 10
5.6630552399795837
 20
14.638990705746473
 30
0.0
 10
5.7842552309827244
 20
14.767017873067381
 30
0.0
 10
6.1692161919445336
 20
15.173663624054335
 30
0.0
 10
6.5320006522207583
 20
15.616205185309436
 30
0.0
 10
6.6764432975624537
 20
16.199913541612933
 30
0.0
  0
SPLINE
  5
85
100
AcDbEntity
  8
0
  6
CONTINUOUS
 62
     7
100
AcDbSpline
210
0.0
220
0.0
230
1.0
 70
     8
 71
     3
 72
     8
 73
     4
 74
     0
 42
0.0000001
 43
0.0000001
 40
0.0
 40
0.0
 40
0.0
 40
0.0
 40
0.58226179258639
 40
0.58226179258639
 40
0.58226179258639
 40
0.58226179258639
 10
7.0790290276549914
 20
16.741330323877509
 30
0.0
 10
7.0785607854441173
 20
16.677440084749296
 30
0.0
 10
7.086689145134665
 20
16.618793169238398
 30
0.0
 10
7.1002717452964346
 20
16.564162031520993
 30
0.0
  0
SPLINE
  5
86
100
AcDbEntity
  8
0
  6
CONTINUOUS
 62
     7
100
AcDbSpline
210
0.0
220
0.0
230
1.0
 70
     8
 71
     3
 72
    14
 73
    10
 74
     0
 42
0.0000001
 43
0.0000001
 40
0.0
 40
0.0
 40
0.0
 40
0.0
 40
1.1495123868774
 40
1.1495123868774
 40
1.1495123868774
 40
2.6717167886332001
 40
2.6717167886332001
 40
2.6717167886332001
 40
4.3112836713469003
 40
4.3112836713469003
 40
4.3112836713469003
 40
4.3112836713469003
 10
7.1002717452964346
 20
16.564162031520993
 30
0.0
 10
7.1270867747741686
 20
16.456308192723846
 30
0.0
 10
7.1751599316967356
 20
16.364106013690247
 30
0.0
 10
7.2203119996311731
 20
16.278110019475697
 30
0.0
 10
7.280103157467126
 20
16.16423262030964
 30
0.0
 10
7.3347720340200713
 20
16.061238088617646
 30
0.0
 10
7.3621948563882018
 20
15.914443065893172
 30
0.0
 10
7.3917319877573266
 20
15.7563300966174
 30
0.0
 10
7.38965974155815
 20
15.54740220018431
 30
0.0
 10
7.4912706457022589
 20
15.437500000000007
 30
0.0
  0
SPLINE
  5
87
100
AcDbEntity
  8
0
  6
CONTINUOUS
 62
     7
100
AcDbSpline
210
0.0
220
0.0
230
1.0
 70
     8
 71
     3
 72
    14
 73
    10
 74
     0
 42
0.0000001
 43
0.0000001
 40
0.0
 40
0.0
 40
0.0
 40
0.0
 40
1.6395668827137
 40
1.6395668827137
 40
1.6395668827137
 40
3.1617712844694998
 40
3.1617712844694998
 40
3.1617712844694998
 40
4.3112836713471996
 40
4.3112836713471996
 40
4.3112836713471996
 40
4.3112836713471996
 10
7.4912706457022589
 20
15.437500000000007
 30
0.0
 10
7.5928815498463518
 20
15.547402200184308
 30
0.0
 10
7.5908093036471449
 20
15.756330096617377
 30
0.0
 10
7.6203464350162688
 20
15.914443065893172
 30
0.0
 10
7.6477692573844003
 20
16.061238088617646
 30
0.0
 10
7.7024381339373438
 20
16.164232620309644
 30
0.0
 10
7.7622292917732967
 20
16.278110019475697
 30
0.0
 10
7.8073813597077351
 20
16.364106013690272
 30
0.0
 10
7.8554545166303029
 20
16.456308192723895
 30
0.0
 10
7.8822695461080388
 20
16.564162031521086
 30
0.0
  0
SPLINE
  5
88
100
AcDbEntity
  8
0
  6
CONTINUOUS
 62
     7
100
AcDbSpline
210
0.0
220
0.0
230
1.0
 70
     8
 71
     3
 72
     8
 73
     4
 74
     0
 42
0.0000001
 43
0.0000001
 40
0.0
 40
0.0
 40
0.0
 40
0.0
 40
0.58226179258607
 40
0.58226179258607
 40
0.58226179258607
 40
0.58226179258607
 10
7.8822695461080388
 20
16.564162031521086
 30
0.0
 10
7.8958521462698048
 20
16.618793169238472
 30
0.0
 10
7.9039805059603214
 20
16.677440084749321
 30
0.0
 10
7.903512263749457
 20
16.741330323877516
 30
0.0
  0
SPLINE
  5
89
100
AcDbEntity
  8
0
  6
CONTINUOUS
 62
     7
100
AcDbSpline
210
0.0
220
0.0
230
1.0
 70
     8
 71
     3
 72
    26
 73
    22
 74
     0
 42
0.0000001
 43
0.0000001
 40
0.0
 40
0.0
 40
0.0
 40
0.0
 40
1.6676018975422
 40
1.6676018975422
 40
1.6676018975422
 40
3.0156659557259
 40
3.0156659557259
 40
3.0156659557259
 40
4.1216043577711998
 40
4.1216043577711998
 40
4.1216043577711998
 40
4.9681918936278002
 40
4.9681918936278002
 40
4.9681918936278002
 40
5.6207803918632004
 40
5.6207803918632004
 40
5.6207803918632004
 40
6.6199946027558996
 40
6.6199946027558996
 40
6.6199946027558996
 40
6.7958872700274
 40
6.7958872700274
 40
6.7958872700274
 40
6.7958872700274
 10
7.903512263749457
 20
16.741330323877516
 30
0.0
 10
8.0384039375489422
 20
16.644279669928356
 30
0.0
 10
8.4697238690780665
 20
16.747026818823063
 30
0.0
 10
8.660765611007248
 20
16.834415384894044
 30
0.0
 10
8.8152008549867205
 20
16.905058975063923
 30
0.0
 10
8.8126176621939223
 20
16.965665946138088
 30
0.0
 10
8.8650535146163314
 20
17.032741774203416
 30
0.0
 10
8.9080713686165751
 20
17.087770119226136
 30
0.0
 10
8.9881192358313999
 20
17.147152263172998
 30
0.0
 10
9.0237119630222953
 20
17.216721061661769
 30
0.0
 10
9.0509579282145953
 20
17.269975454109133
 30
0.0
 10
9.0521541262516205
 20
17.329199009599613
 30
0.0
 10
9.0269950771612724
 20
17.390382920806246
 30
0.0
 10
9.0076013282959675
 20
17.437546285537476
 30
0.0
 10
8.9725472035117928
 20
17.48587450018649
 30
0.0
 10
8.9531433343226521
 20
17.546443741660941
 30
0.0
 10
8.9234330009463818
 20
17.639184644983509
 30
0.0
 10
8.9304136895270343
 20
17.760623851749102
 30
0.0
 10
8.9299557002758281
 20
17.81614373822735
 30
0.0
 10
8.9298750799742947
 20
17.82591695883691
 30
0.0
 10
8.9295639580351072
 20
17.833647543426611
 30
0.0
 10
8.9229984710680039
 20
17.93525844757071
 30
0.0
  0
LINE
  5
8A
100
AcDbEntity
  8
0
  6
CONTINUOUS
 62
     7
100
AcDbLine
 10
8.922998
 20
17.935258
 30
0.0
 11
7.543677
 21
17.935258
 31
0.0
  0
LINE
  5
8B
100
AcDbEntity
  8
0
  6
CONTINUOUS
 62
     7
100
AcDbLine
 10
7.543677
 20
17.935258
 30
0.0
 11
7.543677
 21
16.625
 31
0.0
  0
LINE
  5
8C
100
AcDbEntity
  8
0
  6
CONTINUOUS
 62
     7
100
AcDbLine
 10
7.543677
 20
16.625
 30
0.0
 11
7.491271
 21
16.625
 31
0.0
  0
LINE
  5
8D
100
AcDbEntity
  8
0
  6
CONTINUOUS
 62
     7
100
AcDbLine
 10
7.491271
 20
16.625
 30
0.0
 11
7.432677
 21
16.625
 31
0.0
  0
LINE
  5
8E
100
AcDbEntity
  8
0
  6
CONTINUOUS
 62
     7
100
AcDbLine
 10
7.432677
 20
16.625
 30
0.0
 11
7.432677
 21
17.935258
 31
0.0
  0
LINE
  5
8F
100
AcDbEntity
  8
0
  6
CONTINUOUS
 62
     7
100
AcDbLine
 10
7.432677
 20
17.935258
 30
0.0
 11
6.059543
 21
17.935258
 31
0.0
  0
SPLINE
  5
90
100
AcDbEntity
  8
0
  6
CONTINUOUS
 62
     7
100
AcDbSpline
210
0.0
220
0.0
230
1.0
 70
     8
 71
     3
 72
    26
 73
    22
 74
     0
 42
0.0000001
 43
0.0000001
 40
0.0
 40
0.0
 40
0.0
 40
0.0
 40
0.17589266727143
 40
0.17589266727143
 40
0.17589266727143
 40
1.1751068781642
 40
1.1751068781642
 40
1.1751068781642
 40
1.8276953763996
 40
1.8276953763996
 40
1.8276953763996
 40
2.6742829122560998
 40
2.6742829122560998
 40
2.6742829122560998
 40
3.7802213143015
 40
3.7802213143015
 40
3.7802213143015
 40
5.1282853724852
 40
5.1282853724852
 40
5.1282853724852
 40
6.7958872700274
 40
6.7958872700274
 40
6.7958872700274
 40
6.7958872700274
 10
6.0595428203364676
 20
17.93525844757071
 30
0.0
 10
6.0529773333693617
 20
17.833647543426611
 30
0.0
 10
6.0526662114301759
 20
17.82591695883691
 30
0.0
 10
6.0525855911286426
 20
17.816143738227346
 30
0.0
 10
6.0521276018774248
 20
17.760623851749102
 30
0.0
 10
6.0591082904580773
 20
17.639184644983509
 30
0.0
 10
6.0293979570818301
 20
17.546443741660941
 30
0.0
 10
6.009994087892661
 20
17.48587450018649
 30
0.0
 10
5.9749399631084872
 20
17.437546285537476
 30
0.0
 10
5.9555462142431992
 20
17.390382920806246
 30
0.0
 10
5.9303871651527675
 20
17.329199009599613
 30
0.0
 10
5.9315833631899562
 20
17.269975454109108
 30
0.0
 10
5.9588293283821816
 20
17.216721061661769
 30
0.0
 10
5.9944220555730698
 20
17.147152263172998
 30
0.0
 10
6.0744699227878911
 20
17.087770119226136
 30
0.0
 10
6.1174877767881268
 20
17.032741774203416
 30
0.0
 10
6.1699236292105537
 20
16.965665946138088
 30
0.0
 10
6.1673404364177369
 20
16.905058975063923
 30
0.0
 10
6.3217756803971916
 20
16.834415384894044
 30
0.0
 10
6.5128174223263731
 20
16.747026818823063
 30
0.0
 10
6.9441373538555302
 20
16.644279669928356
 30
0.0
 10
7.079029027655003
 20
16.741330323877513
 30
0.0
  0
LINE
  5
91
100
AcDbEntity
  8
0
  6
CONTINUOUS
 62
     7
100
AcDbLine
 10
6.628742
 20
9.988415
 30
0.0
 11
6.682874
 21
9.990305
 31
0.0
  0
LINE
  5
92
100
AcDbEntity
  8
0
  6
CONTINUOUS
 62
     7
100
AcDbLine
 10
6.682874
 20
9.990305
 30
0.0
 11
6.755457
 21
7.91181
 31
0.0
  0
SPLINE
  5
93
100
AcDbEntity
  8
0
  6
CONTINUOUS
 62
     7
100
AcDbSpline
210
0.0
220
0.0
230
1.0
 70
     8
 71
     3
 72
    23
 73
    19
 74
     0
 42
0.0000001
 43
0.0000001
 40
0.1204423602434073
 40
0.1204423602434073
 40
0.1204423602434073
 40
0.1204423602434073
 40
8.8290142089518007
 40
8.8290142089518007
 40
8.8290142089518007
 40
11.738652015005
 40
11.738652015005
 40
11.738652015005
 40
13.887418022572
 40
13.887418022572
 40
13.887418022572
 40
16.610025217027001
 40
16.610025217027001
 40
16.610025217027001
 40
19.902397717281001
 40
19.902397717281001
 40
19.902397717281001
 40
25.820307933927999
 40
25.820307933927999
 40
25.820307933927999
 40
25.820307933927999
 10
6.7554568494493026
 20
7.9118100436058505
 30
0.0
 10
8.0492523937433784
 20
7.8947660597542271
 30
0.0
 10
8.3917352575969524
 20
8.2029474342110689
 30
0.0
 10
8.753239260151144
 20
8.842359110882569
 30
0.0
 10
8.8740220625606376
 20
9.0559941845084975
 30
0.0
 10
8.9969282096382361
 20
9.3066047571936572
 30
0.0
 10
9.0246398442676412
 20
9.560897227208617
 30
0.0
 10
9.0451048720392961
 20
9.7486920841532125
 30
0.0
 10
9.0136525754980106
 20
9.9384949797214688
 30
0.0
 10
8.9783729489895592
 20
10.131771183123373
 30
0.0
 10
8.9336716810937489
 20
10.376662986160941
 30
0.0
 10
8.8828258978780497
 20
10.627130946304426
 30
0.0
 10
8.7516762612449295
 20
10.790660547760567
 30
0.0
 10
8.5930806849352734
 20
10.988412307143372
 30
0.0
 10
8.3170536808803366
 20
11.059030745371436
 30
0.0
 10
8.0526718921788962
 20
11.158383357603503
 30
0.0
 10
7.5774560141665566
 20
11.336965774670025
 30
0.0
 10
7.1398642549641202
 20
11.608384429094015
 30
0.0
 10
6.572000602606737
 20
11.613279626308595
 30
0.0
  0
SPLINE
  5
94
100
AcDbEntity
  8
0
  6
CONTINUOUS
 62
     7
100
AcDbSpline
210
0.0
220
0.0
230
1.0
 70
     8
 71
     3
 72
    23
 73
    19
 74
     0
 42
0.0000001
 43
0.0000001
 40
0.0
 40
0.0
 40
0.0
 40
0.0
 40
5.9179102166469004
 40
5.9179102166469004
 40
5.9179102166469004
 40
9.2102827169010997
 40
9.2102827169010997
 40
9.2102827169010997
 40
11.932889911356
 40
11.932889911356
 40
11.932889911356
 40
14.081655918923
 40
14.081655918923
 40
14.081655918923
 40
16.991293724976
 40
16.991293724976
 40
16.991293724976
 40
25.693865837099999
 40
25.693865837099999
 40
25.693865837099999
 40
25.693865837099999
 10
6.572000602606737
 20
11.613279626308595
 30
0.0
 10
6.005861709261703
 20
11.568784187592467
 30
0.0
 10
5.58826910983238
 20
11.267501837307766
 30
0.0
 10
5.1266681135019461
 20
11.056205054116312
 30
0.0
 10
4.8698608334365474
 20
10.938652118552195
 30
0.0
 10
4.599432310522519
 20
10.84895103282939
 30
0.0
 10
4.4550175304770292
 20
10.640617918638679
 30
0.0
 10
4.335594616117513
 20
10.4683381308884
 30
0.0
 10
4.3023444523597503
 20
10.214933475565417
 30
0.0
 10
4.2748348631346058
 20
9.9675200138315159
 30
0.0
 10
4.253123442431133
 20
9.7722536392068502
 30
0.0
 10
4.2349877428049068
 20
9.5807190926548653
 30
0.0
 10
4.2685028258050215
 20
9.3948092627156772
 30
0.0
 10
4.3138855022931768
 20
9.1430693022904101
 30
0.0
 10
4.4539739660072746
 20
8.9016427037862886
 30
0.0
 10
4.5893649769848279
 20
8.6969534168474905
 30
0.0
 10
4.9943122985772659
 20
8.084738633117988
 30
0.0
 10
5.3572373202185819
 20
7.8011671402485359
 30
0.0
 10
6.644528935455055
 20
7.9078082582806779
 30
0.0
  0
LINE
  5
95
100
AcDbEntity
  8
0
  6
CONTINUOUS
 62
     7
100
AcDbLine
 10
6.644529
 20
7.907808
 30
0.0
 11
6.571942
 21
9.986431
 31
0.0
  0
LINE
  5
96
100
AcDbEntity
  8
0
  6
CONTINUOUS
 62
     7
100
AcDbLine
 10
6.571942
 20
9.986431
 30
0.0
 11
6.628742
 21
9.988415
 31
0.0
  0
SPLINE
  5
97
100
AcDbEntity
  8
0
  6
CONTINUOUS
 62
     7
100
AcDbSpline
210
0.0
220
0.0
230
1.0
 70
     8
 71
     3
 72
     8
 73
     4
 74
     0
 42
0.0000001
 43
0.0000001
 40
0.0
 40
0.0
 40
0.0
 40
0.0
 40
2.9756569172558001
 40
2.9756569172558001
 40
2.9756569172558001
 40
2.9756569172558001
 10
9.7776764988624976
 20
15.037319417997098
 30
0.0
 10
9.347884962930074
 20
15.250403184786173
 30
0.0
 10
9.1219779589434467
 20
15.40749654793294
 30
0.0
 10
8.6444604687319053
 20
15.515215609210481
 30
0.0
  0
SPLINE
  5
98
100
AcDbEntity
  8
0
  6
CONTINUOUS
 62
     7
100
AcDbSpline
210
0.0
220
0.0
230
1.0
 70
     8
 71
     3
 72
     8
 73
     4
 74
     0
 42
0.0000001
 43
0.0000001
 40
0.0
 40
0.0
 40
0.0
 40
0.0
 40
0.074456022263798
 40
0.074456022263798
 40
0.074456022263798
 40
0.074456022263798
 10
8.6444604687319053
 20
15.515215609210481
 30
0.0
 10
8.6161247410063844
 20
15.518701702169198
 30
0.0
 10
8.5891567366496826
 20
15.521551619318348
 30
0.0
 10
8.5634630093036375
 20
15.52383780677439
 30
0.0
  0
SPLINE
  5
99
100
AcDbEntity
  8
0
  6
CONTINUOUS
 62
     7
100
AcDbSpline
210
0.0
220
0.0
230
1.0
 70
     8
 71
     3
 72
     8
 73
     4
 74
     0
 42
0.0000001
 43
0.0000001
 40
0.0
 40
0.0
 40
0.0
 40
0.0
 40
0.016812993910938
 40
0.016812993910938
 40
0.016812993910938
 40
0.016812993910938
 10
8.5634630093036375
 20
15.52383780677439
 30
0.0
 10
8.5576589532860918
 20
15.523338433504275
 30
0.0
 10
8.5517898010093187
 20
15.52281050440085
 30
0.0
 10
8.5458544730194888
 20
15.522253188434911
 30
0.0
  0
SPLINE
  5
9A
100
AcDbEntity
  8
0
  6
CONTINUOUS
 62
     7
100
AcDbSpline
210
0.0
220
0.0
230
1.0
 70
     8
 71
     3
 72
     8
 73
     4
 74
     0
 42
0.0000001
 43
0.0000001
 40
0.0
 40
0.0
 40
0.0
 40
0.0
 40
0.05764302835286
 40
0.05764302835286
 40
0.05764302835286
 40
0.05764302835286
 10
8.5458544730194888
 20
15.522253188434911
 30
0.0
 10
8.5255053144214177
 20
15.520342441295202
 30
0.0
 10
8.5043782946467577
 20
15.518086266832363
 30
0.0
 10
8.4824299116913089
 20
15.515451174561163
 30
0.0
  0
SPLINE
  5
9B
100
AcDbEntity
  8
0
  6
CONTINUOUS
 62
     7
100
AcDbSpline
210
0.0
220
0.0
230
1.0
 70
     8
 71
     3
 72
     8
 73
     4
 74
     0
 42
0.0000001
 43
0.0000001
 40
0.0
 40
0.0
 40
0.0
 40
0.0
 40
2.9756569172558001
 40
2.9756569172558001
 40
2.9756569172558001
 40
2.9756569172558001
 10
8.4824299116913089
 20
15.515451174561163
 30
0.0
 10
8.0044639298381082
 20
15.409121226567702
 30
0.0
 10
7.7778999964143196
 20
15.252685680545168
 30
0.0
 10
7.3472181432535084
 20
15.040852898257979
 30
0.0
  0
SPLINE
  5
9C
100
AcDbEntity
  8
0
  6
CONTINUOUS
 62
     7
100
AcDbSpline
210
0.0
220
0.0
230
1.0
 70
     8
 71
     3
 72
    29
 73
    25
 74
     0
 42
0.0000001
 43
0.0000001
 40
0.0
 40
0.0
 40
0.0
 40
0.0
 40
0.71245145603007
 40
0.71245145603007
 40
0.71245145603007
 40
1.4528953590567999
 40
1.4528953590567999
 40
1.4528953590567999
 40
2.6763985605701999
 40
2.6763985605701999
 40
2.6763985605701999
 40
4.0750908628401996
 40
4.0750908628401996
 40
4.0750908628401996
 40
5.2917847658669004
 40
5.2917847658669004
 40
5.2917847658669004
 40
7.3884129673803001
 40
7.3884129673803001
 40
7.3884129673803001
 40
8.6379850719204008
 40
8.6379850719204008
 40
8.6379850719204008
 40
10.059925773433999
 40
10.059925773433999
 40
10.059925773433999
 40
10.059925773433999
 10
7.3472181432535084
 20
15.040852898257979
 30
0.0
 10
7.2892095219199309
 20
14.947840825641302
 30
0.0
 10
7.3295317541671317
 20
15.057833766368438
 30
0.0
 10
7.357177642299856
 20
15.140438247055275
 30
0.0
 10
7.3859097462746357
 20
15.226288284373034
 30
0.0
 10
7.4009498220102037
 20
15.282555378460881
 30
0.0
 10
7.4077413562501917
 20
15.347710713951155
 30
0.0
 10
7.4189636296078874
 20
15.455372835608362
 30
0.0
 10
7.4076641048621825
 20
15.587303390474981
 30
0.0
 10
7.3428100112564207
 20
15.685609542893133
 30
0.0
 10
7.2686696891184095
 20
15.797991805957928
 30
0.0
 10
7.1245402238274602
 20
15.866431168043519
 30
0.0
 10
7.0351622084439613
 20
15.853378536971331
 30
0.0
 10
6.957414096006918
 20
15.842024319450903
 30
0.0
 10
6.9210958867661585
 20
15.769005883110388
 30
0.0
 10
6.8636830369174051
 20
15.667404490123229
 30
0.0
 10
6.7647482104810308
 20
15.492323193734721
 30
0.0
 10
6.6031733026441479
 20
15.232365422591979
 30
0.0
 10
6.636291363025177
 20
15.003159038010443
 30
0.0
 10
6.6560294378916405
 20
14.866554033771322
 30
0.0
 10
6.7449235441655153
 20
14.740872094059466
 30
0.0
 10
6.8028267913792497
 20
14.662032965786269
 30
0.0
 10
6.8687173339608645
 20
14.572318602800582
 30
0.0
 10
6.8944774345279418
 20
14.543261568628822
 30
0.0
 10
7.1028893330665417
 20
14.428888374309121
 30
0.0
  0
SPLINE
  5
9D
100
AcDbEntity
  8
0
  6
CONTINUOUS
 62
     7
100
AcDbSpline
210
0.0
220
0.0
230
1.0
 70
     8
 71
     3
 72
     8
 73
     4
 74
     0
 42
0.0000001
 43
0.0000001
 40
0.0
 40
0.0
 40
0.0
 40
0.0
 40
2.7576971045401
 40
2.7576971045401
 40
2.7576971045401
 40
2.7576971045401
 10
7.1028893330665417
 20
14.428888374309121
 30
0.0
 10
6.9657186666355972
 20
14.086191227315696
 30
0.0
 10
7.0894098399236629
 20
13.622483683424372
 30
0.0
 10
7.1006084892868646
 20
13.340323268575872
 30
0.0
  0
SPLINE
  5
9E
100
AcDbEntity
  8
0
  6
CONTINUOUS
 62
     7
100
AcDbSpline
210
0.0
220
0.0
230
1.0
 70
     8
 71
     3
 72
    20
 73
    16
 74
     0
 42
0.0000001
 43
0.0000001
 40
0.0
 40
0.0
 40
0.0
 40
0.0
 40
0.71097035075667
 40
0.71097035075667
 40
0.71097035075667
 40
1.3252816008837001
 40
1.3252816008837001
 40
1.3252816008837001
 40
2.9139840590570998
 40
2.9139840590570998
 40
2.9139840590570998
 40
4.9198108665421003
 40
4.9198108665421003
 40
4.9198108665421003
 40
5.6805110582894001
 40
5.6805110582894001
 40
5.6805110582894001
 40
5.6805110582894001
 10
7.1006084892868646
 20
13.340323268575872
 30
0.0
 10
7.1166373723643739
 20
13.207712898891554
 30
0.0
 10
7.1902893883508794
 20
13.118476338237711
 30
0.0
 10
7.2319266090751366
 20
13.074250079062335
 30
0.0
 10
7.2679030926060415
 20
13.036036546622393
 30
0.0
 10
7.2799781020329437
 20
13.031426619840063
 30
0.0
 10
7.3039669323314627
 20
13.014574840376961
 30
0.0
 10
7.3660057012065607
 20
12.970993572001824
 30
0.0
 10
7.5077262934400615
 20
12.845536543247501
 30
0.0
 10
7.6394752692843442
 20
12.774884721496178
 30
0.0
 10
7.8058158110563856
 20
12.685682796153031
 30
0.0
 10
7.9562611054868242
 20
12.683843068362831
 30
0.0
 10
8.193525065462449
 20
12.669226827924401
 30
0.0
 10
8.2835062837683431
 20
12.663683688874384
 30
0.0
 10
8.38597436358544
 20
12.656302943325432
 30
0.0
 10
8.4896905120712702
 20
12.65149595415263
 30
0.0
  0
LINE
  5
9F
100
AcDbEntity
  8
0
  6
CONTINUOUS
 62
     7
100
AcDbLine
 10
8.489691
 20
12.651496
 30
0.0
 11
8.489691
 21
13.915396
 31
0.0
  0
LINE
  5
A0
100
AcDbEntity
  8
0
  6
CONTINUOUS
 62
     7
100
AcDbLine
 10
8.489691
 20
13.915396
 30
0.0
 11
8.543336
 21
13.915396
 31
0.0
  0
LINE
  5
A1
100
AcDbEntity
  8
0
  6
CONTINUOUS
 62
     7
100
AcDbLine
 10
8.543336
 20
13.915396
 30
0.0
 11
8.600691
 21
13.915396
 31
0.0
  0
LINE
  5
A2
100
AcDbEntity
  8
0
  6
CONTINUOUS
 62
     7
100
AcDbLine
 10
8.600691
 20
13.915396
 30
0.0
 11
8.600691
 21
12.647534
 31
0.0
  0
SPLINE
  5
A3
100
AcDbEntity
  8
0
  6
CONTINUOUS
 62
     7
100
AcDbSpline
210
0.0
220
0.0
230
1.0
 70
     8
 71
     3
 72
    23
 73
    19
 74
     0
 42
0.0000001
 43
0.0000001
 40
0.0
 40
0.0
 40
0.0
 40
0.0
 40
0.45655855568744
 40
0.45655855568744
 40
0.45655855568744
 40
1.0683101564441
 40
1.0683101564441
 40
1.0683101564441
 40
1.8317416043012
 40
1.8317416043012
 40
1.8317416043012
 40
3.0342952015286002
 40
3.0342952015286002
 40
3.0342952015286002
 40
5.1619079486836004
 40
5.1619079486836004
 40
5.1619079486836004
 40
5.5207648845913999
 40
5.5207648845913999
 40
5.5207648845913999
 40
5.5207648845913999
 10
8.6006905120712727
 20
12.647533520241794
 30
0.0
 10
8.6626147181145328
 20
12.646088082835414
 30
0.0
 10
8.7235438149354092
 20
12.646136816931136
 30
0.0
 10
8.7810480136211879
 20
12.648633444227906
 30
0.0
 10
8.8580989968040171
 20
12.651978723220632
 30
0.0
 10
8.9290009739901564
 20
12.659718909559096
 30
0.0
 10
9.0201975640348344
 20
12.669095545208632
 30
0.0
 10
9.1340057579019298
 20
12.680797056935122
 30
0.0
 10
9.2794200316775903
 20
12.695047114329995
 30
0.0
 10
9.3905372414305202
 20
12.711761602571842
 30
0.0
 10
9.565568543425389
 20
12.738090185206831
 30
0.0
 10
9.6555005947196371
 20
12.770533612492722
 30
0.0
 10
9.7278784981726361
 20
12.81985958959506
 30
0.0
 10
9.8559327906000256
 20
12.907129361096962
 30
0.0
 10
9.929038558483354
 20
13.047245400691507
 30
0.0
 10
9.9827600668534835
 20
13.16458568174218
 30
0.0
 10
9.9918210841424138
 20
13.184377052973952
 30
0.0
 10
10.000330650674151
 20
13.203520490799511
 30
0.0
 10
10.017158516017643
 20
13.33608309226282
 30
0.0
  0
SPLINE
  5
A4
100
AcDbEntity
  8
0
  6
CONTINUOUS
 62
     7
100
AcDbSpline
210
0.0
220
0.0
230
1.0
 70
     8
 71
     3
 72
     8
 73
     4
 74
     0
 42
0.0000001
 43
0.0000001
 40
0.0
 40
0.0
 40
0.0
 40
0.0
 40
1.7934405372886997
 40
1.7934405372886997
 40
1.7934405372886997
 40
1.7934405372886997
 10
10.017158516017643
 20
13.33608309226282
 30
0.0
 10
10.025210365003119
 20
13.519560982025345
 30
0.0
 10
10.081161505605879
 20
13.779683973942381
 30
0.0
 10
10.081970436273705
 20
14.033530883738718
 30
0.0
  0
SPLINE
  5
A5
100
AcDbEntity
  8
0
  6
CONTINUOUS
 62
     7
100
AcDbSpline
210
0.0
220
0.0
230
1.0
 70
     8
 71
     3
 72
     8
 73
     4
 74
     0
 42
0.0000001
 43
0.0000001
 40
0.0
 40
0.0
 40
0.0
 40
0.0
 40
0.96425656725142
 40
0.96425656725142
 40
0.96425656725142
 40
0.96425656725142
 10
10.081970436273705
 20
14.033530883738718
 30
0.0
 10
10.08240536382924
 20
14.17001355197238
 30
0.0
 10
10.066900030892285
 20
14.304681958790106
 30
0.0
 10
10.019439359797321
 20
14.424648197996044
 30
0.0
  0
SPLINE
  5
A6
100
AcDbEntity
  8
0
  6
CONTINUOUS
 62
     7
100
AcDbSpline
210
0.0
220
0.0
230
1.0
 70
     8
 71
     3
 72
    29
 73
    25
 74
     0
 42
0.0000001
 43
0.0000001
 40
0.0
 40
0.0
 40
0.0
 40
0.0
 40
1.4219407015133001
 40
1.4219407015133001
 40
1.4219407015133001
 40
2.6715128060533999
 40
2.6715128060533999
 40
2.6715128060533999
 40
4.7681410075667996
 40
4.7681410075667996
 40
4.7681410075667996
 40
5.9848349105935998
 40
5.9848349105935998
 40
5.9848349105935998
 40
7.3835272128635996
 40
7.3835272128635996
 40
7.3835272128635996
 40
8.6070304143770002
 40
8.6070304143770002
 40
8.6070304143770002
 40
9.3474743174036998
 40
9.3474743174036998
 40
9.3474743174036998
 40
10.059925773433999
 40
10.059925773433999
 40
10.059925773433999
 40
10.059925773433999
 10
10.019439359797321
 20
14.424648197996044
 30
0.0
 10
10.228329273859693
 20
14.53841470522139
 30
0.0
 10
10.254210982099231
 20
14.567396660833744
 30
0.0
 10
10.320477074718706
 20
14.656918890158419
 30
0.0
 10
10.378710347545082
 20
14.735589175340674
 30
0.0
 10
10.468130587215601
 20
14.861011875794148
 30
0.0
 10
10.488440990320163
 20
14.997558656239359
 30
0.0
 10
10.522519347046066
 20
15.226667348460568
 30
0.0
 10
10.362034786550188
 20
15.487093340246384
 30
0.0
 10
10.263834247720053
 20
15.662461238509936
 30
0.0
 10
10.206847512168958
 20
15.764228949375324
 30
0.0
 10
10.170835510738298
 20
15.837352541754033
 30
0.0
 10
10.093135452251659
 20
15.848932754935859
 30
0.0
 10
10.003812678938788
 20
15.862245187089563
 30
0.0
 10
9.8593972939723749
 20
15.794225320993462
 30
0.0
 10
9.7847864813556722
 20
15.682059317218721
 30
0.0
 10
9.7195208271757885
 20
15.583942337167715
 30
0.0
 10
9.7076685112401613
 20
15.452045441208229
 30
0.0
 10
9.7184395539939565
 20
15.344351344944974
 30
0.0
 10
9.7249580109349978
 20
15.279176658951977
 30
0.0
 10
9.7397622056338413
 20
15.222866176282576
 30
0.0
 10
9.7681343767015569
 20
15.136933118892424
 30
0.0
 10
9.7954339391738952
 20
15.054248756703132
 30
0.0
 10
9.8352949961438974
 20
14.94413924287403
 30
0.0
 10
9.7776764988624887
 20
15.037319417997088
 30
0.0
  0
LINE
  5
A7
100
AcDbEntity
  8
0
  6
CONTINUOUS
 62
     7
100
AcDbLine
 10
10.379599
 20
12.5
 30
0.0
 11
8.056313
 21
12.499344
 31
0.0
  0
LINE
  5
A8
100
AcDbEntity
  8
0
  6
CONTINUOUS
 62
     7
100
AcDbLine
 10
8.056313
 20
12.499344
 30
0.0
 11
8.056313
 21
12.167562
 31
0.0
  0
LINE
  5
A9
100
AcDbEntity
  8
0
  6
CONTINUOUS
 62
     7
100
AcDbLine
 10
8.056313
 20
12.167562
 30
0.0
 11
8.004392
 21
12.167562
 31
0.0
  0
LINE
  5
AA
100
AcDbEntity
  8
0
  6
CONTINUOUS
 62
     7
100
AcDbLine
 10
8.004392
 20
12.167562
 30
0.0
 11
7.945313
 21
12.167562
 31
0.0
  0
LINE
  5
AB
100
AcDbEntity
  8
0
  6
CONTINUOUS
 62
     7
100
AcDbLine
 10
7.945313
 20
12.167562
 30
0.0
 11
7.945313
 21
12.499312
 31
0.0
  0
LINE
  5
AC
100
AcDbEntity
  8
0
  6
CONTINUOUS
 62
     7
100
AcDbLine
 10
7.945313
 20
12.499312
 30
0.0
 11
6.488904
 21
12.498901
 31
0.0
  0
LINE
  5
AD
100
AcDbEntity
  8
0
  6
CONTINUOUS
 62
     7
100
AcDbLine
 10
6.488904
 20
12.498901
 30
0.0
 11
5.597939
 21
12.498901
 31
0.0
  0
SPLINE
  5
AE
100
AcDbEntity
  8
0
  6
CONTINUOUS
 62
     7
100
AcDbSpline
210
0.0
220
0.0
230
1.0
 70
     8
 71
     3
 72
     8
 73
     4
 74
     0
 42
0.0000001
 43
0.0000001
 40
0.0
 40
0.0
 40
0.0
 40
0.0
 40
1.9485949035407
 40
1.9485949035407
 40
1.9485949035407
 40
1.9485949035407
 10
5.5979391077028744
 20
12.49890096720981
 30
0.0
 10
5.4988754779419304
 20
12.293058725131312
 30
0.0
 10
5.5473008023185679
 20
12.101754673136984
 30
0.0
 10
5.481929756402435
 20
11.819310905958822
 30
0.0
  0
LINE
  5
AF
100
AcDbEntity
  8
0
  6
CONTINUOUS
 62
     7
100
AcDbLine
 10
5.48193
 20
11.819311
 30
0.0
 11
7.151394
 21
11.819311
 31
0.0
  0
LINE
  5
B0
100
AcDbEntity
  8
0
  6
CONTINUOUS
 62
     7
100
AcDbLine
 10
7.151394
 20
11.819311
 30
0.0
 11
7.151394
 21
11.710125
 31
0.0
  0
LINE
  5
B1
100
AcDbEntity
  8
0
  6
CONTINUOUS
 62
     7
100
AcDbLine
 10
7.151394
 20
11.710125
 30
0.0
 11
8.857394
 21
11.710125
 31
0.0
  0
LINE
  5
B2
100
AcDbEntity
  8
0
  6
CONTINUOUS
 62
     7
100
AcDbLine
 10
8.857394
 20
11.710125
 30
0.0
 11
8.857394
 21
11.821125
 31
0.0
  0
LINE
  5
B3
100
AcDbEntity
  8
0
  6
CONTINUOUS
 62
     7
100
AcDbLine
 10
8.857394
 20
11.821125
 30
0.0
 11
10.5
 21
11.82041
 31
0.0
  0
SPLINE
  5
B4
100
AcDbEntity
  8
0
  6
CONTINUOUS
 62
     7
100
AcDbSpline
210
0.0
220
0.0
230
1.0
 70
     8
 71
     3
 72
     8
 73
     4
 74
     0
 42
0.0000001
 43
0.0000001
 40
0.0
 40
0.0
 40
0.0
 40
0.0
 40
1.9485949035407
 40
1.9485949035407
 40
1.9485949035407
 40
1.9485949035407
 10
10.499999999999998
 20
11.820409938749023
 30
0.0
 10
10.434628954083866
 20
12.102853705927199
 30
0.0
 10
10.483054278460505
 20
12.29415775792152
 30
0.0
 10
10.383990648699545
 20
12.500000000000007
 30
0.0
  0
SPLINE
  5
B6
102
{ACAD_REACTORS
330
B5
102
}
100
AcDbEntity
  8
0
  6
CONTINUOUS
 62
     7
100
AcDbSpline
210
0.0
220
0.0
230
1.0
 70
     8
 71
     3
 72
    14
 73
    10
 74
     0
 42
0.0000001
 43
0.0000001
 40
0.0
 40
0.0
 40
0.0
 40
0.0
 40
1.6368173022700001
 40
1.6368173022700001
 40
1.6368173022700001
 40
3.2484353511377999
 40
3.2484353511377999
 40
3.2484353511377999
 40
3.6597158448865001
 40
3.6597158448865001
 40
3.6597158448865001
 40
3.6597158448865001
 10
0.09375
 20
12.451143365536252
 30
0.0
 10
0.4207793901983066
 20
12.304176676747382
 30
0.0
 10
0.5284910656074695
 20
12.381861559888618
 30
0.0
 10
0.708609579355409
 20
12.439125300394966
 30
0.0
 10
0.8859551189516344
 20
12.495507449836905
 30
0.0
 10
1.1334952119012973
 20
12.532092394772913
 30
0.0
 10
1.340654343178731
 20
12.459842225369355
 30
0.0
 10
1.3935207837451991
 20
12.441404180842245
 30
0.0
 10
1.4437573884887693
 20
12.415878180243128
 30
0.0
 10
1.4942190200665051
 20
12.389795897621861
 30
0.0
  0
SPLINE
  5
B7
102
{ACAD_REACTORS
330
B5
102
}
100
AcDbEntity
  8
0
  6
CONTINUOUS
 62
     7
100
AcDbSpline
210
0.0
220
0.0
230
1.0
 70
     8
 71
     3
 72
    17
 73
    13
 74
     0
 42
0.0000001
 43
0.0000001
 40
0.0
 40
0.0
 40
0.0
 40
0.0
 40
0.51797110700803
 40
0.51797110700803
 40
0.51797110700803
 40
1.7579134092780999
 40
1.7579134092780999
 40
1.7579134092780999
 40
3.6164166107914002
 40
3.6164166107914002
 40
3.6164166107914002
 40
3.6500074660026001
 40
3.6500074660026001
 40
3.6500074660026001
 40
3.6500074660026001
 10
1.4942190200665051
 20
12.389795897621861
 30
0.0
 10
1.5577709452538722
 20
12.356947588480061
 30
0.0
 10
1.6216797890206176
 20
12.323216951726755
 30
0.0
 10
1.6916483427949749
 20
12.301651471342264
 30
0.0
 10
1.8591421826629579
 20
12.250027064042866
 30
0.0
 10
2.0613611400922425
 20
12.268114983658256
 30
0.0
 10
2.2643299085657373
 20
12.267047194036204
 30
0.0
 10
2.5685522141718686
 20
12.265446724056682
 30
0.0
 10
2.8744590371982186
 20
12.220811243914213
 30
0.0
 10
3.1282775687858217
 20
12.123086275336998
 30
0.0
 10
3.1328651215742696
 20
12.121319980144536
 30
0.0
 10
3.1374356584360283
 20
12.119536341959599
 30
0.0
 10
3.1419893505492364
 20
12.117735595113796
 30
0.0
  0
SPLINE
  5
B8
102
{ACAD_REACTORS
330
B5
102
}
100
AcDbEntity
  8
0
  6
CONTINUOUS
 62
     7
100
AcDbSpline
210
0.0
220
0.0
230
1.0
 70
     8
 71
     3
 72
     8
 73
     4
 74
     0
 42
0.0000001
 43
0.0000001
 40
0.0
 40
0.0
 40
0.0
 40
0.0
 40
1.9397251971859
 40
1.9397251971859
 40
1.9397251971859
 40
1.9397251971859
 10
3.1419893505492364
 20
12.117735595113796
 30
0.0
 10
3.4049451841149594
 20
12.013750328628689
 30
0.0
 10
3.6117312245947684
 20
11.852715237817055
 30
0.0
 10
3.7953088970666142
 20
11.679752309804238
 30
0.0
  0
SPLINE
  5
B9
102
{ACAD_REACTORS
330
B5
102
}
100
AcDbEntity
  8
0
  6
CONTINUOUS
 62
     7
100
AcDbSpline
210
0.0
220
0.0
230
1.0
 70
     8
 71
     3
 72
    11
 73
     7
 74
     0
 42
0.0000001
 43
0.0000001
 40
0.0
 40
0.0
 40
0.0
 40
0.0
 40
1.6231987052968
 40
1.6231987052968
 40
1.6231987052968
 40
1.9448513352609
 40
1.9448513352609
 40
1.9448513352609
 40
1.9448513352609
 10
3.7953088970666142
 20
11.679752309804238
 30
0.0
 10
3.9731837065439515
 20
11.445347191122702
 30
0.0
 10
4.0950643135469198
 20
11.592705094736647
 30
0.0
 10
4.1388116833560389
 20
11.179649015816818
 30
0.0
 10
4.1474806506902295
 20
11.097797931489531
 30
0.0
 10
4.1530815381881787
 20
10.993940913432752
 30
0.0
 10
4.15625
 20
10.932014443548185
 30
0.0
  0
SPLINE
  5
BA
102
{ACAD_REACTORS
330
B5
102
}
100
AcDbEntity
  8
0
  6
CONTINUOUS
 62
     7
100
AcDbSpline
210
0.0
220
0.0
230
1.0
 70
     8
 71
     3
 72
    11
 73
     7
 74
     0
 42
0.0000001
 43
0.0000001
 40
0.0
 40
0.0
 40
0.0
 40
0.0
 40
0.32165262996411
 40
0.32165262996411
 40
0.32165262996411
 40
1.9448513352609
 40
1.9448513352609
 40
1.9448513352609
 40
1.9448513352609
 10
4.15625
 20
10.932014443548185
 30
0.0
 10
4.1530815381881698
 20
10.870087973663628
 30
0.0
 10
4.1474806506902233
 20
10.766230955606851
 30
0.0
 10
4.1388116833560362
 20
10.684379871279532
 30
0.0
 10
4.0950643135469278
 20
10.271323792359702
 30
0.0
 10
3.9731837065439555
 20
10.418681695973678
 30
0.0
 10
3.7953088970666164
 20
10.184276577292131
 30
0.0
  0
SPLINE
  5
BB
102
{ACAD_REACTORS
330
B5
102
}
100
AcDbEntity
  8
0
  6
CONTINUOUS
 62
     7
100
AcDbSpline
210
0.0
220
0.0
230
1.0
 70
     8
 71
     3
 72
     8
 73
     4
 74
     0
 42
0.0000001
 43
0.0000001
 40
0.0
 40
0.0
 40
0.0
 40
0.0
 40
1.9621925912833
 40
1.9621925912833
 40
1.9621925912833
 40
1.9621925912833
 10
3.7953088970666164
 20
10.184276577292131
 30
0.0
 10
3.6096048863274279
 20
10.009310259173574
 30
0.0
 10
3.400151759475913
 20
9.846549693332058
 30
0.0
 10
3.1328294198563169
 20
9.7427030108139618
 30
0.0
  0
SPLINE
  5
BC
102
{ACAD_REACTORS
330
B5
102
}
100
AcDbEntity
  8
0
  6
CONTINUOUS
 62
     7
100
AcDbSpline
210
0.0
220
0.0
230
1.0
 70
     8
 71
     3
 72
    17
 73
    13
 74
     0
 42
0.0000001
 43
0.0000001
 40
0.0
 40
0.0
 40
0.0
 40
0.0
 40
0.011123461113801
 40
0.011123461113801
 40
0.011123461113801
 40
1.8696266626271001
 40
1.8696266626271001
 40
1.8696266626271001
 40
3.1095689648971998
 40
3.1095689648971998
 40
3.1095689648971998
 40
3.6275400719051998
 40
3.6275400719051998
 40
3.6275400719051998
 40
3.6275400719051998
 10
3.1328294198563169
 20
9.7427030108139618
 30
0.0
 10
3.1313139979436775
 20
9.7421143150152609
 30
0.0
 10
3.1297967163255129
 20
9.7415275124939864
 30
0.0
 10
3.1282775687858217
 20
9.7409426117594116
 30
0.0
 10
2.8744590371982177
 20
9.6432176431821723
 30
0.0
 10
2.56855221417187
 20
9.5985821630396817
 30
0.0
 10
2.2643299085657373
 20
9.5969816930601706
 30
0.0
 10
2.0613611400922434
 20
9.5959139034381113
 30
0.0
 10
1.8591421826629566
 20
9.6140018230534974
 30
0.0
 10
1.6916483427949749
 20
9.5623774157540851
 30
0.0
 10
1.621679789020618
 20
9.5408119353695966
 30
0.0
 10
1.5577709452538717
 20
9.5070812986162867
 30
0.0
 10
1.494219020066506
 20
9.4742329894745065
 30
0.0
  0
SPLINE
  5
BD
102
{ACAD_REACTORS
330
B5
102
}
100
AcDbEntity
  8
0
  6
CONTINUOUS
 62
     7
100
AcDbSpline
210
0.0
220
0.0
230
1.0
 70
     8
 71
     3
 72
    14
 73
    10
 74
     0
 42
0.0000001
 43
0.0000001
 40
0.0
 40
0.0
 40
0.0
 40
0.0
 40
0.41128049374864
 40
0.41128049374864
 40
0.41128049374864
 40
2.0228985426164998
 40
2.0228985426164998
 40
2.0228985426164998
 40
3.6597158448865001
 40
3.6597158448865001
 40
3.6597158448865001
 40
3.6597158448865001
 10
1.494219020066506
 20
9.4742329894745065
 30
0.0
 10
1.4437573884887698
 20
9.4481507068532444
 30
0.0
 10
1.3935207837451986
 20
9.4226247062541422
 30
0.0
 10
1.3406543431787314
 20
9.4041866617270351
 30
0.0
 10
1.1334952119012547
 20
9.3319364923234218
 30
0.0
 10
0.8859551189516348
 20
9.3685214372594636
 30
0.0
 10
0.708609579355409
 20
9.4249035867013973
 30
0.0
 10
0.5284910656074691
 20
9.4821673272077653
 30
0.0
 10
0.4207793901983052
 20
9.5598522103489696
 30
0.0
 10
0.0937500000000071
 20
9.4128855215600957
 30
0.0
  0
LINE
  5
BE
102
{ACAD_REACTORS
330
B5
102
}
100
AcDbEntity
  8
0
  6
CONTINUOUS
 62
     7
100
AcDbLine
 10
0.09375
 20
9.412886
 30
0.0
 11
0.09375
 21
9.406449
 31
0.0
  0
LINE
  5
BF
102
{ACAD_REACTORS
330
B5
102
}
100
AcDbEntity
  8
0
  6
CONTINUOUS
 62
     7
100
AcDbLine
 10
3.132829
 20
9.742703
 30
0.0
 11
3.132756
 21
9.723592
 31
0.0
  0
LWPOLYLINE
  5
C0
102
{ACAD_REACTORS
330
B5
102
}
100
AcDbEntity
  8
0
  6
CONTINUOUS
 62
     7
100
AcDbPolyline
 90
       10
 70
     0
 10
0.09375
 20
9.412886
 10
0.09375
 20
10.877063
 10
1.494219
 20
10.877063
 10
2.09375
 20
10.877063
 10
2.09375
 20
10.932014
 10
2.09375
 20
10.988063
 10
1.494219
 20
10.988063
 10
0.09375
 20
10.988063
 10
0.09375
 20
12.451143
 10
0.09375
 20
12.453665
  0
SPLINE
  5
C2
102
{ACAD_REACTORS
330
C1
102
}
100
AcDbEntity
  8
0
  6
CONTINUOUS
 62
     7
100
AcDbSpline
210
0.0
220
0.0
230
1.0
 70
     8
 71
     3
 72
     8
 73
     4
 74
     0
 42
0.0000001
 43
0.0000001
 40
0.0
 40
0.0
 40
0.0
 40
0.0
 40
1.0
 40
1.0
 40
1.0
 40
1.0
 10
2.4549374368270831
 20
3.8097893679302719
 30
0.0
 10
0.4622116226858364
 20
4.3275227510571082
 30
0.0
 10
0.410786936454504
 20
7.0631371158451444
 30
0.0
 10
0.543786604451582
 20
8.6831531111577203
 30
0.0
  0
LINE
  5
C3
102
{ACAD_REACTORS
330
C1
102
}
100
AcDbEntity
  8
0
  6
CONTINUOUS
 62
     7
100
AcDbLine
 10
2.454937
 20
3.809789
 30
0.0
 11
2.464412
 21
3.811791
 31
0.0
  0
SPLINE
  5
C4
102
{ACAD_REACTORS
330
C1
102
}
100
AcDbEntity
  8
0
  6
CONTINUOUS
 62
     7
100
AcDbSpline
210
0.0
220
0.0
230
1.0
 70
     8
 71
     3
 72
     8
 73
     4
 74
     0
 42
0.0000001
 43
0.0000001
 40
0.0
 40
0.0
 40
0.0
 40
0.0
 40
1.0
 40
1.0
 40
1.0
 40
1.0
 10
2.4644123777184124
 20
3.8117910328758815
 30
0.0
 10
4.8614868004529486
 20
4.5081821285169417
 30
0.0
 10
4.3660826095286955
 20
8.6693124595419597
 30
0.0
 10
4.3660826095286929
 20
8.6693124595419491
 30
0.0
  0
LINE
  5
C5
102
{ACAD_REACTORS
330
C1
102
}
100
AcDbEntity
  8
0
  6
CONTINUOUS
 62
     7
100
AcDbLine
 10
4.366083
 20
8.669312
 30
0.0
 11
2.441085
 21
9.5
 31
0.0
  0
LINE
  5
C6
102
{ACAD_REACTORS
330
C1
102
}
100
AcDbEntity
  8
0
  6
CONTINUOUS
 62
     7
100
AcDbLine
 10
2.441085
 20
9.5
 30
0.0
 11
0.543787
 21
8.683153
 31
0.0
  0
SPLINE
  5
C7
102
{ACAD_REACTORS
330
C1
102
}
100
AcDbEntity
  8
0
  6
CONTINUOUS
 62
     7
100
AcDbSpline
210
0.0
220
0.0
230
1.0
 70
     8
 71
     3
 72
     8
 73
     4
 74
     0
 42
0.0000001
 43
0.0000001
 40
0.0
 40
0.0
 40
0.0
 40
0.0
 40
1.0
 40
1.0
 40
1.0
 40
1.0
 10
2.5108477380164831
 20
4.0643486434102041
 30
0.0
 10
2.5108477380164906
 20
4.0329516025729273
 30
0.0
 10
2.4853953760630434
 20
4.00749924061948
 30
0.0
 10
2.4539983352257582
 20
4.0074992406194774
 30
0.0
  0
SPLINE
  5
C8
102
{ACAD_REACTORS
330
C1
102
}
100
AcDbEntity
  8
0
  6
CONTINUOUS
 62
     7
100
AcDbSpline
210
0.0
220
0.0
230
1.0
 70
     8
 71
     3
 72
     8
 73
     4
 74
     0
 42
0.0000001
 43
0.0000001
 40
0.0
 40
0.0
 40
0.0
 40
0.0
 40
1.0
 40
1.0
 40
1.0
 40
1.0
 10
2.4539983352257582
 20
4.0074992406194774
 30
0.0
 10
2.4226012943884716
 20
4.00749924061948
 30
0.0
 10
2.397148932435023
 20
4.0329516025729273
 30
0.0
 10
2.397148932435031
 20
4.0643486434102023
 30
0.0
  0
SPLINE
  5
C9
102
{ACAD_REACTORS
330
C1
102
}
100
AcDbEntity
  8
0
  6
CONTINUOUS
 62
     7
100
AcDbSpline
210
0.0
220
0.0
230
1.0
 70
     8
 71
     3
 72
     8
 73
     4
 74
     0
 42
0.0000001
 43
0.0000001
 40
0.0
 40
0.0
 40
0.0
 40
0.0
 40
1.0
 40
1.0
 40
1.0
 40
1.0
 10
2.397148932435031
 20
4.0643486434102023
 30
0.0
 10
2.3971489324350221
 20
4.0957456842474746
 30
0.0
 10
2.422601294388472
 20
4.1211980462009281
 30
0.0
 10
2.4539983352257559
 20
4.1211980462009281
 30
0.0
  0
SPLINE
  5
CA
102
{ACAD_REACTORS
330
C1
102
}
100
AcDbEntity
  8
0
  6
CONTINUOUS
 62
     7
100
AcDbSpline
210
0.0
220
0.0
230
1.0
 70
     8
 71
     3
 72
     8
 73
     4
 74
     0
 42
0.0000001
 43
0.0000001
 40
0.0
 40
0.0
 40
0.0
 40
0.0
 40
1.0
 40
1.0
 40
1.0
 40
1.0
 10
2.4539983352257559
 20
4.1211980462009281
 30
0.0
 10
2.4853953760630425
 20
4.1211980462009281
 30
0.0
 10
2.5108477380164915
 20
4.0957456842474746
 30
0.0
 10
2.5108477380164831
 20
4.0643486434102041
 30
0.0
  0
SPLINE
  5
CB
102
{ACAD_REACTORS
330
C1
102
}
100
AcDbEntity
  8
0
  6
CONTINUOUS
 62
     7
100
AcDbSpline
210
0.0
220
0.0
230
1.0
 70
     8
 71
     3
 72
     8
 73
     4
 74
     0
 42
0.0000001
 43
0.0000001
 40
0.0
 40
0.0
 40
0.0
 40
0.0
 40
1.0
 40
1.0
 40
1.0
 40
1.0
 10
4.1531638186375019
 20
7.6016448170554405
 30
0.0
 10
4.1531638186375002
 20
7.5702477762181868
 30
0.0
 10
4.127711456684052
 20
7.5447954142647102
 30
0.0
 10
4.096314415846777
 20
7.5447954142647129
 30
0.0
  0
SPLINE
  5
CC
102
{ACAD_REACTORS
330
C1
102
}
100
AcDbEntity
  8
0
  6
CONTINUOUS
 62
     7
100
AcDbSpline
210
0.0
220
0.0
230
1.0
 70
     8
 71
     3
 72
     8
 73
     4
 74
     0
 42
0.0000001
 43
0.0000001
 40
0.0
 40
0.0
 40
0.0
 40
0.0
 40
1.0
 40
1.0
 40
1.0
 40
1.0
 10
4.096314415846777
 20
7.5447954142647129
 30
0.0
 10
4.064917375009518
 20
7.5447954142647102
 30
0.0
 10
4.0394650130560308
 20
7.570247776218185
 30
0.0
 10
4.0394650130560485
 20
7.6016448170554405
 30
0.0
  0
SPLINE
  5
CD
102
{ACAD_REACTORS
330
C1
102
}
100
AcDbEntity
  8
0
  6
CONTINUOUS
 62
     7
100
AcDbSpline
210
0.0
220
0.0
230
1.0
 70
     8
 71
     3
 72
     8
 73
     4
 74
     0
 42
0.0000001
 43
0.0000001
 40
0.0
 40
0.0
 40
0.0
 40
0.0
 40
1.0
 40
1.0
 40
1.0
 40
1.0
 10
4.0394650130560485
 20
7.6016448170554405
 30
0.0
 10
4.0394650130560326
 20
7.6330418578927288
 30
0.0
 10
4.0649173750095189
 20
7.658494219846145
 30
0.0
 10
4.0963144158467752
 20
7.6584942198461654
 30
0.0
  0
SPLINE
  5
CE
102
{ACAD_REACTORS
330
C1
102
}
100
AcDbEntity
  8
0
  6
CONTINUOUS
 62
     7
100
AcDbSpline
210
0.0
220
0.0
230
1.0
 70
     8
 71
     3
 72
     8
 73
     4
 74
     0
 42
0.0000001
 43
0.0000001
 40
0.0
 40
0.0
 40
0.0
 40
0.0
 40
1.0
 40
1.0
 40
1.0
 40
1.0
 10
4.0963144158467752
 20
7.6584942198461654
 30
0.0
 10
4.127711456684052
 20
7.6584942198461459
 30
0.0
 10
4.1531638186374993
 20
7.6330418578927279
 30
0.0
 10
4.1531638186375019
 20
7.6016448170554405
 30
0.0
  0
LINE
  5
CF
102
{ACAD_REACTORS
330
C1
102
}
100
AcDbEntity
  8
0
  6
CONTINUOUS
 62
     7
100
AcDbLine
 10
2.519944
 20
6.420114
 30
0.0
 11
2.519944
 21
4.89416
 31
0.0
  0
LINE
  5
D0
102
{ACAD_REACTORS
330
C1
102
}
100
AcDbEntity
  8
0
  6
CONTINUOUS
 62
     7
100
AcDbLine
 10
2.519944
 20
4.89416
 30
0.0
 11
2.374409
 21
4.89416
 31
0.0
  0
LINE
  5
D1
102
{ACAD_REACTORS
330
C1
102
}
100
AcDbEntity
  8
0
  6
CONTINUOUS
 62
     7
100
AcDbLine
 10
2.374409
 20
4.89416
 30
0.0
 11
2.374638
 21
6.418272
 31
0.0
  0
LINE
  5
D2
102
{ACAD_REACTORS
330
C1
102
}
100
AcDbEntity
  8
0
  6
CONTINUOUS
 62
     7
100
AcDbLine
 10
2.374638
 20
6.418272
 30
0.0
 11
1.600223
 21
6.418272
 31
0.0
  0
LINE
  5
D3
102
{ACAD_REACTORS
330
C1
102
}
100
AcDbEntity
  8
0
  6
CONTINUOUS
 62
     7
100
AcDbLine
 10
1.600223
 20
6.418272
 30
0.0
 11
1.600223
 21
6.563807
 31
0.0
  0
LINE
  5
D4
102
{ACAD_REACTORS
330
C1
102
}
100
AcDbEntity
  8
0
  6
CONTINUOUS
 62
     7
100
AcDbLine
 10
1.600223
 20
6.563807
 30
0.0
 11
2.374409
 21
6.563807
 31
0.0
  0
LINE
  5
D5
102
{ACAD_REACTORS
330
C1
102
}
100
AcDbEntity
  8
0
  6
CONTINUOUS
 62
     7
100
AcDbLine
 10
2.374409
 20
6.563807
 30
0.0
 11
2.374409
 21
8.681089
 31
0.0
  0
LINE
  5
D6
102
{ACAD_REACTORS
330
C1
102
}
100
AcDbEntity
  8
0
  6
CONTINUOUS
 62
     7
100
AcDbLine
 10
2.374409
 20
8.681089
 30
0.0
 11
2.519944
 21
8.681089
 31
0.0
  0
LINE
  5
D7
102
{ACAD_REACTORS
330
C1
102
}
100
AcDbEntity
  8
0
  6
CONTINUOUS
 62
     7
100
AcDbLine
 10
2.519944
 20
8.681089
 30
0.0
 11
2.519944
 21
6.690854
 31
0.0
  0
LINE
  5
D8
102
{ACAD_REACTORS
330
C1
102
}
100
AcDbEntity
  8
0
  6
CONTINUOUS
 62
     7
100
AcDbLine
 10
2.519944
 20
6.690854
 30
0.0
 11
2.520634
 21
6.565649
 31
0.0
  0
LINE
  5
D9
102
{ACAD_REACTORS
330
C1
102
}
100
AcDbEntity
  8
0
  6
CONTINUOUS
 62
     7
100
AcDbLine
 10
2.520634
 20
6.565649
 30
0.0
 11
3.306924
 21
6.565649
 31
0.0
  0
LINE
  5
DA
102
{ACAD_REACTORS
330
C1
102
}
100
AcDbEntity
  8
0
  6
CONTINUOUS
 62
     7
100
AcDbLine
 10
3.306924
 20
6.565649
 30
0.0
 11
3.306924
 21
6.420114
 31
0.0
  0
LINE
  5
DB
102
{ACAD_REACTORS
330
C1
102
}
100
AcDbEntity
  8
0
  6
CONTINUOUS
 62
     7
100
AcDbLine
 10
3.306924
 20
6.420114
 30
0.0
 11
2.520634
 21
6.420114
 31
0.0
  0
SPLINE
  5
DC
102
{ACAD_REACTORS
330
C1
102
}
100
AcDbEntity
  8
0
  6
CONTINUOUS
 62
     7
100
AcDbSpline
210
0.0
220
0.0
230
1.0
 70
     8
 71
     3
 72
     8
 73
     4
 74
     0
 42
0.0000001
 43
0.0000001
 40
0.0
 40
0.0
 40
0.0
 40
0.0
 40
1.0
 40
1.0
 40
1.0
 40
1.0
 10
0.8164197007947127
 20
7.6032239469198704
 30
0.0
 10
0.8164197007947126
 20
7.5718269060826024
 30
0.0
 10
0.7909673388412626
 20
7.5463745441291286
 30
0.0
 10
0.7595702980039873
 20
7.5463745441291437
 30
0.0
  0
SPLINE
  5
DD
102
{ACAD_REACTORS
330
C1
102
}
100
AcDbEntity
  8
0
  6
CONTINUOUS
 62
     7
100
AcDbSpline
210
0.0
220
0.0
230
1.0
 70
     8
 71
     3
 72
     8
 73
     4
 74
     0
 42
0.0000001
 43
0.0000001
 40
0.0
 40
0.0
 40
0.0
 40
0.0
 40
1.0
 40
1.0
 40
1.0
 40
1.0
 10
0.7595702980039873
 20
7.5463745441291437
 30
0.0
 10
0.7281732571667121
 20
7.5463745441291294
 30
0.0
 10
0.7027208952132622
 20
7.5718269060826024
 30
0.0
 10
0.7027208952132603
 20
7.6032239469198686
 30
0.0
  0
SPLINE
  5
DE
102
{ACAD_REACTORS
330
C1
102
}
100
AcDbEntity
  8
0
  6
CONTINUOUS
 62
     7
100
AcDbSpline
210
0.0
220
0.0
230
1.0
 70
     8
 71
     3
 72
     8
 73
     4
 74
     0
 42
0.0000001
 43
0.0000001
 40
0.0
 40
0.0
 40
0.0
 40
0.0
 40
1.0
 40
1.0
 40
1.0
 40
1.0
 10
0.7027208952132603
 20
7.6032239469198686
 30
0.0
 10
0.7027208952132622
 20
7.6346209877571454
 30
0.0
 10
0.728173257166712
 20
7.6600733497106219
 30
0.0
 10
0.7595702980039862
 20
7.6600733497105935
 30
0.0
  0
SPLINE
  5
DF
102
{ACAD_REACTORS
330
C1
102
}
100
AcDbEntity
  8
0
  6
CONTINUOUS
 62
     7
100
AcDbSpline
210
0.0
220
0.0
230
1.0
 70
     8
 71
     3
 72
     8
 73
     4
 74
     0
 42
0.0000001
 43
0.0000001
 40
0.0
 40
0.0
 40
0.0
 40
0.0
 40
1.0
 40
1.0
 40
1.0
 40
1.0
 10
0.7595702980039862
 20
7.6600733497105935
 30
0.0
 10
0.7909673388412625
 20
7.6600733497105633
 30
0.0
 10
0.8164197007947127
 20
7.6346209877571463
 30
0.0
 10
0.8164197007947132
 20
7.6032239469198704
 30
0.0
  0
ENDSEC
  0
SECTION
  2
OBJECTS
  0
DICTIONARY
  5
C
100
AcDbDictionary
  3
ACAD_GROUP
350
D
  3
ACAD_MLINESTYLE
350
1B
  0
DICTIONARY
  5
D
102
{ACAD_REACTORS
330
C
102
}
100
AcDbDictionary
  3
VISIOGROUP_0
350
31
  3
VISIOGROUP_1
350
B5
  3
VISIOGROUP_2
350
C1
  0
DICTIONARY
  5
1B
102
{ACAD_REACTORS
330
C
102
}
100
AcDbDictionary
  3
STANDARD
350
1C
  0
MLINESTYLE
  5
1C
102
{ACAD_REACTORS
330
1B
102
}
100
AcDbMlineStyle
  2
STANDARD
 70
     0
  3

 62
   256
 51
90.0
 52
90.0
 71
     2
 49
0.5
 62
   256
  6
BYLAYER
 49
-0.5
 62
   256
  6
BYLAYER
  0
GROUP
  5
31
102
{ACAD_REACTORS
330
D
102
}
100
AcDbGroup
300
Group created by Visio.
 70
     0
 71
     1
340
32
340
33
340
34
340
35
340
36
340
37
340
38
340
39
340
3A
340
3B
340
3C
340
3D
  0
GROUP
  5
B5
102
{ACAD_REACTORS
330
D
102
}
100
AcDbGroup
300
Group created by Visio.
 70
     0
 71
     1
340
B6
340
B7
340
B8
340
B9
340
BA
340
BB
340
BC
340
BD
340
BE
340
BF
340
C0
  0
GROUP
  5
C1
102
{ACAD_REACTORS
330
D
102
}
100
AcDbGroup
300
Group created by Visio.
 70
     0
 71
     1
340
C2
340
C3
340
C4
340
C5
340
C6
340
C7
340
C8
340
C9
340
CA
340
CB
340
CC
340
CD
340
CE
340
CF
340
D0
340
D1
340
D2
340
D3
340
D4
340
D5
340
D6
340
D7
340
D8
340
D9
340
DA
340
DB
340
DC
340
DD
340
DE
340
DF
  0
ENDSEC
  0
EOF
