  0
SECTION
  2
HEADER
  9
$ACADVER
  1
AC1014
  9
$ACADMAINTVER
 70
     0
  9
$DWGCODEPAGE
  3
ANSI_1252
  9
$INSBASE
 10
0.0
 20
0.0
 30
0.0
  9
$EXTMIN
 10
0.0
 20
0.0
 30
0.0
  9
$EXTMAX
 10
8.5
 20
11.0
 30
0.0
  9
$LIMMIN
 10
0.0
 20
0.0
  9
$LIMMAX
 10
12.0
 20
9.0
  9
$ORTHOMODE
 70
     0
  9
$REGENMODE
 70
     1
  9
$FILLMODE
 70
     0
  9
$QTEXTMODE
 70
     0
  9
$MIRRTEXT
 70
     1
  9
$DRAGMODE
 70
     2
  9
$LTSCALE
 40
1.0
  9
$OSMODE
 70
     0
  9
$ATTMODE
 70
     1
  9
$TEXTSIZE
 40
0.2
  9
$TRACEWID
 40
0.05
  9
$TEXTSTYLE
  7
STANDARD
  9
$CLAYER
  8
0
  9
$CELTYPE
  6
BYLAYER
  9
$CECOLOR
 62
   256
  9
$CELTSCALE
 40
1.0
  9
$DELOBJ
 70
     1
  9
$DISPSILH
 70
     0
  9
$DIMSCALE
 40
1.0
  9
$DIMASZ
 40
0.18
  9
$DIMEXO
 40
0.0625
  9
$DIMDLI
 40
0.38
  9
$DIMRND
 40
0.0
  9
$DIMDLE
 40
0.0
  9
$DIMEXE
 40
0.18
  9
$DIMTP
 40
0.0
  9
$DIMTM
 40
0.0
  9
$DIMTXT
 40
0.18
  9
$DIMCEN
 40
0.09
  9
$DIMTSZ
 40
0.0
  9
$DIMTOL
 70
     0
  9
$DIMLIM
 70
     0
  9
$DIMTIH
 70
     0
  9
$DIMTOH
 70
     0
  9
$DIMSE1
 70
     0
  9
$DIMSE2
 70
     0
  9
$DIMTAD
 70
     1
  9
$DIMZIN
 70
     0
  9
$DIMBLK
  1

  9
$DIMASO
 70
     1
  9
$DIMSHO
 70
     1
  9
$DIMPOST
  1

  9
$DIMAPOST
  1

  9
$DIMALT
 70
     0
  9
$DIMALTD
 70
     2
  9
$DIMALTF
 40
25.4
  9
$DIMLFAC
 40
1.0
  9
$DIMTOFL
 70
     0
  9
$DIMTVP
 40
0.0
  9
$DIMTIX
 70
     0
  9
$DIMSOXD
 70
     0
  9
$DIMSAH
 70
     0
  9
$DIMBLK1
  1

  9
$DIMBLK2
  1

  9
$DIMSTYLE
  2
STANDARD
  9
$DIMCLRD
 70
     0
  9
$DIMCLRE
 70
     0
  9
$DIMCLRT
 70
     0
  9
$DIMTFAC
 40
1.0
  9
$DIMGAP
 40
0.09
  9
$DIMJUST
 70
     0
  9
$DIMSD1
 70
     0
  9
$DIMSD2
 70
     0
  9
$DIMTOLJ
 70
     1
  9
$DIMTZIN
 70
     0
  9
$DIMALTZ
 70
     0
  9
$DIMALTTZ
 70
     0
  9
$DIMFIT
 70
     3
  9
$DIMUPT
 70
     0
  9
$DIMUNIT
 70
     2
  9
$DIMDEC
 70
     2
  9
$DIMTDEC
 70
     4
  9
$DIMALTU
 70
     2
  9
$DIMALTTD
 70
     2
  9
$DIMTXSTY
  7
STANDARD
  9
$DIMAUNIT
 70
     0
  9
$LUNITS
 70
     2
  9
$LUPREC
 70
     4
  9
$SKETCHINC
 40
0.1
  9
$FILLETRAD
 40
0.5
  9
$AUNITS
 70
     0
  9
$AUPREC
 70
     0
  9
$MENU
  1
.
  9
$ELEVATION
 40
0.0
  9
$PELEVATION
 40
0.0
  9
$THICKNESS
 40
0.0
  9
$LIMCHECK
 70
     0
  9
$BLIPMODE
 70
     0
  9
$CHAMFERA
 40
0.5
  9
$CHAMFERB
 40
0.5
  9
$CHAMFERC
 40
1.0
  9
$CHAMFERD
 40
0.0
  9
$SKPOLY
 70
     0
  9
$TDCREATE
 40
2450772.666465926
  9
$TDUPDATE
 40
2455607.683900451
  9
$TDINDWG
 40
0.0011564931
  9
$TDUSRTIMER
 40
0.0000000000
  9
$USRTIMER
 70
     1
  9
$ANGBASE
 50
0.0
  9
$ANGDIR
 70
     0
  9
$PDMODE
 70
     0
  9
$PDSIZE
 40
0.0
  9
$PLINEWID
 40
0.0
  9
$COORDS
 70
     1
  9
$SPLFRAME
 70
     0
  9
$SPLINETYPE
 70
     6
  9
$SPLINESEGS
 70
     8
  9
$ATTDIA
 70
     0
  9
$ATTREQ
 70
     1
  9
$HANDLING
 70
     1
  9
$HANDSEED
  5
A4
  9
$SURFTAB1
 70
     6
  9
$SURFTAB2
 70
     6
  9
$SURFTYPE
 70
     6
  9
$SURFU
 70
     6
  9
$SURFV
 70
     6
  9
$UCSNAME
  2

  9
$UCSORG
 10
0.0
 20
0.0
 30
0.0
  9
$UCSXDIR
 10
1.0
 20
0.0
 30
0.0
  9
$UCSYDIR
 10
0.0
 20
1.0
 30
0.0
  9
$PUCSNAME
  2

  9
$PUCSORG
 10
0.0
 20
0.0
 30
0.0
  9
$PUCSXDIR
 10
1.0
 20
0.0
 30
0.0
  9
$PUCSYDIR
 10
0.0
 20
1.0
 30
0.0
  9
$USERI1
 70
     0
  9
$USERI2
 70
     0
  9
$USERI3
 70
     0
  9
$USERI4
 70
     0
  9
$USERI5
 70
     0
  9
$USERR1
 40
0.0
  9
$USERR2
 40
0.0
  9
$USERR3
 40
0.0
  9
$USERR4
 40
0.0
  9
$USERR5
 40
0.0
  9
$WORLDVIEW
 70
     1
  9
$SHADEDGE
 70
     3
  9
$SHADEDIF
 70
    70
  9
$TILEMODE
 70
     1
  9
$MAXACTVP
 70
    48
  9
$PINSBASE
 10
0.0
 20
0.0
 30
0.0
  9
$PLIMCHECK
 70
     0
  9
$PEXTMIN
 10
0.0
 20
0.0
 30
0.0
  9
$PEXTMAX
 10
0.0
 20
0.0
 30
0.0
  9
$PLIMMIN
 10
0.0
 20
0.0
  9
$PLIMMAX
 10
12.0
 20
9.0
  9
$UNITMODE
 70
     0
  9
$VISRETAIN
 70
     1
  9
$PLINEGEN
 70
     0
  9
$PSLTSCALE
 70
     1
  9
$TREEDEPTH
 70
  3020
  9
$PICKSTYLE
 70
     1
  9
$CMLSTYLE
  2
STANDARD
  9
$CMLJUST
 70
     0
  9
$CMLSCALE
 40
1.0
  9
$PROXYGRAPHICS
 70
     1
  9
$MEASUREMENT
 70
     0
  0
ENDSEC
  0
SECTION
  2
CLASSES
  0
CLASS
  1
LWPOLYLINE
  2
AcDbPolyline
  3
"AutoCAD"
 90
        0
280
     0
281
     1
  0
CLASS
  1
IMAGE
  2
AcDbRasterImage
  3
ISM
 90
      127
280
     0
281
     1
  0
CLASS
  1
OLE2FRAME
  2
AcDbOle2Frame
  3
""
 90
        0
280
     0
281
     1
  0
CLASS
  1
HATCH
  2
AcDbHatch
  3
"ACAD_SEDONA"
 90
        0
280
     0
281
     1
  0
CLASS
  1
DICTIONARYVAR
  2
AcDbDictionaryVar
  3
"AutoCAD"
 90
        0
280
     0
281
     0
  0
CLASS
  1
RASTERVARIABLES
  2
AcDbRasterVariables
  3
ISM
 90
        0
280
     0
281
     0
  0
CLASS
  1
IMAGEDEF
  2
AcDbRasterImageDef
  3
ISM
 90
        0
280
     0
281
     0
  0
CLASS
  1
IMAGEDEF_REACTOR
  2
AcDbRasterImageDefReactor
  3
ISM
 90
        1
280
     0
281
     0
  0
CLASS
  1
IDBUFFER
  2
AcDbIdBuffer
  3
"Acad"
 90
        0
280
     0
281
     0
  0
CLASS
  1
SPATIAL_FILTER
  2
AcDbSpatialFilter
  3
"Acad"
 90
        0
280
     0
281
     0
  0
CLASS
  1
XRECORD
  2
AcDbXrecord
  3
"<Built In>"
 90
        0
280
     0
281
     0
  0
CLASS
  1
SORTENTSTABLE
  2
AcDbSortentsTable
  3
"AutoCAD"
 90
        0
280
     0
281
     0
  0
CLASS
  1
LAYER_INDEX
  2
AcDbLayerIndex
  3
"Acad"
 90
        0
280
     0
281
     0
  0
CLASS
  1
SPATIAL_INDEX
  2
AcDbSpatialIndex
  3
"Acad"
 90
        0
280
     0
281
     0
  0
CLASS
  1
OBJECT_PTR
  2
CAseDLPNTableRecord
  3
"ASE-LPNTableRecord"
 90
        1
280
     0
281
     0
  0
CLASS
  1
LAYOUT
  2
AcDbLayout
  3
"AutoCAD 2000"
 90
        1
280
     0
281
     0
  0
CLASS
  1
PLOTSETTINGS
  2
AcDbPlotSettings
  3
"AutoCAD 2000"
 90
        1
280
     0
281
     0
  0
CLASS
  1
ACDBDICTIONARYWDFLT
  2
AcDbDictionaryWithDefault
  3
"AutoCAD 2000"
 90
        1
280
     0
281
     0
  0
CLASS
  1
ACDBPLACEHOLDER
  2
AcDbPlaceHolder
  3
"AutoCAD 2000"
 90
        1
280
     0
281
     0
  0
CLASS
  1
VBA_PROJECT
  2
AcDbVbaProject
  3
"acadvba"
 90
        1
280
     0
281
     0
  0
CLASS
  1
WIPEOUT
  2
AcDbWipeout
  3
WipeOut|AutoCAD Express Tool|expresstools@autodesk.com
 90
      127
280
     0
281
     1
  0
CLASS
  1
WIPEOUTVARIABLES
  2
AcDbWipeoutVariables
  3
WipeOut|AutoCAD Express Tool|expresstools@autodesk.com
 90
        0
280
     0
281
     0
  0
CLASS
  1
RTEXT
  2
RText
  3
RText|AutoCAD Express Tool|expresstools@autodesk.com
 90
        0
280
     0
281
     1
  0
CLASS
  1
ARCALIGNEDTEXT
  2
AcDbArcAlignedText
  3
ATEXT|AutoCAD Express Tool|expresstools@autodesk.com
 90
        0
280
     0
281
     1
  0
ENDSEC
  0
SECTION
  2
TABLES
  0
TABLE
  2
VPORT
  5
8
100
AcDbSymbolTable
 70
     1
  0
VPORT
  5
25
100
AcDbSymbolTableRecord
100
AcDbViewportTableRecord
  2
*ACTIVE
 70
     0
 10
0.0
 20
0.0
 11
1.0
 21
1.0
 12
4.25
 22
5.5
 13
0.0
 23
0.0
 14
0.5
 24
0.5
 15
0.5
 25
0.5
 16
0.0
 26
0.0
 36
1.0
 17
0.0
 27
0.0
 37
0.0
 40
11.0
 41
0.772727
 42
50.0
 43
0.0
 44
0.0
 50
0.0
 51
0.0
 71
     0
 72
   100
 73
     1
 74
     1
 75
     0
 76
     0
 77
     0
 78
     0
  0
ENDTAB
  0
TABLE
  2
LTYPE
  5
5
100
AcDbSymbolTable
 70
     3
  0
LTYPE
  5
12
100
AcDbSymbolTableRecord
100
AcDbLinetypeTableRecord
  2
BYBLOCK
 70
    64
  3

 72
    65
 73
     0
 40
0.0
  0
LTYPE
  5
13
100
AcDbSymbolTableRecord
100
AcDbLinetypeTableRecord
  2
BYLAYER
 70
    64
  3

 72
    65
 73
     0
 40
0.0
  0
LTYPE
  5
14
100
AcDbSymbolTableRecord
100
AcDbLinetypeTableRecord
  2
CONTINUOUS
 70
     0
  3
Solid line
 72
    65
 73
     0
 40
0.0
  0
ENDTAB
  0
TABLE
  2
LAYER
  5
2
100
AcDbSymbolTable
 70
     1
  0
LAYER
  5
E
100
AcDbSymbolTableRecord
100
AcDbLayerTableRecord
  2
0
 70
     0
 62
     7
  6
CONTINUOUS
  0
ENDTAB
  0
TABLE
  2
STYLE
  5
3
100
AcDbSymbolTable
 70
     1
  0
STYLE
  5
F
100
AcDbSymbolTableRecord
100
AcDbTextStyleTableRecord
  2
STANDARD
 70
     0
 40
0.0
 41
1.0
 50
0.0
 71
     0
 42
0.2
  3
txt.shx
  4

  0
ENDTAB
  0
TABLE
  2
VIEW
  5
6
100
AcDbSymbolTable
 70
     0
  0
ENDTAB
  0
TABLE
  2
UCS
  5
7
100
AcDbSymbolTable
 70
     0
  0
ENDTAB
  0
TABLE
  2
APPID
  5
9
100
AcDbSymbolTable
 70
     1
  0
APPID
  5
10
100
AcDbSymbolTableRecord
100
AcDbRegAppTableRecord
  2
ACAD
 70
     0
  0
ENDTAB
  0
TABLE
  2
DIMSTYLE
  5
A
100
AcDbSymbolTable
 70
     1
  0
DIMSTYLE
105
1D
100
AcDbSymbolTableRecord
100
AcDbDimStyleTableRecord
  2
STANDARD
 70
     0
  3

  4

  5

  6

  7

 40
1.0
 41
0.18
 42
0.0625
 43
0.38
 44
0.18
 45
0.0
 46
0.0
 47
0.0
 48
0.0
 71
     0
 72
     0
 73
     1
 74
     1
 75
     0
 76
     0
 77
     0
 78
     0
140
0.18
141
0.09
142
0.0
143
25.4
144
1.0
145
0.0
146
1.0
147
0.09
170
     0
171
     2
172
     0
173
     0
174
     0
175
     0
176
     0
177
     0
178
     0
270
     2
271
     4
272
     4
273
     2
274
     2
275
     0
280
     0
281
     0
282
     0
283
     1
284
     0
285
     0
286
     0
287
     3
288
     0
340
F
  0
ENDTAB
  0
TABLE
  2
BLOCK_RECORD
  5
1
100
AcDbSymbolTable
 70
     0
  0
BLOCK_RECORD
  5
18
100
AcDbSymbolTableRecord
100
AcDbBlockTableRecord
  2
*MODEL_SPACE
  0
BLOCK_RECORD
  5
15
100
AcDbSymbolTableRecord
100
AcDbBlockTableRecord
  2
*PAPER_SPACE
  0
ENDTAB
  0
ENDSEC
  0
SECTION
  2
BLOCKS
  0
BLOCK
  5
19
100
AcDbEntity
  8
0
100
AcDbBlockBegin
  2
*MODEL_SPACE
 70
     0
 10
0.0
 20
0.0
 30
0.0
  3
*MODEL_SPACE
  1

  0
ENDBLK
  5
1A
100
AcDbEntity
  8
0
100
AcDbBlockEnd
  0
BLOCK
  5
16
100
AcDbEntity
 67
     1
  8
0
100
AcDbBlockBegin
  2
*PAPER_SPACE
 70
     0
 10
0.0
 20
0.0
 30
0.0
  3
*PAPER_SPACE
  1

  0
ENDBLK
  5
17
100
AcDbEntity
 67
     1
  8
0
100
AcDbBlockEnd
  0
ENDSEC
  0
SECTION
  2
ENTITIES
  0
LINE
  5
32
102
{ACAD_REACTORS
330
31
102
}
100
AcDbEntity
  8
0
  6
CONTINUOUS
 62
     7
100
AcDbLine
 10
0.13566
 20
10.054316
 30
0.0
 11
0.808416
 21
10.059013
 31
0.0
  0
LINE
  5
33
102
{ACAD_REACTORS
330
31
102
}
100
AcDbEntity
  8
0
  6
CONTINUOUS
 62
     7
100
AcDbLine
 10
0.808416
 20
10.059013
 30
0.0
 11
0.808808
 21
10.002888
 31
0.0
  0
LINE
  5
34
102
{ACAD_REACTORS
330
31
102
}
100
AcDbEntity
  8
0
  6
CONTINUOUS
 62
     7
100
AcDbLine
 10
0.808808
 20
10.002888
 30
0.0
 11
0.8092
 21
9.946765
 31
0.0
  0
LINE
  5
35
102
{ACAD_REACTORS
330
31
102
}
100
AcDbEntity
  8
0
  6
CONTINUOUS
 62
     7
100
AcDbLine
 10
0.8092
 20
9.946765
 30
0.0
 11
0.136247
 21
9.942067
 31
0.0
  0
LINE
  5
36
102
{ACAD_REACTORS
330
31
102
}
100
AcDbEntity
  8
0
  6
CONTINUOUS
 62
     7
100
AcDbLine
 10
0.136247
 20
9.942067
 30
0.0
 11
0.140778
 21
9.076899
 31
0.0
  0
SPLINE
  5
37
102
{ACAD_REACTORS
330
31
102
}
100
AcDbEntity
  8
0
  6
CONTINUOUS
 62
     7
100
AcDbSpline
210
0.0
220
0.0
230
1.0
 70
     8
 71
     3
 72
    17
 73
    13
 74
     0
 42
0.0000001
 43
0.0000001
 40
0.0
 40
0.0
 40
0.0
 40
0.0
 40
2.4228913334999
 40
2.4228913334999
 40
2.4228913334999
 40
2.9707098363375
 40
2.9707098363375
 40
2.9707098363375
 40
3.6324838653101001
 40
3.6324838653101001
 40
3.6324838653101001
 40
4.8571665303438998
 40
4.8571665303438998
 40
4.8571665303438998
 40
4.8571665303438998
 10
0.1407775319145044
 20
9.0768985085642893
 30
0.0
 10
0.3934467177375545
 20
9.0550258273707627
 30
0.0
 10
0.7283969612991217
 20
9.1499422604859237
 30
0.0
 10
0.9812646504832985
 20
9.2693594673281492
 30
0.0
 10
1.0384383243454092
 20
9.2963598344353482
 30
0.0
 10
1.091415796236717
 20
9.324612723418614
 30
0.0
 10
1.1401569090264581
 20
9.3661784940266681
 30
0.0
 10
1.1990369987284417
 20
9.4163906488556393
 30
0.0
 10
1.2517349487663039
 20
9.486030357289799
 30
0.0
 10
1.2883712341961158
 20
9.5601958835686069
 30
0.0
 10
1.3561705459140032
 20
9.6974470152242169
 30
0.0
 10
1.3689628202196853
 20
9.8501978997122173
 30
0.0
 10
1.3688945145954632
 20
10.006958261057539
 30
0.0
  0
SPLINE
  5
38
102
{ACAD_REACTORS
330
31
102
}
100
AcDbEntity
  8
0
  6
CONTINUOUS
 62
     7
100
AcDbSpline
210
0.0
220
0.0
230
1.0
 70
     8
 71
     3
 72
    17
 73
    13
 74
     0
 42
0.0000001
 43
0.0000001
 40
0.0
 40
0.0
 40
0.0
 40
0.0
 40
1.2246826650338001
 40
1.2246826650338001
 40
1.2246826650338001
 40
1.8864566940064
 40
1.8864566940064
 40
1.8864566940064
 40
2.4342751968438998
 40
2.4342751968438998
 40
2.4342751968438998
 40
4.8571665303438998
 40
4.8571665303438998
 40
4.8571665303438998
 40
4.8571665303438998
 10
1.3688945145954632
 20
10.006958261057539
 30
0.0
 10
1.3673212558124319
 20
10.163710742414523
 30
0.0
 10
1.3529301086293593
 20
10.316319293539749
 30
0.0
 10
1.283697250170325
 20
10.452852919873161
 30
0.0
 10
1.2462863281512377
 20
10.526630732337265
 30
0.0
 10
1.1928620155827636
 20
10.595714780825864
 30
0.0
 10
1.1334593434680851
 20
10.645307602902406
 30
0.0
 10
1.0842856354080426
 20
10.686360688022182
 30
0.0
 10
1.0310152101510459
 20
10.714057259232934
 30
0.0
 10
0.973561929142332
 20
10.740457435523066
 30
0.0
 10
0.7194575936441605
 20
10.857220118792942
 30
0.0
 10
0.3835317712203066
 20
10.948623820939478
 30
0.0
 10
0.131105485404535
 20
10.924106441872249
 30
0.0
  0
LINE
  5
39
102
{ACAD_REACTORS
330
31
102
}
100
AcDbEntity
  8
0
  6
CONTINUOUS
 62
     7
100
AcDbLine
 10
0.131105
 20
10.924106
 30
0.0
 11
0.13566
 21
10.054316
 31
0.0
  0
LINE
  5
3A
102
{ACAD_REACTORS
330
31
102
}
100
AcDbEntity
  8
0
  6
CONTINUOUS
 62
     7
100
AcDbLine
 10
0.140778
 20
9.076899
 30
0.0
 11
0.140804
 21
9.07189
 31
0.0
  0
LINE
  5
3C
102
{ACAD_REACTORS
330
3B
102
}
100
AcDbEntity
  8
0
  6
CONTINUOUS
 62
     7
100
AcDbLine
 10
2.874206
 20
6.240213
 30
0.0
 11
4.010455
 21
6.248145
 31
0.0
  0
LINE
  5
3D
102
{ACAD_REACTORS
330
3B
102
}
100
AcDbEntity
  8
0
  6
CONTINUOUS
 62
     7
100
AcDbLine
 10
4.010455
 20
6.248145
 30
0.0
 11
4.009672
 21
6.360393
 31
0.0
  0
LINE
  5
3E
102
{ACAD_REACTORS
330
3B
102
}
100
AcDbEntity
  8
0
  6
CONTINUOUS
 62
     7
100
AcDbLine
 10
4.009672
 20
6.360393
 30
0.0
 11
2.874402
 21
6.352468
 31
0.0
  0
LINE
  5
3F
102
{ACAD_REACTORS
330
3B
102
}
100
AcDbEntity
  8
0
  6
CONTINUOUS
 62
     7
100
AcDbLine
 10
2.874402
 20
6.352468
 30
0.0
 11
2.876476
 21
7.540919
 31
0.0
  0
SPLINE
  5
40
102
{ACAD_REACTORS
330
3B
102
}
100
AcDbEntity
  8
0
  6
CONTINUOUS
 62
     7
100
AcDbSpline
210
0.0
220
0.0
230
1.0
 70
     8
 71
     3
 72
    26
 73
    22
 74
     0
 42
0.0000001
 43
0.0000001
 40
0.0
 40
0.0
 40
0.0
 40
0.0
 40
1.6368173022700001
 40
1.6368173022700001
 40
1.6368173022700001
 40
2.9561346045400998
 40
2.9561346045400998
 40
2.9561346045400998
 40
4.4903285075668
 40
4.4903285075668
 40
4.4903285075668
 40
5.6412660075668004
 40
5.6412660075668004
 40
5.6412660075668004
 40
6.6952211158903001
 40
6.6952211158903001
 40
6.6952211158903001
 40
7.3069727166470004
 40
7.3069727166470004
 40
7.3069727166470004
 40
9.4678778549467992
 40
9.4678778549467992
 40
9.4678778549467992
 40
9.4678778549467992
 10
2.8764764966688845
 20
7.5409193687426184
 30
0.0
 10
3.0314237652467297
 20
7.597345813440433
 30
0.0
 10
3.3620906175770329
 20
7.5197686332025189
 30
0.0
 10
3.4705490739268949
 20
7.4298918248484869
 30
0.0
 10
3.5579694096243695
 20
7.3574487805515849
 30
0.0
 10
3.501025858575566
 20
7.2770149395408898
 30
0.0
 10
3.6150384980826047
 20
7.2042381984184933
 30
0.0
 10
3.7476203236212693
 20
7.1196083430228256
 30
0.0
 10
4.1113803187089752
 20
7.0453329201310355
 30
0.0
 10
4.2424888950657049
 20
7.0721288750484126
 30
0.0
 10
4.3408452871768324
 20
7.0922309425262675
 30
0.0
 10
4.3082688111704135
 20
7.1692145259361109
 30
0.0
 10
4.4044324756374387
 20
7.1988466867317644
 30
0.0
 10
4.4924930222788957
 20
7.2259819284292996
 30
0.0
 10
4.688511542452197
 20
7.2134095574857504
 30
0.0
 10
4.794894381087933
 20
7.1631107768253752
 30
0.0
 10
4.8566426199972579
 20
7.1339156438049125
 30
0.0
 10
4.8881922507067745
 20
7.0920103372656014
 30
0.0
 10
4.9140386006098495
 20
7.0409756433980633
 30
0.0
 10
5.0053362943842368
 20
6.8607045463163745
 30
0.0
 10
5.0254723510788804
 20
6.5665231983002839
 30
0.0
 10
4.9945917111949409
 20
6.2513492867793046
 30
0.0
  0
SPLINE
  5
41
102
{ACAD_REACTORS
330
3B
102
}
100
AcDbEntity
  8
0
  6
CONTINUOUS
 62
     7
100
AcDbSpline
210
0.0
220
0.0
230
1.0
 70
     8
 71
     3
 72
    20
 73
    16
 74
     0
 42
0.0000001
 43
0.0000001
 40
0.0
 40
0.0
 40
0.0
 40
0.0
 40
2.1609051382997002
 40
2.1609051382997002
 40
2.1609051382997002
 40
2.7726567390564001
 40
2.7726567390564001
 40
2.7726567390564001
 40
3.8266118473798998
 40
3.8266118473798998
 40
3.8266118473798998
 40
4.9775493473798997
 40
4.9775493473798997
 40
4.9775493473798997
 40
6.4399945607833002
 40
6.4399945607833002
 40
6.4399945607833002
 40
6.4399945607833002
 10
4.9945747206344935
 20
6.2416144226209633
 30
0.0
 10
5.0244899396551208
 20
5.9265733215770293
 30
0.0
 10
5.0034142074918986
 20
5.6327046339492277
 30
0.0
 10
4.9114785081328662
 20
5.452929445435327
 30
0.0
 10
4.8854515390388737
 20
5.4020351431355955
 30
0.0
 10
4.8537454666044439
 20
5.3602849146702543
 30
0.0
 10
4.7918569171970198
 20
5.3313510924632732
 30
0.0
 10
4.6852323448804079
 20
5.2815025106521745
 30
0.0
 10
4.4890199718259458
 20
5.2696956591827142
 30
0.0
 10
4.4009752870205787
 20
5.2971486132443477
 30
0.0
 10
4.3048289439572596
 20
5.327127721524942
 30
0.0
 10
4.3376728266669886
 20
5.4039242413748907
 30
0.0
 10
4.2393021017566648
 20
5.4243893219671726
 30
0.0
 10
4.1143067863862495
 20
5.450393391826819
 30
0.0
 10
3.7774568624876204
 20
5.3854466504298104
 30
0.0
 10
3.6310660497205749
 20
5.3065133078361182
 30
0.0
  0
SPLINE
  5
42
102
{ACAD_REACTORS
330
3B
102
}
100
AcDbEntity
  8
0
  6
CONTINUOUS
 62
     7
100
AcDbSpline
210
0.0
220
0.0
230
1.0
 70
     8
 71
     3
 72
    14
 73
    10
 74
     0
 42
0.0000001
 43
0.0000001
 40
0.0
 40
0.0
 40
0.0
 40
0.0
 40
0.071748689623333
 40
0.071748689623333
 40
0.071748689623333
 40
1.3910659918934001
 40
1.3910659918934001
 40
1.3910659918934001
 40
3.0278832941634
 40
3.0278832941634
 40
3.0278832941634
 40
3.0278832941634
 10
3.6310660497205749
 20
5.3065133078361182
 30
0.0
 10
3.6238948133085631
 20
5.3026224908692976
 30
0.0
 10
3.6171809459470454
 20
5.2986985527738106
 30
0.0
 10
3.6109718625891691
 20
5.2947506663322903
 30
0.0
 10
3.4967990303289187
 20
5.222156798527374
 30
0.0
 10
3.5533036507368361
 20
5.1414655214000176
 30
0.0
 10
3.4656865400019128
 20
5.069139028792371
 30
0.0
 10
3.3569839537634811
 20
4.9794068208473732
 30
0.0
 10
3.0264457033228229
 20
4.9025498921203194
 30
0.0
 10
2.8719709707595893
 20
4.9594457990310161
 30
0.0
  0
LINE
  5
43
102
{ACAD_REACTORS
330
3B
102
}
100
AcDbEntity
  8
0
  6
CONTINUOUS
 62
     7
100
AcDbLine
 10
2.871971
 20
4.959446
 30
0.0
 11
2.874206
 21
6.240213
 31
0.0
  0
LINE
  5
44
102
{ACAD_REACTORS
330
3B
102
}
100
AcDbEntity
  8
0
  6
CONTINUOUS
 62
     7
100
AcDbLine
 10
2.874206
 20
6.240213
 30
0.0
 11
2.874215
 21
6.245234
 31
0.0
  0
SPLINE
  5
45
100
AcDbEntity
  8
0
  6
CONTINUOUS
 62
     7
100
AcDbSpline
210
0.0
220
0.0
230
1.0
 70
     8
 71
     3
 72
    23
 73
    19
 74
     0
 42
0.0000001
 43
0.0000001
 40
0.0
 40
0.0
 40
0.0
 40
0.0
 40
2.4850039032807998
 40
2.4850039032807998
 40
2.4850039032807998
 40
5.8304064183267004
 40
5.8304064183267004
 40
5.8304064183267004
 40
8.2198570752638993
 40
8.2198570752638993
 40
8.2198570752638993
 40
11.358946815056999
 40
11.358946815056999
 40
11.358946815056999
 40
13.234129008689999
 40
13.234129008689999
 40
13.234129008689999
 40
16.363667228366999
 40
16.363667228366999
 40
16.363667228366999
 40
16.363667228366999
 10
6.0651034179928756
 20
4.9448028011792395
 30
0.0
 10
6.3140632504588545
 20
4.8811639151709549
 30
0.0
 10
6.5635956977105376
 20
4.8650213156850377
 30
0.0
 10
6.7859038567161942
 20
4.7842921520580397
 30
0.0
 10
7.0851831750587682
 20
4.6756116197342514
 30
0.0
 10
7.3351224937571313
 20
4.4498774835499422
 30
0.0
 10
7.5512868852600006
 20
4.1694447007097075
 30
0.0
 10
7.7056821022659889
 20
3.9691458445419827
 30
0.0
 10
7.8428469812833477
 20
3.7409423784265758
 30
0.0
 10
7.8591462425020584
 20
3.4800318952487608
 30
0.0
 10
7.8805590486252033
 20
3.1372663234340745
 30
0.0
 10
7.6933719499468278
 20
2.7380522696621439
 30
0.0
 10
7.5434863188344723
 20
2.4992635592275017
 30
0.0
 10
7.453949895908961
 20
2.3566195525362232
 30
0.0
 10
7.3777243109470545
 20
2.271222509295947
 30
0.0
 10
7.2185254609554903
 20
2.2071938375133739
 30
0.0
 10
6.9528345391512474
 20
2.1003347940673023
 30
0.0
 10
6.4560373310386368
 20
2.0529932948601322
 30
0.0
 10
6.1181402830298861
 20
2.0078612097360078
 30
0.0
  0
LINE
  5
46
100
AcDbEntity
  8
0
  6
CONTINUOUS
 62
     7
100
AcDbLine
 10
6.11814
 20
2.007861
 30
0.0
 11
6.11814
 21
3.556422
 31
0.0
  0
LINE
  5
47
100
AcDbEntity
  8
0
  6
CONTINUOUS
 62
     7
100
AcDbLine
 10
6.11814
 20
3.556422
 30
0.0
 11
6.06268
 21
3.556422
 31
0.0
  0
LINE
  5
48
100
AcDbEntity
  8
0
  6
CONTINUOUS
 62
     7
100
AcDbLine
 10
6.06268
 20
3.556422
 30
0.0
 11
6.005889
 21
3.556422
 31
0.0
  0
LINE
  5
49
100
AcDbEntity
  8
0
  6
CONTINUOUS
 62
     7
100
AcDbLine
 10
6.005889
 20
3.556422
 30
0.0
 11
6.005889
 21
2.007505
 31
0.0
  0
SPLINE
  5
4A
100
AcDbEntity
  8
0
  6
CONTINUOUS
 62
     7
100
AcDbSpline
210
0.0
220
0.0
230
1.0
 70
     8
 71
     3
 72
    23
 73
    19
 74
     0
 42
0.0000001
 43
0.0000001
 40
0.0
 40
0.0
 40
0.0
 40
0.0
 40
3.1421470957034998
 40
3.1421470957034998
 40
3.1421470957034998
 40
5.0173292893363
 40
5.0173292893363
 40
5.0173292893363
 40
8.1564190291296992
 40
8.1564190291296992
 40
8.1564190291296992
 40
10.545869686067
 40
10.545869686067
 40
10.545869686067
 40
13.891272201113001
 40
13.891272201113001
 40
13.891272201113001
 40
16.376276104394002
 40
16.376276104394002
 40
16.376276104394002
 40
16.376276104394002
 10
6.0058894952063167
 20
2.00750460365493
 30
0.0
 10
5.668083167834201
 20
2.0539810316281462
 30
0.0
 10
5.1685176154395123
 20
2.1030166154903558
 30
0.0
 10
4.9021323634688603
 20
2.2112367102505623
 30
0.0
 10
4.743157985144939
 20
2.2758206996395658
 30
0.0
 10
4.667230955885211
 20
2.3614832995578676
 30
0.0
 10
4.5781929989500529
 20
2.5044389776544205
 30
0.0
 10
4.4291418091422674
 20
2.7437494317968829
 30
0.0
 10
4.2433493679734964
 20
3.1436144583310788
 30
0.0
 10
4.2659585187708347
 20
3.4863031972586009
 30
0.0
 10
4.2831684282361939
 20
3.747155195841251
 30
0.0
 10
4.4211290503501193
 20
3.9748784768839931
 30
0.0
 10
4.5762225002133574
 20
4.1746371728797982
 30
0.0
 10
4.7933644678590506
 20
4.4543136926884443
 30
0.0
 10
5.0440902230234537
 20
4.6791740025866249
 30
0.0
 10
5.3437470839079788
 20
4.7868091930153405
 30
0.0
 10
5.566335685905492
 20
4.8667618645228092
 30
0.0
 10
5.8159229611078942
 20
4.8820333348723377
 30
0.0
 10
6.065103417992856
 20
4.9448028011792395
 30
0.0
  0
SPLINE
  5
4C
102
{ACAD_REACTORS
330
4B
102
}
100
AcDbEntity
  8
0
  6
CONTINUOUS
 62
     7
100
AcDbSpline
210
0.0
220
0.0
230
1.0
 70
     8
 71
     3
 72
    47
 73
    43
 74
     0
 42
0.0000001
 43
0.0000001
 40
0.0
 40
0.0
 40
0.0
 40
0.0
 40
0.89526905469047
 40
0.89526905469047
 40
0.89526905469047
 40
1.8195006667817999
 40
1.8195006667817999
 40
1.8195006667817999
 40
2.7439189554391001
 40
2.7439189554391001
 40
2.7439189554391001
 40
3.2454961180603998
 40
3.2454961180603998
 40
3.2454961180603998
 40
4.1992759427455004
 40
4.1992759427455004
 40
4.1992759427455004
 40
5.5931968870733
 40
5.5931968870733
 40
5.5931968870733
 40
6.2341611856870003
 40
6.2341611856870003
 40
6.2341611856870003
 40
6.8920740701933996
 40
6.8920740701933996
 40
6.8920740701933996
 40
7.2720874695002999
 40
7.2720874695002999
 40
7.2720874695002999
 40
7.6964728427356999
 40
7.6964728427356999
 40
7.6964728427356999
 40
8.2861254417276999
 40
8.2861254417276999
 40
8.2861254417276999
 40
8.9655844008557999
 40
8.9655844008557999
 40
8.9655844008557999
 40
9.9550941491547
 40
9.9550941491547
 40
9.9550941491547
 40
10.574934873083
 40
10.574934873083
 40
10.574934873083
 40
10.574934873083
 10
6.5260270746451265
 20
8.2500000000000018
 30
0.0
 10
6.379785304871584
 20
8.2521245274693236
 30
0.0
 10
6.2354496842495433
 20
8.2733320799002161
 30
0.0
 10
6.1033468821993369
 20
8.3016250014104394
 30
0.0
 10
5.9669704654551374
 20
8.3308332180031677
 30
0.0
 10
5.8436311495895392
 20
8.3675926519140287
 30
0.0
 10
5.7155277452862334
 20
8.4308980470481245
 30
0.0
 10
5.5873984666206047
 20
8.4942162286240794
 30
0.0
 10
5.4545031748190151
 20
8.5840910960279686
 30
0.0
 10
5.3674849301078149
 20
8.6894441383235215
 30
0.0
 10
5.3202699790255332
 20
8.7466073085858103
 30
0.0
 10
5.286561250669398
 20
8.808327260305056
 30
0.0
 10
5.2680441257711212
 20
8.8783816665632074
 30
0.0
 10
5.232832673864392
 20
9.0115944288232548
 30
0.0
 10
5.2525530902409985
 20
9.1749440466307952
 30
0.0
 10
5.2978763670721154
 20
9.3258652860783293
 30
0.0
 10
5.3641149928066376
 20
9.5464322043178171
 30
0.0
 10
5.4850386559161173
 20
9.7404534037171597
 30
0.0
 10
5.4271474855872022
 20
9.9125680081540626
 30
0.0
 10
5.4005274871311979
 20
9.9917111741729059
 30
0.0
 10
5.3360985109013725
 20
10.066222364498735
 30
0.0
 10
5.3475982597394003
 20
10.141276547546122
 30
0.0
 10
5.359402088666366
 20
10.218315337646889
 30
0.0
 10
5.4512031957156788
 20
10.295926216107189
 30
0.0
 10
5.4271487147733994
 20
10.369993772965291
 30
0.0
 10
5.4132547399224702
 20
10.41277552222547
 30
0.0
 10
5.3607082264610462
 20
10.454375124146802
 30
0.0
 10
5.3625105554142189
 20
10.489320236862223
 30
0.0
 10
5.3645233319291563
 20
10.528345688937161
 30
0.0
 10
5.4343179388489578
 20
10.55907191256961
 30
0.0
 10
5.4868089578946373
 20
10.598710214520969
 30
0.0
 10
5.5597414097556896
 20
10.653784751107979
 30
0.0
 10
5.5992691457093855
 20
10.726064126746421
 30
0.0
 10
5.66581918484935
 20
10.747868743100991
 30
0.0
 10
5.7425050510716957
 20
10.772994286442604
 30
0.0
 10
5.8550712438610777
 20
10.731099234462759
 30
0.0
 10
5.9491606867811351
 20
10.67825980884051
 30
0.0
 10
6.0861850349491124
 20
10.601308690534818
 30
0.0
 10
6.1840226305453907
 20
10.50114599741153
 30
0.0
 10
6.3022624042550035
 20
10.529099487846635
 30
0.0
 10
6.3763292106298977
 20
10.54660988810029
 30
0.0
 10
6.4584016668913637
 20
10.614392043882773
 30
0.0
 10
6.5806627430153766
 20
10.568875340286974
 30
0.0
  0
SPLINE
  5
4D
102
{ACAD_REACTORS
330
4B
102
}
100
AcDbEntity
  8
0
  6
CONTINUOUS
 62
     7
100
AcDbSpline
210
0.0
220
0.0
230
1.0
 70
     8
 71
     3
 72
    47
 73
    43
 74
     0
 42
0.0000001
 43
0.0000001
 40
0.0
 40
0.0
 40
0.0
 40
0.0
 40
0.61984072392851
 40
0.61984072392851
 40
0.61984072392851
 40
1.6093504722273999
 40
1.6093504722273999
 40
1.6093504722273999
 40
2.2888094313554999
 40
2.2888094313554999
 40
2.2888094313554999
 40
2.8784620303475998
 40
2.8784620303475998
 40
2.8784620303475998
 40
3.3028474035830002
 40
3.3028474035830002
 40
3.3028474035830002
 40
3.6828608028897998
 40
3.6828608028897998
 40
3.6828608028897998
 40
4.3407736873963003
 40
4.3407736873963003
 40
4.3407736873963003
 40
4.9817379860099997
 40
4.9817379860099997
 40
4.9817379860099997
 40
6.3756589303376998
 40
6.3756589303376998
 40
6.3756589303376998
 40
7.3294387550228999
 40
7.3294387550228999
 40
7.3294387550228999
 40
7.8310159176441001
 40
7.8310159176441001
 40
7.8310159176441001
 40
8.7554342063014996
 40
8.7554342063014996
 40
8.7554342063014996
 40
9.6796658183928006
 40
9.6796658183928006
 40
9.6796658183928006
 40
10.565374833612999
 40
10.565374833612999
 40
10.565374833612999
 40
10.565374833612999
 10
6.5806627430153766
 20
10.568875340286974
 30
0.0
 10
6.7029238191393912
 20
10.614392043882798
 30
0.0
 10
6.7849962754008564
 20
10.546609888100289
 30
0.0
 10
6.8590630817757239
 20
10.529099487846635
 30
0.0
 10
6.9773028554853633
 20
10.501145997411578
 30
0.0
 10
7.0751404510816425
 20
10.601308690534847
 30
0.0
 10
7.212164799249619
 20
10.678259808840536
 30
0.0
 10
7.3062542421696755
 20
10.731099234462786
 30
0.0
 10
7.4188204349590601
 20
10.772994286442604
 30
0.0
 10
7.495506301181404
 20
10.747868743101041
 30
0.0
 10
7.5620563403213428
 20
10.72606412674647
 30
0.0
 10
7.6015840762750377
 20
10.653784751108027
 30
0.0
 10
7.6745165281361007
 20
10.598710214521043
 30
0.0
 10
7.7270075471817989
 20
10.559071912569685
 30
0.0
 10
7.7968021541015951
 20
10.528345688937238
 30
0.0
 10
7.7988149306165493
 20
10.4893202368623
 30
0.0
 10
7.8006172595697212
 20
10.45437512414685
 30
0.0
 10
7.7480707461082794
 20
10.412775522225546
 30
0.0
 10
7.7341767712573732
 20
10.369993772965369
 30
0.0
 10
7.7101222903150815
 20
10.295926216107262
 30
0.0
 10
7.8019233973644049
 20
10.218315337646963
 30
0.0
 10
7.8137272262913831
 20
10.141276547546196
 30
0.0
 10
7.8252269751294001
 20
10.066222364498786
 30
0.0
 10
7.7607979988995943
 20
9.9917111741729805
 30
0.0
 10
7.7341780004435901
 20
9.912568008154139
 30
0.0
 10
7.6762868301146661
 20
9.7404534037172343
 30
0.0
 10
7.7972104932241812
 20
9.5464322043178669
 30
0.0
 10
7.8634491189587123
 20
9.3258652860784039
 30
0.0
 10
7.908772395789839
 20
9.1749440466308698
 30
0.0
 10
7.928492812166394
 20
9.0115944288233312
 30
0.0
 10
7.8932813602597234
 20
8.878381666563282
 30
0.0
 10
7.8747642353614626
 20
8.8083272603051306
 30
0.0
 10
7.8410555070053265
 20
8.7466073085858849
 30
0.0
 10
7.7938405559230324
 20
8.6894441383235712
 30
0.0
 10
7.7068223112118357
 20
8.5840910960280432
 30
0.0
 10
7.5739270194102826
 20
8.4942162286241416
 30
0.0
 10
7.4457977407446272
 20
8.430898047048176
 30
0.0
 10
7.3176943364413471
 20
8.3675926519140713
 30
0.0
 10
7.1943550205757223
 20
8.330833218003205
 30
0.0
 10
7.0579786038315504
 20
8.3016250014104696
 30
0.0
 10
6.927286448106198
 20
8.2736342029826186
 30
0.0
 10
6.7846213327386922
 20
8.2525782607809433
 30
0.0
 10
6.6399826303047984
 20
8.2500745730504637
 30
0.0
  0
LWPOLYLINE
  5
4E
102
{ACAD_REACTORS
330
4B
102
}
100
AcDbEntity
  8
0
  6
CONTINUOUS
 62
     7
100
AcDbPolyline
 90
        5
 70
     0
 10
6.526027
 20
8.252138
 10
6.526027
 20
9.548148
 10
6.580987
 20
9.548148
 10
6.639983
 20
9.548148
 10
6.639983
 20
8.252405
  0
SPLINE
  5
4F
100
AcDbEntity
  8
0
  6
CONTINUOUS
 62
     7
100
AcDbSpline
210
0.0
220
0.0
230
1.0
 70
     9
 71
     3
 72
     8
 73
     4
 74
     0
 42
0.0000001
 43
0.0000001
 40
0.0
 40
0.0
 40
0.0
 40
0.0
 40
0.0034426655350841
 40
0.0034426655350841
 40
0.0034426655350841
 40
0.0034426655350841
 10
6.8908108533305139
 20
7.6897711218180804
 30
0.0
 10
6.8914949272134471
 20
7.6900091079970068
 30
0.0
 10
6.8911528563401836
 20
7.6898903442293154
 30
0.0
 10
6.8908108533305139
 20
7.6897711218180804
 30
0.0
  0
SPLINE
  5
50
100
AcDbEntity
  8
0
  6
CONTINUOUS
 62
     7
100
AcDbSpline
210
0.0
220
0.0
230
1.0
 70
     8
 71
     3
 72
    26
 73
    22
 74
     0
 42
0.0000001
 43
0.0000001
 40
0.0068883057460242
 40
0.0068883057460242
 40
0.0068883057460242
 40
0.0068883057460242
 40
0.84596420581545
 40
0.84596420581545
 40
0.84596420581545
 40
1.7669962561938
 40
1.7669962561938
 40
1.7669962561938
 40
2.2257447431581001
 40
2.2257447431581001
 40
2.2257447431581001
 40
3.1805869801223001
 40
3.1805869801223001
 40
3.1805869801223001
 40
3.8116294037360001
 40
3.8116294037360001
 40
3.8116294037360001
 40
5.1751882527279998
 40
5.1751882527279998
 40
5.1751882527279998
 40
5.8753052068527998
 40
5.8753052068527998
 40
5.8753052068527998
 40
5.8753052068527998
 10
6.8908108533305139
 20
7.6897711218180804
 30
0.0
 10
6.8065821568438585
 20
7.6601822299457663
 30
0.0
 10
6.7315248486627821
 20
7.5915450169188201
 30
0.0
 10
6.6154457577513597
 20
7.5789092164778502
 30
0.0
 10
6.4880287230118974
 20
7.5650392230870889
 30
0.0
 10
6.3111849989731601
 20
7.6186447082341893
 30
0.0
 10
6.1880682083270901
 20
7.5748499163225258
 30
0.0
 10
6.1267460845143784
 20
7.5530365662679682
 30
0.0
 10
6.0787527854010728
 20
7.5070597075853716
 30
0.0
 10
6.0340511844777218
 20
7.5024973598650559
 30
0.0
 10
5.9410089667170016
 20
7.4930012581298708
 30
0.0
 10
5.8622272229847834
 20
7.6629233545089166
 30
0.0
 10
5.73958402385027
 20
7.7544091313638006
 30
0.0
 10
5.6585307790046775
 20
7.8148708538534191
 30
0.0
 10
5.5583201190865372
 20
7.8410738606640482
 30
0.0
 10
5.4903260743424331
 20
7.8159332474713095
 30
0.0
 10
5.3434042860121957
 20
7.7616093156635291
 30
0.0
 10
5.3469042237906468
 20
7.4675582770851427
 30
0.0
 10
5.4443293864147044
 20
7.2960113636291162
 30
0.0
 10
5.4943521691951389
 20
7.2079308949150978
 30
0.0
 10
5.5691363784686638
 20
7.1521460836701314
 30
0.0
 10
5.6597857797184368
 20
7.1397398772353
 30
0.0
  0
SPLINE
  5
51
100
AcDbEntity
  8
0
  6
CONTINUOUS
 62
     7
100
AcDbSpline
210
0.0
220
0.0
230
1.0
 70
     8
 71
     3
 72
    11
 73
     7
 74
     0
 42
0.0000001
 43
0.0000001
 40
5.8753052068528167
 40
5.8753052068528167
 40
5.8753052068528167
 40
5.8753052068528167
 40
6.2990506677456004
 40
6.2990506677456004
 40
6.2990506677456004
 40
8.3460260522520002
 40
8.3460260522520002
 40
8.3460260522520002
 40
8.3460260522520002
 10
5.6597857797184368
 20
7.1397398772353
 30
0.0
 10
5.7155559143253845
 20
7.1331688826859398
 30
0.0
 10
5.7738736574353764
 20
7.1438627717565746
 30
0.0
 10
5.7846602544502597
 20
7.1409959091882698
 30
0.0
 10
5.8367667679349085
 20
7.1271470361036986
 30
0.0
 10
5.9854258630762169
 20
7.1455315054772113
 30
0.0
 10
5.7482369287366337
 20
6.706185568554341
 30
0.0
  0
SPLINE
  5
52
100
AcDbEntity
  8
0
  6
CONTINUOUS
 62
     7
100
AcDbSpline
210
0.0
220
0.0
230
1.0
 70
     8
 71
     3
 72
     8
 73
     4
 74
     0
 42
0.0000001
 43
0.0000001
 40
8.3460260522520233
 40
8.3460260522520233
 40
8.3460260522520233
 40
8.3460260522520233
 40
9.8548195637382001
 40
9.8548195637382001
 40
9.8548195637382001
 40
9.8548195637382001
 10
5.7482369287366337
 20
6.706185568554341
 30
0.0
 10
5.4997836205059807
 20
6.2530472043997731
 30
0.0
 10
5.4996978890537909
 20
6.0056683995246303
 30
0.0
 10
5.5570649410340538
 20
5.8130130905270878
 30
0.0
  0
SPLINE
  5
53
100
AcDbEntity
  8
0
  6
CONTINUOUS
 62
     7
100
AcDbSpline
210
0.0
220
0.0
230
1.0
 70
     8
 71
     3
 72
     8
 73
     4
 74
     0
 42
0.0000001
 43
0.0000001
 40
9.8548195637382054
 40
9.8548195637382054
 40
9.8548195637382054
 40
9.8548195637382054
 40
12.153657517192
 40
12.153657517192
 40
12.153657517192
 40
12.153657517192
 10
5.5570649410340538
 20
5.8130130905270878
 30
0.0
 10
5.6059837499416831
 20
5.5300189295134379
 30
0.0
 10
6.2677120386511289
 20
5.2555880097728025
 30
0.0
 10
6.4129467258533319
 20
5.2270305561856043
 30
0.0
  0
SPLINE
  5
54
100
AcDbEntity
  8
0
  6
CONTINUOUS
 62
     7
100
AcDbSpline
210
0.0
220
0.0
230
1.0
 70
     8
 71
     3
 72
     8
 73
     4
 74
     0
 42
0.0000001
 43
0.0000001
 40
12.153657517192331
 40
12.153657517192331
 40
12.153657517192331
 40
12.153657517192331
 40
12.353870275956
 40
12.353870275956
 40
12.353870275956
 40
12.353870275956
 10
6.4129467258533319
 20
5.2270305561856043
 30
0.0
 10
6.4403999907209997
 20
5.2183579906189745
 30
0.0
 10
6.4687369782328306
 20
5.2104872471615442
 30
0.0
 10
6.4978190102221847
 20
5.2037265166534512
 30
0.0
  0
SPLINE
  5
55
100
AcDbEntity
  8
0
  6
CONTINUOUS
 62
     7
100
AcDbSpline
210
0.0
220
0.0
230
1.0
 70
     8
 71
     3
 72
     8
 73
     4
 74
     0
 42
0.0000001
 43
0.0000001
 40
12.35387027595565
 40
12.35387027595565
 40
12.35387027595565
 40
12.35387027595565
 40
12.358321355037001
 40
12.358321355037001
 40
12.358321355037001
 40
12.358321355037001
 10
6.4978190102221847
 20
5.2037265166534512
 30
0.0
 10
6.4984657957767862
 20
5.2035758383807531
 30
0.0
 10
6.4991128448380788
 20
5.2034252557871774
 30
0.0
 10
6.4997601206372559
 20
5.2032746204266864
 30
0.0
  0
SPLINE
  5
56
100
AcDbEntity
  8
0
  6
CONTINUOUS
 62
     7
100
AcDbSpline
210
0.0
220
0.0
230
1.0
 70
     8
 71
     3
 72
     8
 73
     4
 74
     0
 42
0.0000001
 43
0.0000001
 40
0.0
 40
0.0
 40
0.0
 40
0.0
 40
0.26663743066207
 40
0.26663743066207
 40
0.26663743066207
 40
0.26663743066207
 10
6.4997601206372559
 20
5.2032746204266864
 30
0.0
 10
6.5384918347628602
 20
5.1938535075138361
 30
0.0
 10
6.5786465573548343
 20
5.1868661896423882
 30
0.0
 10
6.6197906147627705
 20
5.182597508487925
 30
0.0
  0
SPLINE
  5
57
100
AcDbEntity
  8
0
  6
CONTINUOUS
 62
     7
100
AcDbSpline
210
0.0
220
0.0
230
1.0
 70
     8
 71
     3
 72
     8
 73
     4
 74
     0
 42
0.0000001
 43
0.0000001
 40
12.62503090483726
 40
12.62503090483726
 40
12.62503090483726
 40
12.62503090483726
 40
12.629410648877
 40
12.629410648877
 40
12.629410648877
 40
12.629410648877
 10
6.6197906147627705
 20
5.182597508487925
 30
0.0
 10
6.6204900892279035
 20
5.1827372952989288
 30
0.0
 10
6.6211658200116963
 20
5.1826653713205868
 30
0.0
 10
6.6218417387142736
 20
5.1825934273403922
 30
0.0
  0
SPLINE
  5
58
100
AcDbEntity
  8
0
  6
CONTINUOUS
 62
     7
100
AcDbSpline
210
0.0
220
0.0
230
1.0
 70
     8
 71
     3
 72
     8
 73
     4
 74
     0
 42
0.0000001
 43
0.0000001
 40
0.0049394021458932
 40
0.0049394021458932
 40
0.0049394021458932
 40
0.0049394021458932
 40
0.25984180594109
 40
0.25984180594109
 40
0.25984180594109
 40
0.25984180594109
 10
6.6218417387142736
 20
5.1825934273403922
 30
0.0
 10
6.6569674840940163
 20
5.1802741923547515
 30
0.0
 10
6.6914971428254439
 20
5.1785523157002915
 30
0.0
 10
6.7256065536857372
 20
5.1772719034168633
 30
0.0
  0
SPLINE
  5
59
100
AcDbEntity
  8
0
  6
CONTINUOUS
 62
     7
100
AcDbSpline
210
0.0
220
0.0
230
1.0
 70
     8
 71
     3
 72
     8
 73
     4
 74
     0
 42
0.0000001
 43
0.0000001
 40
0.2598418059410946
 40
0.2598418059410946
 40
0.2598418059410946
 40
0.2598418059410946
 40
0.51780266543762
 40
0.51780266543762
 40
0.51780266543762
 40
0.51780266543762
 10
6.7256065536857372
 20
5.1772719034168633
 30
0.0
 10
6.7601260099750355
 20
5.1759483495042602
 30
0.0
 10
6.7942154117161362
 20
5.1750772636509943
 30
0.0
 10
6.82806532467428
 20
5.1746248694599863
 30
0.0
  0
LINE
  5
5A
100
AcDbEntity
  8
0
  6
CONTINUOUS
 62
     7
100
AcDbLine
 10
6.828065
 20
5.174625
 30
0.0
 11
6.832615
 21
6.477998
 31
0.0
  0
LINE
  5
5B
100
AcDbEntity
  8
0
  6
CONTINUOUS
 62
     7
100
AcDbLine
 10
6.832615
 20
6.477998
 30
0.0
 11
6.88767
 21
6.477806
 31
0.0
  0
LINE
  5
5C
100
AcDbEntity
  8
0
  6
CONTINUOUS
 62
     7
100
AcDbLine
 10
6.88767
 20
6.477806
 30
0.0
 11
6.944865
 21
6.477606
 31
0.0
  0
LINE
  5
5D
100
AcDbEntity
  8
0
  6
CONTINUOUS
 62
     7
100
AcDbLine
 10
6.944865
 20
6.477606
 30
0.0
 11
6.940317
 21
5.174571
 31
0.0
  0
SPLINE
  5
5E
100
AcDbEntity
  8
0
  6
CONTINUOUS
 62
     7
100
AcDbSpline
210
0.0
220
0.0
230
1.0
 70
     8
 71
     3
 72
     8
 73
     4
 74
     0
 42
0.0000001
 43
0.0000001
 40
0.8045376653752655
 40
0.8045376653752655
 40
0.8045376653752655
 40
0.8045376653752655
 40
1.0781767429022
 40
1.0781767429022
 40
1.0781767429022
 40
1.0781767429022
 10
6.9403166092731992
 20
5.1745712697546455
 30
0.0
 10
6.9759091677133505
 20
5.17500107998488
 30
0.0
 10
7.0114709967047268
 20
5.1758598052603926
 30
0.0
 10
7.0472295244973395
 20
5.1771069153789213
 30
0.0
  0
SPLINE
  5
5F
100
AcDbEntity
  8
0
  6
CONTINUOUS
 62
     7
100
AcDbSpline
210
0.0
220
0.0
230
1.0
 70
     8
 71
     3
 72
     8
 73
     4
 74
     0
 42
0.0000001
 43
0.0000001
 40
1.078176742902164
 40
1.078176742902164
 40
1.078176742902164
 40
1.078176742902164
 40
1.341043372373
 40
1.341043372373
 40
1.341043372373
 40
1.341043372373
 10
7.0472295244973404
 20
5.1771069153789213
 30
0.0
 10
7.0815796063874217
 20
5.1782817889732389
 30
0.0
 10
7.1161114366644043
 20
5.1798149475554132
 30
0.0
 10
7.1510265943338913
 20
5.181670325851611
 30
0.0
  0
SPLINE
  5
60
100
AcDbEntity
  8
0
  6
CONTINUOUS
 62
     7
100
AcDbSpline
210
0.0
220
0.0
230
1.0
 70
     8
 71
     3
 72
     8
 73
     4
 74
     0
 42
0.0000001
 43
0.0000001
 40
0.0
 40
0.0
 40
0.0
 40
0.0
 40
0.0049394021458944
 40
0.0049394021458944
 40
0.0049394021458944
 40
0.0049394021458944
 10
7.1510265943338913
 20
5.181670325851611
 30
0.0
 10
7.1517151929799345
 20
5.181586464249933
 30
0.0
 10
7.1523963630683784
 20
5.1816265980338425
 30
0.0
 10
7.1530777716287055
 20
5.1816667458682497
 30
0.0
  0
SPLINE
  5
61
100
AcDbEntity
  8
0
  6
CONTINUOUS
 62
     7
100
AcDbSpline
210
0.0
220
0.0
230
1.0
 70
     8
 71
     3
 72
     8
 73
     4
 74
     0
 42
0.0000001
 43
0.0000001
 40
0.0
 40
0.0
 40
0.0
 40
0.0
 40
0.26670954980022
 40
0.26670954980022
 40
0.26670954980022
 40
0.26670954980022
 10
7.1530777716287055
 20
5.1816667458682497
 30
0.0
 10
7.1941916072606631
 20
5.1860922612429841
 30
0.0
 10
7.2343430489052416
 20
5.193017137127736
 30
0.0
 10
7.273179584859526
 20
5.2019252986645359
 30
0.0
  0
SPLINE
  5
62
100
AcDbEntity
  8
0
  6
CONTINUOUS
 62
     7
100
AcDbSpline
210
0.0
220
0.0
230
1.0
 70
     8
 71
     3
 72
     8
 73
     4
 74
     0
 42
0.0000001
 43
0.0000001
 40
2.4654543781016298
 40
2.4654543781016298
 40
2.4654543781016298
 40
2.4654543781016298
 40
2.4699062412800998
 40
2.4699062412800998
 40
2.4699062412800998
 40
2.4699062412800998
 10
7.2731795848595251
 20
5.2019252986645359
 30
0.0
 10
7.2739341755950466
 20
5.2016270847144437
 30
0.0
 10
7.2745826288673294
 20
5.2017742254242005
 30
0.0
 10
7.2752308539024879
 20
5.2019213143446059
 30
0.0
  0
SPLINE
  5
63
100
AcDbEntity
  8
0
  6
CONTINUOUS
 62
     7
100
AcDbSpline
210
0.0
220
0.0
230
1.0
 70
     8
 71
     3
 72
     8
 73
     4
 74
     0
 42
0.0000001
 43
0.0000001
 40
0.0
 40
0.0
 40
0.0
 40
0.0
 40
0.20021275876332
 40
0.20021275876332
 40
0.20021275876332
 40
0.20021275876332
 10
7.2752308539024879
 20
5.2019213143446059
 30
0.0
 10
7.3042278412439554
 20
5.2090290390379135
 30
0.0
 10
7.3325921301389645
 20
5.2168008199985261
 30
0.0
 10
7.3600755006552223
 20
5.2253775029510479
 30
0.0
  0
SPLINE
  5
64
100
AcDbEntity
  8
0
  6
CONTINUOUS
 62
     7
100
AcDbSpline
210
0.0
220
0.0
230
1.0
 70
     8
 71
     3
 72
     8
 73
     4
 74
     0
 42
0.0000001
 43
0.0000001
 40
0.0
 40
0.0
 40
0.0
 40
0.0
 40
2.2988379534540999
 40
2.2988379534540999
 40
2.2988379534540999
 40
2.2988379534540999
 10
7.3600755006552223
 20
5.2253775029510479
 30
0.0
 10
7.5054089871538103
 20
5.2534278188900405
 30
0.0
 10
8.1680911870664215
 20
5.5255472039161644
 30
0.0
 10
8.21799753191255
 20
5.808368882323002
 30
0.0
  0
SPLINE
  5
65
100
AcDbEntity
  8
0
  6
CONTINUOUS
 62
     7
100
AcDbSpline
210
0.0
220
0.0
230
1.0
 70
     8
 71
     3
 72
     8
 73
     4
 74
     0
 42
0.0000001
 43
0.0000001
 40
0.0
 40
0.0
 40
0.0
 40
0.0
 40
1.5087935114861999
 40
1.5087935114861999
 40
1.5087935114861999
 40
1.5087935114861999
 10
8.21799753191255
 20
5.808368882323002
 30
0.0
 10
8.2760367269201076
 20
6.0008227692172724
 30
0.0
 10
8.2768145091655221
 20
6.2482003662347294
 30
0.0
 10
8.0299444626695671
 20
6.7022032336072765
 30
0.0
  0
SPLINE
  5
66
100
AcDbEntity
  8
0
  6
CONTINUOUS
 62
     7
100
AcDbSpline
210
0.0
220
0.0
230
1.0
 70
     8
 71
     3
 72
    11
 73
     7
 74
     0
 42
0.0000001
 43
0.0000001
 40
0.0
 40
0.0
 40
0.0
 40
0.0
 40
2.0469753845063998
 40
2.0469753845063998
 40
2.0469753845063998
 40
2.4707208453992
 40
2.4707208453992
 40
2.4707208453992
 40
2.4707208453992
 10
8.0299444626695671
 20
6.7022032336072765
 30
0.0
 10
7.7942905768826263
 20
7.1423744377736558
 30
0.0
 10
7.9428845925678067
 20
7.1234711633237993
 30
0.0
 10
7.9950391301901798
 20
7.1371380663612509
 30
0.0
 10
8.0058356687073253
 20
7.1399672592135142
 30
0.0
 10
8.0641157278866409
 20
7.1290698683812108
 30
0.0
 10
8.1199084597742655
 20
7.1354461487985308
 30
0.0
  0
SPLINE
  5
67
100
AcDbEntity
  8
0
  6
CONTINUOUS
 62
     7
100
AcDbSpline
210
0.0
220
0.0
230
1.0
 70
     8
 71
     3
 72
    26
 73
    22
 74
     0
 42
0.0000001
 43
0.0000001
 40
0.0
 40
0.0
 40
0.0
 40
0.0
 40
0.70011695412477
 40
0.70011695412477
 40
0.70011695412477
 40
2.0636758031168001
 40
2.0636758031168001
 40
2.0636758031168001
 40
2.6947182267305001
 40
2.6947182267305001
 40
2.6947182267305001
 40
3.6495604636948
 40
3.6495604636948
 40
3.6495604636948
 40
4.1083089506589996
 40
4.1083089506589996
 40
4.1083089506589996
 40
5.0293410010374
 40
5.0293410010374
 40
5.0293410010374
 40
5.8684169011067997
 40
5.8684169011067997
 40
5.8684169011067997
 40
5.8684169011067997
 10
8.1199084597742655
 20
7.1354461487985308
 30
0.0
 10
8.2106006144989152
 20
7.1475358541897567
 30
0.0
 10
8.2855790934917781
 20
7.2030592799686435
 30
0.0
 10
8.3359090297290592
 20
7.2909645999687935
 30
0.0
 10
8.4339324092817609
 20
7.4621703910205444
 30
0.0
 10
8.438458755411423
 20
7.7562074210766223
 30
0.0
 10
8.2917274880885081
 20
7.8110438746727784
 30
0.0
 10
8.2238216147044092
 20
7.8364216782089091
 30
0.0
 10
8.1235200997410963
 20
7.8105686315176923
 30
0.0
 10
8.0422562979024388
 20
7.7503902060054273
 30
0.0
 10
7.9192945009957976
 20
7.6593330911698034
 30
0.0
 10
7.8399200984227395
 20
7.4896870296195575
 30
0.0
 10
7.7469115950880294
 20
7.4995078514503408
 30
0.0
 10
7.7022261920676707
 20
7.5042262090818008
 30
0.0
 10
7.6543936745327734
 20
7.5503703155350994
 30
0.0
 10
7.5931480671166618
 20
7.5723975868535449
 30
0.0
 10
7.4701848988925761
 20
7.6166218697518389
 30
0.0
 10
7.2931551341837206
 20
7.5636340109832538
 30
0.0
 10
7.1657872910245066
 20
7.577948688325912
 30
0.0
 10
7.0497530144813156
 20
7.590989603428234
 30
0.0
 10
6.9749357521598325
 20
7.6598883971928249
 30
0.0
 10
6.8918358096315142
 20
7.689407024400456
 30
0.0
  0
SPLINE
  5
68
100
AcDbEntity
  8
0
  6
CONTINUOUS
 62
     7
100
AcDbSpline
210
0.0
220
0.0
230
1.0
 70
     8
 71
     3
 72
     8
 73
     4
 74
     0
 42
0.0000001
 43
0.0000001
 40
0.0
 40
0.0
 40
0.0
 40
0.0
 40
0.003445640210945
 40
0.003445640210945
 40
0.003445640210945
 40
0.003445640210945
 10
6.8918358096315142
 20
7.689407024400456
 30
0.0
 10
6.891494073016994
 20
7.6895284202284966
 30
0.0
 10
6.8911524212409052
 20
7.6896497859191904
 30
0.0
 10
6.8908108533305148
 20
7.6897711218180831
 30
0.0
  0
SPLINE
  5
69
100
AcDbEntity
  8
0
  6
CONTINUOUS
 62
     7
100
AcDbSpline
210
0.0
220
0.0
230
1.0
 70
     8
 71
     3
 72
     8
 73
     4
 74
     0
 42
0.0000001
 43
0.0000001
 40
0.0
 40
0.0
 40
0.0
 40
0.0
 40
0.00344266553508
 40
0.00344266553508
 40
0.00344266553508
 40
0.00344266553508
 10
6.8908108533305148
 20
7.6897711218180831
 30
0.0
 10
6.8904691176597757
 20
7.6898911075080925
 30
0.0
 10
6.8901274634334708
 20
7.6900110646024267
 30
0.0
 10
6.8897858896541404
 20
7.6901309934512661
 30
0.0
  0
SPLINE
  5
6B
102
{ACAD_REACTORS
330
6A
102
}
100
AcDbEntity
  8
0
  6
CONTINUOUS
 62
     7
100
AcDbSpline
210
0.0
220
0.0
230
1.0
 70
     8
 71
     3
 72
     8
 73
     4
 74
     0
 42
0.0000001
 43
0.0000001
 40
0.0039890405175874
 40
0.0039890405175874
 40
0.0039890405175874
 40
0.0039890405175874
 40
0.011429034811908
 40
0.011429034811908
 40
0.011429034811908
 40
0.011429034811908
 10
1.225638597777724
 20
7.4214865482532399
 30
0.0
 10
1.2250090877492976
 20
7.4223620466012132
 30
0.0
 10
1.22437961101035
 20
7.4232379256761138
 30
0.0
 10
1.22374996740009
 20
7.424114036942461
 30
0.0
  0
LINE
  5
6C
102
{ACAD_REACTORS
330
6A
102
}
100
AcDbEntity
  8
0
  6
CONTINUOUS
 62
     7
100
AcDbLine
 10
1.22375
 20
7.424114
 30
0.0
 11
1.507573
 21
7.670838
 31
0.0
  0
LINE
  5
6D
102
{ACAD_REACTORS
330
6A
102
}
100
AcDbEntity
  8
0
  6
CONTINUOUS
 62
     7
100
AcDbLine
 10
1.507573
 20
7.670838
 30
0.0
 11
1.595737
 21
7.747477
 31
0.0
  0
LINE
  5
6E
102
{ACAD_REACTORS
330
6A
102
}
100
AcDbEntity
  8
0
  6
CONTINUOUS
 62
     7
100
AcDbLine
 10
1.595737
 20
7.747477
 30
0.0
 11
1.960168
 21
8.069899
 31
0.0
  0
LINE
  5
6F
102
{ACAD_REACTORS
330
6A
102
}
100
AcDbEntity
  8
0
  6
CONTINUOUS
 62
     7
100
AcDbLine
 10
1.960168
 20
8.069899
 30
0.0
 11
1.962982
 21
8.066718
 31
0.0
  0
LINE
  5
70
102
{ACAD_REACTORS
330
6A
102
}
100
AcDbEntity
  8
0
  6
CONTINUOUS
 62
     7
100
AcDbLine
 10
1.962982
 20
8.066718
 30
0.0
 11
2.034548
 21
7.985828
 31
0.0
  0
LINE
  5
71
102
{ACAD_REACTORS
330
6A
102
}
100
AcDbEntity
  8
0
  6
CONTINUOUS
 62
     7
100
AcDbLine
 10
2.034548
 20
7.985828
 30
0.0
 11
1.351015
 21
7.381089
 31
0.0
  0
SPLINE
  5
72
102
{ACAD_REACTORS
330
6A
102
}
100
AcDbEntity
  8
0
  6
CONTINUOUS
 62
     7
100
AcDbSpline
210
0.0
220
0.0
230
1.0
 70
     8
 71
     3
 72
    29
 73
    25
 74
     0
 42
0.0000001
 43
0.0000001
 40
0.0
 40
0.0
 40
0.0
 40
0.0
 40
0.7397386961097701
 40
0.7397386961097701
 40
0.7397386961097701
 40
1.6495813716787
 40
1.6495813716787
 40
1.6495813716787
 40
2.8881134220571001
 40
2.8881134220571001
 40
2.8881134220571001
 40
3.7359956254620998
 40
3.7359956254620998
 40
3.7359956254620998
 40
4.2369042765970999
 40
4.2369042765970999
 40
4.2369042765970999
 40
4.8675242002744001
 40
4.8675242002744001
 40
4.8675242002744001
 40
5.3482742222784996
 40
5.3482742222784996
 40
5.3482742222784996
 40
6.1480260528243003
 40
6.1480260528243003
 40
6.1480260528243003
 40
6.1480260528243003
 10
1.3510147507254588
 20
7.3810890511605027
 30
0.0
 10
1.422348342137977
 20
7.3624247437351755
 30
0.0
 10
1.4962617898859212
 20
7.351531178611503
 30
0.0
 10
1.5789738586722122
 20
7.3530419224840626
 30
0.0
 10
1.6807056869003589
 20
7.3549000640877562
 30
0.0
 10
1.7957478978871786
 20
7.3755232030560363
 30
0.0
 10
1.8975859014309973
 20
7.4130696792285171
 30
0.0
 10
2.0362138584639986
 20
7.4641801792820619
 30
0.0
 10
2.1503740544035042
 20
7.5466500905993419
 30
0.0
 10
2.3143457434576851
 20
7.6474367275185537
 30
0.0
 10
2.4265985325307007
 20
7.7164338889232607
 30
0.0
 10
2.5621959035122521
 20
7.7940153403054726
 30
0.0
 10
2.6235284011346471
 20
7.8177327604176421
 30
0.0
 10
2.6597621828220372
 20
7.831744448443537
 30
0.0
 10
2.6700762943807019
 20
7.8269566979303686
 30
0.0
 10
2.7111518977215785
 20
7.8292212671460835
 30
0.0
 10
2.7628641086908612
 20
7.8320722509785909
 30
0.0
 10
2.8633320541434917
 20
7.8461008795958973
 30
0.0
 10
2.9395438848859037
 20
7.8550189124010714
 30
0.0
 10
2.9976436022128516
 20
7.861817531198751
 30
0.0
 10
3.0416463913289822
 20
7.8656460246017064
 30
0.0
 10
3.0896874861652699
 20
7.8819298215412639
 30
0.0
 10
3.1696062626150137
 20
7.9090187363921194
 30
0.0
 10
3.2607006443446904
 20
7.9705764521738827
 30
0.0
 10
3.344226863615348
 20
8.0319146301173703
 30
0.0
  0
SPLINE
  5
73
102
{ACAD_REACTORS
330
6A
102
}
100
AcDbEntity
  8
0
  6
CONTINUOUS
 62
     7
100
AcDbSpline
210
0.0
220
0.0
230
1.0
 70
     8
 71
     3
 72
    11
 73
     7
 74
     0
 42
0.0000001
 43
0.0000001
 40
0.0
 40
0.0
 40
0.0
 40
0.0
 40
0.10033061554658
 40
0.10033061554658
 40
0.10033061554658
 40
0.39681132404983
 40
0.39681132404983
 40
0.39681132404983
 40
0.39681132404983
 10
3.344226863615348
 20
8.0319146301173703
 30
0.0
 10
3.3547054104265284
 20
8.0396096386368932
 30
0.0
 10
3.3650648475971958
 20
8.047301192014837
 30
0.0
 10
3.3752681674698497
 20
8.0549208016645952
 30
0.0
 10
3.4054193579957532
 20
8.0774370321807929
 30
0.0
 10
3.4342072939828689
 20
8.0993250324159618
 30
0.0
 10
3.4615375186360011
 20
8.1212249357165618
 30
0.0
  0
SPLINE
  5
74
102
{ACAD_REACTORS
330
6A
102
}
100
AcDbEntity
  8
0
  6
CONTINUOUS
 62
     7
100
AcDbSpline
210
0.0
220
0.0
230
1.0
 70
     8
 71
     3
 72
    11
 73
     7
 74
     0
 42
0.0000001
 43
0.0000001
 40
0.0
 40
0.0
 40
0.0
 40
0.0
 40
0.77308739414511
 40
0.77308739414511
 40
0.77308739414511
 40
1.0265923752657
 40
1.0265923752657
 40
1.0265923752657
 40
1.0265923752657
 10
3.4615375186360011
 20
8.1212249357165618
 30
0.0
 10
3.5328023650577474
 20
8.178329963764309
 30
0.0
 10
3.594155792517248
 20
8.2355159243434723
 30
0.0
 10
3.6439231293895653
 20
8.3041320607813489
 30
0.0
 10
3.6602424587303446
 20
8.3266321461584987
 30
0.0
 10
3.6753159754376883
 20
8.3503612791923558
 30
0.0
 10
3.6891269242043472
 20
8.3751160980774593
 30
0.0
  0
SPLINE
  5
75
102
{ACAD_REACTORS
330
6A
102
}
100
AcDbEntity
  8
0
  6
CONTINUOUS
 62
     7
100
AcDbSpline
210
0.0
220
0.0
230
1.0
 70
     8
 71
     3
 72
    14
 73
    10
 74
     0
 42
0.0000001
 43
0.0000001
 40
0.0
 40
0.0
 40
0.0
 40
0.0
 40
1.5259974623338
 40
1.5259974623338
 40
1.5259974623338
 40
3.0495861360109999
 40
3.0495861360109999
 40
3.0495861360109999
 40
3.8365268375242998
 40
3.8365268375242998
 40
3.8365268375242998
 40
3.8365268375242998
 10
3.6891269242043472
 20
8.3751160980774593
 30
0.0
 10
3.7722632502724807
 20
8.5241300962726658
 30
0.0
 10
3.8096497567442293
 20
8.7103103657973122
 30
0.0
 10
3.7976317216803279
 20
8.889298970485175
 30
0.0
 10
3.7856326570978229
 20
9.0680050414656144
 30
0.0
 10
3.7243848981253698
 20
9.239542133791657
 30
0.0
 10
3.7128054460102478
 20
9.4075305027961029
 30
0.0
 10
3.7068246046401314
 20
9.4942972839059827
 30
0.0
 10
3.7140941300762598
 20
9.5801173469036218
 30
0.0
 10
3.6775725914548052
 20
9.6701038245263966
 30
0.0
  0
SPLINE
  5
76
102
{ACAD_REACTORS
330
6A
102
}
100
AcDbEntity
  8
0
  6
CONTINUOUS
 62
     7
100
AcDbSpline
210
0.0
220
0.0
230
1.0
 70
     8
 71
     3
 72
     8
 73
     4
 74
     0
 42
0.0000001
 43
0.0000001
 40
11.88042546503207
 40
11.88042546503207
 40
11.88042546503207
 40
11.88042546503207
 40
13.750437470209
 40
13.750437470209
 40
13.750437470209
 40
13.750437470209
 10
1.215871329002725
 20
7.4251548443000468
 30
0.0
 10
1.0375205453148655
 20
7.4926835522430002
 30
0.0
 10
0.8529350888307408
 20
7.5924122736054356
 30
0.0
 10
0.6834414702409793
 20
7.7160119645775449
 30
0.0
  0
SPLINE
  5
77
102
{ACAD_REACTORS
330
6A
102
}
100
AcDbEntity
  8
0
  6
CONTINUOUS
 62
     7
100
AcDbSpline
210
0.0
220
0.0
230
1.0
 70
     8
 71
     3
 72
    11
 73
     7
 74
     0
 42
0.0000001
 43
0.0000001
 40
0.0
 40
0.0
 40
0.0
 40
0.0
 40
1.8249104273336001
 40
1.8249104273336001
 40
1.8249104273336001
 40
2.4771465001209001
 40
2.4771465001209001
 40
2.4771465001209001
 40
2.4771465001209001
 10
0.6834414702409793
 20
7.7160119645775449
 30
0.0
 10
0.5675889772058145
 20
7.9473396845187398
 30
0.0
 10
0.4756833348255392
 20
8.1703837469760501
 30
0.0
 10
0.5057611887464014
 20
8.3476266350365691
 30
0.0
 10
0.5165112294198384
 20
8.4109745142017918
 30
0.0
 10
0.5428434279724065
 20
8.4684717565830319
 30
0.0
 10
0.5783342429397755
 20
8.5180697074264913
 30
0.0
  0
LINE
  5
78
102
{ACAD_REACTORS
330
6A
102
}
100
AcDbEntity
  8
0
  6
CONTINUOUS
 62
     7
100
AcDbLine
 10
0.578334
 20
8.51807
 30
0.0
 11
0.999419
 21
8.096985
 31
0.0
  0
LINE
  5
79
102
{ACAD_REACTORS
330
6A
102
}
100
AcDbEntity
  8
0
  6
CONTINUOUS
 62
     7
100
AcDbLine
 10
0.999419
 20
8.096985
 30
0.0
 11
1.040422
 21
8.137989
 31
0.0
  0
LINE
  5
7A
102
{ACAD_REACTORS
330
6A
102
}
100
AcDbEntity
  8
0
  6
CONTINUOUS
 62
     7
100
AcDbLine
 10
1.040422
 20
8.137989
 30
0.0
 11
1.078792
 21
8.176358
 31
0.0
  0
LINE
  5
7B
102
{ACAD_REACTORS
330
6A
102
}
100
AcDbEntity
  8
0
  6
CONTINUOUS
 62
     7
100
AcDbLine
 10
1.078792
 20
8.176358
 30
0.0
 11
0.653907
 21
8.601243
 31
0.0
  0
SPLINE
  5
7C
102
{ACAD_REACTORS
330
6A
102
}
100
AcDbEntity
  8
0
  6
CONTINUOUS
 62
     7
100
AcDbSpline
210
0.0
220
0.0
230
1.0
 70
     8
 71
     3
 72
    14
 73
    10
 74
     0
 42
0.0000001
 43
0.0000001
 40
2.884227858814425
 40
2.884227858814425
 40
2.884227858814425
 40
2.884227858814425
 40
3.4692327073156002
 40
3.4692327073156002
 40
3.4692327073156002
 40
5.5533917093343002
 40
5.5533917093343002
 40
5.5533917093343002
 40
6.5700867431784999
 40
6.5700867431784999
 40
6.5700867431784999
 40
6.5700867431784999
 10
0.653907332627901
 20
8.601243204265522
 30
0.0
 10
0.693646353789702
 20
8.6363450028876816
 30
0.0
 10
0.7370217579171957
 20
8.6649279812638245
 30
0.0
 10
0.7769133795893104
 20
8.6897584229040863
 30
0.0
 10
0.9190326844567258
 20
8.7782202341203632
 30
0.0
 10
1.0169345291096445
 20
8.8190534560241698
 30
0.0
 10
1.1583638079727678
 20
8.9602085238946181
 30
0.0
 10
1.2273558787893735
 20
9.0290668290271938
 30
0.0
 10
1.3067061134204483
 20
9.1217985862377891
 30
0.0
 10
1.399182010098853
 20
9.2194324157619363
 30
0.0
  0
LINE
  5
7D
102
{ACAD_REACTORS
330
6A
102
}
100
AcDbEntity
  8
0
  6
CONTINUOUS
 62
     7
100
AcDbLine
 10
1.399182
 20
9.219432
 30
0.0
 11
1.769442
 21
8.808217
 31
0.0
  0
LINE
  5
7E
102
{ACAD_REACTORS
330
6A
102
}
100
AcDbEntity
  8
0
  6
CONTINUOUS
 62
     7
100
AcDbLine
 10
1.769442
 20
8.808217
 30
0.0
 11
1.802948
 21
8.838386
 31
0.0
  0
LINE
  5
7F
102
{ACAD_REACTORS
330
6A
102
}
100
AcDbEntity
  8
0
  6
CONTINUOUS
 62
     7
100
AcDbLine
 10
1.802948
 20
8.838386
 30
0.0
 11
1.85286
 21
8.883328
 31
0.0
  0
LINE
  5
80
102
{ACAD_REACTORS
330
6A
102
}
100
AcDbEntity
  8
0
  6
CONTINUOUS
 62
     7
100
AcDbLine
 10
1.85286
 20
8.883328
 30
0.0
 11
1.477743
 21
9.299938
 31
0.0
  0
SPLINE
  5
81
102
{ACAD_REACTORS
330
6A
102
}
100
AcDbEntity
  8
0
  6
CONTINUOUS
 62
     7
100
AcDbSpline
210
0.0
220
0.0
230
1.0
 70
     8
 71
     3
 72
    11
 73
     7
 74
     0
 42
0.0000001
 43
0.0000001
 40
6.8470739599555523
 40
6.8470739599555523
 40
6.8470739599555523
 40
6.8470739599555523
 40
6.9315256889379002
 40
6.9315256889379002
 40
6.9315256889379002
 40
7.2823197818135004
 40
7.2823197818135004
 40
7.2823197818135004
 40
7.2823197818135004
 10
1.4777427255932232
 20
9.2999380720661033
 30
0.0
 10
1.4860353650998228
 20
9.3081529261650733
 30
0.0
 10
1.494423771139336
 20
9.3163659416888454
 30
0.0
 10
1.5029095298494546
 20
9.3245662455607565
 30
0.0
 10
1.5381575237620606
 20
9.3586285222331238
 30
0.0
 10
1.5750852315979424
 20
9.3924714732472729
 30
0.0
 10
1.6078438588138311
 20
9.4309954006597074
 30
0.0
  0
SPLINE
  5
82
102
{ACAD_REACTORS
330
6A
102
}
100
AcDbEntity
  8
0
  6
CONTINUOUS
 62
     7
100
AcDbSpline
210
0.0
220
0.0
230
1.0
 70
     8
 71
     3
 72
    11
 73
     7
 74
     0
 42
0.0000001
 43
0.0000001
 40
0.0
 40
0.0
 40
0.0
 40
0.0
 40
1.0709783545400999
 40
1.0709783545400999
 40
1.0709783545400999
 40
1.4108085968176001
 40
1.4108085968176001
 40
1.4108085968176001
 40
1.4108085968176001
 10
1.6078438588138311
 20
9.4309954006597074
 30
0.0
 10
1.7061315000265553
 20
9.5264755200154241
 30
0.0
 10
1.7517813069877457
 20
9.6253443208716991
 30
0.0
 10
1.8266596926391618
 20
9.7136055467165594
 30
0.0
 10
1.850419220391895
 20
9.7416115597563326
 30
0.0
 10
1.8771216132853255
 20
9.7685495542975342
 30
0.0
 10
1.9045942300320089
 20
9.795571046451867
 30
0.0
  0
SPLINE
  5
83
102
{ACAD_REACTORS
330
6A
102
}
100
AcDbEntity
  8
0
  6
CONTINUOUS
 62
     7
100
AcDbSpline
210
0.0
220
0.0
230
1.0
 70
     8
 71
     3
 72
     8
 73
     4
 74
     0
 42
0.0000001
 43
0.0000001
 40
0.0
 40
0.0
 40
0.0
 40
0.0
 40
0.020122987942275
 40
0.020122987942275
 40
0.020122987942275
 40
0.020122987942275
 10
1.9045942300320089
 20
9.795571046451867
 30
0.0
 10
1.9062213968405917
 20
9.7971707318324484
 30
0.0
 10
1.9078507700303795
 20
9.7987712132403395
 30
0.0
 10
1.909481554033353
 20
9.8003730804450289
 30
0.0
  0
LINE
  5
84
102
{ACAD_REACTORS
330
6A
102
}
100
AcDbEntity
  8
0
  6
CONTINUOUS
 62
     7
100
AcDbLine
 10
1.909482
 20
9.800373
 30
0.0
 11
2.604299
 21
9.044765
 31
0.0
  0
LINE
  5
85
102
{ACAD_REACTORS
330
6A
102
}
100
AcDbEntity
  8
0
  6
CONTINUOUS
 62
     7
100
AcDbLine
 10
2.604299
 20
9.044765
 30
0.0
 11
2.686926
 21
9.120745
 31
0.0
  0
LINE
  5
86
102
{ACAD_REACTORS
330
6A
102
}
100
AcDbEntity
  8
0
  6
CONTINUOUS
 62
     7
100
AcDbLine
 10
2.686926
 20
9.120745
 30
0.0
 11
1.988878
 21
9.879866
 31
0.0
  0
SPLINE
  5
87
102
{ACAD_REACTORS
330
6A
102
}
100
AcDbEntity
  8
0
  6
CONTINUOUS
 62
     7
100
AcDbSpline
210
0.0
220
0.0
230
1.0
 70
     8
 71
     3
 72
    11
 73
     7
 74
     0
 42
0.0000001
 43
0.0000001
 40
0.0
 40
0.0
 40
0.0
 40
0.0
 40
0.037041800323364
 40
0.037041800323364
 40
0.037041800323364
 40
0.7850836403936201
 40
0.7850836403936201
 40
0.7850836403936201
 40
0.7850836403936201
 10
1.98887844534846
 20
9.8798662254678238
 30
0.0
 10
1.9917973963859286
 20
9.8829611546726461
 30
0.0
 10
1.9946991303276962
 20
9.8860710513118093
 30
0.0
 10
1.9975808334711207
 20
9.8891974066688491
 30
0.0
 10
2.0557754812231304
 20
9.9523326914973467
 30
0.0
 10
2.1058011859502601
 20
10.022180156518031
 30
0.0
 10
2.1632039653446049
 20
10.091275235199625
 30
0.0
  0
SPLINE
  5
88
102
{ACAD_REACTORS
330
6A
102
}
100
AcDbEntity
  8
0
  6
CONTINUOUS
 62
     7
100
AcDbSpline
210
0.0
220
0.0
230
1.0
 70
     8
 71
     3
 72
     8
 73
     4
 74
     0
 42
0.0000001
 43
0.0000001
 40
0.0
 40
0.0
 40
0.0
 40
0.0
 40
0.43369466910142
 40
0.43369466910142
 40
0.43369466910142
 40
0.43369466910142
 10
2.1632039653446049
 20
10.091275235199625
 30
0.0
 10
2.1964845628745646
 20
10.13133471540533
 30
0.0
 10
2.2322448685425749
 20
10.171141290684375
 30
0.0
 10
2.2735145412796069
 20
10.20924024182146
 30
0.0
  0
SPLINE
  5
89
102
{ACAD_REACTORS
330
6A
102
}
100
AcDbEntity
  8
0
  6
CONTINUOUS
 62
     7
100
AcDbSpline
210
0.0
220
0.0
230
1.0
 70
     8
 71
     3
 72
    14
 73
    10
 74
     0
 42
0.0000001
 43
0.0000001
 40
10.029366974442549
 40
10.029366974442549
 40
10.029366974442549
 40
10.029366974442549
 40
10.389523408642001
 40
10.389523408642001
 40
10.389523408642001
 40
11.415999362047
 40
11.415999362047
 40
11.415999362047
 40
11.809948088620001
 40
11.809948088620001
 40
11.809948088620001
 40
11.809948088620001
 10
2.2735145412796069
 20
10.20924024182146
 30
0.0
 10
2.303786294937594
 20
10.253555736622829
 30
0.0
 10
2.330225734408284
 20
10.301610392942667
 30
0.0
 10
2.3538526576091936
 20
10.344651684031668
 30
0.0
 10
2.4211913643925422
 20
10.467322962706788
 30
0.0
 10
2.4656840672295735
 20
10.549270792746146
 30
0.0
 10
2.5507046718270696
 20
10.611044244647333
 30
0.0
 10
2.5833345242873245
 20
10.634752128530774
 30
0.0
 10
2.6219338493307296
 20
10.655488469552495
 30
0.0
 10
2.6627330264332607
 20
10.673753021319826
 30
0.0
  0
SPLINE
  5
8A
102
{ACAD_REACTORS
330
6A
102
}
100
AcDbEntity
  8
0
  6
CONTINUOUS
 62
     7
100
AcDbSpline
210
0.0
220
0.0
230
1.0
 70
     8
 71
     3
 72
    20
 73
    16
 74
     0
 42
0.0000001
 43
0.0000001
 40
11.809948088620139
 40
11.809948088620139
 40
11.809948088620139
 40
11.809948088620139
 40
12.358154987111
 40
12.358154987111
 40
12.358154987111
 40
12.967651336103
 40
12.967651336103
 40
12.967651336103
 40
14.254525261672001
 40
14.254525261672001
 40
14.254525261672001
 40
15.181839663364
 40
15.181839663364
 40
15.181839663364
 40
15.789677917553
 40
15.789677917553
 40
15.789677917553
 40
15.789677917553
 10
2.6627330264332607
 20
10.673753021319826
 30
0.0
 10
2.7195079030394558
 20
10.699169408279122
 30
0.0
 10
2.7805427155623645
 20
10.719799262535131
 30
0.0
 10
2.8356793748688909
 20
10.736989282424217
 30
0.0
 10
2.8969803045643361
 20
10.756101144004834
 30
0.0
 10
2.9509905334834303
 20
10.770961030065461
 30
0.0
 10
3.0134518268563331
 20
10.780460728996983
 30
0.0
 10
3.1453308937807094
 20
10.800518133567056
 30
0.0
 10
3.3148839144114532
 20
10.796680389441613
 30
0.0
 10
3.4694281524709227
 20
10.811800245935764
 30
0.0
 10
3.5807918958832987
 20
10.822695532878768
 30
0.0
 10
3.6843622302237482
 20
10.843434678639035
 30
0.0
 10
3.7925702111476087
 20
10.865258289202124
 30
0.0
 10
3.8634986363872676
 20
10.879563281468547
 30
0.0
 10
3.9364196596636116
 20
10.894334221796839
 30
0.0
 10
4.0100112736567963
 20
10.906126028766366
 30
0.0
  0
LINE
  5
8B
102
{ACAD_REACTORS
330
6A
102
}
100
AcDbEntity
  8
0
  6
CONTINUOUS
 62
     7
100
AcDbLine
 10
4.010011
 20
10.906126
 30
0.0
 11
4.033974
 21
9.533319
 31
0.0
  0
LINE
  5
8C
102
{ACAD_REACTORS
330
6A
102
}
100
AcDbEntity
  8
0
  6
CONTINUOUS
 62
     7
100
AcDbLine
 10
4.033974
 20
9.533319
 30
0.0
 11
4.08769
 21
9.534257
 31
0.0
  0
LINE
  5
8D
102
{ACAD_REACTORS
330
6A
102
}
100
AcDbEntity
  8
0
  6
CONTINUOUS
 62
     7
100
AcDbLine
 10
4.08769
 20
9.534257
 30
0.0
 11
4.146207
 21
9.535278
 31
0.0
  0
LINE
  5
8E
102
{ACAD_REACTORS
330
6A
102
}
100
AcDbEntity
  8
0
  6
CONTINUOUS
 62
     7
100
AcDbLine
 10
4.146207
 20
9.535278
 30
0.0
 11
4.122015
 21
10.921286
 31
0.0
  0
SPLINE
  5
8F
102
{ACAD_REACTORS
330
6A
102
}
100
AcDbEntity
  8
0
  6
CONTINUOUS
 62
     7
100
AcDbSpline
210
0.0
220
0.0
230
1.0
 70
     8
 71
     3
 72
    11
 73
     7
 74
     0
 42
0.0000001
 43
0.0000001
 40
16.097099889869838
 40
16.097099889869838
 40
16.097099889869838
 40
16.097099889869838
 40
16.331025727031999
 40
16.331025727031999
 40
16.331025727031999
 40
16.514434378167
 40
16.514434378167
 40
16.514434378167
 40
16.514434378167
 10
4.1220145464737854
 20
10.921285751781303
 30
0.0
 10
4.1504671009940832
 20
10.924324941161537
 30
0.0
 10
4.1789199470815994
 20
10.926664831654255
 30
0.0
 10
4.207297731076487
 20
10.928109055592271
 30
0.0
 10
4.2295472232567377
 20
10.929241393805164
 30
0.0
 10
4.2517505726399669
 20
10.929823140386286
 30
0.0
 10
4.2774175876187801
 20
10.926150920005192
 30
0.0
  0
SPLINE
  5
90
102
{ACAD_REACTORS
330
6A
102
}
100
AcDbEntity
  8
0
  6
CONTINUOUS
 62
     7
100
AcDbSpline
210
0.0
220
0.0
230
1.0
 70
     8
 71
     3
 72
     8
 73
     4
 74
     0
 42
0.0000001
 43
0.0000001
 40
0.0
 40
0.0
 40
0.0
 40
0.0
 40
1.0973640443685999
 40
1.0973640443685999
 40
1.0973640443685999
 40
1.0973640443685999
 10
4.2774175876187801
 20
10.926150920005192
 30
0.0
 10
4.4085737602376378
 20
10.953722867989555
 30
0.0
 10
4.5329255873609213
 20
10.925016870680778
 30
0.0
 10
4.6741987602376538
 20
10.92247286798955
 30
0.0
  0
LINE
  5
91
102
{ACAD_REACTORS
330
6A
102
}
100
AcDbEntity
  8
0
  6
CONTINUOUS
 62
     7
100
AcDbLine
 10
4.674199
 20
10.922473
 30
0.0
 11
4.674199
 21
7.944715
 31
0.0
  0
SPLINE
  5
92
102
{ACAD_REACTORS
330
6A
102
}
100
AcDbEntity
  8
0
  6
CONTINUOUS
 62
     7
100
AcDbSpline
210
0.0
220
0.0
230
1.0
 70
     8
 71
     3
 72
    14
 73
    10
 74
     0
 42
0.0000001
 43
0.0000001
 40
0.0
 40
0.0
 40
0.0
 40
0.0
 40
1.0894771818614
 40
1.0894771818614
 40
1.0894771818614
 40
1.4514795829964
 40
1.4514795829964
 40
1.4514795829964
 40
2.0174762417709
 40
2.0174762417709
 40
2.0174762417709
 40
2.0174762417709
 10
4.6741987602376538
 20
7.9447145954585814
 30
0.0
 10
4.5568134122562247
 20
7.9352922690827077
 30
0.0
 10
4.3915379265461336
 20
7.8933026831725668
 30
0.0
 10
4.3352784773786617
 20
7.9272683628214429
 30
0.0
 10
4.3165850563284121
 20
7.9385541958739818
 30
0.0
 10
4.3099274921163158
 20
7.9582258291387529
 30
0.0
 10
4.2892986889447648
 20
7.9692344814443805
 30
0.0
 10
4.2570452187107808
 20
7.9864466888857208
 30
0.0
 10
4.190637891670745
 20
7.9824815181396236
 30
0.0
 10
4.1106176383246344
 20
7.9700274148671175
 30
0.0
  0
SPLINE
  5
93
102
{ACAD_REACTORS
330
6A
102
}
100
AcDbEntity
  8
0
  6
CONTINUOUS
 62
     7
100
AcDbSpline
210
0.0
220
0.0
230
1.0
 70
     8
 71
     3
 72
    11
 73
     7
 74
     0
 42
0.0000001
 43
0.0000001
 40
0.0
 40
0.0
 40
0.0
 40
0.0
 40
0.76962931704572
 40
0.76962931704572
 40
0.76962931704572
 40
2.1088765544613
 40
2.1088765544613
 40
2.1088765544613
 40
2.1088765544613
 10
4.1106176383246344
 20
7.9700274148671175
 30
0.0
 10
4.0018079272109084
 20
7.9530926099571673
 30
0.0
 10
3.8678279988551507
 20
7.9204618208746487
 30
0.0
 10
3.7603222630868105
 20
7.9040365862483473
 30
0.0
 10
3.5732494002874073
 20
7.8754547097397092
 30
0.0
 10
3.4663408434351362
 20
7.8959435280664394
 30
0.0
 10
3.34422686361536
 20
8.0319146301173312
 30
0.0
  0
SPLINE
  5
94
102
{ACAD_REACTORS
330
6A
102
}
100
AcDbEntity
  8
0
  6
CONTINUOUS
 62
     7
100
AcDbSpline
210
0.0
220
0.0
230
1.0
 70
     8
 71
     3
 72
     8
 73
     4
 74
     0
 42
0.0000001
 43
0.0000001
 40
0.0
 40
0.0
 40
0.0
 40
0.0
 40
0.0061389678812225
 40
0.0061389678812225
 40
0.0061389678812225
 40
0.0061389678812225
 10
3.34422686361536
 20
8.0319146301173312
 30
0.0
 10
3.3436674487838687
 20
8.0325382140925363
 30
0.0
 10
3.3431073710603991
 20
8.0331639172134075
 30
0.0
 10
3.3425459380990721
 20
8.0337911343679931
 30
0.0
  0
LWPOLYLINE
  5
95
102
{ACAD_REACTORS
330
6A
102
}
100
AcDbEntity
  8
0
  6
CONTINUOUS
 62
     7
100
AcDbPolyline
 90
        6
 70
     1
 10
3.11365
 20
9.551131
 10
3.155658
 20
9.569834
 10
3.216196
 20
9.596787
 10
2.727529
 20
10.694352
 10
2.665806
 20
10.666871
 10
2.624983
 20
10.648695
  0
LINE
  5
97
102
{ACAD_REACTORS
330
96
102
}
100
AcDbEntity
  8
0
  6
CONTINUOUS
 62
     7
100
AcDbLine
 10
0.313349
 20
5.735562
 30
0.0
 11
0.327178
 21
5.735562
 31
0.0
  0
SPLINE
  5
98
102
{ACAD_REACTORS
330
96
102
}
100
AcDbEntity
  8
0
  6
CONTINUOUS
 62
     7
100
AcDbSpline
210
0.0
220
0.0
230
1.0
 70
     8
 71
     3
 72
     8
 73
     4
 74
     0
 42
0.0000001
 43
0.0000001
 40
0.0
 40
0.0
 40
0.0
 40
0.0
 40
0.77951983829691
 40
0.77951983829691
 40
0.77951983829691
 40
0.77951983829691
 10
0.3271775159199883
 20
5.7355624397395575
 30
0.0
 10
0.2734302191410364
 20
5.8077500941467717
 30
0.0
 10
0.2584363683715952
 20
5.9187362323911463
 30
0.0
 10
0.2535462530267321
 20
6.007106336932055
 30
0.0
  0
SPLINE
  5
99
102
{ACAD_REACTORS
330
96
102
}
100
AcDbEntity
  8
0
  6
CONTINUOUS
 62
     7
100
AcDbSpline
210
0.0
220
0.0
230
1.0
 70
     8
 71
     3
 72
     8
 73
     4
 74
     0
 42
0.0000001
 43
0.0000001
 40
0.0
 40
0.0
 40
0.0
 40
0.0
 40
0.45551070105676
 40
0.45551070105676
 40
0.45551070105676
 40
0.45551070105676
 10
0.2535462530267321
 20
6.007106336932055
 30
0.0
 10
0.243487495699303
 20
6.0793609735597576
 30
0.0
 10
0.2578535319763327
 20
6.1477695884767725
 30
0.0
 10
0.2594969780589898
 20
6.190449343283623
 30
0.0
  0
SPLINE
  5
9A
102
{ACAD_REACTORS
330
96
102
}
100
AcDbEntity
  8
0
  6
CONTINUOUS
 62
     7
100
AcDbSpline
210
0.0
220
0.0
230
1.0
 70
     8
 71
     3
 72
    20
 73
    16
 74
     0
 42
0.0000001
 43
0.0000001
 40
0.0
 40
0.0
 40
0.0
 40
0.0
 40
1.0884840553319
 40
1.0884840553319
 40
1.0884840553319
 40
2.2514645491337002
 40
2.2514645491337002
 40
2.2514645491337002
 40
2.9856832991336999
 40
2.9856832991336999
 40
2.9856832991336999
 40
3.8449288477474002
 40
3.8449288477474002
 40
3.8449288477474002
 40
4.4462056463612001
 40
4.4462056463612001
 40
4.4462056463612001
 40
4.4462056463612001
 10
0.2594969780589898
 20
6.190449343283623
 30
0.0
 10
0.2801332857192444
 20
6.3827388868012633
 30
0.0
 10
0.3168785271776911
 20
6.4979029936855541
 30
0.0
 10
0.3832823208393447
 20
6.5892578078460939
 30
0.0
 10
0.4542308261156967
 20
6.6868649949823595
 30
0.0
 10
0.559036502212386
 20
6.7572923223150898
 30
0.0
 10
0.5762857451741206
 20
6.8728317688140379
 30
0.0
 10
0.5871756248181339
 20
6.9457747187914842
 30
0.0
 10
0.5631680184377661
 20
7.0366980671447807
 30
0.0
 10
0.6180280371170055
 20
7.1146834028522798
 30
0.0
 10
0.6822299208839373
 20
7.2059485095576479
 30
0.0
 10
0.8544463900210327
 20
7.2794941265435025
 30
0.0
 10
0.9449283877579067
 20
7.227366400841599
 30
0.0
 10
1.0082452428980322
 20
7.1908888280690597
 30
0.0
 10
1.0315381829380854
 20
7.0928712573995973
 30
0.0
 10
1.086040182634761
 20
7.0465354518356955
 30
0.0
  0
SPLINE
  5
9B
102
{ACAD_REACTORS
330
96
102
}
100
AcDbEntity
  8
0
  6
CONTINUOUS
 62
     7
100
AcDbSpline
210
0.0
220
0.0
230
1.0
 70
     8
 71
     3
 72
     8
 73
     4
 74
     0
 42
0.0000001
 43
0.0000001
 40
0.0
 40
0.0
 40
0.0
 40
0.0
 40
0.19487352172192
 40
0.19487352172192
 40
0.19487352172192
 40
0.19487352172192
 10
1.086040182634761
 20
7.0465354518356955
 30
0.0
 10
1.1045769802685057
 20
7.0316543621296281
 30
0.0
 10
1.124427892447406
 20
7.0218287655295963
 30
0.0
 10
1.14548519867731
 20
7.0173698183999837
 30
0.0
  0
SPLINE
  5
9C
102
{ACAD_REACTORS
330
96
102
}
100
AcDbEntity
  8
0
  6
CONTINUOUS
 62
     7
100
AcDbSpline
210
0.0
220
0.0
230
1.0
 70
     8
 71
     3
 72
     8
 73
     4
 74
     0
 42
0.0000001
 43
0.0000001
 40
0.0
 40
0.0
 40
0.0
 40
0.0
 40
0.33617478837165
 40
0.33617478837165
 40
0.33617478837165
 40
0.33617478837165
 10
1.14548519867731
 20
7.0173698183999837
 30
0.0
 10
1.180708448999185
 20
7.0072630357784309
 30
0.0
 10
1.2318369617454326
 20
6.9972626375015894
 30
0.0
 10
1.2759453069070861
 20
6.9964811056964251
 30
0.0
  0
SPLINE
  5
9D
102
{ACAD_REACTORS
330
96
102
}
100
AcDbEntity
  8
0
  6
CONTINUOUS
 62
     7
100
AcDbSpline
210
0.0
220
0.0
230
1.0
 70
     8
 71
     3
 72
    14
 73
    10
 74
     0
 42
0.0000001
 43
0.0000001
 40
0.0
 40
0.0
 40
0.0
 40
0.0
 40
0.0035287876683073
 40
0.0035287876683073
 40
0.0035287876683073
 40
0.17457550643419
 40
0.17457550643419
 40
0.17457550643419
 40
0.38736461279466
 40
0.38736461279466
 40
0.38736461279466
 40
0.38736461279466
 10
1.2759453069070861
 20
6.9964811056964251
 30
0.0
 10
1.2764083070780092
 20
6.9964729020479357
 30
0.0
 10
1.2768705337347916
 20
6.9964657141762636
 30
0.0
 10
1.277331960362019
 20
6.9964595526208502
 30
0.0
 10
1.2996981432999084
 20
6.9961608908895414
 30
0.0
 10
1.320184643834571
 20
6.9982735758401295
 30
0.0
 10
1.33699206501806
 20
6.9991313474940222
 30
0.0
 10
1.3579011836475232
 20
7.0001984504762502
 30
0.0
 10
1.3731164205542952
 20
6.9993234023925632
 30
0.0
 10
1.411551687993585
 20
7.0238180299635173
 30
0.0
  0
SPLINE
  5
9E
102
{ACAD_REACTORS
330
96
102
}
100
AcDbEntity
  8
0
  6
CONTINUOUS
 62
     7
100
AcDbSpline
210
0.0
220
0.0
230
1.0
 70
     8
 71
     3
 72
     8
 73
     4
 74
     0
 42
0.0000001
 43
0.0000001
 40
0.0
 40
0.0
 40
0.0
 40
0.0
 40
0.12817278245722
 40
0.12817278245722
 40
0.12817278245722
 40
0.12817278245722
 10
1.411551687993585
 20
7.0238180299635173
 30
0.0
 10
1.4256394753759258
 20
7.0291440243162331
 30
0.0
 10
1.4391749673296095
 20
7.0367460151932608
 30
0.0
 10
1.4521251599914251
 20
7.0465354518356946
 30
0.0
  0
SPLINE
  5
9F
102
{ACAD_REACTORS
330
96
102
}
100
AcDbEntity
  8
0
  6
CONTINUOUS
 62
     7
100
AcDbSpline
210
0.0
220
0.0
230
1.0
 70
     8
 71
     3
 72
    20
 73
    16
 74
     0
 42
0.0000001
 43
0.0000001
 40
0.0
 40
0.0
 40
0.0
 40
0.0
 40
0.60127679861371
 40
0.60127679861371
 40
0.60127679861371
 40
1.4605223472274
 40
1.4605223472274
 40
1.4605223472274
 40
2.1947410972274
 40
2.1947410972274
 40
2.1947410972274
 40
3.3577215910292
 40
3.3577215910292
 40
3.3577215910292
 40
4.4462056463612001
 40
4.4462056463612001
 40
4.4462056463612001
 40
4.4462056463612001
 10
1.4521251599914251
 20
7.0465354518356946
 30
0.0
 10
1.5053363745913169
 20
7.094272566630476
 30
0.0
 10
1.5247325614673204
 20
7.1939553489444625
 30
0.0
 10
1.5872919948646929
 20
7.2318243016817192
 30
0.0
 10
1.6766916104734166
 20
7.2859403579558517
 30
0.0
 10
1.8542366543722242
 20
7.2138238686871397
 30
0.0
 10
1.9231556590937731
 20
7.1222210862420754
 30
0.0
 10
1.9820464215534079
 20
7.0439472091974462
 30
0.0
 10
1.9616231015659258
 20
6.9514452752773019
 30
0.0
 10
1.975770668566377
 20
6.8776616444194083
 30
0.0
 10
1.9981799906604973
 20
6.7607905846029386
 30
0.0
 10
2.1073263216286016
 20
6.6908830180685808
 30
0.0
 10
2.1833487130532472
 20
6.5929469579848075
 30
0.0
 10
2.2545013775690808
 20
6.5012843373206133
 30
0.0
 10
2.2966377933457758
 20
6.3850690290286369
 30
0.0
 10
2.3257595802528721
 20
6.1904493432836629
 30
0.0
  0
SPLINE
  5
A0
102
{ACAD_REACTORS
330
96
102
}
100
AcDbEntity
  8
0
  6
CONTINUOUS
 62
     7
100
AcDbSpline
210
0.0
220
0.0
230
1.0
 70
     8
 71
     3
 72
     8
 73
     4
 74
     0
 42
0.0000001
 43
0.0000001
 40
0.0
 40
0.0
 40
0.0
 40
0.0
 40
0.45551070105676
 40
0.45551070105676
 40
0.45551070105676
 40
0.45551070105676
 10
2.3257595802528721
 20
6.1904493432836629
 30
0.0
 10
2.3274819486090683
 20
6.1477700390609007
 30
0.0
 10
2.3419744660779083
 20
6.0793826197290493
 30
0.0
 10
2.3320493400439011
 20
6.0071063369320834
 30
0.0
  0
SPLINE
  5
A1
102
{ACAD_REACTORS
330
96
102
}
100
AcDbEntity
  8
0
  6
CONTINUOUS
 62
     7
100
AcDbSpline
210
0.0
220
0.0
230
1.0
 70
     8
 71
     3
 72
     8
 73
     4
 74
     0
 42
0.0000001
 43
0.0000001
 40
0.0
 40
0.0
 40
0.0
 40
0.0
 40
0.77951983829691
 40
0.77951983829691
 40
0.77951983829691
 40
0.77951983829691
 10
2.3320493400439011
 20
6.0071063369320834
 30
0.0
 10
2.3257971038150318
 20
5.9184940165889808
 30
0.0
 10
2.3090910953118535
 20
5.8073160969764182
 30
0.0
 10
2.254223032459806
 20
5.735562439739585
 30
0.0
  0
LINE
  5
A2
102
{ACAD_REACTORS
330
96
102
}
100
AcDbEntity
  8
0
  6
CONTINUOUS
 62
     7
100
AcDbLine
 10
2.254223
 20
5.735562
 30
0.0
 11
2.268839
 21
5.735562
 31
0.0
  0
LWPOLYLINE
  5
A3
102
{ACAD_REACTORS
330
96
102
}
100
AcDbEntity
  8
0
  6
CONTINUOUS
 62
     7
100
AcDbPolyline
 90
        6
 70
     0
 10
0.333244
 20
5.735543
 10
1.220913
 20
5.735543
 10
1.220913
 20
6.393006
 10
1.333164
 20
6.393006
 10
1.333164
 20
5.735543
 10
2.234947
 20
5.735543
  0
ENDSEC
  0
SECTION
  2
OBJECTS
  0
DICTIONARY
  5
C
100
AcDbDictionary
  3
ACAD_GROUP
350
D
  3
ACAD_MLINESTYLE
350
1B
  0
DICTIONARY
  5
D
102
{ACAD_REACTORS
330
C
102
}
100
AcDbDictionary
  3
VISIOGROUP_0
350
31
  3
VISIOGROUP_1
350
3B
  3
VISIOGROUP_2
350
4B
  3
VISIOGROUP_3
350
6A
  3
VISIOGROUP_4
350
96
  0
DICTIONARY
  5
1B
102
{ACAD_REACTORS
330
C
102
}
100
AcDbDictionary
  3
STANDARD
350
1C
  0
MLINESTYLE
  5
1C
102
{ACAD_REACTORS
330
1B
102
}
100
AcDbMlineStyle
  2
STANDARD
 70
     0
  3

 62
   256
 51
90.0
 52
90.0
 71
     2
 49
0.5
 62
   256
  6
BYLAYER
 49
-0.5
 62
   256
  6
BYLAYER
  0
GROUP
  5
31
102
{ACAD_REACTORS
330
D
102
}
100
AcDbGroup
300
Group created by Visio.
 70
     0
 71
     1
340
32
340
33
340
34
340
35
340
36
340
37
340
38
340
39
340
3A
  0
GROUP
  5
3B
102
{ACAD_REACTORS
330
D
102
}
100
AcDbGroup
300
Group created by Visio.
 70
     0
 71
     1
340
3C
340
3D
340
3E
340
3F
340
40
340
41
340
42
340
43
340
44
  0
GROUP
  5
4B
102
{ACAD_REACTORS
330
D
102
}
100
AcDbGroup
300
Group created by Visio.
 70
     0
 71
     1
340
4C
340
4D
340
4E
  0
GROUP
  5
6A
102
{ACAD_REACTORS
330
D
102
}
100
AcDbGroup
300
Group created by Visio.
 70
     0
 71
     1
340
6B
340
6C
340
6D
340
6E
340
6F
340
70
340
71
340
72
340
73
340
74
340
75
340
76
340
77
340
78
340
79
340
7A
340
7B
340
7C
340
7D
340
7E
340
7F
340
80
340
81
340
82
340
83
340
84
340
85
340
86
340
87
340
88
340
89
340
8A
340
8B
340
8C
340
8D
340
8E
340
8F
340
90
340
91
340
92
340
93
340
94
340
95
  0
GROUP
  5
96
102
{ACAD_REACTORS
330
D
102
}
100
AcDbGroup
300
Group created by Visio.
 70
     0
 71
     1
340
97
340
98
340
99
340
9A
340
9B
340
9C
340
9D
340
9E
340
9F
340
A0
340
A1
340
A2
340
A3
  0
ENDSEC
  0
EOF
