  0
SECTION
  2
HEADER
  9
$ACADVER
  1
AC1021
  9
$ACADMAINTVER
 70
    25
  9
$DWGCODEPAGE
  3
ANSI_1251
  9
$INSBASE
 10
0.0
 20
0.0
 30
0.0
  9
$EXTMIN
 10
191.8304
 20
-250.1067
 30
0.0
  9
$EXTMAX
 10
551.9149
 20
307.8441
 30
0.0
  9
$LIMMIN
 10
0.0
 20
0.0
  9
$LIMMAX
 10
12.0
 20
9.0
  9
$ORTHOMODE
 70
     0
  9
$REGENMODE
 70
     1
  9
$FILLMODE
 70
     1
  9
$QTEXTMODE
 70
     0
  9
$MIRRTEXT
 70
     1
  9
$LTSCALE
 40
1.0
  9
$ATTMODE
 70
     1
  9
$TEXTSIZE
 40
0.2
  9
$TRACEWID
 40
0.05
  9
$TEXTSTYLE
  7
Standard
  9
$CLAYER
  8
0
  9
$CELTYPE
  6
ByLayer
  9
$CECOLOR
 62
   256
  9
$CELTSCALE
 40
1.0
  9
$DISPSILH
 70
     0
  9
$DIMSCALE
 40
1.0
  9
$DIMASZ
 40
0.18
  9
$DIMEXO
 40
0.0625
  9
$DIMDLI
 40
0.38
  9
$DIMRND
 40
0.0
  9
$DIMDLE
 40
0.0
  9
$DIMEXE
 40
0.18
  9
$DIMTP
 40
0.0
  9
$DIMTM
 40
0.0
  9
$DIMTXT
 40
0.18
  9
$DIMCEN
 40
0.09
  9
$DIMTSZ
 40
0.0
  9
$DIMTOL
 70
     0
  9
$DIMLIM
 70
     0
  9
$DIMTIH
 70
     1
  9
$DIMTOH
 70
     1
  9
$DIMSE1
 70
     0
  9
$DIMSE2
 70
     0
  9
$DIMTAD
 70
     0
  9
$DIMZIN
 70
     0
  9
$DIMBLK
  1

  9
$DIMASO
 70
     1
  9
$DIMSHO
 70
     1
  9
$DIMPOST
  1

  9
$DIMAPOST
  1

  9
$DIMALT
 70
     0
  9
$DIMALTD
 70
     2
  9
$DIMALTF
 40
25.4
  9
$DIMLFAC
 40
1.0
  9
$DIMTOFL
 70
     0
  9
$DIMTVP
 40
0.0
  9
$DIMTIX
 70
     0
  9
$DIMSOXD
 70
     0
  9
$DIMSAH
 70
     0
  9
$DIMBLK1
  1

  9
$DIMBLK2
  1

  9
$DIMSTYLE
  2
Standard
  9
$DIMCLRD
 70
     0
  9
$DIMCLRE
 70
     0
  9
$DIMCLRT
 70
     0
  9
$DIMTFAC
 40
1.0
  9
$DIMGAP
 40
0.09
  9
$DIMJUST
 70
     0
  9
$DIMSD1
 70
     0
  9
$DIMSD2
 70
     0
  9
$DIMTOLJ
 70
     1
  9
$DIMTZIN
 70
     0
  9
$DIMALTZ
 70
     0
  9
$DIMALTTZ
 70
     0
  9
$DIMUPT
 70
     0
  9
$DIMDEC
 70
     4
  9
$DIMTDEC
 70
     4
  9
$DIMALTU
 70
     2
  9
$DIMALTTD
 70
     2
  9
$DIMTXSTY
  7
Standard
  9
$DIMAUNIT
 70
     0
  9
$DIMADEC
 70
     0
  9
$DIMALTRND
 40
0.0
  9
$DIMAZIN
 70
     0
  9
$DIMDSEP
 70
    46
  9
$DIMATFIT
 70
     3
  9
$DIMFRAC
 70
     0
  9
$DIMLDRBLK
  1

  9
$DIMLUNIT
 70
     2
  9
$DIMLWD
 70
    -2
  9
$DIMLWE
 70
    -2
  9
$DIMTMOVE
 70
     0
  9
$DIMFXL
 40
1.0
  9
$DIMFXLON
 70
     0
  9
$DIMJOGANG
 40
0.7853981633974483
  9
$DIMTFILL
 70
     0
  9
$DIMTFILLCLR
 70
     0
  9
$DIMARCSYM
 70
     0
  9
$DIMLTYPE
  6

  9
$DIMLTEX1
  6

  9
$DIMLTEX2
  6

  9
$LUNITS
 70
     2
  9
$LUPREC
 70
     4
  9
$SKETCHINC
 40
0.1
  9
$FILLETRAD
 40
0.5
  9
$AUNITS
 70
     0
  9
$AUPREC
 70
     0
  9
$MENU
  1
.
  9
$ELEVATION
 40
0.0
  9
$PELEVATION
 40
0.0
  9
$THICKNESS
 40
0.0
  9
$LIMCHECK
 70
     0
  9
$CHAMFERA
 40
0.0
  9
$CHAMFERB
 40
0.0
  9
$CHAMFERC
 40
0.0
  9
$CHAMFERD
 40
0.0
  9
$SKPOLY
 70
     0
  9
$TDCREATE
 40
2458983.811248322
  9
$TDUCREATE
 40
2458983.519581655
  9
$TDUPDATE
 40
2458983.811248495
  9
$TDUUPDATE
 40
2458983.519581829
  9
$TDINDWG
 40
0.0000000116
  9
$TDUSRTIMER
 40
0.0000000116
  9
$USRTIMER
 70
     1
  9
$ANGBASE
 50
0.0
  9
$ANGDIR
 70
     0
  9
$PDMODE
 70
     0
  9
$PDSIZE
 40
0.0
  9
$PLINEWID
 40
0.0
  9
$SPLFRAME
 70
     0
  9
$SPLINETYPE
 70
     6
  9
$SPLINESEGS
 70
     8
  9
$HANDSEED
  5
105
  9
$SURFTAB1
 70
     6
  9
$SURFTAB2
 70
     6
  9
$SURFTYPE
 70
     6
  9
$SURFU
 70
     6
  9
$SURFV
 70
     6
  9
$UCSBASE
  2

  9
$UCSNAME
  2

  9
$UCSORG
 10
0.0
 20
0.0
 30
0.0
  9
$UCSXDIR
 10
1.0
 20
0.0
 30
0.0
  9
$UCSYDIR
 10
0.0
 20
1.0
 30
0.0
  9
$UCSORTHOREF
  2

  9
$UCSORTHOVIEW
 70
     0
  9
$UCSORGTOP
 10
0.0
 20
0.0
 30
0.0
  9
$UCSORGBOTTOM
 10
0.0
 20
0.0
 30
0.0
  9
$UCSORGLEFT
 10
0.0
 20
0.0
 30
0.0
  9
$UCSORGRIGHT
 10
0.0
 20
0.0
 30
0.0
  9
$UCSORGFRONT
 10
0.0
 20
0.0
 30
0.0
  9
$UCSORGBACK
 10
0.0
 20
0.0
 30
0.0
  9
$PUCSBASE
  2

  9
$PUCSNAME
  2

  9
$PUCSORG
 10
0.0
 20
0.0
 30
0.0
  9
$PUCSXDIR
 10
1.0
 20
0.0
 30
0.0
  9
$PUCSYDIR
 10
0.0
 20
1.0
 30
0.0
  9
$PUCSORTHOREF
  2

  9
$PUCSORTHOVIEW
 70
     0
  9
$PUCSORGTOP
 10
0.0
 20
0.0
 30
0.0
  9
$PUCSORGBOTTOM
 10
0.0
 20
0.0
 30
0.0
  9
$PUCSORGLEFT
 10
0.0
 20
0.0
 30
0.0
  9
$PUCSORGRIGHT
 10
0.0
 20
0.0
 30
0.0
  9
$PUCSORGFRONT
 10
0.0
 20
0.0
 30
0.0
  9
$PUCSORGBACK
 10
0.0
 20
0.0
 30
0.0
  9
$USERI1
 70
     0
  9
$USERI2
 70
     0
  9
$USERI3
 70
     0
  9
$USERI4
 70
     0
  9
$USERI5
 70
     0
  9
$USERR1
 40
0.0
  9
$USERR2
 40
0.0
  9
$USERR3
 40
0.0
  9
$USERR4
 40
0.0
  9
$USERR5
 40
0.0
  9
$WORLDVIEW
 70
     1
  9
$SHADEDGE
 70
     3
  9
$SHADEDIF
 70
    70
  9
$TILEMODE
 70
     1
  9
$MAXACTVP
 70
    64
  9
$PINSBASE
 10
0.0
 20
0.0
 30
0.0
  9
$PLIMCHECK
 70
     0
  9
$PEXTMIN
 10
1.000000000000000E+20
 20
1.000000000000000E+20
 30
1.000000000000000E+20
  9
$PEXTMAX
 10
-1.000000000000000E+20
 20
-1.000000000000000E+20
 30
-1.000000000000000E+20
  9
$PLIMMIN
 10
0.0
 20
0.0
  9
$PLIMMAX
 10
12.0
 20
9.0
  9
$UNITMODE
 70
     0
  9
$VISRETAIN
 70
     1
  9
$PLINEGEN
 70
     0
  9
$PSLTSCALE
 70
     1
  9
$TREEDEPTH
 70
  3020
  9
$CMLSTYLE
  2
Standard
  9
$CMLJUST
 70
     0
  9
$CMLSCALE
 40
1.0
  9
$PROXYGRAPHICS
 70
     1
  9
$MEASUREMENT
 70
     0
  9
$CELWEIGHT
370
    -1
  9
$ENDCAPS
280
     0
  9
$JOINSTYLE
280
     0
  9
$LWDISPLAY
290
     0
  9
$INSUNITS
 70
     4
  9
$HYPERLINKBASE
  1

  9
$STYLESHEET
  1

  9
$XEDIT
290
     1
  9
$CEPSNTYPE
380
     0
  9
$PSTYLEMODE
290
     1
  9
$FINGERPRINTGUID
  2
{8599D955-6364-473C-97B0-8595FE363468}
  9
$VERSIONGUID
  2
{FAEB1C32-E019-11D5-929B-00C0DF256EC4}
  9
$EXTNAMES
290
     1
  9
$PSVPSCALE
 40
0.0
  9
$OLESTARTUP
290
     0
  9
$SORTENTS
280
   127
  9
$INDEXCTL
280
     0
  9
$HIDETEXT
280
     1
  9
$XCLIPFRAME
290
     0
  9
$HALOGAP
280
     0
  9
$OBSCOLOR
 70
   257
  9
$OBSLTYPE
280
     0
  9
$INTERSECTIONDISPLAY
280
     0
  9
$INTERSECTIONCOLOR
 70
   257
  9
$DIMASSOC
280
     2
  9
$PROJECTNAME
  1

  9
$CAMERADISPLAY
290
     0
  9
$LENSLENGTH
 40
50.0
  9
$CAMERAHEIGHT
 40
0.0
  9
$STEPSPERSEC
 40
2.0
  9
$STEPSIZE
 40
6.0
  9
$3DDWFPREC
 40
2.0
  9
$PSOLWIDTH
 40
0.25
  9
$PSOLHEIGHT
 40
4.0
  9
$LOFTANG1
 40
1.570796326794897
  9
$LOFTANG2
 40
1.570796326794897
  9
$LOFTMAG1
 40
0.0
  9
$LOFTMAG2
 40
0.0
  9
$LOFTPARAM
 70
     7
  9
$LOFTNORMALS
280
     1
  9
$LATITUDE
 40
37.795
  9
$LONGITUDE
 40
-122.394
  9
$NORTHDIRECTION
 40
0.0
  9
$TIMEZONE
 70
 -8000
  9
$LIGHTGLYPHDISPLAY
280
     1
  9
$TILEMODELIGHTSYNCH
280
     1
  9
$CMATERIAL
347
44
  9
$SOLIDHIST
280
     0
  9
$SHOWHIST
280
     1
  9
$DWFFRAME
280
     2
  9
$DGNFRAME
280
     2
  9
$REALWORLDSCALE
290
     1
  9
$INTERFERECOLOR
 62
   256
  9
$CSHADOW
280
     0
  9
$SHADOWPLANELOCATION
 40
0.0
  0
ENDSEC
  0
SECTION
  2
CLASSES
  0
CLASS
  1
ACDBDICTIONARYWDFLT
  2
AcDbDictionaryWithDefault
  3
ObjectDBX Classes
 90
        0
 91
        4
280
     0
281
     0
  0
CLASS
  1
VISUALSTYLE
  2
AcDbVisualStyle
  3
ObjectDBX Classes
 90
     4095
 91
        4
280
     0
281
     0
  0
CLASS
  1
MATERIAL
  2
AcDbMaterial
  3
ObjectDBX Classes
 90
     1153
 91
        4
280
     0
281
     0
  0
CLASS
  1
SCALE
  2
AcDbScale
  3
ObjectDBX Classes
 90
     1153
 91
        4
280
     0
281
     0
  0
CLASS
  1
TABLESTYLE
  2
AcDbTableStyle
  3
ObjectDBX Classes
 90
     4095
 91
        4
280
     0
281
     0
  0
CLASS
  1
MLEADERSTYLE
  2
AcDbMLeaderStyle
  3
ACDB_MLEADERSTYLE_CLASS
 90
     4095
 91
        4
280
     0
281
     0
  0
CLASS
  1
SUN
  2
AcDbSun
  3
SCENEOE
 90
     1153
 91
        4
280
     0
281
     0
  0
CLASS
  1
DICTIONARYVAR
  2
AcDbDictionaryVar
  3
ObjectDBX Classes
 90
        0
 91
        4
280
     0
281
     0
  0
CLASS
  1
CELLSTYLEMAP
  2
AcDbCellStyleMap
  3
ObjectDBX Classes
 90
     1152
 91
        4
280
     0
281
     0
  0
ENDSEC
  0
SECTION
  2
TABLES
  0
TABLE
  2
VPORT
  5
8
330
0
100
AcDbSymbolTable
 70
     1
  0
VPORT
  5
29
330
8
100
AcDbSymbolTableRecord
100
AcDbViewportTableRecord
  2
*Active
 70
     0
 10
0.0
 20
0.0
 11
1.0
 21
1.0
 12
10.42990654205607
 22
4.5
 13
0.0
 23
0.0
 14
0.5
 24
0.5
 15
0.5
 25
0.5
 16
0.0
 26
0.0
 36
1.0
 17
0.0
 27
0.0
 37
0.0
 40
9.0
 41
1.972972972850329
 42
50.0
 43
0.0
 44
0.0
 50
0.0
 51
0.0
 71
     0
 72
   100
 73
     1
 74
     3
 75
     0
 76
     0
 77
     0
 78
     0
281
     0
 65
     1
110
0.0
120
0.0
130
0.0
111
1.0
121
0.0
131
0.0
112
0.0
122
1.0
132
0.0
 79
     0
146
0.0
348
2F
 60
     3
 61
     5
292
     1
282
     1
141
0.0
142
0.0
 63
   250
361
6D
  0
ENDTAB
  0
TABLE
  2
LTYPE
  5
5
330
0
100
AcDbSymbolTable
 70
     1
  0
LTYPE
  5
14
330
5
100
AcDbSymbolTableRecord
100
AcDbLinetypeTableRecord
  2
ByBlock
 70
     0
  3

 72
    65
 73
     0
 40
0.0
  0
LTYPE
  5
15
330
5
100
AcDbSymbolTableRecord
100
AcDbLinetypeTableRecord
  2
ByLayer
 70
     0
  3

 72
    65
 73
     0
 40
0.0
  0
LTYPE
  5
16
330
5
100
AcDbSymbolTableRecord
100
AcDbLinetypeTableRecord
  2
Continuous
 70
     0
  3
Solid line
 72
    65
 73
     0
 40
0.0
  0
ENDTAB
  0
TABLE
  2
LAYER
  5
2
330
0
100
AcDbSymbolTable
 70
     2
  0
LAYER
  5
10
330
2
100
AcDbSymbolTableRecord
100
AcDbLayerTableRecord
  2
0
 70
     0
 62
     7
  6
Continuous
370
    -3
390
F
347
46
  0
LAYER
  5
6F
330
2
100
AcDbSymbolTableRecord
100
AcDbLayerTableRecord
  2
layer 1
 70
     0
 62
     7
  6
Continuous
370
    -3
390
F
347
46
  0
ENDTAB
  0
TABLE
  2
STYLE
  5
3
330
0
100
AcDbSymbolTable
 70
     1
  0
STYLE
  5
11
330
3
100
AcDbSymbolTableRecord
100
AcDbTextStyleTableRecord
  2
Standard
 70
     0
 40
0.0
 41
1.0
 50
0.0
 71
     0
 42
0.2
  3
txt
  4

  0
ENDTAB
  0
TABLE
  2
VIEW
  5
6
330
0
100
AcDbSymbolTable
 70
     0
  0
ENDTAB
  0
TABLE
  2
UCS
  5
7
330
0
100
AcDbSymbolTable
 70
     0
  0
ENDTAB
  0
TABLE
  2
APPID
  5
9
330
0
100
AcDbSymbolTable
 70
     3
  0
APPID
  5
12
330
9
100
AcDbSymbolTableRecord
100
AcDbRegAppTableRecord
  2
ACAD
 70
     0
  0
APPID
  5
6E
330
9
100
AcDbSymbolTableRecord
100
AcDbRegAppTableRecord
  2
ODA
 70
     0
  0
APPID
  5
FD
330
9
100
AcDbSymbolTableRecord
100
AcDbRegAppTableRecord
  2
ACAD_MLEADERVER
 70
     0
  0
ENDTAB
  0
TABLE
  2
DIMSTYLE
  5
A
330
0
100
AcDbSymbolTable
 70
     1
100
AcDbDimStyleTable
  0
DIMSTYLE
105
27
330
A
100
AcDbSymbolTableRecord
100
AcDbDimStyleTableRecord
  2
Standard
 70
     0
178
     0
340
11
  0
ENDTAB
  0
TABLE
  2
BLOCK_RECORD
  5
1
330
0
100
AcDbSymbolTable
 70
     1
  0
BLOCK_RECORD
  5
1F
330
1
100
AcDbSymbolTableRecord
100
AcDbBlockTableRecord
  2
*Model_Space
340
22
 70
     0
280
     1
281
     0
  0
BLOCK_RECORD
  5
1B
330
1
100
AcDbSymbolTableRecord
100
AcDbBlockTableRecord
  2
*Paper_Space
340
1E
 70
     0
280
     1
281
     0
  0
BLOCK_RECORD
  5
23
330
1
100
AcDbSymbolTableRecord
100
AcDbBlockTableRecord
  2
*Paper_Space0
340
26
 70
     0
280
     1
281
     0
  0
ENDTAB
  0
ENDSEC
  0
SECTION
  2
BLOCKS
  0
BLOCK
  5
20
330
1F
100
AcDbEntity
  8
0
100
AcDbBlockBegin
  2
*Model_Space
 70
     0
 10
0.0
 20
0.0
 30
0.0
  3
*Model_Space
  1

  0
ENDBLK
  5
21
330
1F
100
AcDbEntity
  8
0
100
AcDbBlockEnd
  0
BLOCK
  5
1C
330
1B
100
AcDbEntity
 67
     1
  8
0
100
AcDbBlockBegin
  2
*Paper_Space
 70
     0
 10
0.0
 20
0.0
 30
0.0
  3
*Paper_Space
  1

  0
ENDBLK
  5
1D
330
1B
100
AcDbEntity
 67
     1
  8
0
100
AcDbBlockEnd
  0
BLOCK
  5
24
330
23
100
AcDbEntity
  8
0
100
AcDbBlockBegin
  2
*Paper_Space0
 70
     0
 10
0.0
 20
0.0
 30
0.0
  3
*Paper_Space0
  1

  0
ENDBLK
  5
25
330
23
100
AcDbEntity
  8
0
100
AcDbBlockEnd
  0
ENDSEC
  0
SECTION
  2
ENTITIES
  0
SPLINE
  5
70
330
1F
100
AcDbEntity
  8
layer 1
 62
     1
370
     9
100
AcDbSpline
210
0.0
220
0.0
230
1.0
 70
    11
 71
     3
 72
    16
 73
    12
 74
     0
 42
0.000000001
 43
0.0000000001
 40
0.0
 40
0.0
 40
0.0
 40
0.0
 40
0.25
 40
0.25
 40
0.25
 40
0.25
 40
0.5
 40
0.5
 40
0.5
 40
0.5
 40
1.0
 40
1.0
 40
1.0
 40
1.0
 10
246.0888
 20
-240.6457
 30
0.0
 10
246.0888
 20
-240.6457
 30
0.0
 10
250.4247
 20
-227.0009
 30
0.0
 10
250.4247
 20
-227.0009
 30
0.0
 10
250.4247
 20
-227.0009
 30
0.0
 10
253.3389
 20
-228.2034
 30
0.0
 10
273.9145
 20
-237.6074
 30
0.0
 10
275.2082
 20
-238.5936
 30
0.0
 10
275.2082
 20
-238.5936
 30
0.0
 10
273.9954
 20
-239.4474
 30
0.0
 10
248.1821
 20
-240.6979
 30
0.0
 10
246.0888
 20
-240.6457
 30
0.0
  0
SPLINE
  5
71
330
1F
100
AcDbEntity
  8
layer 1
 62
     1
370
     9
100
AcDbSpline
210
0.0
220
0.0
230
1.0
 70
    11
 71
     3
 72
    16
 73
    12
 74
     0
 42
0.000000001
 43
0.0000000001
 40
0.0
 40
0.0
 40
0.0
 40
0.0
 40
0.25
 40
0.25
 40
0.25
 40
0.25
 40
0.5
 40
0.5
 40
0.5
 40
0.5
 40
1.0
 40
1.0
 40
1.0
 40
1.0
 10
287.2879
 20
-230.21
 30
0.0
 10
288.016
 20
-231.4601
 30
0.0
 10
289.7677
 20
-235.4555
 30
0.0
 10
289.7276
 20
-237.0838
 30
0.0
 10
289.7276
 20
-237.0838
 30
0.0
 10
288.0773
 20
-237.0237
 30
0.0
 10
278.6314
 20
-232.5629
 30
0.0
 10
277.6495
 20
-231.7009
 30
0.0
 10
277.6495
 20
-231.7009
 30
0.0
 10
280.2978
 20
-231.0505
 30
0.0
 10
284.5119
 20
-230.3561
 30
0.0
 10
287.2879
 20
-230.21
 30
0.0
  0
SPLINE
  5
72
330
1F
100
AcDbEntity
  8
layer 1
 62
     1
370
     9
100
AcDbSpline
210
0.0
220
0.0
230
1.0
 70
    11
 71
     3
 72
    16
 73
    12
 74
     0
 42
0.000000001
 43
0.0000000001
 40
0.0
 40
0.0
 40
0.0
 40
0.0
 40
0.25
 40
0.25
 40
0.25
 40
0.25
 40
0.5
 40
0.5
 40
0.5
 40
0.5
 40
1.0
 40
1.0
 40
1.0
 40
1.0
 10
214.4094
 20
-223.1413
 30
0.0
 10
214.4094
 20
-223.1413
 30
0.0
 10
244.3913
 20
-224.569
 30
0.0
 10
244.3913
 20
-224.569
 30
0.0
 10
244.3913
 20
-224.569
 30
0.0
 10
244.3807
 20
-226.9251
 30
0.0
 10
241.7968
 20
-236.7041
 30
0.0
 10
240.4018
 20
-239.0711
 30
0.0
 10
240.4018
 20
-239.0711
 30
0.0
 10
237.4028
 20
-238.3512
 30
0.0
 10
214.4958
 20
-223.258
 30
0.0
 10
214.4094
 20
-223.1413
 30
0.0
  0
SPLINE
  5
73
330
1F
100
AcDbEntity
  8
layer 1
 62
     1
370
     9
100
AcDbSpline
210
0.0
220
0.0
230
1.0
 70
    11
 71
     3
 72
    32
 73
    28
 74
     0
 42
0.000000001
 43
0.0000000001
 40
0.0
 40
0.0
 40
0.0
 40
0.0
 40
0.125
 40
0.125
 40
0.125
 40
0.125
 40
0.25
 40
0.25
 40
0.25
 40
0.25
 40
0.375
 40
0.375
 40
0.375
 40
0.375
 40
0.5
 40
0.5
 40
0.5
 40
0.5
 40
0.625
 40
0.625
 40
0.625
 40
0.625
 40
0.75
 40
0.75
 40
0.75
 40
0.75
 40
1.0
 40
1.0
 40
1.0
 40
1.0
 10
446.5223
 20
-210.3731
 30
0.0
 10
446.5223
 20
-210.3731
 30
0.0
 10
447.8376
 20
-207.9098
 30
0.0
 10
447.8376
 20
-207.9098
 30
0.0
 10
447.8376
 20
-207.9098
 30
0.0
 10
448.605
 20
-206.1731
 30
0.0
 10
450.1206
 20
-204.5487
 30
0.0
 10
450.8354
 20
-202.6784
 30
0.0
 10
450.8354
 20
-202.6784
 30
0.0
 10
451.7584
 20
-203.5177
 30
0.0
 10
454.0069
 20
-211.1696
 30
0.0
 10
454.5398
 20
-212.6848
 30
0.0
 10
454.5398
 20
-212.6848
 30
0.0
 10
455.4129
 20
-215.0806
 30
0.0
 10
457.6036
 20
-221.2212
 30
0.0
 10
457.833
 20
-223.3306
 30
0.0
 10
457.833
 20
-223.3306
 30
0.0
 10
456.8912
 20
-223.8526
 30
0.0
 10
453.6169
 20
-226.189
 30
0.0
 10
452.8569
 20
-226.1227
 30
0.0
 10
452.8569
 20
-226.1227
 30
0.0
 10
451.5785
 20
-226.0115
 30
0.0
 10
442.8214
 20
-221.6399
 30
0.0
 10
440.4536
 20
-220.991
 30
0.0
 10
440.4536
 20
-220.991
 30
0.0
 10
440.9182
 20
-219.4747
 30
0.0
 10
445.4736
 20
-211.7328
 30
0.0
 10
446.5223
 20
-210.3731
 30
0.0
  0
SPLINE
  5
74
330
1F
100
AcDbEntity
  8
layer 1
 62
     1
370
     9
100
AcDbSpline
210
0.0
220
0.0
230
1.0
 70
    11
 71
     3
 72
    36
 73
    32
 74
     0
 42
0.000000001
 43
0.0000000001
 40
0.0
 40
0.0
 40
0.0
 40
0.0
 40
0.1111111111111111
 40
0.1111111111111111
 40
0.1111111111111111
 40
0.1111111111111111
 40
0.2222222222222222
 40
0.2222222222222222
 40
0.2222222222222222
 40
0.2222222222222222
 40
0.3333333333333333
 40
0.3333333333333333
 40
0.3333333333333333
 40
0.3333333333333333
 40
0.4444444444444444
 40
0.4444444444444444
 40
0.4444444444444444
 40
0.4444444444444444
 40
0.5555555555555556
 40
0.5555555555555556
 40
0.5555555555555556
 40
0.5555555555555556
 40
0.6666666666666666
 40
0.6666666666666666
 40
0.6666666666666666
 40
0.6666666666666666
 40
0.7777777777777778
 40
0.7777777777777778
 40
0.7777777777777778
 40
0.7777777777777778
 40
1.0
 40
1.0
 40
1.0
 40
1.0
 10
417.6377
 20
-225.8568
 30
0.0
 10
415.1434
 20
-225.1691
 30
0.0
 10
415.0432
 20
-224.0945
 30
0.0
 10
413.008
 20
-223.5521
 30
0.0
 10
413.008
 20
-223.5521
 30
0.0
 10
413.1742
 20
-222.1697
 30
0.0
 10
424.6168
 20
-204.4863
 30
0.0
 10
426.0284
 20
-202.6792
 30
0.0
 10
426.0284
 20
-202.6792
 30
0.0
 10
426.4745
 20
-201.4558
 30
0.0
 10
426.7938
 20
-201.1589
 30
0.0
 10
427.5416
 20
-200.049
 30
0.0
 10
427.5416
 20
-200.049
 30
0.0
 10
427.5416
 20
-200.049
 30
0.0
 10
430.8906
 20
-194.9221
 30
0.0
 10
430.8906
 20
-194.9221
 30
0.0
 10
430.8906
 20
-194.9221
 30
0.0
 10
430.8906
 20
-194.9221
 30
0.0
 10
434.6012
 20
-222.6846
 30
0.0
 10
434.6012
 20
-222.6846
 30
0.0
 10
434.6012
 20
-222.6846
 30
0.0
 10
433.4961
 20
-223.3786
 30
0.0
 10
432.7004
 20
-224.6185
 30
0.0
 10
431.4385
 20
-224.7826
 30
0.0
 10
431.4385
 20
-224.7826
 30
0.0
 10
429.4555
 20
-225.0407
 30
0.0
 10
424.4507
 20
-221.4486
 30
0.0
 10
421.628
 20
-221.0095
 30
0.0
 10
421.628
 20
-221.0095
 30
0.0
 10
420.3261
 20
-222.1151
 30
0.0
 10
418.9526
 20
-224.4036
 30
0.0
 10
417.6377
 20
-225.8568
 30
0.0
  0
SPLINE
  5
75
330
1F
100
AcDbEntity
  8
layer 1
 62
     1
370
     9
100
AcDbSpline
210
0.0
220
0.0
230
1.0
 70
    11
 71
     3
 72
    28
 73
    24
 74
     0
 42
0.000000001
 43
0.0000000001
 40
0.0
 40
0.0
 40
0.0
 40
0.0
 40
0.1428571428571428
 40
0.1428571428571428
 40
0.1428571428571428
 40
0.1428571428571428
 40
0.2857142857142857
 40
0.2857142857142857
 40
0.2857142857142857
 40
0.2857142857142857
 40
0.4285714285714285
 40
0.4285714285714285
 40
0.4285714285714285
 40
0.4285714285714285
 40
0.5714285714285714
 40
0.5714285714285714
 40
0.5714285714285714
 40
0.5714285714285714
 40
0.7142857142857143
 40
0.7142857142857143
 40
0.7142857142857143
 40
0.7142857142857143
 40
1.0
 40
1.0
 40
1.0
 40
1.0
 10
479.1941
 20
-224.1841
 30
0.0
 10
471.7731
 20
-222.6704
 30
0.0
 10
477.5112
 20
-218.5352
 30
0.0
 10
467.5166
 20
-225.6478
 30
0.0
 10
467.5166
 20
-225.6478
 30
0.0
 10
467.5166
 20
-225.6478
 30
0.0
 10
463.126
 20
-222.965
 30
0.0
 10
463.126
 20
-222.965
 30
0.0
 10
463.126
 20
-222.965
 30
0.0
 10
463.3479
 20
-221.1163
 30
0.0
 10
471.9267
 20
-202.6026
 30
0.0
 10
474.2105
 20
-197.1674
 30
0.0
 10
474.2105
 20
-197.1674
 30
0.0
 10
475.016
 20
-198.0146
 30
0.0
 10
481.5133
 20
-211.6331
 30
0.0
 10
483.0654
 20
-214.7146
 30
0.0
 10
483.0654
 20
-214.7146
 30
0.0
 10
484.0339
 20
-216.6378
 30
0.0
 10
484.8618
 20
-217.0384
 30
0.0
 10
483.0446
 20
-219.2037
 30
0.0
 10
483.0446
 20
-219.2037
 30
0.0
 10
481.657
 20
-220.8567
 30
0.0
 10
480.6276
 20
-222.6029
 30
0.0
 10
479.1941
 20
-224.1841
 30
0.0
  0
SPLINE
  5
76
330
1F
100
AcDbEntity
  8
layer 1
 62
     1
370
     9
100
AcDbSpline
210
0.0
220
0.0
230
1.0
 70
    11
 71
     3
 72
    32
 73
    28
 74
     0
 42
0.000000001
 43
0.0000000001
 40
0.0
 40
0.0
 40
0.0
 40
0.0
 40
0.125
 40
0.125
 40
0.125
 40
0.125
 40
0.25
 40
0.25
 40
0.25
 40
0.25
 40
0.375
 40
0.375
 40
0.375
 40
0.375
 40
0.5
 40
0.5
 40
0.5
 40
0.5
 40
0.625
 40
0.625
 40
0.625
 40
0.625
 40
0.75
 40
0.75
 40
0.75
 40
0.75
 40
1.0
 40
1.0
 40
1.0
 40
1.0
 10
215.7565
 20
-196.4589
 30
0.0
 10
216.1941
 20
-195.631
 30
0.0
 10
216.5428
 20
-194.9091
 30
0.0
 10
217.1598
 20
-194.148
 30
0.0
 10
217.1598
 20
-194.148
 30
0.0
 10
217.1598
 20
-194.148
 30
0.0
 10
218.8227
 20
-191.0751
 30
0.0
 10
218.8227
 20
-191.0751
 30
0.0
 10
218.8227
 20
-191.0751
 30
0.0
 10
218.8227
 20
-191.0751
 30
0.0
 10
219.4527
 20
-190.3474
 30
0.0
 10
219.4527
 20
-190.3474
 30
0.0
 10
219.4527
 20
-190.3474
 30
0.0
 10
219.4527
 20
-190.3474
 30
0.0
 10
233.4836
 20
-207.285
 30
0.0
 10
233.4836
 20
-207.285
 30
0.0
 10
233.4836
 20
-207.285
 30
0.0
 10
235.0769
 20
-209.2086
 30
0.0
 10
241.0007
 20
-215.7746
 30
0.0
 10
241.4316
 20
-217.7968
 30
0.0
 10
241.4316
 20
-217.7968
 30
0.0
 10
229.4803
 20
-218.1055
 30
0.0
 10
216.1619
 20
-215.8233
 30
0.0
 10
204.4368
 20
-216.3496
 30
0.0
 10
204.4368
 20
-216.3496
 30
0.0
 10
204.9929
 20
-214.4169
 30
0.0
 10
214.7338
 20
-197.949
 30
0.0
 10
215.7565
 20
-196.4589
 30
0.0
  0
SPLINE
  5
77
330
1F
100
AcDbEntity
  8
layer 1
 62
     1
370
     9
100
AcDbSpline
210
0.0
220
0.0
230
1.0
 70
    11
 71
     3
 72
    40
 73
    36
 74
     0
 42
0.000000001
 43
0.0000000001
 40
0.0
 40
0.0
 40
0.0
 40
0.0
 40
0.1
 40
0.1
 40
0.1
 40
0.1
 40
0.2
 40
0.2
 40
0.2
 40
0.2
 40
0.3
 40
0.3
 40
0.3
 40
0.3
 40
0.4
 40
0.4
 40
0.4
 40
0.4
 40
0.5
 40
0.5
 40
0.5
 40
0.5
 40
0.6
 40
0.6
 40
0.6
 40
0.6
 40
0.7
 40
0.7
 40
0.7
 40
0.7
 40
0.8
 40
0.8
 40
0.8
 40
0.8
 40
1.0
 40
1.0
 40
1.0
 40
1.0
 10
386.2879
 20
-202.9035
 30
0.0
 10
386.2879
 20
-202.9035
 30
0.0
 10
390.0382
 20
-198.8264
 30
0.0
 10
390.0382
 20
-198.8264
 30
0.0
 10
390.0382
 20
-198.8264
 30
0.0
 10
391.2723
 20
-199.7804
 30
0.0
 10
391.4926
 20
-200.6287
 30
0.0
 10
392.2514
 20
-201.8011
 30
0.0
 10
392.2514
 20
-201.8011
 30
0.0
 10
394.6181
 20
-205.4595
 30
0.0
 10
406.4154
 20
-221.8217
 30
0.0
 10
407.0937
 20
-223.9626
 30
0.0
 10
407.0937
 20
-223.9626
 30
0.0
 10
405.5812
 20
-226.0268
 30
0.0
 10
404.4835
 20
-227.2734
 30
0.0
 10
402.9164
 20
-225.5485
 30
0.0
 10
402.9164
 20
-225.5485
 30
0.0
 10
400.0906
 20
-224.2748
 30
0.0
 10
396.4769
 20
-221.5664
 30
0.0
 10
393.3778
 20
-222.3272
 30
0.0
 10
393.3778
 20
-222.3272
 30
0.0
 10
390.0995
 20
-223.1323
 30
0.0
 10
386.5161
 20
-224.362
 30
0.0
 10
386.0079
 20
-219.9927
 30
0.0
 10
386.0079
 20
-219.9927
 30
0.0
 10
385.8857
 20
-218.9421
 30
0.0
 10
385.7762
 20
-215.9894
 30
0.0
 10
385.8669
 20
-214.9667
 30
0.0
 10
385.8669
 20
-214.9667
 30
0.0
 10
386.1709
 20
-211.5482
 30
0.0
 10
388.2603
 20
-212.0203
 30
0.0
 10
387.5526
 20
-207.2952
 30
0.0
 10
387.5526
 20
-207.2952
 30
0.0
 10
387.2246
 20
-206.8392
 30
0.0
 10
386.1658
 20
-204.1143
 30
0.0
 10
386.2879
 20
-202.9035
 30
0.0
  0
SPLINE
  5
78
330
1F
100
AcDbEntity
  8
layer 1
 62
     1
370
     9
100
AcDbSpline
210
0.0
220
0.0
230
1.0
 70
    11
 71
     3
 72
    20
 73
    16
 74
     0
 42
0.000000001
 43
0.0000000001
 40
0.0
 40
0.0
 40
0.0
 40
0.0
 40
0.2
 40
0.2
 40
0.2
 40
0.2
 40
0.4
 40
0.4
 40
0.4
 40
0.4
 40
0.6
 40
0.6
 40
0.6
 40
0.6
 40
1.0
 40
1.0
 40
1.0
 40
1.0
 10
261.3572
 20
-202.7523
 30
0.0
 10
261.3572
 20
-202.7523
 30
0.0
 10
255.5987
 20
-204.7396
 30
0.0
 10
255.5987
 20
-204.7396
 30
0.0
 10
255.5987
 20
-204.7396
 30
0.0
 10
255.5987
 20
-204.7396
 30
0.0
 10
257.7121
 20
-196.9294
 30
0.0
 10
257.7121
 20
-196.9294
 30
0.0
 10
257.7121
 20
-196.9294
 30
0.0
 10
257.7121
 20
-196.9294
 30
0.0
 10
267.6525
 20
-200.0207
 30
0.0
 10
267.6525
 20
-200.0207
 30
0.0
 10
267.6525
 20
-200.0207
 30
0.0
 10
266.9059
 20
-200.7744
 30
0.0
 10
262.3791
 20
-202.4232
 30
0.0
 10
261.3572
 20
-202.7523
 30
0.0
  0
SPLINE
  5
79
330
1F
100
AcDbEntity
  8
layer 1
 62
     1
370
     9
100
AcDbSpline
210
0.0
220
0.0
230
1.0
 70
    11
 71
     3
 72
    24
 73
    20
 74
     0
 42
0.000000001
 43
0.0000000001
 40
0.0
 40
0.0
 40
0.0
 40
0.0
 40
0.1666666666666667
 40
0.1666666666666667
 40
0.1666666666666667
 40
0.1666666666666667
 40
0.3333333333333333
 40
0.3333333333333333
 40
0.3333333333333333
 40
0.3333333333333333
 40
0.5
 40
0.5
 40
0.5
 40
0.5
 40
0.6666666666666666
 40
0.6666666666666666
 40
0.6666666666666666
 40
0.6666666666666666
 40
1.0
 40
1.0
 40
1.0
 40
1.0
 10
284.5697
 20
-190.7472
 30
0.0
 10
284.5697
 20
-190.7472
 30
0.0
 10
285.1238
 20
-180.7942
 30
0.0
 10
285.1238
 20
-180.7942
 30
0.0
 10
285.1238
 20
-180.7942
 30
0.0
 10
285.1238
 20
-180.7942
 30
0.0
 10
298.3158
 20
-197.3061
 30
0.0
 10
298.3158
 20
-197.3061
 30
0.0
 10
298.3158
 20
-197.3061
 30
0.0
 10
298.3158
 20
-197.3061
 30
0.0
 10
300.0514
 20
-199.8032
 30
0.0
 10
300.0514
 20
-199.8032
 30
0.0
 10
300.0514
 20
-199.8032
 30
0.0
 10
298.555
 20
-199.5557
 30
0.0
 10
285.7786
 20
-196.7032
 30
0.0
 10
284.4102
 20
-196.0281
 30
0.0
 10
284.4102
 20
-196.0281
 30
0.0
 10
284.4102
 20
-196.0281
 30
0.0
 10
284.5697
 20
-190.7472
 30
0.0
 10
284.5697
 20
-190.7472
 30
0.0
  0
SPLINE
  5
7A
330
1F
100
AcDbEntity
  8
layer 1
 62
     1
370
     9
100
AcDbSpline
210
0.0
220
0.0
230
1.0
 70
    11
 71
     3
 72
    28
 73
    24
 74
     0
 42
0.000000001
 43
0.0000000001
 40
0.0
 40
0.0
 40
0.0
 40
0.0
 40
0.1428571428571428
 40
0.1428571428571428
 40
0.1428571428571428
 40
0.1428571428571428
 40
0.2857142857142857
 40
0.2857142857142857
 40
0.2857142857142857
 40
0.2857142857142857
 40
0.4285714285714285
 40
0.4285714285714285
 40
0.4285714285714285
 40
0.4285714285714285
 40
0.5714285714285714
 40
0.5714285714285714
 40
0.5714285714285714
 40
0.5714285714285714
 40
0.7142857142857143
 40
0.7142857142857143
 40
0.7142857142857143
 40
0.7142857142857143
 40
1.0
 40
1.0
 40
1.0
 40
1.0
 10
493.4555
 20
-202.0371
 30
0.0
 10
492.6716
 20
-202.79
 30
0.0
 10
488.6962
 20
-204.3641
 30
0.0
 10
487.3302
 20
-204.8983
 30
0.0
 10
487.3302
 20
-204.8983
 30
0.0
 10
487.3302
 20
-204.8983
 30
0.0
 10
485.3983
 20
-200.8105
 30
0.0
 10
485.3983
 20
-200.8105
 30
0.0
 10
485.3983
 20
-200.8105
 30
0.0
 10
484.753
 20
-200.0199
 30
0.0
 10
484.3548
 20
-199.1347
 30
0.0
 10
484.2546
 20
-198.0641
 30
0.0
 10
484.2546
 20
-198.0641
 30
0.0
 10
483.475
 20
-197.2483
 30
0.0
 10
483.1117
 20
-196.0831
 30
0.0
 10
482.7575
 20
-195.0658
 30
0.0
 10
482.7575
 20
-195.0658
 30
0.0
 10
483.8081
 20
-195.2642
 30
0.0
 10
497.2215
 20
-198.6642
 30
0.0
 10
498.2262
 20
-199.802
 30
0.0
 10
498.2262
 20
-199.802
 30
0.0
 10
498.2262
 20
-199.802
 30
0.0
 10
493.4555
 20
-202.0371
 30
0.0
 10
493.4555
 20
-202.0371
 30
0.0
  0
SPLINE
  5
7B
330
1F
100
AcDbEntity
  8
layer 1
 62
     1
370
     9
100
AcDbSpline
210
0.0
220
0.0
230
1.0
 70
    11
 71
     3
 72
    20
 73
    16
 74
     0
 42
0.000000001
 43
0.0000000001
 40
0.0
 40
0.0
 40
0.0
 40
0.0
 40
0.2
 40
0.2
 40
0.2
 40
0.2
 40
0.4
 40
0.4
 40
0.4
 40
0.4
 40
0.6
 40
0.6
 40
0.6
 40
0.6
 40
1.0
 40
1.0
 40
1.0
 40
1.0
 10
438.1686
 20
-208.6372
 30
0.0
 10
437.4129
 20
-202.8583
 30
0.0
 10
436.7747
 20
-197.2892
 30
0.0
 10
435.9217
 20
-191.6434
 30
0.0
 10
435.9217
 20
-191.6434
 30
0.0
 10
437.3238
 20
-191.9172
 30
0.0
 10
445.6806
 20
-196.2087
 30
0.0
 10
447.1055
 20
-197.0571
 30
0.0
 10
447.1055
 20
-197.0571
 30
0.0
 10
445.769
 20
-200.1786
 30
0.0
 10
440.9036
 20
-208.0787
 30
0.0
 10
438.9195
 20
-211.3833
 30
0.0
 10
438.9195
 20
-211.3833
 30
0.0
 10
438.9195
 20
-211.3833
 30
0.0
 10
438.1686
 20
-208.6372
 30
0.0
 10
438.1686
 20
-208.6372
 30
0.0
  0
SPLINE
  5
7C
330
1F
100
AcDbEntity
  8
layer 1
 62
     1
370
     9
100
AcDbSpline
210
0.0
220
0.0
230
1.0
 70
    11
 71
     3
 72
    24
 73
    20
 74
     0
 42
0.000000001
 43
0.0000000001
 40
0.0
 40
0.0
 40
0.0
 40
0.0
 40
0.1666666666666667
 40
0.1666666666666667
 40
0.1666666666666667
 40
0.1666666666666667
 40
0.3333333333333333
 40
0.3333333333333333
 40
0.3333333333333333
 40
0.3333333333333333
 40
0.5
 40
0.5
 40
0.5
 40
0.5
 40
0.6666666666666666
 40
0.6666666666666666
 40
0.6666666666666666
 40
0.6666666666666666
 40
1.0
 40
1.0
 40
1.0
 40
1.0
 10
422.8385
 20
-195.7669
 30
0.0
 10
422.5604
 20
-197.0751
 30
0.0
 10
409.8975
 20
-216.5958
 30
0.0
 10
409.405
 20
-216.8629
 30
0.0
 10
409.405
 20
-216.8629
 30
0.0
 10
406.4284
 20
-211.3994
 30
0.0
 10
401.8961
 20
-205.6024
 30
0.0
 10
398.2777
 20
-200.4398
 30
0.0
 10
398.2777
 20
-200.4398
 30
0.0
 10
396.8387
 20
-198.4466
 30
0.0
 10
395.7586
 20
-196.4452
 30
0.0
 10
394.4366
 20
-194.7002
 30
0.0
 10
394.4366
 20
-194.7002
 30
0.0
 10
394.8616
 20
-194.3569
 30
0.0
 10
421.0943
 20
-190.7319
 30
0.0
 10
426.1505
 20
-190.5147
 30
0.0
 10
426.1505
 20
-190.5147
 30
0.0
 10
425.4106
 20
-191.7731
 30
0.0
 10
423.7744
 20
-194.9311
 30
0.0
 10
422.8385
 20
-195.7669
 30
0.0
  0
SPLINE
  5
7D
330
1F
100
AcDbEntity
  8
layer 1
 62
     1
370
     9
100
AcDbSpline
210
0.0
220
0.0
230
1.0
 70
    11
 71
     3
 72
    20
 73
    16
 74
     0
 42
0.000000001
 43
0.0000000001
 40
0.0
 40
0.0
 40
0.0
 40
0.0
 40
0.2
 40
0.2
 40
0.2
 40
0.2
 40
0.4
 40
0.4
 40
0.4
 40
0.4
 40
0.6
 40
0.6
 40
0.6
 40
0.6
 40
1.0
 40
1.0
 40
1.0
 40
1.0
 10
239.7541
 20
-204.6606
 30
0.0
 10
236.7449
 20
-200.1892
 30
0.0
 10
230.2866
 20
-194.1645
 30
0.0
 10
227.7279
 20
-189.6071
 30
0.0
 10
227.7279
 20
-189.6071
 30
0.0
 10
227.7279
 20
-189.6071
 30
0.0
 10
251.3543
 20
-195.7669
 30
0.0
 10
251.3543
 20
-195.7669
 30
0.0
 10
251.3543
 20
-195.7669
 30
0.0
 10
251.4246
 20
-200.8255
 30
0.0
 10
248.3671
 20
-207.2033
 30
0.0
 10
247.3145
 20
-213.5964
 30
0.0
 10
247.3145
 20
-213.5964
 30
0.0
 10
244.8512
 20
-211.2521
 30
0.0
 10
242.0058
 20
-207.3356
 30
0.0
 10
239.7541
 20
-204.6606
 30
0.0
  0
SPLINE
  5
7E
330
1F
100
AcDbEntity
  8
layer 1
 62
     1
370
     9
100
AcDbSpline
210
0.0
220
0.0
230
1.0
 70
    11
 71
     3
 72
    20
 73
    16
 74
     0
 42
0.000000001
 43
0.0000000001
 40
0.0
 40
0.0
 40
0.0
 40
0.0
 40
0.2
 40
0.2
 40
0.2
 40
0.2
 40
0.4
 40
0.4
 40
0.4
 40
0.4
 40
0.6
 40
0.6
 40
0.6
 40
0.6
 40
1.0
 40
1.0
 40
1.0
 40
1.0
 10
417.3573
 20
-185.1777
 30
0.0
 10
417.3573
 20
-185.1777
 30
0.0
 10
393.6166
 20
-188.0883
 30
0.0
 10
393.6166
 20
-188.0883
 30
0.0
 10
393.6166
 20
-188.0883
 30
0.0
 10
393.6166
 20
-188.0883
 30
0.0
 10
396.2138
 20
-166.9585
 30
0.0
 10
396.2138
 20
-166.9585
 30
0.0
 10
396.2138
 20
-166.9585
 30
0.0
 10
400.2336
 20
-169.4831
 30
0.0
 10
421.1736
 20
-182.5459
 30
0.0
 10
423.2595
 20
-184.3859
 30
0.0
 10
423.2595
 20
-184.3859
 30
0.0
 10
423.2595
 20
-184.3859
 30
0.0
 10
417.3573
 20
-185.1777
 30
0.0
 10
417.3573
 20
-185.1777
 30
0.0
  0
SPLINE
  5
7F
330
1F
100
AcDbEntity
  8
layer 1
 62
     1
370
     9
100
AcDbSpline
210
0.0
220
0.0
230
1.0
 70
    11
 71
     3
 72
    20
 73
    16
 74
     0
 42
0.000000001
 43
0.0000000001
 40
0.0
 40
0.0
 40
0.0
 40
0.0
 40
0.2
 40
0.2
 40
0.2
 40
0.2
 40
0.4
 40
0.4
 40
0.4
 40
0.4
 40
0.6
 40
0.6
 40
0.6
 40
0.6
 40
1.0
 40
1.0
 40
1.0
 40
1.0
 10
260.8647
 20
-191.4396
 30
0.0
 10
261.9836
 20
-189.6224
 30
0.0
 10
271.5812
 20
-183.124
 30
0.0
 10
274.1713
 20
-180.9874
 30
0.0
 10
274.1713
 20
-180.9874
 30
0.0
 10
274.8928
 20
-180.3642
 30
0.0
 10
278.1608
 20
-177.7881
 30
0.0
 10
279.0304
 20
-177.479
 30
0.0
 10
279.0304
 20
-177.479
 30
0.0
 10
279.0304
 20
-177.479
 30
0.0
 10
278.27
 20
-195.8918
 30
0.0
 10
278.27
 20
-195.8918
 30
0.0
 10
278.27
 20
-195.8918
 30
0.0
 10
272.6455
 20
-194.778
 30
0.0
 10
266.5403
 20
-192.7506
 30
0.0
 10
260.8647
 20
-191.4396
 30
0.0
  0
SPLINE
  5
80
330
1F
100
AcDbEntity
  8
layer 1
 62
     1
370
     9
100
AcDbSpline
210
0.0
220
0.0
230
1.0
 70
    11
 71
     3
 72
    24
 73
    20
 74
     0
 42
0.000000001
 43
0.0000000001
 40
0.0
 40
0.0
 40
0.0
 40
0.0
 40
0.1666666666666667
 40
0.1666666666666667
 40
0.1666666666666667
 40
0.1666666666666667
 40
0.3333333333333333
 40
0.3333333333333333
 40
0.3333333333333333
 40
0.3333333333333333
 40
0.5
 40
0.5
 40
0.5
 40
0.5
 40
0.6666666666666666
 40
0.6666666666666666
 40
0.6666666666666666
 40
0.6666666666666666
 40
1.0
 40
1.0
 40
1.0
 40
1.0
 10
316.0385
 20
-202.4373
 30
0.0
 10
307.8819
 20
-202.4888
 30
0.0
 10
311.331
 20
-203.6097
 30
0.0
 10
305.7882
 20
-196.8187
 30
0.0
 10
305.7882
 20
-196.8187
 30
0.0
 10
303.2464
 20
-193.4509
 30
0.0
 10
296.5265
 20
-185.6969
 30
0.0
 10
294.8966
 20
-182.6225
 30
0.0
 10
294.8966
 20
-182.6225
 30
0.0
 10
296.4397
 20
-182.9881
 30
0.0
 10
298.1583
 20
-184.3674
 30
0.0
 10
299.5443
 20
-185.1168
 30
0.0
 10
299.5443
 20
-185.1168
 30
0.0
 10
299.5443
 20
-185.1168
 30
0.0
 10
329.4787
 20
-202.6745
 30
0.0
 10
329.4787
 20
-202.6745
 30
0.0
 10
329.4787
 20
-202.6745
 30
0.0
 10
327.154
 20
-202.8713
 30
0.0
 10
317.6719
 20
-202.9357
 30
0.0
 10
316.0385
 20
-202.4373
 30
0.0
  0
SPLINE
  5
81
330
1F
100
AcDbEntity
  8
layer 1
 62
     1
370
     9
100
AcDbSpline
210
0.0
220
0.0
230
1.0
 70
    11
 71
     3
 72
    20
 73
    16
 74
     0
 42
0.000000001
 43
0.0000000001
 40
0.0
 40
0.0
 40
0.0
 40
0.0
 40
0.2
 40
0.2
 40
0.2
 40
0.2
 40
0.4
 40
0.4
 40
0.4
 40
0.4
 40
0.6
 40
0.6
 40
0.6
 40
0.6
 40
1.0
 40
1.0
 40
1.0
 40
1.0
 10
255.6514
 20
-187.6614
 30
0.0
 10
251.8378
 20
-190.6506
 30
0.0
 10
242.0588
 20
-186.4733
 30
0.0
 10
236.8066
 20
-185.3214
 30
0.0
 10
236.8066
 20
-185.3214
 30
0.0
 10
238.1195
 20
-183.955
 30
0.0
 10
249.1663
 20
-182.3801
 30
0.0
 10
251.7922
 20
-181.8711
 30
0.0
 10
251.7922
 20
-181.8711
 30
0.0
 10
254.4464
 20
-181.3566
 30
0.0
 10
264.7085
 20
-178.9149
 30
0.0
 10
266.2905
 20
-179.4043
 30
0.0
 10
266.2905
 20
-179.4043
 30
0.0
 10
264.1013
 20
-181.8432
 30
0.0
 10
258.6704
 20
-185.2951
 30
0.0
 10
255.6514
 20
-187.6614
 30
0.0
  0
SPLINE
  5
82
330
1F
100
AcDbEntity
  8
layer 1
 62
     1
370
     9
100
AcDbSpline
210
0.0
220
0.0
230
1.0
 70
    11
 71
     3
 72
    16
 73
    12
 74
     0
 42
0.000000001
 43
0.0000000001
 40
0.0
 40
0.0
 40
0.0
 40
0.0
 40
0.25
 40
0.25
 40
0.25
 40
0.25
 40
0.5
 40
0.5
 40
0.5
 40
0.5
 40
1.0
 40
1.0
 40
1.0
 40
1.0
 10
296.6443
 20
-176.0624
 30
0.0
 10
298.8476
 20
-175.3382
 30
0.0
 10
322.0817
 20
-176.0451
 30
0.0
 10
326.742
 20
-175.9552
 30
0.0
 10
326.742
 20
-175.9552
 30
0.0
 10
327.709
 20
-177.0498
 30
0.0
 10
337.8619
 20
-198.352
 30
0.0
 10
338.416
 20
-200.2697
 30
0.0
 10
338.416
 20
-200.2697
 30
0.0
 10
333.7773
 20
-197.9235
 30
0.0
 10
300.558
 20
-180.2958
 30
0.0
 10
296.6443
 20
-176.0624
 30
0.0
  0
SPLINE
  5
83
330
1F
100
AcDbEntity
  8
layer 1
 62
     1
370
     9
100
AcDbSpline
210
0.0
220
0.0
230
1.0
 70
    11
 71
     3
 72
    16
 73
    12
 74
     0
 42
0.000000001
 43
0.0000000001
 40
0.0
 40
0.0
 40
0.0
 40
0.0
 40
0.25
 40
0.25
 40
0.25
 40
0.25
 40
0.5
 40
0.5
 40
0.5
 40
0.5
 40
1.0
 40
1.0
 40
1.0
 40
1.0
 10
519.3858
 20
-190.0937
 30
0.0
 10
520.2322
 20
-186.048
 30
0.0
 10
527.3452
 20
-177.3125
 30
0.0
 10
528.1959
 20
-173.9451
 30
0.0
 10
528.1959
 20
-173.9451
 30
0.0
 10
528.1959
 20
-173.9451
 30
0.0
 10
525.1077
 20
-186.121
 30
0.0
 10
525.1077
 20
-186.121
 30
0.0
 10
525.1077
 20
-186.121
 30
0.0
 10
524.4707
 20
-188.5627
 30
0.0
 10
521.8051
 20
-189.7221
 30
0.0
 10
519.3858
 20
-190.0937
 30
0.0
  0
SPLINE
  5
84
330
1F
100
AcDbEntity
  8
layer 1
 62
     1
370
     9
100
AcDbSpline
210
0.0
220
0.0
230
1.0
 70
    11
 71
     3
 72
    20
 73
    16
 74
     0
 42
0.000000001
 43
0.0000000001
 40
0.0
 40
0.0
 40
0.0
 40
0.0
 40
0.2
 40
0.2
 40
0.2
 40
0.2
 40
0.4
 40
0.4
 40
0.4
 40
0.4
 40
0.6
 40
0.6
 40
0.6
 40
0.6
 40
1.0
 40
1.0
 40
1.0
 40
1.0
 10
398.6583
 20
-98.0476
 30
0.0
 10
398.9567
 20
-95.2513
 30
0.0
 10
398.8444
 20
-84.4633
 30
0.0
 10
399.8353
 20
-82.9599
 30
0.0
 10
399.8353
 20
-82.9599
 30
0.0
 10
399.8353
 20
-82.9599
 30
0.0
 10
427.5302
 20
-179.6639
 30
0.0
 10
427.5302
 20
-179.6639
 30
0.0
 10
427.5302
 20
-179.6639
 30
0.0
 10
420.9321
 20
-177.7025
 30
0.0
 10
403.2055
 20
-162.2526
 30
0.0
 10
395.5988
 20
-159.5855
 30
0.0
 10
395.5988
 20
-159.5855
 30
0.0
 10
395.5988
 20
-159.5855
 30
0.0
 10
398.6583
 20
-98.0476
 30
0.0
 10
398.6583
 20
-98.0476
 30
0.0
  0
SPLINE
  5
85
330
1F
100
AcDbEntity
  8
layer 1
 62
     1
370
     9
100
AcDbSpline
210
0.0
220
0.0
230
1.0
 70
    11
 71
     3
 72
    28
 73
    24
 74
     0
 42
0.000000001
 43
0.0000000001
 40
0.0
 40
0.0
 40
0.0
 40
0.0
 40
0.1428571428571428
 40
0.1428571428571428
 40
0.1428571428571428
 40
0.1428571428571428
 40
0.2857142857142857
 40
0.2857142857142857
 40
0.2857142857142857
 40
0.2857142857142857
 40
0.4285714285714285
 40
0.4285714285714285
 40
0.4285714285714285
 40
0.4285714285714285
 40
0.5714285714285714
 40
0.5714285714285714
 40
0.5714285714285714
 40
0.5714285714285714
 40
0.7142857142857143
 40
0.7142857142857143
 40
0.7142857142857143
 40
0.7142857142857143
 40
1.0
 40
1.0
 40
1.0
 40
1.0
 10
510.6578
 20
-191.6336
 30
0.0
 10
509.9509
 20
-192.8743
 30
0.0
 10
509.2172
 20
-194.5989
 30
0.0
 10
508.4172
 20
-195.7728
 30
0.0
 10
508.4172
 20
-195.7728
 30
0.0
 10
502.5244
 20
-193.3837
 30
0.0
 10
492.2447
 20
-191.2432
 30
0.0
 10
485.7282
 20
-189.4429
 30
0.0
 10
485.7282
 20
-189.4429
 30
0.0
 10
484.7876
 20
-189.263
 30
0.0
 10
483.5563
 20
-189.0501
 30
0.0
 10
482.8816
 20
-188.3825
 30
0.0
 10
482.8816
 20
-188.3825
 30
0.0
 10
482.8816
 20
-188.3825
 30
0.0
 10
521.5377
 20
-162.6081
 30
0.0
 10
521.5377
 20
-162.6081
 30
0.0
 10
521.5377
 20
-162.6081
 30
0.0
 10
521.5377
 20
-162.6081
 30
0.0
 10
530.1149
 20
-157.1026
 30
0.0
 10
530.1149
 20
-157.1026
 30
0.0
 10
530.1149
 20
-157.1026
 30
0.0
 10
524.9235
 20
-168.3544
 30
0.0
 10
516.8471
 20
-180.7699
 30
0.0
 10
510.6578
 20
-191.6336
 30
0.0
  0
SPLINE
  5
86
330
1F
100
AcDbEntity
  8
layer 1
 62
     1
370
     9
100
AcDbSpline
210
0.0
220
0.0
230
1.0
 70
    11
 71
     3
 72
    36
 73
    32
 74
     0
 42
0.000000001
 43
0.0000000001
 40
0.0
 40
0.0
 40
0.0
 40
0.0
 40
0.1111111111111111
 40
0.1111111111111111
 40
0.1111111111111111
 40
0.1111111111111111
 40
0.2222222222222222
 40
0.2222222222222222
 40
0.2222222222222222
 40
0.2222222222222222
 40
0.3333333333333333
 40
0.3333333333333333
 40
0.3333333333333333
 40
0.3333333333333333
 40
0.4444444444444444
 40
0.4444444444444444
 40
0.4444444444444444
 40
0.4444444444444444
 40
0.5555555555555556
 40
0.5555555555555556
 40
0.5555555555555556
 40
0.5555555555555556
 40
0.6666666666666666
 40
0.6666666666666666
 40
0.6666666666666666
 40
0.6666666666666666
 40
0.7777777777777778
 40
0.7777777777777778
 40
0.7777777777777778
 40
0.7777777777777778
 40
1.0
 40
1.0
 40
1.0
 40
1.0
 10
346.5306
 20
-203.2629
 30
0.0
 10
338.3984
 20
-186.5122
 30
0.0
 10
331.5689
 20
-171.1209
 30
0.0
 10
324.8462
 20
-153.9394
 30
0.0
 10
324.8462
 20
-153.9394
 30
0.0
 10
324.8462
 20
-153.9394
 30
0.0
 10
321.3924
 20
-145.2294
 30
0.0
 10
321.3924
 20
-145.2294
 30
0.0
 10
321.3924
 20
-145.2294
 30
0.0
 10
322.8849
 20
-146.1709
 30
0.0
 10
325.1483
 20
-149.6734
 30
0.0
 10
326.4659
 20
-150.8665
 30
0.0
 10
326.4659
 20
-150.8665
 30
0.0
 10
329.5254
 20
-153.6374
 30
0.0
 10
337.0772
 20
-163.3716
 30
0.0
 10
340.1551
 20
-166.437
 30
0.0
 10
340.1551
 20
-166.437
 30
0.0
 10
341.0537
 20
-167.3313
 30
0.0
 10
341.1052
 20
-167.4581
 30
0.0
 10
341.8262
 20
-168.4372
 30
0.0
 10
341.8262
 20
-168.4372
 30
0.0
 10
341.8262
 20
-168.4372
 30
0.0
 10
352.0667
 20
-180.1289
 30
0.0
 10
352.0667
 20
-180.1289
 30
0.0
 10
352.0667
 20
-180.1289
 30
0.0
 10
352.0667
 20
-180.1289
 30
0.0
 10
375.6072
 20
-207.5257
 30
0.0
 10
375.6072
 20
-207.5257
 30
0.0
 10
375.6072
 20
-207.5257
 30
0.0
 10
366.7605
 20
-206.9005
 30
0.0
 10
355.0115
 20
-204.7463
 30
0.0
 10
346.5306
 20
-203.2629
 30
0.0
  0
SPLINE
  5
87
330
1F
100
AcDbEntity
  8
layer 1
 62
     1
370
     9
100
AcDbSpline
210
0.0
220
0.0
230
1.0
 70
    11
 71
     3
 72
    68
 73
    64
 74
     0
 42
0.000000001
 43
0.0000000001
 40
0.0
 40
0.0
 40
0.0
 40
0.0
 40
0.0588235294117647
 40
0.0588235294117647
 40
0.0588235294117647
 40
0.0588235294117647
 40
0.1176470588235294
 40
0.1176470588235294
 40
0.1176470588235294
 40
0.1176470588235294
 40
0.1764705882352941
 40
0.1764705882352941
 40
0.1764705882352941
 40
0.1764705882352941
 40
0.2352941176470588
 40
0.2352941176470588
 40
0.2352941176470588
 40
0.2352941176470588
 40
0.2941176470588235
 40
0.2941176470588235
 40
0.2941176470588235
 40
0.2941176470588235
 40
0.3529411764705883
 40
0.3529411764705883
 40
0.3529411764705883
 40
0.3529411764705883
 40
0.4117647058823529
 40
0.4117647058823529
 40
0.4117647058823529
 40
0.4117647058823529
 40
0.4705882352941176
 40
0.4705882352941176
 40
0.4705882352941176
 40
0.4705882352941176
 40
0.5294117647058824
 40
0.5294117647058824
 40
0.5294117647058824
 40
0.5294117647058824
 40
0.5882352941176471
 40
0.5882352941176471
 40
0.5882352941176471
 40
0.5882352941176471
 40
0.6470588235294118
 40
0.6470588235294118
 40
0.6470588235294118
 40
0.6470588235294118
 40
0.7058823529411765
 40
0.7058823529411765
 40
0.7058823529411765
 40
0.7058823529411765
 40
0.7647058823529411
 40
0.7647058823529411
 40
0.7647058823529411
 40
0.7647058823529411
 40
0.8235294117647058
 40
0.8235294117647058
 40
0.8235294117647058
 40
0.8235294117647058
 40
0.8823529411764706
 40
0.8823529411764706
 40
0.8823529411764706
 40
0.8823529411764706
 40
1.0
 40
1.0
 40
1.0
 40
1.0
 10
357.4206
 20
-69.4219
 30
0.0
 10
357.7301
 20
-68.6222
 30
0.0
 10
359.0859
 20
-66.9621
 30
0.0
 10
359.8062
 20
-66.5293
 30
0.0
 10
359.8062
 20
-66.5293
 30
0.0
 10
360.1962
 20
-65.2325
 30
0.0
 10
361.6812
 20
-63.7899
 30
0.0
 10
362.6147
 20
-62.8567
 30
0.0
 10
362.6147
 20
-62.8567
 30
0.0
 10
362.6147
 20
-62.8567
 30
0.0
 10
379.9447
 20
-128.3335
 30
0.0
 10
379.9447
 20
-128.3335
 30
0.0
 10
379.9447
 20
-128.3335
 30
0.0
 10
381.4171
 20
-133.7903
 30
0.0
 10
382.6558
 20
-139.5008
 30
0.0
 10
384.281
 20
-144.8932
 30
0.0
 10
384.281
 20
-144.8932
 30
0.0
 10
389.9624
 20
-163.7486
 30
0.0
 10
389.0623
 20
-160.2017
 30
0.0
 10
386.3213
 20
-179.3878
 30
0.0
 10
386.3213
 20
-179.3878
 30
0.0
 10
385.9879
 20
-181.7235
 30
0.0
 10
385.3029
 20
-191.1407
 30
0.0
 10
383.8698
 20
-192.5342
 30
0.0
 10
383.8698
 20
-192.5342
 30
0.0
 10
383.8698
 20
-192.5342
 30
0.0
 10
379.1961
 20
-197.4895
 30
0.0
 10
379.1961
 20
-197.4895
 30
0.0
 10
379.1961
 20
-197.4895
 30
0.0
 10
378.4393
 20
-198.2824
 30
0.0
 10
377.9727
 20
-199.1355
 30
0.0
 10
377.0698
 20
-199.7831
 30
0.0
 10
377.0698
 20
-199.7831
 30
0.0
 10
375.9481
 20
-199.238
 30
0.0
 10
371.9385
 20
-194.0368
 30
0.0
 10
370.9154
 20
-192.87
 30
0.0
 10
370.9154
 20
-192.87
 30
0.0
 10
370.9154
 20
-192.87
 30
0.0
 10
361.1097
 20
-181.7333
 30
0.0
 10
361.1097
 20
-181.7333
 30
0.0
 10
361.1097
 20
-181.7333
 30
0.0
 10
361.1097
 20
-181.7333
 30
0.0
 10
355.4377
 20
-175.0982
 30
0.0
 10
355.4377
 20
-175.0982
 30
0.0
 10
355.4377
 20
-175.0982
 30
0.0
 10
354.499
 20
-174.1218
 30
0.0
 10
354.3117
 20
-173.6132
 30
0.0
 10
353.4999
 20
-172.7083
 30
0.0
 10
353.4999
 20
-172.7083
 30
0.0
 10
353.4999
 20
-172.7083
 30
0.0
 10
316.8955
 20
-130.5065
 30
0.0
 10
316.8955
 20
-130.5065
 30
0.0
 10
316.8955
 20
-130.5065
 30
0.0
 10
315.6968
 20
-129.1378
 30
0.0
 10
313.7928
 20
-127.105
 30
0.0
 10
313.3486
 20
-125.9106
 30
0.0
 10
313.3486
 20
-125.9106
 30
0.0
 10
314.1243
 20
-124.8109
 30
0.0
 10
315.3052
 20
-123.4347
 30
0.0
 10
316.1002
 20
-122.4242
 30
0.0
 10
316.1002
 20
-122.4242
 30
0.0
 10
316.1002
 20
-122.4242
 30
0.0
 10
357.4206
 20
-69.4219
 30
0.0
 10
357.4206
 20
-69.4219
 30
0.0
  0
SPLINE
  5
88
330
1F
100
AcDbEntity
  8
layer 1
 62
     1
370
     9
100
AcDbSpline
210
0.0
220
0.0
230
1.0
 70
    11
 71
     3
 72
    32
 73
    28
 74
     0
 42
0.000000001
 43
0.0000000001
 40
0.0
 40
0.0
 40
0.0
 40
0.0
 40
0.125
 40
0.125
 40
0.125
 40
0.125
 40
0.25
 40
0.25
 40
0.25
 40
0.25
 40
0.375
 40
0.375
 40
0.375
 40
0.375
 40
0.5
 40
0.5
 40
0.5
 40
0.5
 40
0.625
 40
0.625
 40
0.625
 40
0.625
 40
0.75
 40
0.75
 40
0.75
 40
0.75
 40
1.0
 40
1.0
 40
1.0
 40
1.0
 10
486.8605
 20
-177.7371
 30
0.0
 10
487.7363
 20
-176.1307
 30
0.0
 10
490.1749
 20
-171.6291
 30
0.0
 10
491.6112
 20
-170.7529
 30
0.0
 10
491.6112
 20
-170.7529
 30
0.0
 10
491.7726
 20
-169.762
 30
0.0
 10
491.7294
 20
-170.1201
 30
0.0
 10
492.7101
 20
-168.6788
 30
0.0
 10
492.7101
 20
-168.6788
 30
0.0
 10
492.7101
 20
-168.6788
 30
0.0
 10
533.3943
 20
-108.2421
 30
0.0
 10
533.3943
 20
-108.2421
 30
0.0
 10
533.3943
 20
-108.2421
 30
0.0
 10
535.2893
 20
-104.6316
 30
0.0
 10
538.8668
 20
-99.4525
 30
0.0
 10
541.2492
 20
-96.3588
 30
0.0
 10
541.2492
 20
-96.3588
 30
0.0
 10
541.2492
 20
-96.3588
 30
0.0
 10
535.8219
 20
-143.6522
 30
0.0
 10
535.8219
 20
-143.6522
 30
0.0
 10
535.8219
 20
-143.6522
 30
0.0
 10
535.6494
 20
-145.2679
 30
0.0
 10
535.6891
 20
-145.4333
 30
0.0
 10
534.699
 20
-146.1763
 30
0.0
 10
534.699
 20
-146.1763
 30
0.0
 10
520.6933
 20
-156.6921
 30
0.0
 10
501.8642
 20
-167.7652
 30
0.0
 10
486.8605
 20
-177.7371
 30
0.0
  0
SPLINE
  5
89
330
1F
100
AcDbEntity
  8
layer 1
 62
     1
370
     9
100
AcDbSpline
210
0.0
220
0.0
230
1.0
 70
    11
 71
     3
 72
    32
 73
    28
 74
     0
 42
0.000000001
 43
0.0000000001
 40
0.0
 40
0.0
 40
0.0
 40
0.0
 40
0.125
 40
0.125
 40
0.125
 40
0.125
 40
0.25
 40
0.25
 40
0.25
 40
0.25
 40
0.375
 40
0.375
 40
0.375
 40
0.375
 40
0.5
 40
0.5
 40
0.5
 40
0.5
 40
0.625
 40
0.625
 40
0.625
 40
0.625
 40
0.75
 40
0.75
 40
0.75
 40
0.75
 40
1.0
 40
1.0
 40
1.0
 40
1.0
 10
484.9553
 20
-166.4621
 30
0.0
 10
484.8701
 20
-165.516
 30
0.0
 10
484.7821
 20
-164.7544
 30
0.0
 10
485.5617
 20
-163.6434
 30
0.0
 10
485.5617
 20
-163.6434
 30
0.0
 10
485.2326
 20
-161.7927
 30
0.0
 10
505.4967
 20
-68.8253
 30
0.0
 10
508.0299
 20
-55.5029
 30
0.0
 10
508.0299
 20
-55.5029
 30
0.0
 10
508.0299
 20
-55.5029
 30
0.0
 10
508.3752
 20
-53.3369
 30
0.0
 10
508.3752
 20
-53.3369
 30
0.0
 10
508.3752
 20
-53.3369
 30
0.0
 10
509.3099
 20
-54.0741
 30
0.0
 10
541.79
 20
-79.3831
 30
0.0
 10
543.1784
 20
-81.3091
 30
0.0
 10
543.1784
 20
-81.3091
 30
0.0
 10
542.6659
 20
-83.2014
 30
0.0
 10
540.7579
 20
-85.3917
 30
0.0
 10
539.7438
 20
-87.0279
 30
0.0
 10
539.7438
 20
-87.0279
 30
0.0
 10
539.7438
 20
-87.0279
 30
0.0
 10
483.933
 20
-170.3876
 30
0.0
 10
483.933
 20
-170.3876
 30
0.0
 10
483.933
 20
-170.3876
 30
0.0
 10
484.0822
 20
-168.9714
 30
0.0
 10
484.0952
 20
-167.4302
 30
0.0
 10
484.9553
 20
-166.4621
 30
0.0
  0
SPLINE
  5
8A
330
1F
100
AcDbEntity
  8
layer 1
 62
     1
370
     9
100
AcDbSpline
210
0.0
220
0.0
230
1.0
 70
    11
 71
     3
 72
    32
 73
    28
 74
     0
 42
0.000000001
 43
0.0000000001
 40
0.0
 40
0.0
 40
0.0
 40
0.0
 40
0.125
 40
0.125
 40
0.125
 40
0.125
 40
0.25
 40
0.25
 40
0.25
 40
0.25
 40
0.375
 40
0.375
 40
0.375
 40
0.375
 40
0.5
 40
0.5
 40
0.5
 40
0.5
 40
0.625
 40
0.625
 40
0.625
 40
0.625
 40
0.75
 40
0.75
 40
0.75
 40
0.75
 40
1.0
 40
1.0
 40
1.0
 40
1.0
 10
424.3062
 20
-148.481
 30
0.0
 10
424.3062
 20
-148.481
 30
0.0
 10
405.3903
 20
-82.4053
 30
0.0
 10
405.3903
 20
-82.4053
 30
0.0
 10
405.3903
 20
-82.4053
 30
0.0
 10
405.0129
 20
-81.8657
 30
0.0
 10
405.5081
 20
-82.8829
 30
0.0
 10
404.9634
 20
-81.6756
 30
0.0
 10
404.9634
 20
-81.6756
 30
0.0
 10
404.9634
 20
-81.6756
 30
0.0
 10
402.8367
 20
-73.4931
 30
0.0
 10
402.8367
 20
-73.4931
 30
0.0
 10
402.8367
 20
-73.4931
 30
0.0
 10
402.8367
 20
-73.4931
 30
0.0
 10
414.1961
 20
-81.7522
 30
0.0
 10
414.1961
 20
-81.7522
 30
0.0
 10
414.1961
 20
-81.7522
 30
0.0
 10
417.8859
 20
-84.6534
 30
0.0
 10
421.8927
 20
-87.3814
 30
0.0
 10
425.5696
 20
-90.219
 30
0.0
 10
425.5696
 20
-90.219
 30
0.0
 10
425.5696
 20
-90.219
 30
0.0
 10
427.4752
 20
-159.6417
 30
0.0
 10
427.4752
 20
-159.6417
 30
0.0
 10
427.4752
 20
-159.6417
 30
0.0
 10
427.4752
 20
-159.6417
 30
0.0
 10
424.3062
 20
-148.481
 30
0.0
 10
424.3062
 20
-148.481
 30
0.0
  0
SPLINE
  5
8B
330
1F
100
AcDbEntity
  8
layer 1
 62
     1
370
     9
100
AcDbSpline
210
0.0
220
0.0
230
1.0
 70
    11
 71
     3
 72
    24
 73
    20
 74
     0
 42
0.000000001
 43
0.0000000001
 40
0.0
 40
0.0
 40
0.0
 40
0.0
 40
0.1666666666666667
 40
0.1666666666666667
 40
0.1666666666666667
 40
0.1666666666666667
 40
0.3333333333333333
 40
0.3333333333333333
 40
0.3333333333333333
 40
0.3333333333333333
 40
0.5
 40
0.5
 40
0.5
 40
0.5
 40
0.6666666666666666
 40
0.6666666666666666
 40
0.6666666666666666
 40
0.6666666666666666
 40
1.0
 40
1.0
 40
1.0
 40
1.0
 10
417.6032
 20
-21.4758
 30
0.0
 10
417.6032
 20
-21.4758
 30
0.0
 10
422.7364
 20
-8.4362
 30
0.0
 10
422.7364
 20
-8.4362
 30
0.0
 10
422.7364
 20
-8.4362
 30
0.0
 10
422.7364
 20
-8.4362
 30
0.0
 10
425.2983
 20
-82.9995
 30
0.0
 10
425.2983
 20
-82.9995
 30
0.0
 10
425.2983
 20
-82.9995
 30
0.0
 10
419.354
 20
-80.1824
 30
0.0
 10
406.5002
 20
-69.2345
 30
0.0
 10
401.1459
 20
-65.3224
 30
0.0
 10
401.1459
 20
-65.3224
 30
0.0
 10
401.6502
 20
-62.6281
 30
0.0
 10
404.0491
 20
-57.1214
 30
0.0
 10
405.1704
 20
-54.1963
 30
0.0
 10
405.1704
 20
-54.1963
 30
0.0
 10
408.9804
 20
-44.2555
 30
0.0
 10
414.4918
 20
-30.6994
 30
0.0
 10
417.6032
 20
-21.4758
 30
0.0
  0
SPLINE
  5
8C
330
1F
100
AcDbEntity
  8
layer 1
 62
     1
370
     9
100
AcDbSpline
210
0.0
220
0.0
230
1.0
 70
    11
 71
     3
 72
    40
 73
    36
 74
     0
 42
0.000000001
 43
0.0000000001
 40
0.0
 40
0.0
 40
0.0
 40
0.0
 40
0.1
 40
0.1
 40
0.1
 40
0.1
 40
0.2
 40
0.2
 40
0.2
 40
0.2
 40
0.3
 40
0.3
 40
0.3
 40
0.3
 40
0.4
 40
0.4
 40
0.4
 40
0.4
 40
0.5
 40
0.5
 40
0.5
 40
0.5
 40
0.6
 40
0.6
 40
0.6
 40
0.6
 40
0.7
 40
0.7
 40
0.7
 40
0.7
 40
0.8
 40
0.8
 40
0.8
 40
0.8
 40
1.0
 40
1.0
 40
1.0
 40
1.0
 10
388.2799
 20
-128.4403
 30
0.0
 10
388.2799
 20
-128.4403
 30
0.0
 10
383.1986
 20
-108.7935
 30
0.0
 10
383.1986
 20
-108.7935
 30
0.0
 10
383.1986
 20
-108.7935
 30
0.0
 10
381.8978
 20
-103.9255
 30
0.0
 10
380.7565
 20
-99.1524
 30
0.0
 10
379.3932
 20
-94.2961
 30
0.0
 10
379.3932
 20
-94.2961
 30
0.0
 10
378.4271
 20
-90.8541
 30
0.0
 10
371.9409
 20
-67.0815
 30
0.0
 10
372.1404
 20
-65.5305
 30
0.0
 10
372.1404
 20
-65.5305
 30
0.0
 10
371.7119
 20
-64.9563
 30
0.0
 10
372.2417
 20
-65.9846
 30
0.0
 10
371.677
 20
-64.7812
 30
0.0
 10
371.677
 20
-64.7812
 30
0.0
 10
371.0796
 20
-63.5087
 30
0.0
 10
371.2921
 20
-62.2024
 30
0.0
 10
371.2689
 20
-62.1423
 30
0.0
 10
371.2689
 20
-62.1423
 30
0.0
 10
370.7171
 20
-61.5579
 30
0.0
 10
370.7524
 20
-61.0729
 30
0.0
 10
370.6267
 20
-60.0753
 30
0.0
 10
370.6267
 20
-60.0753
 30
0.0
 10
370.6267
 20
-60.0753
 30
0.0
 10
394.5442
 20
-68.1733
 30
0.0
 10
394.5442
 20
-68.1733
 30
0.0
 10
394.5442
 20
-68.1733
 30
0.0
 10
394.5442
 20
-68.1733
 30
0.0
 10
391.0975
 20
-138.6604
 30
0.0
 10
391.0975
 20
-138.6604
 30
0.0
 10
391.0975
 20
-138.6604
 30
0.0
 10
391.0975
 20
-138.6604
 30
0.0
 10
388.2799
 20
-128.4403
 30
0.0
 10
388.2799
 20
-128.4403
 30
0.0
  0
SPLINE
  5
8D
330
1F
100
AcDbEntity
  8
layer 1
 62
     1
370
     9
100
AcDbSpline
210
0.0
220
0.0
230
1.0
 70
    11
 71
     3
 72
    32
 73
    28
 74
     0
 42
0.000000001
 43
0.0000000001
 40
0.0
 40
0.0
 40
0.0
 40
0.0
 40
0.125
 40
0.125
 40
0.125
 40
0.125
 40
0.25
 40
0.25
 40
0.25
 40
0.25
 40
0.375
 40
0.375
 40
0.375
 40
0.375
 40
0.5
 40
0.5
 40
0.5
 40
0.5
 40
0.625
 40
0.625
 40
0.625
 40
0.625
 40
0.75
 40
0.75
 40
0.75
 40
0.75
 40
1.0
 40
1.0
 40
1.0
 40
1.0
 10
315.96
 20
-109.5083
 30
0.0
 10
315.7518
 20
-107.8565
 30
0.0
 10
321.7628
 20
-62.8182
 30
0.0
 10
322.5004
 20
-57.0386
 30
0.0
 10
322.5004
 20
-57.0386
 30
0.0
 10
323.4406
 20
-49.6679
 30
0.0
 10
328.875
 20
-10.577
 30
0.0
 10
329.1735
 20
-4.3909
 30
0.0
 10
329.1735
 20
-4.3909
 30
0.0
 10
329.3471
 20
-2.371
 30
0.0
 10
330.3341
 20
5.652
 30
0.0
 10
330.9739
 20
6.5459
 30
0.0
 10
330.9739
 20
6.5459
 30
0.0
 10
330.9739
 20
6.5459
 30
0.0
 10
355.6128
 20
-42.9205
 30
0.0
 10
355.6128
 20
-42.9205
 30
0.0
 10
355.6128
 20
-42.9205
 30
0.0
 10
357.035
 20
-45.6089
 30
0.0
 10
361.7303
 20
-53.6531
 30
0.0
 10
360.8289
 20
-55.7606
 30
0.0
 10
360.8289
 20
-55.7606
 30
0.0
 10
360.8289
 20
-55.7606
 30
0.0
 10
315.2624
 20
-114.5339
 30
0.0
 10
315.2624
 20
-114.5339
 30
0.0
 10
315.2624
 20
-114.5339
 30
0.0
 10
315.2196
 20
-112.9547
 30
0.0
 10
315.3826
 20
-110.6654
 30
0.0
 10
315.96
 20
-109.5083
 30
0.0
  0
SPLINE
  5
8E
330
1F
100
AcDbEntity
  8
layer 1
 62
     1
370
     9
100
AcDbSpline
210
0.0
220
0.0
230
1.0
 70
    11
 71
     3
 72
    36
 73
    32
 74
     0
 42
0.000000001
 43
0.0000000001
 40
0.0
 40
0.0
 40
0.0
 40
0.0
 40
0.1111111111111111
 40
0.1111111111111111
 40
0.1111111111111111
 40
0.1111111111111111
 40
0.2222222222222222
 40
0.2222222222222222
 40
0.2222222222222222
 40
0.2222222222222222
 40
0.3333333333333333
 40
0.3333333333333333
 40
0.3333333333333333
 40
0.3333333333333333
 40
0.4444444444444444
 40
0.4444444444444444
 40
0.4444444444444444
 40
0.4444444444444444
 40
0.5555555555555556
 40
0.5555555555555556
 40
0.5555555555555556
 40
0.5555555555555556
 40
0.6666666666666666
 40
0.6666666666666666
 40
0.6666666666666666
 40
0.6666666666666666
 40
0.7777777777777778
 40
0.7777777777777778
 40
0.7777777777777778
 40
0.7777777777777778
 40
1.0
 40
1.0
 40
1.0
 40
1.0
 10
371.3651
 20
-31.97
 30
0.0
 10
371.3651
 20
-31.97
 30
0.0
 10
373.0795
 20
-18.5734
 30
0.0
 10
373.0795
 20
-18.5734
 30
0.0
 10
373.0795
 20
-18.5734
 30
0.0
 10
373.8689
 20
-19.3977
 30
0.0
 10
381.3574
 20
-36.9951
 30
0.0
 10
382.8954
 20
-39.9164
 30
0.0
 10
382.8954
 20
-39.9164
 30
0.0
 10
384.1973
 20
-42.3883
 30
0.0
 10
391.8146
 20
-59.2992
 30
0.0
 10
392.1838
 20
-61.2009
 30
0.0
 10
392.1838
 20
-61.2009
 30
0.0
 10
390.7664
 20
-61.0348
 30
0.0
 10
388.6723
 20
-60.5403
 30
0.0
 10
387.6837
 20
-59.5706
 30
0.0
 10
387.6837
 20
-59.5706
 30
0.0
 10
387.6837
 20
-59.5706
 30
0.0
 10
383.8419
 20
-58.6111
 30
0.0
 10
383.8419
 20
-58.6111
 30
0.0
 10
383.8419
 20
-58.6111
 30
0.0
 10
382.6868
 20
-58.1497
 30
0.0
 10
383.3054
 20
-58.4646
 30
0.0
 10
382.7438
 20
-57.9046
 30
0.0
 10
382.7438
 20
-57.9046
 30
0.0
 10
381.0624
 20
-57.8575
 30
0.0
 10
371.5843
 20
-54.3498
 30
0.0
 10
369.3393
 20
-53.461
 30
0.0
 10
369.3393
 20
-53.461
 30
0.0
 10
368.9544
 20
-50.3501
 30
0.0
 10
371.3117
 20
-36.9559
 30
0.0
 10
371.3651
 20
-31.97
 30
0.0
  0
SPLINE
  5
8F
330
1F
100
AcDbEntity
  8
layer 1
 62
     1
370
     9
100
AcDbSpline
210
0.0
220
0.0
230
1.0
 70
    11
 71
     3
 72
    28
 73
    24
 74
     0
 42
0.000000001
 43
0.0000000001
 40
0.0
 40
0.0
 40
0.0
 40
0.0
 40
0.1428571428571428
 40
0.1428571428571428
 40
0.1428571428571428
 40
0.1428571428571428
 40
0.2857142857142857
 40
0.2857142857142857
 40
0.2857142857142857
 40
0.2857142857142857
 40
0.4285714285714285
 40
0.4285714285714285
 40
0.4285714285714285
 40
0.4285714285714285
 40
0.5714285714285714
 40
0.5714285714285714
 40
0.5714285714285714
 40
0.5714285714285714
 40
0.7142857142857143
 40
0.7142857142857143
 40
0.7142857142857143
 40
0.7142857142857143
 40
1.0
 40
1.0
 40
1.0
 40
1.0
 10
437.158
 20
-185.464
 30
0.0
 10
437.3473
 20
-182.2069
 30
0.0
 10
441.9275
 20
-162.0739
 30
0.0
 10
442.9691
 20
-156.7915
 30
0.0
 10
442.9691
 20
-156.7915
 30
0.0
 10
450.8221
 20
-116.9694
 30
0.0
 10
449.6678
 20
-133.916
 30
0.0
 10
448.1369
 20
-95.5977
 30
0.0
 10
448.1369
 20
-95.5977
 30
0.0
 10
447.6872
 20
-84.3408
 30
0.0
 10
445.5349
 20
-66.3325
 30
0.0
 10
446.6531
 20
-55.4798
 30
0.0
 10
446.6531
 20
-55.4798
 30
0.0
 10
454.3878
 20
-53.6299
 30
0.0
 10
464.4225
 20
-49.7885
 30
0.0
 10
472.1058
 20
-48.7398
 30
0.0
 10
472.1058
 20
-48.7398
 30
0.0
 10
472.1058
 20
-48.7398
 30
0.0
 10
449.4329
 20
-191.0147
 30
0.0
 10
449.4329
 20
-191.0147
 30
0.0
 10
449.4329
 20
-191.0147
 30
0.0
 10
445.853
 20
-189.4892
 30
0.0
 10
440.124
 20
-186.3076
 30
0.0
 10
437.158
 20
-185.464
 30
0.0
  0
SPLINE
  5
90
330
1F
100
AcDbEntity
  8
layer 1
 62
     1
370
     9
100
AcDbSpline
210
0.0
220
0.0
230
1.0
 70
    11
 71
     3
 72
    48
 73
    44
 74
     0
 42
0.000000001
 43
0.0000000001
 40
0.0
 40
0.0
 40
0.0
 40
0.0
 40
0.0833333333333333
 40
0.0833333333333333
 40
0.0833333333333333
 40
0.0833333333333333
 40
0.1666666666666667
 40
0.1666666666666667
 40
0.1666666666666667
 40
0.1666666666666667
 40
0.25
 40
0.25
 40
0.25
 40
0.25
 40
0.3333333333333333
 40
0.3333333333333333
 40
0.3333333333333333
 40
0.3333333333333333
 40
0.4166666666666667
 40
0.4166666666666667
 40
0.4166666666666667
 40
0.4166666666666667
 40
0.5
 40
0.5
 40
0.5
 40
0.5
 40
0.5833333333333334
 40
0.5833333333333334
 40
0.5833333333333334
 40
0.5833333333333334
 40
0.6666666666666666
 40
0.6666666666666666
 40
0.6666666666666666
 40
0.6666666666666666
 40
0.75
 40
0.75
 40
0.75
 40
0.75
 40
0.8333333333333334
 40
0.8333333333333334
 40
0.8333333333333334
 40
0.8333333333333334
 40
1.0
 40
1.0
 40
1.0
 40
1.0
 10
459.045
 20
-208.9805
 30
0.0
 10
458.8687
 20
-207.8741
 30
0.0
 10
457.9858
 20
-205.7564
 30
0.0
 10
457.5911
 20
-204.6347
 30
0.0
 10
457.5911
 20
-204.6347
 30
0.0
 10
454.8929
 20
-196.9644
 30
0.0
 10
454.3289
 20
-196.9208
 30
0.0
 10
455.3088
 20
-190.7704
 30
0.0
 10
455.3088
 20
-190.7704
 30
0.0
 10
455.3088
 20
-190.7704
 30
0.0
 10
474.5876
 20
-69.7435
 30
0.0
 10
474.5876
 20
-69.7435
 30
0.0
 10
474.5876
 20
-69.7435
 30
0.0
 10
474.5876
 20
-69.7435
 30
0.0
 10
478.0724
 20
-48.0565
 30
0.0
 10
478.0724
 20
-48.0565
 30
0.0
 10
478.0724
 20
-48.0565
 30
0.0
 10
478.905
 20
-47.586
 30
0.0
 10
478.3391
 20
-47.668
 30
0.0
 10
480.5978
 20
-47.833
 30
0.0
 10
480.5978
 20
-47.833
 30
0.0
 10
480.5978
 20
-47.833
 30
0.0
 10
500.2198
 20
-49.2543
 30
0.0
 10
500.2198
 20
-49.2543
 30
0.0
 10
500.2198
 20
-49.2543
 30
0.0
 10
498.3833
 20
-60.6703
 30
0.0
 10
494.1263
 20
-79.7417
 30
0.0
 10
491.5758
 20
-91.7699
 30
0.0
 10
491.5758
 20
-91.7699
 30
0.0
 10
485.6387
 20
-119.7673
 30
0.0
 10
480.1477
 20
-147.8349
 30
0.0
 10
473.8508
 20
-175.7671
 30
0.0
 10
473.8508
 20
-175.7671
 30
0.0
 10
471.8065
 20
-184.8344
 30
0.0
 10
472.0638
 20
-186.9544
 30
0.0
 10
468.3225
 20
-195.5144
 30
0.0
 10
468.3225
 20
-195.5144
 30
0.0
 10
467.2766
 20
-197.9078
 30
0.0
 10
461.2809
 20
-211.9909
 30
0.0
 10
460.4102
 20
-213.0206
 30
0.0
 10
460.4102
 20
-213.0206
 30
0.0
 10
460.4102
 20
-213.0206
 30
0.0
 10
459.045
 20
-208.9805
 30
0.0
 10
459.045
 20
-208.9805
 30
0.0
  0
SPLINE
  5
91
330
1F
100
AcDbEntity
  8
layer 1
 62
     1
370
     9
100
AcDbSpline
210
0.0
220
0.0
230
1.0
 70
    11
 71
     3
 72
    32
 73
    28
 74
     0
 42
0.000000001
 43
0.0000000001
 40
0.0
 40
0.0
 40
0.0
 40
0.0
 40
0.125
 40
0.125
 40
0.125
 40
0.125
 40
0.25
 40
0.25
 40
0.25
 40
0.25
 40
0.375
 40
0.375
 40
0.375
 40
0.375
 40
0.5
 40
0.5
 40
0.5
 40
0.5
 40
0.625
 40
0.625
 40
0.625
 40
0.625
 40
0.75
 40
0.75
 40
0.75
 40
0.75
 40
1.0
 40
1.0
 40
1.0
 40
1.0
 10
517.0576
 20
-44.2252
 30
0.0
 10
518.6408
 20
-43.1173
 30
0.0
 10
519.1537
 20
-42.6531
 30
0.0
 10
521.0534
 20
-41.9622
 30
0.0
 10
521.0534
 20
-41.9622
 30
0.0
 10
521.9387
 20
-43.0105
 30
0.0
 10
534.2285
 20
-65.3208
 30
0.0
 10
534.7116
 20
-67.0862
 30
0.0
 10
534.7116
 20
-67.0862
 30
0.0
 10
532.2538
 20
-65.6311
 30
0.0
 10
526.8068
 20
-60.7477
 30
0.0
 10
523.8588
 20
-58.5526
 30
0.0
 10
523.8588
 20
-58.5526
 30
0.0
 10
522.8117
 20
-57.7872
 30
0.0
 10
522.2595
 20
-57.3547
 30
0.0
 10
521.3264
 20
-56.4777
 30
0.0
 10
521.3264
 20
-56.4777
 30
0.0
 10
519.9745
 20
-55.5783
 30
0.0
 10
512.0183
 20
-49.3411
 30
0.0
 10
511.6385
 20
-48.2901
 30
0.0
 10
511.6385
 20
-48.2901
 30
0.0
 10
511.1644
 20
-48.0667
 30
0.0
 10
511.1955
 20
-48.2033
 30
0.0
 10
510.6825
 20
-47.7242
 30
0.0
 10
510.6825
 20
-47.7242
 30
0.0
 10
510.6825
 20
-47.7242
 30
0.0
 10
517.0576
 20
-44.2252
 30
0.0
 10
517.0576
 20
-44.2252
 30
0.0
  0
SPLINE
  5
92
330
1F
100
AcDbEntity
  8
layer 1
 62
     1
370
     9
100
AcDbSpline
210
0.0
220
0.0
230
1.0
 70
    11
 71
     3
 72
    28
 73
    24
 74
     0
 42
0.000000001
 43
0.0000000001
 40
0.0
 40
0.0
 40
0.0
 40
0.0
 40
0.1428571428571428
 40
0.1428571428571428
 40
0.1428571428571428
 40
0.1428571428571428
 40
0.2857142857142857
 40
0.2857142857142857
 40
0.2857142857142857
 40
0.2857142857142857
 40
0.4285714285714285
 40
0.4285714285714285
 40
0.4285714285714285
 40
0.4285714285714285
 40
0.5714285714285714
 40
0.5714285714285714
 40
0.5714285714285714
 40
0.5714285714285714
 40
0.7142857142857143
 40
0.7142857142857143
 40
0.7142857142857143
 40
0.7142857142857143
 40
1.0
 40
1.0
 40
1.0
 40
1.0
 10
466.3823
 20
-44.3101
 30
0.0
 10
466.3823
 20
-44.3101
 30
0.0
 10
446.419
 20
-49.2465
 30
0.0
 10
446.419
 20
-49.2465
 30
0.0
 10
446.419
 20
-49.2465
 30
0.0
 10
445.8098
 20
-37.0211
 30
0.0
 10
446.6916
 20
-21.7236
 30
0.0
 10
446.8655
 20
-8.9212
 30
0.0
 10
446.8655
 20
-8.9212
 30
0.0
 10
446.8655
 20
-8.9212
 30
0.0
 10
447.1075
 20
0.6382
 30
0.0
 10
447.1075
 20
0.6382
 30
0.0
 10
447.1075
 20
0.6382
 30
0.0
 10
448.1918
 20
-0.1905
 30
0.0
 10
455.4172
 20
-13.8274
 30
0.0
 10
456.4022
 20
-15.6105
 30
0.0
 10
456.4022
 20
-15.6105
 30
0.0
 10
458.8117
 20
-19.9719
 30
0.0
 10
470.7591
 20
-40.6249
 30
0.0
 10
471.1019
 20
-42.8388
 30
0.0
 10
471.1019
 20
-42.8388
 30
0.0
 10
471.1019
 20
-42.8388
 30
0.0
 10
466.3823
 20
-44.3101
 30
0.0
 10
466.3823
 20
-44.3101
 30
0.0
  0
SPLINE
  5
93
330
1F
100
AcDbEntity
  8
layer 1
 62
     1
370
     9
100
AcDbSpline
210
0.0
220
0.0
230
1.0
 70
    11
 71
     3
 72
    16
 73
    12
 74
     0
 42
0.000000001
 43
0.0000000001
 40
0.0
 40
0.0
 40
0.0
 40
0.0
 40
0.25
 40
0.25
 40
0.25
 40
0.25
 40
0.5
 40
0.5
 40
0.5
 40
0.5
 40
1.0
 40
1.0
 40
1.0
 40
1.0
 10
499.0592
 20
-19.6436
 30
0.0
 10
499.0592
 20
-19.6436
 30
0.0
 10
500.6455
 20
-43.6259
 30
0.0
 10
500.6455
 20
-43.6259
 30
0.0
 10
500.6455
 20
-43.6259
 30
0.0
 10
495.0638
 20
-42.6428
 30
0.0
 10
487.9386
 20
-42.9704
 30
0.0
 10
481.8526
 20
-42.1397
 30
0.0
 10
481.8526
 20
-42.1397
 30
0.0
 10
481.9645
 20
-41.921
 30
0.0
 10
496.588
 20
-21.6439
 30
0.0
 10
499.0592
 20
-19.6436
 30
0.0
  0
SPLINE
  5
94
330
1F
100
AcDbEntity
  8
layer 1
 62
     1
370
     9
100
AcDbSpline
210
0.0
220
0.0
230
1.0
 70
    11
 71
     3
 72
    28
 73
    24
 74
     0
 42
0.000000001
 43
0.0000000001
 40
0.0
 40
0.0
 40
0.0
 40
0.0
 40
0.1428571428571428
 40
0.1428571428571428
 40
0.1428571428571428
 40
0.1428571428571428
 40
0.2857142857142857
 40
0.2857142857142857
 40
0.2857142857142857
 40
0.2857142857142857
 40
0.4285714285714285
 40
0.4285714285714285
 40
0.4285714285714285
 40
0.4285714285714285
 40
0.5714285714285714
 40
0.5714285714285714
 40
0.5714285714285714
 40
0.5714285714285714
 40
0.7142857142857143
 40
0.7142857142857143
 40
0.7142857142857143
 40
0.7142857142857143
 40
1.0
 40
1.0
 40
1.0
 40
1.0
 10
492.0467
 20
-18.6122
 30
0.0
 10
492.0467
 20
-18.6122
 30
0.0
 10
479.013
 20
-35.1524
 30
0.0
 10
479.013
 20
-35.1524
 30
0.0
 10
479.013
 20
-35.1524
 30
0.0
 10
479.013
 20
-35.1524
 30
0.0
 10
478.724
 20
-35.4202
 30
0.0
 10
478.724
 20
-35.4202
 30
0.0
 10
478.724
 20
-35.4202
 30
0.0
 10
478.724
 20
-35.4202
 30
0.0
 10
478.993
 20
21.9604
 30
0.0
 10
478.993
 20
21.9604
 30
0.0
 10
478.993
 20
21.9604
 30
0.0
 10
478.993
 20
21.9604
 30
0.0
 10
492.9748
 20
-3.303
 30
0.0
 10
492.9748
 20
-3.303
 30
0.0
 10
492.9748
 20
-3.303
 30
0.0
 10
493.8557
 20
-4.7153
 30
0.0
 10
497.2161
 20
-10.5166
 30
0.0
 10
497.4207
 20
-11.8114
 30
0.0
 10
497.4207
 20
-11.8114
 30
0.0
 10
497.4207
 20
-11.8114
 30
0.0
 10
492.0467
 20
-18.6122
 30
0.0
 10
492.0467
 20
-18.6122
 30
0.0
  0
SPLINE
  5
95
330
1F
100
AcDbEntity
  8
layer 1
 62
     1
370
     9
100
AcDbSpline
210
0.0
220
0.0
230
1.0
 70
    11
 71
     3
 72
    32
 73
    28
 74
     0
 42
0.000000001
 43
0.0000000001
 40
0.0
 40
0.0
 40
0.0
 40
0.0
 40
0.125
 40
0.125
 40
0.125
 40
0.125
 40
0.25
 40
0.25
 40
0.25
 40
0.25
 40
0.375
 40
0.375
 40
0.375
 40
0.375
 40
0.5
 40
0.5
 40
0.5
 40
0.5
 40
0.625
 40
0.625
 40
0.625
 40
0.625
 40
0.75
 40
0.75
 40
0.75
 40
0.75
 40
1.0
 40
1.0
 40
1.0
 40
1.0
 10
508.2923
 20
0.2588
 30
0.0
 10
508.2923
 20
0.2588
 30
0.0
 10
511.0777
 20
12.3566
 30
0.0
 10
511.0777
 20
12.3566
 30
0.0
 10
511.0777
 20
12.3566
 30
0.0
 10
511.8844
 20
9.9699
 30
0.0
 10
512.5002
 20
3.1082
 30
0.0
 10
512.997
 20
0.0947
 30
0.0
 10
512.997
 20
0.0947
 30
0.0
 10
513.874
 20
-5.2271
 30
0.0
 10
518.5296
 20
-33.4047
 30
0.0
 10
518.4805
 20
-36.4744
 30
0.0
 10
518.4805
 20
-36.4744
 30
0.0
 10
515.4705
 20
-37.977
 30
0.0
 10
512.4334
 20
-39.9081
 30
0.0
 10
509.3991
 20
-41.1622
 30
0.0
 10
509.3991
 20
-41.1622
 30
0.0
 10
509.3991
 20
-41.1622
 30
0.0
 10
507.3835
 20
-13.8023
 30
0.0
 10
507.3835
 20
-13.8023
 30
0.0
 10
507.3835
 20
-13.8023
 30
0.0
 10
507.2213
 20
-11.531
 30
0.0
 10
506.3411
 20
-10.3889
 30
0.0
 10
506.3517
 20
-9.1687
 30
0.0
 10
506.3517
 20
-9.1687
 30
0.0
 10
506.3694
 20
-7.1303
 30
0.0
 10
507.9094
 20
-2.0984
 30
0.0
 10
508.2923
 20
0.2588
 30
0.0
  0
SPLINE
  5
96
330
1F
100
AcDbEntity
  8
layer 1
 62
     1
370
     9
100
AcDbSpline
210
0.0
220
0.0
230
1.0
 70
    11
 71
     3
 72
    36
 73
    32
 74
     0
 42
0.000000001
 43
0.0000000001
 40
0.0
 40
0.0
 40
0.0
 40
0.0
 40
0.1111111111111111
 40
0.1111111111111111
 40
0.1111111111111111
 40
0.1111111111111111
 40
0.2222222222222222
 40
0.2222222222222222
 40
0.2222222222222222
 40
0.2222222222222222
 40
0.3333333333333333
 40
0.3333333333333333
 40
0.3333333333333333
 40
0.3333333333333333
 40
0.4444444444444444
 40
0.4444444444444444
 40
0.4444444444444444
 40
0.4444444444444444
 40
0.5555555555555556
 40
0.5555555555555556
 40
0.5555555555555556
 40
0.5555555555555556
 40
0.6666666666666666
 40
0.6666666666666666
 40
0.6666666666666666
 40
0.6666666666666666
 40
0.7777777777777778
 40
0.7777777777777778
 40
0.7777777777777778
 40
0.7777777777777778
 40
1.0
 40
1.0
 40
1.0
 40
1.0
 10
430.8321
 20
6.9756
 30
0.0
 10
431.0434
 20
8.2473
 30
0.0
 10
430.6632
 20
7.7077
 30
0.0
 10
432.2589
 20
8.1334
 30
0.0
 10
432.2589
 20
8.1334
 30
0.0
 10
434.2081
 20
8.6534
 30
0.0
 10
437.0343
 20
9.2378
 30
0.0
 10
439.0098
 20
9.5712
 30
0.0
 10
439.0098
 20
9.5712
 30
0.0
 10
438.1183
 20
-16.9878
 30
0.0
 10
437.3257
 20
-44.5253
 30
0.0
 10
438.9427
 20
-71.0023
 30
0.0
 10
438.9427
 20
-71.0023
 30
0.0
 10
439.7403
 20
-84.0725
 30
0.0
 10
440.0023
 20
-97.4663
 30
0.0
 10
440.5639
 20
-110.5554
 30
0.0
 10
440.5639
 20
-110.5554
 30
0.0
 10
440.884
 20
-118.0207
 30
0.0
 10
441.5595
 20
-122.6528
 30
0.0
 10
439.9512
 20
-129.8699
 30
0.0
 10
439.9512
 20
-129.8699
 30
0.0
 10
439.2718
 20
-132.92
 30
0.0
 10
437.1832
 20
-145.255
 30
0.0
 10
436.1483
 20
-146.8161
 30
0.0
 10
436.1483
 20
-146.8161
 30
0.0
 10
436.2775
 20
-148.3478
 30
0.0
 10
435.8863
 20
-149.1577
 30
0.0
 10
435.6436
 20
-150.6878
 30
0.0
 10
435.6436
 20
-150.6878
 30
0.0
 10
435.6436
 20
-150.6878
 30
0.0
 10
430.8321
 20
6.9756
 30
0.0
 10
430.8321
 20
6.9756
 30
0.0
  0
SPLINE
  5
97
330
1F
100
AcDbEntity
  8
layer 1
 62
     1
370
     9
100
AcDbSpline
210
0.0
220
0.0
230
1.0
 70
    11
 71
     3
 72
    40
 73
    36
 74
     0
 42
0.000000001
 43
0.0000000001
 40
0.0
 40
0.0
 40
0.0
 40
0.0
 40
0.1
 40
0.1
 40
0.1
 40
0.1
 40
0.2
 40
0.2
 40
0.2
 40
0.2
 40
0.3
 40
0.3
 40
0.3
 40
0.3
 40
0.4
 40
0.4
 40
0.4
 40
0.4
 40
0.5
 40
0.5
 40
0.5
 40
0.5
 40
0.6
 40
0.6
 40
0.6
 40
0.6
 40
0.7
 40
0.7
 40
0.7
 40
0.7
 40
0.8
 40
0.8
 40
0.8
 40
0.8
 40
1.0
 40
1.0
 40
1.0
 40
1.0
 10
395.7083
 20
-54.8372
 30
0.0
 10
395.7083
 20
-54.8372
 30
0.0
 10
385.3253
 20
-32.162
 30
0.0
 10
385.3253
 20
-32.162
 30
0.0
 10
385.3253
 20
-32.162
 30
0.0
 10
383.9008
 20
-29.0475
 30
0.0
 10
375.3762
 20
-10.907
 30
0.0
 10
375.2462
 20
-9.0068
 30
0.0
 10
375.2462
 20
-9.0068
 30
0.0
 10
375.2462
 20
-9.0068
 30
0.0
 10
374.4191
 20
-7.8211
 30
0.0
 10
374.4191
 20
-7.8211
 30
0.0
 10
374.4191
 20
-7.8211
 30
0.0
 10
374.8602
 20
-7.3538
 30
0.0
 10
374.1238
 20
-7.5077
 30
0.0
 10
376.7037
 20
-6.8727
 30
0.0
 10
376.7037
 20
-6.8727
 30
0.0
 10
377.6125
 20
-6.6492
 30
0.0
 10
378.508
 20
-6.4018
 30
0.0
 10
379.374
 20
-6.1763
 30
0.0
 10
379.374
 20
-6.1763
 30
0.0
 10
389.5312
 20
-3.5316
 30
0.0
 10
411.7159
 20
3.8501
 30
0.0
 10
421.5251
 20
4.5107
 30
0.0
 10
421.5251
 20
4.5107
 30
0.0
 10
420.2892
 20
-0.3059
 30
0.0
 10
417.4406
 20
-6.6405
 30
0.0
 10
415.6206
 20
-11.4851
 30
0.0
 10
415.6206
 20
-11.4851
 30
0.0
 10
413.0057
 20
-18.4445
 30
0.0
 10
398.6673
 20
-55.2814
 30
0.0
 10
397.8351
 20
-58.901
 30
0.0
 10
397.8351
 20
-58.901
 30
0.0
 10
396.8984
 20
-58.1838
 30
0.0
 10
395.9185
 20
-55.8258
 30
0.0
 10
395.7083
 20
-54.8372
 30
0.0
  0
SPLINE
  5
98
330
1F
100
AcDbEntity
  8
layer 1
 62
     1
370
     9
100
AcDbSpline
210
0.0
220
0.0
230
1.0
 70
    11
 71
     3
 72
    28
 73
    24
 74
     0
 42
0.000000001
 43
0.0000000001
 40
0.0
 40
0.0
 40
0.0
 40
0.0
 40
0.1428571428571428
 40
0.1428571428571428
 40
0.1428571428571428
 40
0.1428571428571428
 40
0.2857142857142857
 40
0.2857142857142857
 40
0.2857142857142857
 40
0.2857142857142857
 40
0.4285714285714285
 40
0.4285714285714285
 40
0.4285714285714285
 40
0.4285714285714285
 40
0.5714285714285714
 40
0.5714285714285714
 40
0.5714285714285714
 40
0.5714285714285714
 40
0.7142857142857143
 40
0.7142857142857143
 40
0.7142857142857143
 40
0.7142857142857143
 40
1.0
 40
1.0
 40
1.0
 40
1.0
 10
408.7884
 20
6.7749
 30
0.0
 10
408.7884
 20
6.7749
 30
0.0
 10
374.8621
 20
-1.6641
 30
0.0
 10
374.8621
 20
-1.6641
 30
0.0
 10
374.8621
 20
-1.6641
 30
0.0
 10
374.8621
 20
-1.6641
 30
0.0
 10
376.4166
 20
13.1908
 30
0.0
 10
376.4166
 20
13.1908
 30
0.0
 10
376.4166
 20
13.1908
 30
0.0
 10
376.4166
 20
13.1908
 30
0.0
 10
377.0698
 20
18.1496
 30
0.0
 10
377.0698
 20
18.1496
 30
0.0
 10
377.0698
 20
18.1496
 30
0.0
 10
377.0698
 20
18.1496
 30
0.0
 10
414.8995
 20
9.3725
 30
0.0
 10
414.8995
 20
9.3725
 30
0.0
 10
414.8995
 20
9.3725
 30
0.0
 10
415.7321
 20
9.0316
 30
0.0
 10
415.3633
 20
9.2182
 30
0.0
 10
415.8134
 20
8.6899
 30
0.0
 10
415.8134
 20
8.6899
 30
0.0
 10
415.8134
 20
8.6899
 30
0.0
 10
408.7884
 20
6.7749
 30
0.0
 10
408.7884
 20
6.7749
 30
0.0
  0
SPLINE
  5
99
330
1F
100
AcDbEntity
  8
layer 1
 62
     1
370
     9
100
AcDbSpline
210
0.0
220
0.0
230
1.0
 70
    11
 71
     3
 72
    40
 73
    36
 74
     0
 42
0.000000001
 43
0.0000000001
 40
0.0
 40
0.0
 40
0.0
 40
0.0
 40
0.1
 40
0.1
 40
0.1
 40
0.1
 40
0.2
 40
0.2
 40
0.2
 40
0.2
 40
0.3
 40
0.3
 40
0.3
 40
0.3
 40
0.4
 40
0.4
 40
0.4
 40
0.4
 40
0.5
 40
0.5
 40
0.5
 40
0.5
 40
0.6
 40
0.6
 40
0.6
 40
0.6
 40
0.7
 40
0.7
 40
0.7
 40
0.7
 40
0.8
 40
0.8
 40
0.8
 40
0.8
 40
1.0
 40
1.0
 40
1.0
 40
1.0
 10
473.253
 20
29.4387
 30
0.0
 10
473.253
 20
29.4387
 30
0.0
 10
472.8049
 20
-33.6753
 30
0.0
 10
472.8049
 20
-33.6753
 30
0.0
 10
472.8049
 20
-33.6753
 30
0.0
 10
472.3395
 20
-33.2095
 30
0.0
 10
469.2898
 20
-27.9883
 30
0.0
 10
469.0381
 20
-27.2165
 30
0.0
 10
469.0381
 20
-27.2165
 30
0.0
 10
468.2989
 20
-26.0481
 30
0.0
 10
467.4105
 20
-24.4618
 30
0.0
 10
466.812
 20
-23.0644
 30
0.0
 10
466.812
 20
-23.0644
 30
0.0
 10
465.2158
 20
-21.1938
 30
0.0
 10
463.4296
 20
-17.0098
 30
0.0
 10
462.0
 20
-14.6805
 30
0.0
 10
462.0
 20
-14.6805
 30
0.0
 10
460.2735
 20
-11.868
 30
0.0
 10
458.8007
 20
-8.9047
 30
0.0
 10
457.2537
 20
-6.1217
 30
0.0
 10
457.2537
 20
-6.1217
 30
0.0
 10
457.2537
 20
-6.1217
 30
0.0
 10
450.0861
 20
6.659
 30
0.0
 10
450.0861
 20
6.659
 30
0.0
 10
450.0861
 20
6.659
 30
0.0
 10
449.42
 20
7.8035
 30
0.0
 10
448.1962
 20
9.6243
 30
0.0
 10
448.0634
 20
10.9239
 30
0.0
 10
448.0634
 20
10.9239
 30
0.0
 10
448.0634
 20
10.9239
 30
0.0
 10
447.208
 20
12.1304
 30
0.0
 10
447.208
 20
12.1304
 30
0.0
 10
447.208
 20
12.1304
 30
0.0
 10
455.6576
 20
17.8354
 30
0.0
 10
464.5034
 20
24.2843
 30
0.0
 10
473.253
 20
29.4387
 30
0.0
  0
SPLINE
  5
9A
330
1F
100
AcDbEntity
  8
layer 1
 62
     1
370
     9
100
AcDbSpline
210
0.0
220
0.0
230
1.0
 70
    11
 71
     3
 72
    32
 73
    28
 74
     0
 42
0.000000001
 43
0.0000000001
 40
0.0
 40
0.0
 40
0.0
 40
0.0
 40
0.125
 40
0.125
 40
0.125
 40
0.125
 40
0.25
 40
0.25
 40
0.25
 40
0.25
 40
0.375
 40
0.375
 40
0.375
 40
0.375
 40
0.5
 40
0.5
 40
0.5
 40
0.5
 40
0.625
 40
0.625
 40
0.625
 40
0.625
 40
0.75
 40
0.75
 40
0.75
 40
0.75
 40
1.0
 40
1.0
 40
1.0
 40
1.0
 10
359.8631
 20
-38.7476
 30
0.0
 10
354.8776
 20
-29.4407
 30
0.0
 10
350.7459
 20
-20.2641
 30
0.0
 10
345.9037
 20
-11.0754
 30
0.0
 10
345.9037
 20
-11.0754
 30
0.0
 10
344.4011
 20
-8.2237
 30
0.0
 10
334.2199
 20
11.7015
 30
0.0
 10
334.0023
 20
13.2238
 30
0.0
 10
334.0023
 20
13.2238
 30
0.0
 10
333.1336
 20
13.8624
 30
0.0
 10
332.7844
 20
14.6915
 30
0.0
 10
332.6784
 20
15.8591
 30
0.0
 10
332.6784
 20
15.8591
 30
0.0
 10
332.2574
 20
16.2307
 30
0.0
 10
332.4616
 20
15.2794
 30
0.0
 10
332.0665
 20
16.786
 30
0.0
 10
332.0665
 20
16.786
 30
0.0
 10
333.9521
 20
17.3798
 30
0.0
 10
364.1335
 20
18.7254
 30
0.0
 10
368.7278
 20
18.9496
 30
0.0
 10
368.7278
 20
18.9496
 30
0.0
 10
368.7278
 20
18.9496
 30
0.0
 10
361.8693
 20
-43.1837
 30
0.0
 10
361.8693
 20
-43.1837
 30
0.0
 10
361.8693
 20
-43.1837
 30
0.0
 10
361.8693
 20
-43.1837
 30
0.0
 10
359.8631
 20
-38.7476
 30
0.0
 10
359.8631
 20
-38.7476
 30
0.0
  0
SPLINE
  5
9B
330
1F
100
AcDbEntity
  8
layer 1
 62
     1
370
     9
100
AcDbSpline
210
0.0
220
0.0
230
1.0
 70
    11
 71
     3
 72
    24
 73
    20
 74
     0
 42
0.000000001
 43
0.0000000001
 40
0.0
 40
0.0
 40
0.0
 40
0.0
 40
0.1666666666666667
 40
0.1666666666666667
 40
0.1666666666666667
 40
0.1666666666666667
 40
0.3333333333333333
 40
0.3333333333333333
 40
0.3333333333333333
 40
0.3333333333333333
 40
0.5
 40
0.5
 40
0.5
 40
0.5
 40
0.6666666666666666
 40
0.6666666666666666
 40
0.6666666666666666
 40
0.6666666666666666
 40
1.0
 40
1.0
 40
1.0
 40
1.0
 10
384.6718
 20
33.5068
 30
0.0
 10
384.6718
 20
33.5068
 30
0.0
 10
387.3782
 20
38.3855
 30
0.0
 10
387.3782
 20
38.3855
 30
0.0
 10
387.3782
 20
38.3855
 30
0.0
 10
387.3782
 20
38.3855
 30
0.0
 10
413.8473
 20
16.6427
 30
0.0
 10
413.8473
 20
16.6427
 30
0.0
 10
413.8473
 20
16.6427
 30
0.0
 10
414.6305
 20
15.8077
 30
0.0
 10
414.3343
 20
15.865
 30
0.0
 10
415.2043
 20
15.1934
 30
0.0
 10
415.2043
 20
15.1934
 30
0.0
 10
406.0651
 20
17.0354
 30
0.0
 10
383.8407
 20
21.1816
 30
0.0
 10
379.2801
 20
23.4906
 30
0.0
 10
379.2801
 20
23.4906
 30
0.0
 10
379.2801
 20
23.4906
 30
0.0
 10
384.6718
 20
33.5068
 30
0.0
 10
384.6718
 20
33.5068
 30
0.0
  0
SPLINE
  5
9C
330
1F
100
AcDbEntity
  8
layer 1
 62
     1
370
     9
100
AcDbSpline
210
0.0
220
0.0
230
1.0
 70
    11
 71
     3
 72
    28
 73
    24
 74
     0
 42
0.000000001
 43
0.0000000001
 40
0.0
 40
0.0
 40
0.0
 40
0.0
 40
0.1428571428571428
 40
0.1428571428571428
 40
0.1428571428571428
 40
0.1428571428571428
 40
0.2857142857142857
 40
0.2857142857142857
 40
0.2857142857142857
 40
0.2857142857142857
 40
0.4285714285714285
 40
0.4285714285714285
 40
0.4285714285714285
 40
0.4285714285714285
 40
0.5714285714285714
 40
0.5714285714285714
 40
0.5714285714285714
 40
0.5714285714285714
 40
0.7142857142857143
 40
0.7142857142857143
 40
0.7142857142857143
 40
0.7142857142857143
 40
1.0
 40
1.0
 40
1.0
 40
1.0
 10
365.1004
 20
24.1854
 30
0.0
 10
365.1004
 20
24.1854
 30
0.0
 10
335.9641
 20
22.6144
 30
0.0
 10
335.9641
 20
22.6144
 30
0.0
 10
335.9641
 20
22.6144
 30
0.0
 10
336.1412
 20
23.4285
 30
0.0
 10
355.3304
 20
55.2626
 30
0.0
 10
356.0896
 20
55.6931
 30
0.0
 10
356.0896
 20
55.6931
 30
0.0
 10
356.5511
 20
56.7986
 30
0.0
 10
357.2019
 20
58.3963
 30
0.0
 10
358.1303
 20
59.0184
 30
0.0
 10
358.1303
 20
59.0184
 30
0.0
 10
358.7623
 20
59.6775
 30
0.0
 10
359.8785
 20
62.7861
 30
0.0
 10
361.7707
 20
64.934
 30
0.0
 10
361.7707
 20
64.934
 30
0.0
 10
363.0145
 20
59.9881
 30
0.0
 10
370.342
 20
27.4609
 30
0.0
 10
370.2654
 20
24.5015
 30
0.0
 10
370.2654
 20
24.5015
 30
0.0
 10
370.2654
 20
24.5015
 30
0.0
 10
365.1004
 20
24.1854
 30
0.0
 10
365.1004
 20
24.1854
 30
0.0
  0
SPLINE
  5
9D
330
1F
100
AcDbEntity
  8
layer 1
 62
     1
370
     9
100
AcDbSpline
210
0.0
220
0.0
230
1.0
 70
    11
 71
     3
 72
    16
 73
    12
 74
     0
 42
0.000000001
 43
0.0000000001
 40
0.0
 40
0.0
 40
0.0
 40
0.0
 40
0.25
 40
0.25
 40
0.25
 40
0.25
 40
0.5
 40
0.5
 40
0.5
 40
0.5
 40
1.0
 40
1.0
 40
1.0
 40
1.0
 10
484.3532
 20
30.423
 30
0.0
 10
484.3532
 20
30.423
 30
0.0
 10
507.7311
 20
25.5662
 30
0.0
 10
507.7311
 20
25.5662
 30
0.0
 10
507.7311
 20
25.5662
 30
0.0
 10
507.7311
 20
25.5662
 30
0.0
 10
501.6863
 20
-1.7108
 30
0.0
 10
501.6863
 20
-1.7108
 30
0.0
 10
501.6863
 20
-1.7108
 30
0.0
 10
496.9109
 20
8.0937
 30
0.0
 10
486.1563
 20
22.275
 30
0.0
 10
484.3532
 20
30.423
 30
0.0
  0
SPLINE
  5
9E
330
1F
100
AcDbEntity
  8
layer 1
 62
     1
370
     9
100
AcDbSpline
210
0.0
220
0.0
230
1.0
 70
    11
 71
     3
 72
    20
 73
    16
 74
     0
 42
0.000000001
 43
0.0000000001
 40
0.0
 40
0.0
 40
0.0
 40
0.0
 40
0.2
 40
0.2
 40
0.2
 40
0.2
 40
0.4
 40
0.4
 40
0.4
 40
0.4
 40
0.6
 40
0.6
 40
0.6
 40
0.6
 40
1.0
 40
1.0
 40
1.0
 40
1.0
 10
410.0495
 20
81.2448
 30
0.0
 10
410.7768
 20
80.3458
 30
0.0
 10
410.8204
 20
78.5163
 30
0.0
 10
411.0384
 20
77.364
 30
0.0
 10
411.0384
 20
77.364
 30
0.0
 10
412.8553
 20
67.7602
 30
0.0
 10
422.2674
 20
20.1393
 30
0.0
 10
422.4556
 20
16.5998
 30
0.0
 10
422.4556
 20
16.5998
 30
0.0
 10
419.2256
 20
18.163
 30
0.0
 10
390.5634
 20
42.7277
 30
0.0
 10
390.1133
 20
43.3879
 30
0.0
 10
390.1133
 20
43.3879
 30
0.0
 10
393.4995
 20
52.7891
 30
0.0
 10
403.9588
 20
70.4093
 30
0.0
 10
410.0495
 20
81.2448
 30
0.0
  0
SPLINE
  5
9F
330
1F
100
AcDbEntity
  8
layer 1
 62
     1
370
     9
100
AcDbSpline
210
0.0
220
0.0
230
1.0
 70
    11
 71
     3
 72
    32
 73
    28
 74
     0
 42
0.000000001
 43
0.0000000001
 40
0.0
 40
0.0
 40
0.0
 40
0.0
 40
0.125
 40
0.125
 40
0.125
 40
0.125
 40
0.25
 40
0.25
 40
0.25
 40
0.25
 40
0.375
 40
0.375
 40
0.375
 40
0.375
 40
0.5
 40
0.5
 40
0.5
 40
0.5
 40
0.625
 40
0.625
 40
0.625
 40
0.625
 40
0.75
 40
0.75
 40
0.75
 40
0.75
 40
1.0
 40
1.0
 40
1.0
 40
1.0
 10
437.4055
 20
14.7865
 30
0.0
 10
437.4055
 20
14.7865
 30
0.0
 10
428.6967
 20
12.8578
 30
0.0
 10
428.6967
 20
12.8578
 30
0.0
 10
428.6967
 20
12.8578
 30
0.0
 10
427.4093
 20
18.5349
 30
0.0
 10
426.4384
 20
24.4265
 30
0.0
 10
425.3705
 20
30.2018
 30
0.0
 10
425.3705
 20
30.2018
 30
0.0
 10
423.4653
 20
40.5052
 30
0.0
 10
421.4411
 20
50.6718
 30
0.0
 10
419.5371
 20
60.9244
 30
0.0
 10
419.5371
 20
60.9244
 30
0.0
 10
418.9149
 20
64.271
 30
0.0
 10
416.6637
 20
73.8823
 30
0.0
 10
417.2277
 20
75.4415
 30
0.0
 10
417.2277
 20
75.4415
 30
0.0
 10
422.6759
 20
61.1267
 30
0.0
 10
429.3628
 20
45.1883
 30
0.0
 10
435.2889
 20
30.7807
 30
0.0
 10
435.2889
 20
30.7807
 30
0.0
 10
436.3651
 20
28.1635
 30
0.0
 10
440.8765
 20
17.7054
 30
0.0
 10
440.9806
 20
15.7884
 30
0.0
 10
440.9806
 20
15.7884
 30
0.0
 10
439.9037
 20
15.1494
 30
0.0
 10
438.797
 20
15.0854
 30
0.0
 10
437.4055
 20
14.7865
 30
0.0
  0
SPLINE
  5
A0
330
1F
100
AcDbEntity
  8
layer 1
 62
     1
370
     9
100
AcDbSpline
210
0.0
220
0.0
230
1.0
 70
    11
 71
     3
 72
    32
 73
    28
 74
     0
 42
0.000000001
 43
0.0000000001
 40
0.0
 40
0.0
 40
0.0
 40
0.0
 40
0.125
 40
0.125
 40
0.125
 40
0.125
 40
0.25
 40
0.25
 40
0.25
 40
0.25
 40
0.375
 40
0.375
 40
0.375
 40
0.375
 40
0.5
 40
0.5
 40
0.5
 40
0.5
 40
0.625
 40
0.625
 40
0.625
 40
0.625
 40
0.75
 40
0.75
 40
0.75
 40
0.75
 40
1.0
 40
1.0
 40
1.0
 40
1.0
 10
388.4264
 20
57.6179
 30
0.0
 10
388.4264
 20
57.6179
 30
0.0
 10
374.8162
 20
32.0481
 30
0.0
 10
374.8162
 20
32.0481
 30
0.0
 10
374.8162
 20
32.0481
 30
0.0
 10
374.8162
 20
32.0481
 30
0.0
 10
373.3398
 20
37.0148
 30
0.0
 10
373.3398
 20
37.0148
 30
0.0
 10
373.3398
 20
37.0148
 30
0.0
 10
372.1679
 20
43.8781
 30
0.0
 10
370.2348
 20
51.103
 30
0.0
 10
368.8032
 20
58.055
 30
0.0
 10
368.8032
 20
58.055
 30
0.0
 10
367.6717
 20
63.5488
 30
0.0
 10
364.7069
 20
74.4345
 30
0.0
 10
365.4405
 20
79.8022
 30
0.0
 10
365.4405
 20
79.8022
 30
0.0
 10
365.047
 20
80.8123
 30
0.0
 10
364.917
 20
82.3739
 30
0.0
 10
365.3518
 20
83.4159
 30
0.0
 10
365.3518
 20
83.4159
 30
0.0
 10
377.4012
 20
86.4683
 30
0.0
 10
392.1929
 20
87.7298
 30
0.0
 10
405.0235
 20
89.6766
 30
0.0
 10
405.0235
 20
89.6766
 30
0.0
 10
403.8786
 20
84.1829
 30
0.0
 10
391.3756
 20
63.1097
 30
0.0
 10
388.4264
 20
57.6179
 30
0.0
  0
SPLINE
  5
A1
330
1F
100
AcDbEntity
  8
layer 1
 62
     1
370
     9
100
AcDbSpline
210
0.0
220
0.0
230
1.0
 70
    11
 71
     3
 72
    24
 73
    20
 74
     0
 42
0.000000001
 43
0.0000000001
 40
0.0
 40
0.0
 40
0.0
 40
0.0
 40
0.1666666666666667
 40
0.1666666666666667
 40
0.1666666666666667
 40
0.1666666666666667
 40
0.3333333333333333
 40
0.3333333333333333
 40
0.3333333333333333
 40
0.3333333333333333
 40
0.5
 40
0.5
 40
0.5
 40
0.5
 40
0.6666666666666666
 40
0.6666666666666666
 40
0.6666666666666666
 40
0.6666666666666666
 40
1.0
 40
1.0
 40
1.0
 40
1.0
 10
441.2147
 20
31.0521
 30
0.0
 10
441.2147
 20
31.0521
 30
0.0
 10
438.8515
 20
36.388
 30
0.0
 10
438.8515
 20
36.388
 30
0.0
 10
438.8515
 20
36.388
 30
0.0
 10
432.89
 20
54.366
 30
0.0
 10
423.144
 20
72.4402
 30
0.0
 10
417.0789
 20
90.5089
 30
0.0
 10
417.0789
 20
90.5089
 30
0.0
 10
417.0789
 20
90.5089
 30
0.0
 10
447.9688
 20
89.6511
 30
0.0
 10
447.9688
 20
89.6511
 30
0.0
 10
447.9688
 20
89.6511
 30
0.0
 10
447.9688
 20
89.6511
 30
0.0
 10
443.3634
 20
25.4531
 30
0.0
 10
443.3634
 20
25.4531
 30
0.0
 10
443.3634
 20
25.4531
 30
0.0
 10
443.3634
 20
25.4531
 30
0.0
 10
441.2147
 20
31.0521
 30
0.0
 10
441.2147
 20
31.0521
 30
0.0
  0
SPLINE
  5
A2
330
1F
100
AcDbEntity
  8
layer 1
 62
     1
370
     9
100
AcDbSpline
210
0.0
220
0.0
230
1.0
 70
    11
 71
     3
 72
    28
 73
    24
 74
     0
 42
0.000000001
 43
0.0000000001
 40
0.0
 40
0.0
 40
0.0
 40
0.0
 40
0.1428571428571428
 40
0.1428571428571428
 40
0.1428571428571428
 40
0.1428571428571428
 40
0.2857142857142857
 40
0.2857142857142857
 40
0.2857142857142857
 40
0.2857142857142857
 40
0.4285714285714285
 40
0.4285714285714285
 40
0.4285714285714285
 40
0.4285714285714285
 40
0.5714285714285714
 40
0.5714285714285714
 40
0.5714285714285714
 40
0.5714285714285714
 40
0.7142857142857143
 40
0.7142857142857143
 40
0.7142857142857143
 40
0.7142857142857143
 40
1.0
 40
1.0
 40
1.0
 40
1.0
 10
499.2057
 20
33.0571
 30
0.0
 10
499.2057
 20
33.0571
 30
0.0
 10
480.4006
 20
36.6774
 30
0.0
 10
480.4006
 20
36.6774
 30
0.0
 10
480.4006
 20
36.6774
 30
0.0
 10
477.5528
 20
48.8475
 30
0.0
 10
464.4633
 20
82.0982
 30
0.0
 10
463.6939
 20
92.7456
 30
0.0
 10
463.6939
 20
92.7456
 30
0.0
 10
463.6939
 20
92.7456
 30
0.0
 10
493.3173
 20
50.5712
 30
0.0
 10
493.3173
 20
50.5712
 30
0.0
 10
493.3173
 20
50.5712
 30
0.0
 10
494.3459
 20
49.1829
 30
0.0
 10
495.0092
 20
48.064
 30
0.0
 10
495.8866
 20
46.8134
 30
0.0
 10
495.8866
 20
46.8134
 30
0.0
 10
499.0109
 20
42.3601
 30
0.0
 10
503.9956
 20
35.9304
 30
0.0
 10
506.3242
 20
31.5505
 30
0.0
 10
506.3242
 20
31.5505
 30
0.0
 10
506.3242
 20
31.5505
 30
0.0
 10
499.2057
 20
33.0571
 30
0.0
 10
499.2057
 20
33.0571
 30
0.0
  0
SPLINE
  5
A3
330
1F
100
AcDbEntity
  8
layer 1
 62
     1
370
     9
100
AcDbSpline
210
0.0
220
0.0
230
1.0
 70
    11
 71
     3
 72
    24
 73
    20
 74
     0
 42
0.000000001
 43
0.0000000001
 40
0.0
 40
0.0
 40
0.0
 40
0.0
 40
0.1666666666666667
 40
0.1666666666666667
 40
0.1666666666666667
 40
0.1666666666666667
 40
0.3333333333333333
 40
0.3333333333333333
 40
0.3333333333333333
 40
0.3333333333333333
 40
0.5
 40
0.5
 40
0.5
 40
0.5
 40
0.6666666666666666
 40
0.6666666666666666
 40
0.6666666666666666
 40
0.6666666666666666
 40
1.0
 40
1.0
 40
1.0
 40
1.0
 10
423.2572
 20
122.8366
 30
0.0
 10
423.2572
 20
122.8366
 30
0.0
 10
425.9357
 20
130.5207
 30
0.0
 10
425.9357
 20
130.5207
 30
0.0
 10
425.9357
 20
130.5207
 30
0.0
 10
425.9357
 20
130.5207
 30
0.0
 10
434.9567
 20
113.2458
 30
0.0
 10
434.9567
 20
113.2458
 30
0.0
 10
434.9567
 20
113.2458
 30
0.0
 10
436.8851
 20
109.4876
 30
0.0
 10
443.1015
 20
98.5606
 30
0.0
 10
443.8347
 20
95.3569
 30
0.0
 10
443.8347
 20
95.3569
 30
0.0
 10
443.8347
 20
95.3569
 30
0.0
 10
414.0814
 20
96.2123
 30
0.0
 10
414.0814
 20
96.2123
 30
0.0
 10
414.0814
 20
96.2123
 30
0.0
 10
414.0814
 20
96.2123
 30
0.0
 10
423.2572
 20
122.8366
 30
0.0
 10
423.2572
 20
122.8366
 30
0.0
  0
SPLINE
  5
A4
330
1F
100
AcDbEntity
  8
layer 1
 62
     1
370
     9
100
AcDbSpline
210
0.0
220
0.0
230
1.0
 70
    11
 71
     3
 72
    32
 73
    28
 74
     0
 42
0.000000001
 43
0.0000000001
 40
0.0
 40
0.0
 40
0.0
 40
0.0
 40
0.125
 40
0.125
 40
0.125
 40
0.125
 40
0.25
 40
0.25
 40
0.25
 40
0.25
 40
0.375
 40
0.375
 40
0.375
 40
0.375
 40
0.5
 40
0.5
 40
0.5
 40
0.5
 40
0.625
 40
0.625
 40
0.625
 40
0.625
 40
0.75
 40
0.75
 40
0.75
 40
0.75
 40
1.0
 40
1.0
 40
1.0
 40
1.0
 10
402.5209
 20
95.2049
 30
0.0
 10
402.5209
 20
95.2049
 30
0.0
 10
365.9629
 20
89.417
 30
0.0
 10
365.9629
 20
89.417
 30
0.0
 10
365.9629
 20
89.417
 30
0.0
 10
365.9629
 20
89.417
 30
0.0
 10
376.0141
 20
128.6999
 30
0.0
 10
376.0141
 20
128.6999
 30
0.0
 10
376.0141
 20
128.6999
 30
0.0
 10
376.0141
 20
128.6999
 30
0.0
 10
376.9826
 20
132.9518
 30
0.0
 10
376.9826
 20
132.9518
 30
0.0
 10
376.9826
 20
132.9518
 30
0.0
 10
376.9826
 20
132.9518
 30
0.0
 10
379.103
 20
130.5439
 30
0.0
 10
379.103
 20
130.5439
 30
0.0
 10
379.103
 20
130.5439
 30
0.0
 10
379.103
 20
130.5439
 30
0.0
 10
399.3915
 20
105.2824
 30
0.0
 10
399.3915
 20
105.2824
 30
0.0
 10
399.3915
 20
105.2824
 30
0.0
 10
400.9326
 20
103.3843
 30
0.0
 10
405.8797
 20
97.195
 30
0.0
 10
406.4016
 20
95.851
 30
0.0
 10
406.4016
 20
95.851
 30
0.0
 10
406.4016
 20
95.851
 30
0.0
 10
402.5209
 20
95.2049
 30
0.0
 10
402.5209
 20
95.2049
 30
0.0
  0
SPLINE
  5
A5
330
1F
100
AcDbEntity
  8
layer 1
 62
     1
370
     9
100
AcDbSpline
210
0.0
220
0.0
230
1.0
 70
    11
 71
     3
 72
    24
 73
    20
 74
     0
 42
0.000000001
 43
0.0000000001
 40
0.0
 40
0.0
 40
0.0
 40
0.0
 40
0.1666666666666667
 40
0.1666666666666667
 40
0.1666666666666667
 40
0.1666666666666667
 40
0.3333333333333333
 40
0.3333333333333333
 40
0.3333333333333333
 40
0.3333333333333333
 40
0.5
 40
0.5
 40
0.5
 40
0.5
 40
0.6666666666666666
 40
0.6666666666666666
 40
0.6666666666666666
 40
0.6666666666666666
 40
1.0
 40
1.0
 40
1.0
 40
1.0
 10
518.0941
 20
112.6621
 30
0.0
 10
518.0941
 20
112.6621
 30
0.0
 10
509.8358
 20
37.3047
 30
0.0
 10
509.8358
 20
37.3047
 30
0.0
 10
509.8358
 20
37.3047
 30
0.0
 10
502.8677
 20
47.1744
 30
0.0
 10
495.561
 20
57.1395
 30
0.0
 10
488.4814
 20
67.3364
 30
0.0
 10
488.4814
 20
67.3364
 30
0.0
 10
488.4814
 20
67.3364
 30
0.0
 10
466.266
 20
98.9918
 30
0.0
 10
466.266
 20
98.9918
 30
0.0
 10
466.266
 20
98.9918
 30
0.0
 10
465.1471
 20
100.5659
 30
0.0
 10
458.4594
 20
109.4895
 30
0.0
 10
457.9398
 20
111.5157
 30
0.0
 10
457.9398
 20
111.5157
 30
0.0
 10
474.3802
 20
113.5757
 30
0.0
 10
499.9896
 20
112.624
 30
0.0
 10
518.0941
 20
112.6621
 30
0.0
  0
SPLINE
  5
A6
330
1F
100
AcDbEntity
  8
layer 1
 62
     1
370
     9
100
AcDbSpline
210
0.0
220
0.0
230
1.0
 70
    11
 71
     3
 72
    24
 73
    20
 74
     0
 42
0.000000001
 43
0.0000000001
 40
0.0
 40
0.0
 40
0.0
 40
0.0
 40
0.1666666666666667
 40
0.1666666666666667
 40
0.1666666666666667
 40
0.1666666666666667
 40
0.3333333333333333
 40
0.3333333333333333
 40
0.3333333333333333
 40
0.3333333333333333
 40
0.5
 40
0.5
 40
0.5
 40
0.5
 40
0.6666666666666666
 40
0.6666666666666666
 40
0.6666666666666666
 40
0.6666666666666666
 40
1.0
 40
1.0
 40
1.0
 40
1.0
 10
494.7853
 20
117.9717
 30
0.0
 10
494.7853
 20
117.9717
 30
0.0
 10
455.4439
 20
117.4599
 30
0.0
 10
455.4439
 20
117.4599
 30
0.0
 10
455.4439
 20
117.4599
 30
0.0
 10
455.4439
 20
117.4599
 30
0.0
 10
459.5092
 20
140.6186
 30
0.0
 10
459.5092
 20
140.6186
 30
0.0
 10
459.5092
 20
140.6186
 30
0.0
 10
459.5092
 20
140.6186
 30
0.0
 10
460.4188
 20
142.2666
 30
0.0
 10
460.4188
 20
142.2666
 30
0.0
 10
460.4188
 20
142.2666
 30
0.0
 10
461.1603
 20
142.2159
 30
0.0
 10
508.5817
 20
119.364
 30
0.0
 10
509.8122
 20
118.2501
 30
0.0
 10
509.8122
 20
118.2501
 30
0.0
 10
509.8122
 20
118.2501
 30
0.0
 10
494.7853
 20
117.9717
 30
0.0
 10
494.7853
 20
117.9717
 30
0.0
  0
SPLINE
  5
A7
330
1F
100
AcDbEntity
  8
layer 1
 62
     1
370
     9
100
AcDbSpline
210
0.0
220
0.0
230
1.0
 70
    11
 71
     3
 72
    56
 73
    52
 74
     0
 42
0.000000001
 43
0.0000000001
 40
0.0
 40
0.0
 40
0.0
 40
0.0
 40
0.0714285714285714
 40
0.0714285714285714
 40
0.0714285714285714
 40
0.0714285714285714
 40
0.1428571428571428
 40
0.1428571428571428
 40
0.1428571428571428
 40
0.1428571428571428
 40
0.2142857142857143
 40
0.2142857142857143
 40
0.2142857142857143
 40
0.2142857142857143
 40
0.2857142857142857
 40
0.2857142857142857
 40
0.2857142857142857
 40
0.2857142857142857
 40
0.3571428571428572
 40
0.3571428571428572
 40
0.3571428571428572
 40
0.3571428571428572
 40
0.4285714285714285
 40
0.4285714285714285
 40
0.4285714285714285
 40
0.4285714285714285
 40
0.5
 40
0.5
 40
0.5
 40
0.5
 40
0.5714285714285714
 40
0.5714285714285714
 40
0.5714285714285714
 40
0.5714285714285714
 40
0.6428571428571429
 40
0.6428571428571429
 40
0.6428571428571429
 40
0.6428571428571429
 40
0.7142857142857143
 40
0.7142857142857143
 40
0.7142857142857143
 40
0.7142857142857143
 40
0.7857142857142857
 40
0.7857142857142857
 40
0.7857142857142857
 40
0.7857142857142857
 40
0.8571428571428571
 40
0.8571428571428571
 40
0.8571428571428571
 40
0.8571428571428571
 40
1.0
 40
1.0
 40
1.0
 40
1.0
 10
467.6301
 20
32.5787
 30
0.0
 10
463.1021
 20
29.8751
 30
0.0
 10
458.0612
 20
26.0265
 30
0.0
 10
453.869
 20
23.4533
 30
0.0
 10
453.869
 20
23.4533
 30
0.0
 10
452.373
 20
22.5346
 30
0.0
 10
450.5664
 20
21.0457
 30
0.0
 10
448.9695
 20
20.5159
 30
0.0
 10
448.9695
 20
20.5159
 30
0.0
 10
448.673
 20
20.0957
 30
0.0
 10
448.8352
 20
20.1244
 30
0.0
 10
448.6007
 20
20.7834
 30
0.0
 10
448.6007
 20
20.7834
 30
0.0
 10
448.6007
 20
20.7834
 30
0.0
 10
453.0273
 20
82.9603
 30
0.0
 10
453.0273
 20
82.9603
 30
0.0
 10
453.0273
 20
82.9603
 30
0.0
 10
453.1353
 20
86.863
 30
0.0
 10
454.0921
 20
88.3711
 30
0.0
 10
452.3762
 20
91.7488
 30
0.0
 10
452.3762
 20
91.7488
 30
0.0
 10
452.3762
 20
91.7488
 30
0.0
 10
443.9879
 20
108.0034
 30
0.0
 10
443.9879
 20
108.0034
 30
0.0
 10
443.9879
 20
108.0034
 30
0.0
 10
442.3038
 20
111.2522
 30
0.0
 10
440.2705
 20
114.7036
 30
0.0
 10
439.1064
 20
117.8279
 30
0.0
 10
439.1064
 20
117.8279
 30
0.0
 10
438.4019
 20
118.974
 30
0.0
 10
436.1062
 20
123.1862
 30
0.0
 10
435.697
 20
124.7242
 30
0.0
 10
435.697
 20
124.7242
 30
0.0
 10
436.6675
 20
123.7109
 30
0.0
 10
439.2761
 20
121.9329
 30
0.0
 10
440.9099
 20
120.2107
 30
0.0
 10
440.9099
 20
120.2107
 30
0.0
 10
440.9099
 20
120.2107
 30
0.0
 10
448.2032
 20
113.5376
 30
0.0
 10
448.2032
 20
113.5376
 30
0.0
 10
448.2032
 20
113.5376
 30
0.0
 10
448.2032
 20
113.5376
 30
0.0
 10
468.2891
 20
47.5055
 30
0.0
 10
468.2891
 20
47.5055
 30
0.0
 10
468.2891
 20
47.5055
 30
0.0
 10
469.2776
 20
44.4633
 30
0.0
 10
471.4287
 20
38.3101
 30
0.0
 10
471.7826
 20
35.3547
 30
0.0
 10
471.7826
 20
35.3547
 30
0.0
 10
470.4496
 20
34.4384
 30
0.0
 10
469.1787
 20
33.6553
 30
0.0
 10
467.6301
 20
32.5787
 30
0.0
  0
SPLINE
  5
A8
330
1F
100
AcDbEntity
  8
layer 1
 62
     1
370
     9
100
AcDbSpline
210
0.0
220
0.0
230
1.0
 70
    11
 71
     3
 72
    28
 73
    24
 74
     0
 42
0.000000001
 43
0.0000000001
 40
0.0
 40
0.0
 40
0.0
 40
0.0
 40
0.1428571428571428
 40
0.1428571428571428
 40
0.1428571428571428
 40
0.1428571428571428
 40
0.2857142857142857
 40
0.2857142857142857
 40
0.2857142857142857
 40
0.2857142857142857
 40
0.4285714285714285
 40
0.4285714285714285
 40
0.4285714285714285
 40
0.4285714285714285
 40
0.5714285714285714
 40
0.5714285714285714
 40
0.5714285714285714
 40
0.5714285714285714
 40
0.7142857142857143
 40
0.7142857142857143
 40
0.7142857142857143
 40
0.7142857142857143
 40
1.0
 40
1.0
 40
1.0
 40
1.0
 10
407.5512
 20
103.8807
 30
0.0
 10
407.5512
 20
103.8807
 30
0.0
 10
401.1958
 20
111.7337
 30
0.0
 10
401.1958
 20
111.7337
 30
0.0
 10
401.1958
 20
111.7337
 30
0.0
 10
399.1335
 20
114.2995
 30
0.0
 10
382.6487
 20
133.6698
 30
0.0
 10
381.0769
 20
137.3172
 30
0.0
 10
381.0769
 20
137.3172
 30
0.0
 10
381.0769
 20
137.3172
 30
0.0
 10
421.1084
 20
134.9293
 30
0.0
 10
421.1084
 20
134.9293
 30
0.0
 10
421.1084
 20
134.9293
 30
0.0
 10
421.6779
 20
133.202
 30
0.0
 10
419.4746
 20
128.3724
 30
0.0
 10
418.8152
 20
126.3458
 30
0.0
 10
418.8152
 20
126.3458
 30
0.0
 10
418.8152
 20
126.3458
 30
0.0
 10
409.9898
 20
101.2528
 30
0.0
 10
409.9898
 20
101.2528
 30
0.0
 10
409.9898
 20
101.2528
 30
0.0
 10
409.2212
 20
101.5466
 30
0.0
 10
407.9773
 20
102.858
 30
0.0
 10
407.5512
 20
103.8807
 30
0.0
  0
SPLINE
  5
A9
330
1F
100
AcDbEntity
  8
layer 1
 62
     1
370
     9
100
AcDbSpline
210
0.0
220
0.0
230
1.0
 70
    11
 71
     3
 72
    28
 73
    24
 74
     0
 42
0.000000001
 43
0.0000000001
 40
0.0
 40
0.0
 40
0.0
 40
0.0
 40
0.1428571428571428
 40
0.1428571428571428
 40
0.1428571428571428
 40
0.1428571428571428
 40
0.2857142857142857
 40
0.2857142857142857
 40
0.2857142857142857
 40
0.2857142857142857
 40
0.4285714285714285
 40
0.4285714285714285
 40
0.4285714285714285
 40
0.4285714285714285
 40
0.5714285714285714
 40
0.5714285714285714
 40
0.5714285714285714
 40
0.5714285714285714
 40
0.7142857142857143
 40
0.7142857142857143
 40
0.7142857142857143
 40
0.7142857142857143
 40
1.0
 40
1.0
 40
1.0
 40
1.0
 10
403.2868
 20
163.7259
 30
0.0
 10
404.4022
 20
165.2415
 30
0.0
 10
406.2984
 20
166.4767
 30
0.0
 10
407.228
 20
167.3753
 30
0.0
 10
407.228
 20
167.3753
 30
0.0
 10
407.8206
 20
168.4867
 30
0.0
 10
409.1878
 20
169.6748
 30
0.0
 10
410.2953
 20
170.3162
 30
0.0
 10
410.2953
 20
170.3162
 30
0.0
 10
411.5148
 20
167.5532
 30
0.0
 10
421.4105
 20
143.9542
 30
0.0
 10
421.8393
 20
140.9835
 30
0.0
 10
421.8393
 20
140.9835
 30
0.0
 10
409.3366
 20
140.6921
 30
0.0
 10
394.5835
 20
142.5623
 30
0.0
 10
381.9924
 20
143.2524
 30
0.0
 10
381.9924
 20
143.2524
 30
0.0
 10
383.0568
 20
145.2314
 30
0.0
 10
385.6882
 20
146.9917
 30
0.0
 10
387.2588
 20
148.5965
 30
0.0
 10
387.2588
 20
148.5965
 30
0.0
 10
387.2588
 20
148.5965
 30
0.0
 10
403.2868
 20
163.7259
 30
0.0
 10
403.2868
 20
163.7259
 30
0.0
  0
SPLINE
  5
AA
330
1F
100
AcDbEntity
  8
layer 1
 62
     1
370
     9
100
AcDbSpline
210
0.0
220
0.0
230
1.0
 70
    11
 71
     3
 72
    28
 73
    24
 74
     0
 42
0.000000001
 43
0.0000000001
 40
0.0
 40
0.0
 40
0.0
 40
0.0
 40
0.1428571428571428
 40
0.1428571428571428
 40
0.1428571428571428
 40
0.1428571428571428
 40
0.2857142857142857
 40
0.2857142857142857
 40
0.2857142857142857
 40
0.2857142857142857
 40
0.4285714285714285
 40
0.4285714285714285
 40
0.4285714285714285
 40
0.4285714285714285
 40
0.5714285714285714
 40
0.5714285714285714
 40
0.5714285714285714
 40
0.5714285714285714
 40
0.7142857142857143
 40
0.7142857142857143
 40
0.7142857142857143
 40
0.7142857142857143
 40
1.0
 40
1.0
 40
1.0
 40
1.0
 10
486.8032
 20
164.8295
 30
0.0
 10
486.8032
 20
164.8295
 30
0.0
 10
511.9892
 20
124.2627
 30
0.0
 10
511.9892
 20
124.2627
 30
0.0
 10
511.9892
 20
124.2627
 30
0.0
 10
502.8229
 20
127.9262
 30
0.0
 10
492.2176
 20
133.8928
 30
0.0
 10
483.3046
 20
137.9923
 30
0.0
 10
483.3046
 20
137.9923
 30
0.0
 10
480.0974
 20
139.4675
 30
0.0
 10
477.3069
 20
140.8252
 30
0.0
 10
474.1194
 20
142.4355
 30
0.0
 10
474.1194
 20
142.4355
 30
0.0
 10
471.2531
 20
143.8831
 30
0.0
 10
466.6906
 20
146.3076
 30
0.0
 10
463.7603
 20
147.3311
 30
0.0
 10
463.7603
 20
147.3311
 30
0.0
 10
464.3742
 20
148.7257
 30
0.0
 10
463.9744
 20
148.0129
 30
0.0
 10
465.876
 20
149.4401
 30
0.0
 10
465.876
 20
149.4401
 30
0.0
 10
466.4184
 20
149.847
 30
0.0
 10
485.048
 20
164.4528
 30
0.0
 10
486.8032
 20
164.8295
 30
0.0
  0
SPLINE
  5
AB
330
1F
100
AcDbEntity
  8
layer 1
 62
     1
370
     9
100
AcDbSpline
210
0.0
220
0.0
230
1.0
 70
    11
 71
     3
 72
    16
 73
    12
 74
     0
 42
0.000000001
 43
0.0000000001
 40
0.0
 40
0.0
 40
0.0
 40
0.0
 40
0.25
 40
0.25
 40
0.25
 40
0.25
 40
0.5
 40
0.5
 40
0.5
 40
0.5
 40
1.0
 40
1.0
 40
1.0
 40
1.0
 10
330.5163
 20
167.4248
 30
0.0
 10
331.4436
 20
166.8262
 30
0.0
 10
337.9648
 20
155.3144
 30
0.0
 10
338.1827
 20
154.3494
 30
0.0
 10
338.1827
 20
154.3494
 30
0.0
 10
337.1435
 20
154.7866
 30
0.0
 10
328.7333
 20
163.0291
 30
0.0
 10
328.3044
 20
163.4961
 30
0.0
 10
328.3044
 20
163.4961
 30
0.0
 10
328.3044
 20
163.4961
 30
0.0
 10
330.5163
 20
167.4248
 30
0.0
 10
330.5163
 20
167.4248
 30
0.0
  0
SPLINE
  5
AC
330
1F
100
AcDbEntity
  8
layer 1
 62
     1
370
     9
100
AcDbSpline
210
0.0
220
0.0
230
1.0
 70
    11
 71
     3
 72
    24
 73
    20
 74
     0
 42
0.000000001
 43
0.0000000001
 40
0.0
 40
0.0
 40
0.0
 40
0.0
 40
0.1666666666666667
 40
0.1666666666666667
 40
0.1666666666666667
 40
0.1666666666666667
 40
0.3333333333333333
 40
0.3333333333333333
 40
0.3333333333333333
 40
0.3333333333333333
 40
0.5
 40
0.5
 40
0.5
 40
0.5
 40
0.6666666666666666
 40
0.6666666666666666
 40
0.6666666666666666
 40
0.6666666666666666
 40
1.0
 40
1.0
 40
1.0
 40
1.0
 10
351.467
 20
151.7538
 30
0.0
 10
351.467
 20
151.7538
 30
0.0
 10
347.8074
 20
149.618
 30
0.0
 10
347.8074
 20
149.618
 30
0.0
 10
347.8074
 20
149.618
 30
0.0
 10
347.2756
 20
150.0532
 30
0.0
 10
339.7679
 20
162.5476
 30
0.0
 10
339.0228
 20
164.4395
 30
0.0
 10
339.0228
 20
164.4395
 30
0.0
 10
341.882
 20
163.198
 30
0.0
 10
351.7352
 20
156.3104
 30
0.0
 10
354.9943
 20
153.9861
 30
0.0
 10
354.9943
 20
153.9861
 30
0.0
 10
355.0155
 20
154.038
 30
0.0
 10
355.0814
 20
153.8558
 30
0.0
 10
355.1176
 20
153.7862
 30
0.0
 10
355.1176
 20
153.7862
 30
0.0
 10
354.001
 20
152.9057
 30
0.0
 10
352.8424
 20
152.2062
 30
0.0
 10
351.467
 20
151.7538
 30
0.0
  0
SPLINE
  5
AD
330
1F
100
AcDbEntity
  8
layer 1
 62
     1
370
     9
100
AcDbSpline
210
0.0
220
0.0
230
1.0
 70
    11
 71
     3
 72
    16
 73
    12
 74
     0
 42
0.000000001
 43
0.0000000001
 40
0.0
 40
0.0
 40
0.0
 40
0.0
 40
0.25
 40
0.25
 40
0.25
 40
0.25
 40
0.5
 40
0.5
 40
0.5
 40
0.5
 40
1.0
 40
1.0
 40
1.0
 40
1.0
 10
325.0626
 20
170.9355
 30
0.0
 10
325.1561
 20
169.7695
 30
0.0
 10
324.4374
 20
168.6902
 30
0.0
 10
323.8577
 20
167.8992
 30
0.0
 10
323.8577
 20
167.8992
 30
0.0
 10
322.8499
 20
168.8591
 30
0.0
 10
321.4207
 20
169.6296
 30
0.0
 10
321.4148
 20
171.7159
 30
0.0
 10
321.4148
 20
171.7159
 30
0.0
 10
321.4148
 20
171.7159
 30
0.0
 10
325.0626
 20
170.9355
 30
0.0
 10
325.0626
 20
170.9355
 30
0.0
  0
SPLINE
  5
AE
330
1F
100
AcDbEntity
  8
layer 1
 62
     1
370
     9
100
AcDbSpline
210
0.0
220
0.0
230
1.0
 70
    11
 71
     3
 72
    44
 73
    40
 74
     0
 42
0.000000001
 43
0.0000000001
 40
0.0
 40
0.0
 40
0.0
 40
0.0
 40
0.0909090909090909
 40
0.0909090909090909
 40
0.0909090909090909
 40
0.0909090909090909
 40
0.1818181818181818
 40
0.1818181818181818
 40
0.1818181818181818
 40
0.1818181818181818
 40
0.2727272727272727
 40
0.2727272727272727
 40
0.2727272727272727
 40
0.2727272727272727
 40
0.3636363636363636
 40
0.3636363636363636
 40
0.3636363636363636
 40
0.3636363636363636
 40
0.4545454545454545
 40
0.4545454545454545
 40
0.4545454545454545
 40
0.4545454545454545
 40
0.5454545454545454
 40
0.5454545454545454
 40
0.5454545454545454
 40
0.5454545454545454
 40
0.6363636363636364
 40
0.6363636363636364
 40
0.6363636363636364
 40
0.6363636363636364
 40
0.7272727272727273
 40
0.7272727272727273
 40
0.7272727272727273
 40
0.7272727272727273
 40
0.8181818181818182
 40
0.8181818181818182
 40
0.8181818181818182
 40
0.8181818181818182
 40
1.0
 40
1.0
 40
1.0
 40
1.0
 10
398.956
 20
167.7551
 30
0.0
 10
397.5947
 20
166.0556
 30
0.0
 10
391.1788
 20
160.6283
 30
0.0
 10
388.4327
 20
157.3822
 30
0.0
 10
388.4327
 20
157.3822
 30
0.0
 10
388.4327
 20
157.3822
 30
0.0
 10
382.318
 20
151.8551
 30
0.0
 10
382.318
 20
151.8551
 30
0.0
 10
382.318
 20
151.8551
 30
0.0
 10
381.5628
 20
151.136
 30
0.0
 10
375.8919
 20
145.0248
 30
0.0
 10
374.7419
 20
144.7381
 30
0.0
 10
374.7419
 20
144.7381
 30
0.0
 10
369.8684
 20
145.2872
 30
0.0
 10
363.5809
 20
145.7404
 30
0.0
 10
358.7792
 20
145.8579
 30
0.0
 10
358.7792
 20
145.8579
 30
0.0
 10
357.5279
 20
145.947
 30
0.0
 10
355.486
 20
145.9105
 30
0.0
 10
354.3796
 20
146.4709
 30
0.0
 10
354.3796
 20
146.4709
 30
0.0
 10
357.8955
 20
149.2351
 30
0.0
 10
360.3953
 20
149.2547
 30
0.0
 10
362.3308
 20
151.9152
 30
0.0
 10
362.3308
 20
151.9152
 30
0.0
 10
362.3308
 20
151.9152
 30
0.0
 10
374.8668
 20
169.2927
 30
0.0
 10
374.8668
 20
169.2927
 30
0.0
 10
374.8668
 20
169.2927
 30
0.0
 10
376.0447
 20
170.9143
 30
0.0
 10
378.5563
 20
174.0092
 30
0.0
 10
379.4247
 20
175.6893
 30
0.0
 10
379.4247
 20
175.6893
 30
0.0
 10
383.1279
 20
175.4211
 30
0.0
 10
402.0767
 20
173.7354
 30
0.0
 10
404.0035
 20
172.7402
 30
0.0
 10
404.0035
 20
172.7402
 30
0.0
 10
403.3312
 20
171.6401
 30
0.0
 10
400.0462
 20
168.3917
 30
0.0
 10
398.956
 20
167.7551
 30
0.0
  0
SPLINE
  5
AF
330
1F
100
AcDbEntity
  8
layer 1
 62
     1
370
     9
100
AcDbSpline
210
0.0
220
0.0
230
1.0
 70
    11
 71
     3
 72
    24
 73
    20
 74
     0
 42
0.000000001
 43
0.0000000001
 40
0.0
 40
0.0
 40
0.0
 40
0.0
 40
0.1666666666666667
 40
0.1666666666666667
 40
0.1666666666666667
 40
0.1666666666666667
 40
0.3333333333333333
 40
0.3333333333333333
 40
0.3333333333333333
 40
0.3333333333333333
 40
0.5
 40
0.5
 40
0.5
 40
0.5
 40
0.6666666666666666
 40
0.6666666666666666
 40
0.6666666666666666
 40
0.6666666666666666
 40
1.0
 40
1.0
 40
1.0
 40
1.0
 10
363.9237
 20
163.608
 30
0.0
 10
362.6528
 20
161.7967
 30
0.0
 10
361.387
 20
159.6971
 30
0.0
 10
359.6844
 20
157.9721
 30
0.0
 10
359.6844
 20
157.9721
 30
0.0
 10
355.5645
 20
161.4585
 30
0.0
 10
347.9543
 20
165.7917
 30
0.0
 10
343.1895
 20
168.6454
 30
0.0
 10
343.1895
 20
168.6454
 30
0.0
 10
341.245
 20
169.7486
 30
0.0
 10
340.6582
 20
169.7879
 30
0.0
 10
339.7565
 20
171.2878
 30
0.0
 10
339.7565
 20
171.2878
 30
0.0
 10
339.7565
 20
171.2878
 30
0.0
 10
371.5709
 20
174.94
 30
0.0
 10
371.5709
 20
174.94
 30
0.0
 10
371.5709
 20
174.94
 30
0.0
 10
370.4194
 20
171.8809
 30
0.0
 10
365.955
 20
166.5038
 30
0.0
 10
363.9237
 20
163.608
 30
0.0
  0
SPLINE
  5
B0
330
1F
100
AcDbEntity
  8
layer 1
 62
     1
370
     9
100
AcDbSpline
210
0.0
220
0.0
230
1.0
 70
    11
 71
     3
 72
    28
 73
    24
 74
     0
 42
0.000000001
 43
0.0000000001
 40
0.0
 40
0.0
 40
0.0
 40
0.0
 40
0.1428571428571428
 40
0.1428571428571428
 40
0.1428571428571428
 40
0.1428571428571428
 40
0.2857142857142857
 40
0.2857142857142857
 40
0.2857142857142857
 40
0.2857142857142857
 40
0.4285714285714285
 40
0.4285714285714285
 40
0.4285714285714285
 40
0.4285714285714285
 40
0.5714285714285714
 40
0.5714285714285714
 40
0.5714285714285714
 40
0.5714285714285714
 40
0.7142857142857143
 40
0.7142857142857143
 40
0.7142857142857143
 40
0.7142857142857143
 40
1.0
 40
1.0
 40
1.0
 40
1.0
 10
366.6651
 20
180.3226
 30
0.0
 10
366.6651
 20
180.3226
 30
0.0
 10
363.3452
 20
179.962
 30
0.0
 10
363.3452
 20
179.962
 30
0.0
 10
363.3452
 20
179.962
 30
0.0
 10
361.0524
 20
179.759
 30
0.0
 10
342.6121
 20
177.1185
 30
0.0
 10
341.298
 20
177.7281
 30
0.0
 10
341.298
 20
177.7281
 30
0.0
 10
346.6001
 20
182.5463
 30
0.0
 10
352.7238
 20
186.6348
 30
0.0
 10
358.3157
 20
191.1698
 30
0.0
 10
358.3157
 20
191.1698
 30
0.0
 10
358.6205
 20
191.4624
 30
0.0
 10
358.9005
 20
191.647
 30
0.0
 10
359.1955
 20
191.8701
 30
0.0
 10
359.1955
 20
191.8701
 30
0.0
 10
359.9095
 20
191.0225
 30
0.0
 10
367.0712
 20
184.8713
 30
0.0
 10
370.362
 20
180.8209
 30
0.0
 10
370.362
 20
180.8209
 30
0.0
 10
370.362
 20
180.8209
 30
0.0
 10
366.6651
 20
180.3226
 30
0.0
 10
366.6651
 20
180.3226
 30
0.0
  0
SPLINE
  5
B1
330
1F
100
AcDbEntity
  8
layer 1
 62
     1
370
     9
100
AcDbSpline
210
0.0
220
0.0
230
1.0
 70
    11
 71
     3
 72
    20
 73
    16
 74
     0
 42
0.000000001
 43
0.0000000001
 40
0.0
 40
0.0
 40
0.0
 40
0.0
 40
0.2
 40
0.2
 40
0.2
 40
0.2
 40
0.4
 40
0.4
 40
0.4
 40
0.4
 40
0.6
 40
0.6
 40
0.6
 40
0.6
 40
1.0
 40
1.0
 40
1.0
 40
1.0
 10
405.884
 20
179.0053
 30
0.0
 10
403.6131
 20
179.1691
 30
0.0
 10
401.9043
 20
179.5708
 30
0.0
 10
399.4956
 20
179.6584
 30
0.0
 10
399.4956
 20
179.6584
 30
0.0
 10
399.4956
 20
179.6584
 30
0.0
 10
385.1077
 20
181.4383
 30
0.0
 10
385.1077
 20
181.4383
 30
0.0
 10
385.1077
 20
181.4383
 30
0.0
 10
386.8252
 20
183.7477
 30
0.0
 10
395.8607
 20
190.3411
 30
0.0
 10
398.6838
 20
192.7365
 30
0.0
 10
398.6838
 20
192.7365
 30
0.0
 10
400.23
 20
190.9157
 30
0.0
 10
405.5309
 20
180.2094
 30
0.0
 10
405.884
 20
179.0053
 30
0.0
  0
SPLINE
  5
B2
330
1F
100
AcDbEntity
  8
layer 1
 62
     1
370
     9
100
AcDbSpline
210
0.0
220
0.0
230
1.0
 70
    11
 71
     3
 72
    32
 73
    28
 74
     0
 42
0.000000001
 43
0.0000000001
 40
0.0
 40
0.0
 40
0.0
 40
0.0
 40
0.125
 40
0.125
 40
0.125
 40
0.125
 40
0.25
 40
0.25
 40
0.25
 40
0.25
 40
0.375
 40
0.375
 40
0.375
 40
0.375
 40
0.5
 40
0.5
 40
0.5
 40
0.5
 40
0.625
 40
0.625
 40
0.625
 40
0.625
 40
0.75
 40
0.75
 40
0.75
 40
0.75
 40
1.0
 40
1.0
 40
1.0
 40
1.0
 10
448.1113
 20
121.7326
 30
0.0
 10
448.1113
 20
121.7326
 30
0.0
 10
445.7768
 20
123.749
 30
0.0
 10
445.7768
 20
123.749
 30
0.0
 10
445.7768
 20
123.749
 30
0.0
 10
445.7768
 20
123.749
 30
0.0
 10
429.4406
 20
138.4903
 30
0.0
 10
429.4406
 20
138.4903
 30
0.0
 10
429.4406
 20
138.4903
 30
0.0
 10
430.0489
 20
140.3488
 30
0.0
 10
440.4331
 20
156.4966
 30
0.0
 10
442.8332
 20
160.5191
 30
0.0
 10
442.8332
 20
160.5191
 30
0.0
 10
449.3328
 20
170.8263
 30
0.0
 10
455.9195
 20
181.1948
 30
0.0
 10
462.1964
 20
191.6179
 30
0.0
 10
462.1964
 20
191.6179
 30
0.0
 10
462.1964
 20
191.6179
 30
0.0
 10
451.7132
 20
128.6721
 30
0.0
 10
451.7132
 20
128.6721
 30
0.0
 10
451.7132
 20
128.6721
 30
0.0
 10
451.3432
 20
126.3564
 30
0.0
 10
450.7738
 20
122.0916
 30
0.0
 10
450.0978
 20
120.0002
 30
0.0
 10
450.0978
 20
120.0002
 30
0.0
 10
449.3571
 20
120.6196
 30
0.0
 10
448.706
 20
120.8093
 30
0.0
 10
448.1113
 20
121.7326
 30
0.0
  0
SPLINE
  5
B3
330
1F
100
AcDbEntity
  8
layer 1
 62
     1
370
     9
100
AcDbSpline
210
0.0
220
0.0
230
1.0
 70
    11
 71
     3
 72
    20
 73
    16
 74
     0
 42
0.000000001
 43
0.0000000001
 40
0.0
 40
0.0
 40
0.0
 40
0.0
 40
0.2
 40
0.2
 40
0.2
 40
0.2
 40
0.4
 40
0.4
 40
0.4
 40
0.4
 40
0.6
 40
0.6
 40
0.6
 40
0.6
 40
1.0
 40
1.0
 40
1.0
 40
1.0
 10
345.099
 20
188.6248
 30
0.0
 10
343.8465
 20
187.6634
 30
0.0
 10
339.8452
 20
184.2064
 30
0.0
 10
338.74
 20
183.7713
 30
0.0
 10
338.74
 20
183.7713
 30
0.0
 10
338.74
 20
183.7713
 30
0.0
 10
341.6589
 20
190.8796
 30
0.0
 10
341.6589
 20
190.8796
 30
0.0
 10
341.6589
 20
190.8796
 30
0.0
 10
342.8321
 20
193.5243
 30
0.0
 10
342.5151
 20
192.8614
 30
0.0
 10
350.0602
 20
192.5892
 30
0.0
 10
350.0602
 20
192.5892
 30
0.0
 10
350.0602
 20
192.5892
 30
0.0
 10
345.099
 20
188.6248
 30
0.0
 10
345.099
 20
188.6248
 30
0.0
  0
SPLINE
  5
B4
330
1F
100
AcDbEntity
  8
layer 1
 62
     1
370
     9
100
AcDbSpline
210
0.0
220
0.0
230
1.0
 70
    11
 71
     3
 72
    24
 73
    20
 74
     0
 42
0.000000001
 43
0.0000000001
 40
0.0
 40
0.0
 40
0.0
 40
0.0
 40
0.1666666666666667
 40
0.1666666666666667
 40
0.1666666666666667
 40
0.1666666666666667
 40
0.3333333333333333
 40
0.3333333333333333
 40
0.3333333333333333
 40
0.3333333333333333
 40
0.5
 40
0.5
 40
0.5
 40
0.5
 40
0.6666666666666666
 40
0.6666666666666666
 40
0.6666666666666666
 40
0.6666666666666666
 40
1.0
 40
1.0
 40
1.0
 40
1.0
 10
326.9482
 20
176.5887
 30
0.0
 10
326.9482
 20
176.5887
 30
0.0
 10
322.844
 20
177.1252
 30
0.0
 10
322.844
 20
177.1252
 30
0.0
 10
322.844
 20
177.1252
 30
0.0
 10
323.353
 20
178.9008
 30
0.0
 10
330.4837
 20
191.669
 30
0.0
 10
332.103
 20
194.617
 30
0.0
 10
332.103
 20
194.617
 30
0.0
 10
333.4026
 20
194.3271
 30
0.0
 10
334.9312
 20
194.0282
 30
0.0
 10
336.001
 20
193.5055
 30
0.0
 10
336.001
 20
193.5055
 30
0.0
 10
335.9716
 20
191.8237
 30
0.0
 10
329.9319
 20
178.662
 30
0.0
 10
328.7804
 20
176.4835
 30
0.0
 10
328.7804
 20
176.4835
 30
0.0
 10
328.7804
 20
176.4835
 30
0.0
 10
326.9482
 20
176.5887
 30
0.0
 10
326.9482
 20
176.5887
 30
0.0
  0
SPLINE
  5
B5
330
1F
100
AcDbEntity
  8
layer 1
 62
     1
370
     9
100
AcDbSpline
210
0.0
220
0.0
230
1.0
 70
    11
 71
     3
 72
    16
 73
    12
 74
     0
 42
0.000000001
 43
0.0000000001
 40
0.0
 40
0.0
 40
0.0
 40
0.0
 40
0.25
 40
0.25
 40
0.25
 40
0.25
 40
0.5
 40
0.5
 40
0.5
 40
0.5
 40
1.0
 40
1.0
 40
1.0
 40
1.0
 10
371.8584
 20
205.7509
 30
0.0
 10
371.8584
 20
205.7509
 30
0.0
 10
373.5869
 20
186.4451
 30
0.0
 10
373.5869
 20
186.4451
 30
0.0
 10
373.5869
 20
186.4451
 30
0.0
 10
371.2108
 20
187.6327
 30
0.0
 10
366.0748
 20
193.4097
 30
0.0
 10
363.3829
 20
195.5914
 30
0.0
 10
363.3829
 20
195.5914
 30
0.0
 10
363.7682
 20
196.7276
 30
0.0
 10
370.8204
 20
205.033
 30
0.0
 10
371.8584
 20
205.7509
 30
0.0
  0
SPLINE
  5
B6
330
1F
100
AcDbEntity
  8
layer 1
 62
     1
370
     9
100
AcDbSpline
210
0.0
220
0.0
230
1.0
 70
    11
 71
     3
 72
    36
 73
    32
 74
     0
 42
0.000000001
 43
0.0000000001
 40
0.0
 40
0.0
 40
0.0
 40
0.0
 40
0.1111111111111111
 40
0.1111111111111111
 40
0.1111111111111111
 40
0.1111111111111111
 40
0.2222222222222222
 40
0.2222222222222222
 40
0.2222222222222222
 40
0.2222222222222222
 40
0.3333333333333333
 40
0.3333333333333333
 40
0.3333333333333333
 40
0.3333333333333333
 40
0.4444444444444444
 40
0.4444444444444444
 40
0.4444444444444444
 40
0.4444444444444444
 40
0.5555555555555556
 40
0.5555555555555556
 40
0.5555555555555556
 40
0.5555555555555556
 40
0.6666666666666666
 40
0.6666666666666666
 40
0.6666666666666666
 40
0.6666666666666666
 40
0.7777777777777778
 40
0.7777777777777778
 40
0.7777777777777778
 40
0.7777777777777778
 40
1.0
 40
1.0
 40
1.0
 40
1.0
 10
450.6457
 20
183.2894
 30
0.0
 10
450.6457
 20
183.2894
 30
0.0
 10
434.0569
 20
156.6494
 30
0.0
 10
434.0569
 20
156.6494
 30
0.0
 10
434.0569
 20
156.6494
 30
0.0
 10
434.0569
 20
156.6494
 30
0.0
 10
428.4284
 20
147.6476
 30
0.0
 10
428.4284
 20
147.6476
 30
0.0
 10
428.4284
 20
147.6476
 30
0.0
 10
426.3748
 20
144.5029
 30
0.0
 10
427.4556
 20
145.3654
 30
0.0
 10
426.4184
 20
145.2283
 30
0.0
 10
426.4184
 20
145.2283
 30
0.0
 10
426.4184
 20
145.2283
 30
0.0
 10
424.9177
 20
149.1491
 30
0.0
 10
424.9177
 20
149.1491
 30
0.0
 10
424.9177
 20
149.1491
 30
0.0
 10
423.6471
 20
152.6437
 30
0.0
 10
415.8067
 20
170.7835
 30
0.0
 10
415.784
 20
172.7437
 30
0.0
 10
415.784
 20
172.7437
 30
0.0
 10
415.3814
 20
173.1647
 30
0.0
 10
415.5903
 20
172.1456
 30
0.0
 10
415.1721
 20
173.7378
 30
0.0
 10
415.1721
 20
173.7378
 30
0.0
 10
416.9308
 20
176.1905
 30
0.0
 10
448.8697
 20
192.0374
 30
0.0
 10
459.3914
 20
197.6046
 30
0.0
 10
459.3914
 20
197.6046
 30
0.0
 10
457.5011
 20
193.4646
 30
0.0
 10
453.1499
 20
187.1705
 30
0.0
 10
450.6457
 20
183.2894
 30
0.0
  0
SPLINE
  5
B7
330
1F
100
AcDbEntity
  8
layer 1
 62
     1
370
     9
100
AcDbSpline
210
0.0
220
0.0
230
1.0
 70
    11
 71
     3
 72
    40
 73
    36
 74
     0
 42
0.000000001
 43
0.0000000001
 40
0.0
 40
0.0
 40
0.0
 40
0.0
 40
0.1
 40
0.1
 40
0.1
 40
0.1
 40
0.2
 40
0.2
 40
0.2
 40
0.2
 40
0.3
 40
0.3
 40
0.3
 40
0.3
 40
0.4
 40
0.4
 40
0.4
 40
0.4
 40
0.5
 40
0.5
 40
0.5
 40
0.5
 40
0.6
 40
0.6
 40
0.6
 40
0.6
 40
0.7
 40
0.7
 40
0.7
 40
0.7
 40
0.8
 40
0.8
 40
0.8
 40
0.8
 40
1.0
 40
1.0
 40
1.0
 40
1.0
 10
477.1981
 20
165.0557
 30
0.0
 10
475.0137
 20
163.4922
 30
0.0
 10
463.4528
 20
154.0977
 30
0.0
 10
461.9156
 20
153.5416
 30
0.0
 10
461.9156
 20
153.5416
 30
0.0
 10
461.9156
 20
153.5416
 30
0.0
 10
462.3142
 20
155.1699
 30
0.0
 10
462.3142
 20
155.1699
 30
0.0
 10
462.3142
 20
155.1699
 30
0.0
 10
462.0134
 20
157.3418
 30
0.0
 10
465.2182
 20
173.951
 30
0.0
 10
465.8262
 20
177.4115
 30
0.0
 10
465.8262
 20
177.4115
 30
0.0
 10
466.9946
 20
184.0631
 30
0.0
 10
467.9501
 20
192.7357
 30
0.0
 10
469.5985
 20
199.0114
 30
0.0
 10
469.5985
 20
199.0114
 30
0.0
 10
469.5985
 20
199.0114
 30
0.0
 10
470.1578
 20
202.3352
 30
0.0
 10
470.1578
 20
202.3352
 30
0.0
 10
470.1578
 20
202.3352
 30
0.0
 10
471.7079
 20
202.9338
 30
0.0
 10
487.1963
 20
203.0736
 30
0.0
 10
489.6027
 20
202.856
 30
0.0
 10
489.6027
 20
202.856
 30
0.0
 10
489.3163
 20
197.8555
 30
0.0
 10
486.6849
 20
180.6395
 30
0.0
 10
485.7015
 20
173.8085
 30
0.0
 10
485.7015
 20
173.8085
 30
0.0
 10
485.3272
 20
171.2085
 30
0.0
 10
485.7557
 20
171.2721
 30
0.0
 10
483.9228
 20
169.9772
 30
0.0
 10
483.9228
 20
169.9772
 30
0.0
 10
481.6558
 20
168.376
 30
0.0
 10
479.4663
 20
166.6789
 30
0.0
 10
477.1981
 20
165.0557
 30
0.0
  0
SPLINE
  5
B8
330
1F
100
AcDbEntity
  8
layer 1
 62
     1
370
     9
100
AcDbSpline
210
0.0
220
0.0
230
1.0
 70
    11
 71
     3
 72
    24
 73
    20
 74
     0
 42
0.000000001
 43
0.0000000001
 40
0.0
 40
0.0
 40
0.0
 40
0.0
 40
0.1666666666666667
 40
0.1666666666666667
 40
0.1666666666666667
 40
0.1666666666666667
 40
0.3333333333333333
 40
0.3333333333333333
 40
0.3333333333333333
 40
0.3333333333333333
 40
0.5
 40
0.5
 40
0.5
 40
0.5
 40
0.6666666666666666
 40
0.6666666666666666
 40
0.6666666666666666
 40
0.6666666666666666
 40
1.0
 40
1.0
 40
1.0
 40
1.0
 10
377.5065
 20
207.4586
 30
0.0
 10
377.9373
 20
207.0458
 30
0.0
 10
392.1846
 20
198.8154
 30
0.0
 10
394.1154
 20
197.0147
 30
0.0
 10
394.1154
 20
197.0147
 30
0.0
 10
394.1154
 20
197.0147
 30
0.0
 10
390.3238
 20
193.4965
 30
0.0
 10
390.3238
 20
193.4965
 30
0.0
 10
390.3238
 20
193.4965
 30
0.0
 10
388.8836
 20
192.7125
 30
0.0
 10
382.2611
 20
186.6128
 30
0.0
 10
380.9902
 20
185.9726
 30
0.0
 10
380.9902
 20
185.9726
 30
0.0
 10
380.9902
 20
185.9726
 30
0.0
 10
379.2951
 20
184.629
 30
0.0
 10
379.2951
 20
184.629
 30
0.0
 10
379.2951
 20
184.629
 30
0.0
 10
379.1717
 20
185.938
 30
0.0
 10
377.0203
 20
205.9112
 30
0.0
 10
377.5065
 20
207.4586
 30
0.0
  0
SPLINE
  5
B9
330
1F
100
AcDbEntity
  8
layer 1
 62
     1
370
     9
100
AcDbSpline
210
0.0
220
0.0
230
1.0
 70
    11
 71
     3
 72
    40
 73
    36
 74
     0
 42
0.000000001
 43
0.0000000001
 40
0.0
 40
0.0
 40
0.0
 40
0.0
 40
0.1
 40
0.1
 40
0.1
 40
0.1
 40
0.2
 40
0.2
 40
0.2
 40
0.2
 40
0.3
 40
0.3
 40
0.3
 40
0.3
 40
0.4
 40
0.4
 40
0.4
 40
0.4
 40
0.5
 40
0.5
 40
0.5
 40
0.5
 40
0.6
 40
0.6
 40
0.6
 40
0.6
 40
0.7
 40
0.7
 40
0.7
 40
0.7
 40
0.8
 40
0.8
 40
0.8
 40
0.8
 40
1.0
 40
1.0
 40
1.0
 40
1.0
 10
454.5131
 20
201.9197
 30
0.0
 10
454.5131
 20
201.9197
 30
0.0
 10
412.5222
 20
179.4726
 30
0.0
 10
412.5222
 20
179.4726
 30
0.0
 10
412.5222
 20
179.4726
 30
0.0
 10
412.5222
 20
179.4726
 30
0.0
 10
405.1775
 20
193.1964
 30
0.0
 10
405.1775
 20
193.1964
 30
0.0
 10
405.1775
 20
193.1964
 30
0.0
 10
403.1611
 20
197.4192
 30
0.0
 10
402.5849
 20
196.4424
 30
0.0
 10
403.6999
 20
198.9784
 30
0.0
 10
403.6999
 20
198.9784
 30
0.0
 10
405.8082
 20
203.7738
 30
0.0
 10
416.8251
 20
227.2063
 30
0.0
 10
417.6483
 20
227.9411
 30
0.0
 10
417.6483
 20
227.9411
 30
0.0
 10
417.6483
 20
227.9411
 30
0.0
 10
418.8737
 20
230.9539
 30
0.0
 10
418.8737
 20
230.9539
 30
0.0
 10
418.8737
 20
230.9539
 30
0.0
 10
418.8737
 20
230.9539
 30
0.0
 10
420.6305
 20
233.9984
 30
0.0
 10
420.6305
 20
233.9984
 30
0.0
 10
420.6305
 20
233.9984
 30
0.0
 10
420.6305
 20
233.9984
 30
0.0
 10
438.6269
 20
221.6564
 30
0.0
 10
438.6269
 20
221.6564
 30
0.0
 10
438.6269
 20
221.6564
 30
0.0
 10
445.9803
 20
216.709
 30
0.0
 10
455.0276
 20
210.7914
 30
0.0
 10
461.7082
 20
205.8695
 30
0.0
 10
461.7082
 20
205.8695
 30
0.0
 10
460.2315
 20
204.6018
 30
0.0
 10
456.5071
 20
203.0465
 30
0.0
 10
454.5131
 20
201.9197
 30
0.0
  0
SPLINE
  5
BA
330
1F
100
AcDbEntity
  8
layer 1
 62
     1
370
     9
100
AcDbSpline
210
0.0
220
0.0
230
1.0
 70
    11
 71
     3
 72
    24
 73
    20
 74
     0
 42
0.000000001
 43
0.0000000001
 40
0.0
 40
0.0
 40
0.0
 40
0.0
 40
0.1666666666666667
 40
0.1666666666666667
 40
0.1666666666666667
 40
0.1666666666666667
 40
0.3333333333333333
 40
0.3333333333333333
 40
0.3333333333333333
 40
0.3333333333333333
 40
0.5
 40
0.5
 40
0.5
 40
0.5
 40
0.6666666666666666
 40
0.6666666666666666
 40
0.6666666666666666
 40
0.6666666666666666
 40
1.0
 40
1.0
 40
1.0
 40
1.0
 10
361.3002
 20
202.5182
 30
0.0
 10
355.8803
 20
196.9687
 30
0.0
 10
342.6039
 20
196.5453
 30
0.0
 10
335.5038
 20
200.3401
 30
0.0
 10
335.5038
 20
200.3401
 30
0.0
 10
336.6557
 20
203.0276
 30
0.0
 10
342.4016
 20
207.049
 30
0.0
 10
344.6717
 20
210.511
 30
0.0
 10
344.6717
 20
210.511
 30
0.0
 10
345.359
 20
211.273
 30
0.0
 10
345.4568
 20
211.0401
 30
0.0
 10
346.0216
 20
212.1354
 30
0.0
 10
346.0216
 20
212.1354
 30
0.0
 10
346.0216
 20
212.1354
 30
0.0
 10
367.5068
 20
210.3476
 30
0.0
 10
367.5068
 20
210.3476
 30
0.0
 10
367.5068
 20
210.3476
 30
0.0
 10
366.0108
 20
207.7865
 30
0.0
 10
363.2706
 20
204.8826
 30
0.0
 10
361.3002
 20
202.5182
 30
0.0
  0
SPLINE
  5
BB
330
1F
100
AcDbEntity
  8
layer 1
 62
     1
370
     9
100
AcDbSpline
210
0.0
220
0.0
230
1.0
 70
    11
 71
     3
 72
    36
 73
    32
 74
     0
 42
0.000000001
 43
0.0000000001
 40
0.0
 40
0.0
 40
0.0
 40
0.0
 40
0.1111111111111111
 40
0.1111111111111111
 40
0.1111111111111111
 40
0.1111111111111111
 40
0.2222222222222222
 40
0.2222222222222222
 40
0.2222222222222222
 40
0.2222222222222222
 40
0.3333333333333333
 40
0.3333333333333333
 40
0.3333333333333333
 40
0.3333333333333333
 40
0.4444444444444444
 40
0.4444444444444444
 40
0.4444444444444444
 40
0.4444444444444444
 40
0.5555555555555556
 40
0.5555555555555556
 40
0.5555555555555556
 40
0.5555555555555556
 40
0.6666666666666666
 40
0.6666666666666666
 40
0.6666666666666666
 40
0.6666666666666666
 40
0.7777777777777778
 40
0.7777777777777778
 40
0.7777777777777778
 40
0.7777777777777778
 40
1.0
 40
1.0
 40
1.0
 40
1.0
 10
336.2976
 20
210.178
 30
0.0
 10
334.7336
 20
208.6443
 30
0.0
 10
333.7883
 20
207.3965
 30
0.0
 10
332.5696
 20
206.3656
 30
0.0
 10
332.5696
 20
206.3656
 30
0.0
 10
331.6223
 20
212.54
 30
0.0
 10
331.3662
 20
214.1702
 30
0.0
 10
332.9887
 20
220.1486
 30
0.0
 10
332.9887
 20
220.1486
 30
0.0
 10
332.9887
 20
220.1486
 30
0.0
 10
336.9126
 20
233.2617
 30
0.0
 10
336.9126
 20
233.2617
 30
0.0
 10
336.9126
 20
233.2617
 30
0.0
 10
337.539
 20
234.1434
 30
0.0
 10
337.008
 20
233.9007
 30
0.0
 10
340.1563
 20
233.8602
 30
0.0
 10
340.1563
 20
233.8602
 30
0.0
 10
341.2481
 20
233.8461
 30
0.0
 10
342.3973
 20
233.8555
 30
0.0
 10
343.484
 20
233.9419
 30
0.0
 10
343.484
 20
233.9419
 30
0.0
 10
343.7071
 20
230.2041
 30
0.0
 10
343.6003
 20
226.0642
 30
0.0
 10
343.6148
 20
222.2867
 30
0.0
 10
343.6148
 20
222.2867
 30
0.0
 10
343.6211
 20
220.5991
 30
0.0
 10
343.9298
 20
218.2729
 30
0.0
 10
343.0394
 20
217.0781
 30
0.0
 10
343.0394
 20
217.0781
 30
0.0
 10
341.5988
 20
215.145
 30
0.0
 10
338.1116
 20
211.9563
 30
0.0
 10
336.2976
 20
210.178
 30
0.0
  0
SPLINE
  5
BC
330
1F
100
AcDbEntity
  8
layer 1
 62
     1
370
     9
100
AcDbSpline
210
0.0
220
0.0
230
1.0
 70
    11
 71
     3
 72
    28
 73
    24
 74
     0
 42
0.000000001
 43
0.0000000001
 40
0.0
 40
0.0
 40
0.0
 40
0.0
 40
0.1428571428571428
 40
0.1428571428571428
 40
0.1428571428571428
 40
0.1428571428571428
 40
0.2857142857142857
 40
0.2857142857142857
 40
0.2857142857142857
 40
0.2857142857142857
 40
0.4285714285714285
 40
0.4285714285714285
 40
0.4285714285714285
 40
0.4285714285714285
 40
0.5714285714285714
 40
0.5714285714285714
 40
0.5714285714285714
 40
0.5714285714285714
 40
0.7142857142857143
 40
0.7142857142857143
 40
0.7142857142857143
 40
0.7142857142857143
 40
1.0
 40
1.0
 40
1.0
 40
1.0
 10
349.365
 20
224.3141
 30
0.0
 10
349.365
 20
224.3141
 30
0.0
 10
349.4094
 20
230.3066
 30
0.0
 10
349.4094
 20
230.3066
 30
0.0
 10
349.4094
 20
230.3066
 30
0.0
 10
349.4094
 20
230.3066
 30
0.0
 10
355.4106
 20
225.2367
 30
0.0
 10
355.4106
 20
225.2367
 30
0.0
 10
355.4106
 20
225.2367
 30
0.0
 10
356.1199
 20
224.5317
 30
0.0
 10
356.5122
 20
224.3989
 30
0.0
 10
357.282
 20
223.7737
 30
0.0
 10
357.282
 20
223.7737
 30
0.0
 10
357.282
 20
223.7737
 30
0.0
 10
364.7155
 20
216.9709
 30
0.0
 10
364.7155
 20
216.9709
 30
0.0
 10
364.7155
 20
216.9709
 30
0.0
 10
363.7156
 20
216.4823
 30
0.0
 10
352.2686
 20
217.5109
 30
0.0
 10
349.4216
 20
217.7179
 30
0.0
 10
349.4216
 20
217.7179
 30
0.0
 10
349.4216
 20
217.7179
 30
0.0
 10
349.365
 20
224.3141
 30
0.0
 10
349.365
 20
224.3141
 30
0.0
  0
SPLINE
  5
BD
330
1F
100
AcDbEntity
  8
layer 1
 62
     1
370
     9
100
AcDbSpline
210
0.0
220
0.0
230
1.0
 70
    11
 71
     3
 72
    24
 73
    20
 74
     0
 42
0.000000001
 43
0.0000000001
 40
0.0
 40
0.0
 40
0.0
 40
0.0
 40
0.1666666666666667
 40
0.1666666666666667
 40
0.1666666666666667
 40
0.1666666666666667
 40
0.3333333333333333
 40
0.3333333333333333
 40
0.3333333333333333
 40
0.3333333333333333
 40
0.5
 40
0.5
 40
0.5
 40
0.5
 40
0.6666666666666666
 40
0.6666666666666666
 40
0.6666666666666666
 40
0.6666666666666666
 40
1.0
 40
1.0
 40
1.0
 40
1.0
 10
375.4041
 20
215.9655
 30
0.0
 10
375.4041
 20
215.9655
 30
0.0
 10
370.7815
 20
219.9935
 30
0.0
 10
370.7815
 20
219.9935
 30
0.0
 10
370.7815
 20
219.9935
 30
0.0
 10
368.2314
 20
222.3739
 30
0.0
 10
358.1841
 20
229.9339
 30
0.0
 10
356.3245
 20
232.6191
 30
0.0
 10
356.3245
 20
232.6191
 30
0.0
 10
356.3245
 20
232.6191
 30
0.0
 10
391.7483
 20
228.6626
 30
0.0
 10
391.7483
 20
228.6626
 30
0.0
 10
391.7483
 20
228.6626
 30
0.0
 10
392.7541
 20
226.9003
 30
0.0
 10
395.2743
 20
207.1
 30
0.0
 10
395.8167
 20
203.1557
 30
0.0
 10
395.8167
 20
203.1557
 30
0.0
 10
389.0799
 20
207.4429
 30
0.0
 10
382.2403
 20
211.6747
 30
0.0
 10
375.4041
 20
215.9655
 30
0.0
  0
SPLINE
  5
BE
330
1F
100
AcDbEntity
  8
layer 1
 62
     1
370
     9
100
AcDbSpline
210
0.0
220
0.0
230
1.0
 70
    11
 71
     3
 72
    28
 73
    24
 74
     0
 42
0.000000001
 43
0.0000000001
 40
0.0
 40
0.0
 40
0.0
 40
0.0
 40
0.1428571428571428
 40
0.1428571428571428
 40
0.1428571428571428
 40
0.1428571428571428
 40
0.2857142857142857
 40
0.2857142857142857
 40
0.2857142857142857
 40
0.2857142857142857
 40
0.4285714285714285
 40
0.4285714285714285
 40
0.4285714285714285
 40
0.4285714285714285
 40
0.5714285714285714
 40
0.5714285714285714
 40
0.5714285714285714
 40
0.5714285714285714
 40
0.7142857142857143
 40
0.7142857142857143
 40
0.7142857142857143
 40
0.7142857142857143
 40
1.0
 40
1.0
 40
1.0
 40
1.0
 10
400.5851
 20
208.6549
 30
0.0
 10
400.5851
 20
208.6549
 30
0.0
 10
399.6405
 20
215.2758
 30
0.0
 10
399.6405
 20
215.2758
 30
0.0
 10
399.6405
 20
215.2758
 30
0.0
 10
399.0812
 20
219.2021
 30
0.0
 10
398.1638
 20
223.4387
 30
0.0
 10
397.9065
 20
227.3779
 30
0.0
 10
397.9065
 20
227.3779
 30
0.0
 10
397.7094
 20
228.6214
 30
0.0
 10
397.5676
 20
228.2871
 30
0.0
 10
401.9632
 20
229.6504
 30
0.0
 10
401.9632
 20
229.6504
 30
0.0
 10
405.8593
 20
230.8584
 30
0.0
 10
409.5519
 20
232.3391
 30
0.0
 10
413.5445
 20
233.2298
 30
0.0
 10
413.5445
 20
233.2298
 30
0.0
 10
413.0292
 20
230.7127
 30
0.0
 10
402.0696
 20
209.3143
 30
0.0
 10
401.4605
 20
206.8569
 30
0.0
 10
401.4605
 20
206.8569
 30
0.0
 10
400.7198
 20
207.5328
 30
0.0
 10
400.9063
 20
207.3412
 30
0.0
 10
400.5851
 20
208.6549
 30
0.0
  0
SPLINE
  5
BF
330
1F
100
AcDbEntity
  8
layer 1
 62
     1
370
     9
100
AcDbSpline
210
0.0
220
0.0
230
1.0
 70
    11
 71
     3
 72
    28
 73
    24
 74
     0
 42
0.000000001
 43
0.0000000001
 40
0.0
 40
0.0
 40
0.0
 40
0.0
 40
0.1428571428571428
 40
0.1428571428571428
 40
0.1428571428571428
 40
0.1428571428571428
 40
0.2857142857142857
 40
0.2857142857142857
 40
0.2857142857142857
 40
0.2857142857142857
 40
0.4285714285714285
 40
0.4285714285714285
 40
0.4285714285714285
 40
0.4285714285714285
 40
0.5714285714285714
 40
0.5714285714285714
 40
0.5714285714285714
 40
0.5714285714285714
 40
0.7142857142857143
 40
0.7142857142857143
 40
0.7142857142857143
 40
0.7142857142857143
 40
1.0
 40
1.0
 40
1.0
 40
1.0
 10
476.9142
 20
238.2299
 30
0.0
 10
479.2118
 20
232.702
 30
0.0
 10
487.6197
 20
213.3918
 30
0.0
 10
488.1899
 20
209.1058
 30
0.0
 10
488.1899
 20
209.1058
 30
0.0
 10
488.1899
 20
209.1058
 30
0.0
 10
472.8367
 20
208.8159
 30
0.0
 10
472.8367
 20
208.8159
 30
0.0
 10
472.8367
 20
208.8159
 30
0.0
 10
468.5428
 20
208.728
 30
0.0
 10
468.804
 20
208.7767
 30
0.0
 10
465.9911
 20
210.795
 30
0.0
 10
465.9911
 20
210.795
 30
0.0
 10
465.9911
 20
210.795
 30
0.0
 10
449.9541
 20
221.6858
 30
0.0
 10
449.9541
 20
221.6858
 30
0.0
 10
449.9541
 20
221.6858
 30
0.0
 10
443.1242
 20
226.5139
 30
0.0
 10
435.9393
 20
230.8828
 30
0.0
 10
429.3157
 20
235.8715
 30
0.0
 10
429.3157
 20
235.8715
 30
0.0
 10
443.5197
 20
237.4703
 30
0.0
 10
464.6149
 20
235.833
 30
0.0
 10
476.9142
 20
238.2299
 30
0.0
  0
SPLINE
  5
C0
330
1F
100
AcDbEntity
  8
layer 1
 62
     1
370
     9
100
AcDbSpline
210
0.0
220
0.0
230
1.0
 70
    11
 71
     3
 72
    28
 73
    24
 74
     0
 42
0.000000001
 43
0.0000000001
 40
0.0
 40
0.0
 40
0.0
 40
0.0
 40
0.1428571428571428
 40
0.1428571428571428
 40
0.1428571428571428
 40
0.1428571428571428
 40
0.2857142857142857
 40
0.2857142857142857
 40
0.2857142857142857
 40
0.2857142857142857
 40
0.4285714285714285
 40
0.4285714285714285
 40
0.4285714285714285
 40
0.4285714285714285
 40
0.5714285714285714
 40
0.5714285714285714
 40
0.5714285714285714
 40
0.5714285714285714
 40
0.7142857142857143
 40
0.7142857142857143
 40
0.7142857142857143
 40
0.7142857142857143
 40
1.0
 40
1.0
 40
1.0
 40
1.0
 10
353.4955
 20
250.8854
 30
0.0
 10
353.4955
 20
250.8854
 30
0.0
 10
353.9841
 20
253.386
 30
0.0
 10
353.9841
 20
253.386
 30
0.0
 10
353.9841
 20
253.386
 30
0.0
 10
355.3799
 20
253.7128
 30
0.0
 10
357.1815
 20
252.5718
 30
0.0
 10
358.6283
 20
252.0338
 30
0.0
 10
358.6283
 20
252.0338
 30
0.0
 10
376.5776
 20
245.4128
 30
0.0
 10
369.6362
 20
249.5928
 30
0.0
 10
384.2609
 20
235.7041
 30
0.0
 10
384.2609
 20
235.7041
 30
0.0
 10
376.9625
 20
235.9967
 30
0.0
 10
368.978
 20
237.2846
 30
0.0
 10
361.667
 20
238.1219
 30
0.0
 10
361.667
 20
238.1219
 30
0.0
 10
358.0031
 20
238.5417
 30
0.0
 10
354.2044
 20
239.125
 30
0.0
 10
350.5594
 20
239.4176
 30
0.0
 10
350.5594
 20
239.4176
 30
0.0
 10
350.5268
 20
240.4905
 30
0.0
 10
352.9669
 20
250.0257
 30
0.0
 10
353.4955
 20
250.8854
 30
0.0
  0
SPLINE
  5
C1
330
1F
100
AcDbEntity
  8
layer 1
 62
     1
370
     9
100
AcDbSpline
210
0.0
220
0.0
230
1.0
 70
    11
 71
     3
 72
    16
 73
    12
 74
     0
 42
0.000000001
 43
0.0000000001
 40
0.0
 40
0.0
 40
0.0
 40
0.0
 40
0.25
 40
0.25
 40
0.25
 40
0.25
 40
0.5
 40
0.5
 40
0.5
 40
0.5
 40
1.0
 40
1.0
 40
1.0
 40
1.0
 10
342.5493
 20
240.2431
 30
0.0
 10
343.0457
 20
241.1409
 30
0.0
 10
344.3461
 20
242.6067
 30
0.0
 10
345.1163
 20
243.226
 30
0.0
 10
345.1163
 20
243.226
 30
0.0
 10
345.1163
 20
243.226
 30
0.0
 10
344.2562
 20
240.1261
 30
0.0
 10
344.2562
 20
240.1261
 30
0.0
 10
344.2562
 20
240.1261
 30
0.0
 10
344.2562
 20
240.1261
 30
0.0
 10
342.5493
 20
240.2431
 30
0.0
 10
342.5493
 20
240.2431
 30
0.0
  0
SPLINE
  5
C2
330
1F
100
AcDbEntity
  8
layer 1
 62
     1
370
     9
100
AcDbSpline
210
0.0
220
0.0
230
1.0
 70
    11
 71
     3
 72
    20
 73
    16
 74
     0
 42
0.000000001
 43
0.0000000001
 40
0.0
 40
0.0
 40
0.0
 40
0.0
 40
0.2
 40
0.2
 40
0.2
 40
0.2
 40
0.4
 40
0.4
 40
0.4
 40
0.4
 40
0.6
 40
0.6
 40
0.6
 40
0.6
 40
1.0
 40
1.0
 40
1.0
 40
1.0
 10
401.6785
 20
236.245
 30
0.0
 10
401.041
 20
235.7678
 30
0.0
 10
396.0225
 20
234.1885
 30
0.0
 10
394.8439
 20
234.132
 30
0.0
 10
394.8439
 20
234.132
 30
0.0
 10
392.2392
 20
236.8411
 30
0.0
 10
387.9956
 20
241.6503
 30
0.0
 10
385.1949
 20
243.8957
 30
0.0
 10
385.1949
 20
243.8957
 30
0.0
 10
385.1949
 20
243.8957
 30
0.0
 10
407.6274
 20
238.1097
 30
0.0
 10
407.6274
 20
238.1097
 30
0.0
 10
407.6274
 20
238.1097
 30
0.0
 10
407.6274
 20
238.1097
 30
0.0
 10
401.6785
 20
236.245
 30
0.0
 10
401.6785
 20
236.245
 30
0.0
  0
SPLINE
  5
C3
330
1F
100
AcDbEntity
  8
layer 1
 62
     1
370
     9
100
AcDbSpline
210
0.0
220
0.0
230
1.0
 70
    11
 71
     3
 72
    36
 73
    32
 74
     0
 42
0.000000001
 43
0.0000000001
 40
0.0
 40
0.0
 40
0.0
 40
0.0
 40
0.1111111111111111
 40
0.1111111111111111
 40
0.1111111111111111
 40
0.1111111111111111
 40
0.2222222222222222
 40
0.2222222222222222
 40
0.2222222222222222
 40
0.2222222222222222
 40
0.3333333333333333
 40
0.3333333333333333
 40
0.3333333333333333
 40
0.3333333333333333
 40
0.4444444444444444
 40
0.4444444444444444
 40
0.4444444444444444
 40
0.4444444444444444
 40
0.5555555555555556
 40
0.5555555555555556
 40
0.5555555555555556
 40
0.5555555555555556
 40
0.6666666666666666
 40
0.6666666666666666
 40
0.6666666666666666
 40
0.6666666666666666
 40
0.7777777777777778
 40
0.7777777777777778
 40
0.7777777777777778
 40
0.7777777777777778
 40
1.0
 40
1.0
 40
1.0
 40
1.0
 10
468.1834
 20
244.0005
 30
0.0
 10
468.1834
 20
244.0005
 30
0.0
 10
464.3314
 20
243.7731
 30
0.0
 10
464.3314
 20
243.7731
 30
0.0
 10
464.3314
 20
243.7731
 30
0.0
 10
464.3314
 20
243.7731
 30
0.0
 10
423.7249
 20
242.038
 30
0.0
 10
423.7249
 20
242.038
 30
0.0
 10
423.7249
 20
242.038
 30
0.0
 10
423.7249
 20
242.038
 30
0.0
 10
431.8245
 20
266.8666
 30
0.0
 10
431.8245
 20
266.8666
 30
0.0
 10
431.8245
 20
266.8666
 30
0.0
 10
431.8245
 20
266.8666
 30
0.0
 10
432.3834
 20
268.4694
 30
0.0
 10
432.3834
 20
268.4694
 30
0.0
 10
432.3834
 20
268.4694
 30
0.0
 10
432.3834
 20
268.4694
 30
0.0
 10
446.2234
 20
267.9663
 30
0.0
 10
446.2234
 20
267.9663
 30
0.0
 10
446.2234
 20
267.9663
 30
0.0
 10
453.0541
 20
267.6454
 30
0.0
 10
451.174
 20
268.7966
 30
0.0
 10
455.7275
 20
263.37
 30
0.0
 10
455.7275
 20
263.37
 30
0.0
 10
458.256
 20
260.3875
 30
0.0
 10
470.7351
 20
246.2329
 30
0.0
 10
471.889
 20
244.1706
 30
0.0
 10
471.889
 20
244.1706
 30
0.0
 10
471.889
 20
244.1706
 30
0.0
 10
468.1834
 20
244.0005
 30
0.0
 10
468.1834
 20
244.0005
 30
0.0
  0
SPLINE
  5
C4
330
1F
100
AcDbEntity
  8
layer 1
 62
     1
370
     9
100
AcDbSpline
210
0.0
220
0.0
230
1.0
 70
    11
 71
     3
 72
    24
 73
    20
 74
     0
 42
0.000000001
 43
0.0000000001
 40
0.0
 40
0.0
 40
0.0
 40
0.0
 40
0.1666666666666667
 40
0.1666666666666667
 40
0.1666666666666667
 40
0.1666666666666667
 40
0.3333333333333333
 40
0.3333333333333333
 40
0.3333333333333333
 40
0.3333333333333333
 40
0.5
 40
0.5
 40
0.5
 40
0.5
 40
0.6666666666666666
 40
0.6666666666666666
 40
0.6666666666666666
 40
0.6666666666666666
 40
1.0
 40
1.0
 40
1.0
 40
1.0
 10
378.3317
 20
252.1257
 30
0.0
 10
377.8168
 20
261.4495
 30
0.0
 10
375.9712
 20
280.4388
 30
0.0
 10
376.6998
 20
289.0607
 30
0.0
 10
376.6998
 20
289.0607
 30
0.0
 10
380.2282
 20
284.9915
 30
0.0
 10
384.2558
 20
278.9373
 30
0.0
 10
387.5474
 20
274.9961
 30
0.0
 10
387.5474
 20
274.9961
 30
0.0
 10
387.5474
 20
274.9961
 30
0.0
 10
391.9211
 20
269.3959
 30
0.0
 10
391.9211
 20
269.3959
 30
0.0
 10
391.9211
 20
269.3959
 30
0.0
 10
391.9211
 20
269.3959
 30
0.0
 10
411.2811
 20
243.9911
 30
0.0
 10
411.2811
 20
243.9911
 30
0.0
 10
411.2811
 20
243.9911
 30
0.0
 10
400.7846
 20
246.6001
 30
0.0
 10
387.9288
 20
248.7378
 30
0.0
 10
378.3317
 20
252.1257
 30
0.0
  0
SPLINE
  5
C5
330
1F
100
AcDbEntity
  8
layer 1
 62
     1
370
     9
100
AcDbSpline
210
0.0
220
0.0
230
1.0
 70
    11
 71
     3
 72
    28
 73
    24
 74
     0
 42
0.000000001
 43
0.0000000001
 40
0.0
 40
0.0
 40
0.0
 40
0.0
 40
0.1428571428571428
 40
0.1428571428571428
 40
0.1428571428571428
 40
0.1428571428571428
 40
0.2857142857142857
 40
0.2857142857142857
 40
0.2857142857142857
 40
0.2857142857142857
 40
0.4285714285714285
 40
0.4285714285714285
 40
0.4285714285714285
 40
0.4285714285714285
 40
0.5714285714285714
 40
0.5714285714285714
 40
0.5714285714285714
 40
0.5714285714285714
 40
0.7142857142857143
 40
0.7142857142857143
 40
0.7142857142857143
 40
0.7142857142857143
 40
1.0
 40
1.0
 40
1.0
 40
1.0
 10
358.1641
 20
258.9249
 30
0.0
 10
355.8347
 20
259.7398
 30
0.0
 10
356.0951
 20
259.3227
 30
0.0
 10
354.9251
 20
261.3187
 30
0.0
 10
354.9251
 20
261.3187
 30
0.0
 10
351.3633
 20
267.3949
 30
0.0
 10
342.2697
 20
278.9923
 30
0.0
 10
339.7023
 20
285.3662
 30
0.0
 10
339.7023
 20
285.3662
 30
0.0
 10
339.7023
 20
285.3662
 30
0.0
 10
364.2159
 20
275.9348
 30
0.0
 10
364.2159
 20
275.9348
 30
0.0
 10
364.2159
 20
275.9348
 30
0.0
 10
364.2159
 20
275.9348
 30
0.0
 10
372.1341
 20
272.4982
 30
0.0
 10
372.1341
 20
272.4982
 30
0.0
 10
372.1341
 20
272.4982
 30
0.0
 10
372.1341
 20
272.4982
 30
0.0
 10
372.5932
 20
253.5054
 30
0.0
 10
372.5932
 20
253.5054
 30
0.0
 10
372.5932
 20
253.5054
 30
0.0
 10
368.3029
 20
254.4118
 30
0.0
 10
362.4364
 20
257.4293
 30
0.0
 10
358.1641
 20
258.9249
 30
0.0
  0
SPLINE
  5
C6
330
1F
100
AcDbEntity
  8
layer 1
 62
     1
370
     9
100
AcDbSpline
210
0.0
220
0.0
230
1.0
 70
    11
 71
     3
 72
    20
 73
    16
 74
     0
 42
0.000000001
 43
0.0000000001
 40
0.0
 40
0.0
 40
0.0
 40
0.0
 40
0.2
 40
0.2
 40
0.2
 40
0.2
 40
0.4
 40
0.4
 40
0.4
 40
0.4
 40
0.6
 40
0.6
 40
0.6
 40
0.6
 40
1.0
 40
1.0
 40
1.0
 40
1.0
 10
384.3709
 20
289.4606
 30
0.0
 10
387.4716
 20
288.549
 30
0.0
 10
415.5102
 20
275.0526
 30
0.0
 10
421.7529
 20
272.2747
 30
0.0
 10
421.7529
 20
272.2747
 30
0.0
 10
423.3997
 20
271.5423
 30
0.0
 10
425.4353
 20
270.6024
 30
0.0
 10
427.024
 20
269.815
 30
0.0
 10
427.024
 20
269.815
 30
0.0
 10
427.024
 20
269.815
 30
0.0
 10
418.6353
 20
245.0759
 30
0.0
 10
418.6353
 20
245.0759
 30
0.0
 10
418.6353
 20
245.0759
 30
0.0
 10
417.4095
 20
245.8252
 30
0.0
 10
386.0499
 20
286.3449
 30
0.0
 10
384.3709
 20
289.4606
 30
0.0
  0
SPLINE
  5
C7
330
1F
100
AcDbEntity
  8
layer 1
 62
     1
370
     9
100
AcDbSpline
210
0.0
220
0.0
230
1.0
 70
    11
 71
     3
 72
   448
 73
   444
 74
     0
 42
0.000000001
 43
0.0000000001
 40
0.0
 40
0.0
 40
0.0
 40
0.0
 40
0.0089285714285714
 40
0.0089285714285714
 40
0.0089285714285714
 40
0.0089285714285714
 40
0.0178571428571429
 40
0.0178571428571429
 40
0.0178571428571429
 40
0.0178571428571429
 40
0.0267857142857143
 40
0.0267857142857143
 40
0.0267857142857143
 40
0.0267857142857143
 40
0.0357142857142857
 40
0.0357142857142857
 40
0.0357142857142857
 40
0.0357142857142857
 40
0.0446428571428571
 40
0.0446428571428571
 40
0.0446428571428571
 40
0.0446428571428571
 40
0.0535714285714286
 40
0.0535714285714286
 40
0.0535714285714286
 40
0.0535714285714286
 40
0.0625
 40
0.0625
 40
0.0625
 40
0.0625
 40
0.0714285714285714
 40
0.0714285714285714
 40
0.0714285714285714
 40
0.0714285714285714
 40
0.0803571428571429
 40
0.0803571428571429
 40
0.0803571428571429
 40
0.0803571428571429
 40
0.0892857142857143
 40
0.0892857142857143
 40
0.0892857142857143
 40
0.0892857142857143
 40
0.0982142857142857
 40
0.0982142857142857
 40
0.0982142857142857
 40
0.0982142857142857
 40
0.1071428571428571
 40
0.1071428571428571
 40
0.1071428571428571
 40
0.1071428571428571
 40
0.1160714285714286
 40
0.1160714285714286
 40
0.1160714285714286
 40
0.1160714285714286
 40
0.125
 40
0.125
 40
0.125
 40
0.125
 40
0.1339285714285714
 40
0.1339285714285714
 40
0.1339285714285714
 40
0.1339285714285714
 40
0.1428571428571428
 40
0.1428571428571428
 40
0.1428571428571428
 40
0.1428571428571428
 40
0.1517857142857143
 40
0.1517857142857143
 40
0.1517857142857143
 40
0.1517857142857143
 40
0.1607142857142857
 40
0.1607142857142857
 40
0.1607142857142857
 40
0.1607142857142857
 40
0.1696428571428572
 40
0.1696428571428572
 40
0.1696428571428572
 40
0.1696428571428572
 40
0.1785714285714286
 40
0.1785714285714286
 40
0.1785714285714286
 40
0.1785714285714286
 40
0.1875
 40
0.1875
 40
0.1875
 40
0.1875
 40
0.1964285714285714
 40
0.1964285714285714
 40
0.1964285714285714
 40
0.1964285714285714
 40
0.2053571428571428
 40
0.2053571428571428
 40
0.2053571428571428
 40
0.2053571428571428
 40
0.2142857142857143
 40
0.2142857142857143
 40
0.2142857142857143
 40
0.2142857142857143
 40
0.2232142857142857
 40
0.2232142857142857
 40
0.2232142857142857
 40
0.2232142857142857
 40
0.2321428571428572
 40
0.2321428571428572
 40
0.2321428571428572
 40
0.2321428571428572
 40
0.2410714285714286
 40
0.2410714285714286
 40
0.2410714285714286
 40
0.2410714285714286
 40
0.25
 40
0.25
 40
0.25
 40
0.25
 40
0.2589285714285715
 40
0.2589285714285715
 40
0.2589285714285715
 40
0.2589285714285715
 40
0.2678571428571428
 40
0.2678571428571428
 40
0.2678571428571428
 40
0.2678571428571428
 40
0.2767857142857143
 40
0.2767857142857143
 40
0.2767857142857143
 40
0.2767857142857143
 40
0.2857142857142857
 40
0.2857142857142857
 40
0.2857142857142857
 40
0.2857142857142857
 40
0.2946428571428572
 40
0.2946428571428572
 40
0.2946428571428572
 40
0.2946428571428572
 40
0.3035714285714285
 40
0.3035714285714285
 40
0.3035714285714285
 40
0.3035714285714285
 40
0.3125
 40
0.3125
 40
0.3125
 40
0.3125
 40
0.3214285714285715
 40
0.3214285714285715
 40
0.3214285714285715
 40
0.3214285714285715
 40
0.3303571428571428
 40
0.3303571428571428
 40
0.3303571428571428
 40
0.3303571428571428
 40
0.3392857142857143
 40
0.3392857142857143
 40
0.3392857142857143
 40
0.3392857142857143
 40
0.3482142857142857
 40
0.3482142857142857
 40
0.3482142857142857
 40
0.3482142857142857
 40
0.3571428571428572
 40
0.3571428571428572
 40
0.3571428571428572
 40
0.3571428571428572
 40
0.3660714285714285
 40
0.3660714285714285
 40
0.3660714285714285
 40
0.3660714285714285
 40
0.375
 40
0.375
 40
0.375
 40
0.375
 40
0.3839285714285715
 40
0.3839285714285715
 40
0.3839285714285715
 40
0.3839285714285715
 40
0.3928571428571428
 40
0.3928571428571428
 40
0.3928571428571428
 40
0.3928571428571428
 40
0.4017857142857143
 40
0.4017857142857143
 40
0.4017857142857143
 40
0.4017857142857143
 40
0.4107142857142857
 40
0.4107142857142857
 40
0.4107142857142857
 40
0.4107142857142857
 40
0.4196428571428572
 40
0.4196428571428572
 40
0.4196428571428572
 40
0.4196428571428572
 40
0.4285714285714285
 40
0.4285714285714285
 40
0.4285714285714285
 40
0.4285714285714285
 40
0.4375
 40
0.4375
 40
0.4375
 40
0.4375
 40
0.4464285714285715
 40
0.4464285714285715
 40
0.4464285714285715
 40
0.4464285714285715
 40
0.4553571428571428
 40
0.4553571428571428
 40
0.4553571428571428
 40
0.4553571428571428
 40
0.4642857142857143
 40
0.4642857142857143
 40
0.4642857142857143
 40
0.4642857142857143
 40
0.4732142857142857
 40
0.4732142857142857
 40
0.4732142857142857
 40
0.4732142857142857
 40
0.4821428571428572
 40
0.4821428571428572
 40
0.4821428571428572
 40
0.4821428571428572
 40
0.4910714285714285
 40
0.4910714285714285
 40
0.4910714285714285
 40
0.4910714285714285
 40
0.5
 40
0.5
 40
0.5
 40
0.5
 40
0.5089285714285714
 40
0.5089285714285714
 40
0.5089285714285714
 40
0.5089285714285714
 40
0.5178571428571429
 40
0.5178571428571429
 40
0.5178571428571429
 40
0.5178571428571429
 40
0.5267857142857143
 40
0.5267857142857143
 40
0.5267857142857143
 40
0.5267857142857143
 40
0.5357142857142857
 40
0.5357142857142857
 40
0.5357142857142857
 40
0.5357142857142857
 40
0.5446428571428571
 40
0.5446428571428571
 40
0.5446428571428571
 40
0.5446428571428571
 40
0.5535714285714286
 40
0.5535714285714286
 40
0.5535714285714286
 40
0.5535714285714286
 40
0.5625
 40
0.5625
 40
0.5625
 40
0.5625
 40
0.5714285714285714
 40
0.5714285714285714
 40
0.5714285714285714
 40
0.5714285714285714
 40
0.5803571428571429
 40
0.5803571428571429
 40
0.5803571428571429
 40
0.5803571428571429
 40
0.5892857142857143
 40
0.5892857142857143
 40
0.5892857142857143
 40
0.5892857142857143
 40
0.5982142857142857
 40
0.5982142857142857
 40
0.5982142857142857
 40
0.5982142857142857
 40
0.6071428571428571
 40
0.6071428571428571
 40
0.6071428571428571
 40
0.6071428571428571
 40
0.6160714285714286
 40
0.6160714285714286
 40
0.6160714285714286
 40
0.6160714285714286
 40
0.625
 40
0.625
 40
0.625
 40
0.625
 40
0.6339285714285714
 40
0.6339285714285714
 40
0.6339285714285714
 40
0.6339285714285714
 40
0.6428571428571429
 40
0.6428571428571429
 40
0.6428571428571429
 40
0.6428571428571429
 40
0.6517857142857143
 40
0.6517857142857143
 40
0.6517857142857143
 40
0.6517857142857143
 40
0.6607142857142857
 40
0.6607142857142857
 40
0.6607142857142857
 40
0.6607142857142857
 40
0.6696428571428571
 40
0.6696428571428571
 40
0.6696428571428571
 40
0.6696428571428571
 40
0.6785714285714286
 40
0.6785714285714286
 40
0.6785714285714286
 40
0.6785714285714286
 40
0.6875
 40
0.6875
 40
0.6875
 40
0.6875
 40
0.6964285714285714
 40
0.6964285714285714
 40
0.6964285714285714
 40
0.6964285714285714
 40
0.7053571428571429
 40
0.7053571428571429
 40
0.7053571428571429
 40
0.7053571428571429
 40
0.7142857142857143
 40
0.7142857142857143
 40
0.7142857142857143
 40
0.7142857142857143
 40
0.7232142857142857
 40
0.7232142857142857
 40
0.7232142857142857
 40
0.7232142857142857
 40
0.7321428571428571
 40
0.7321428571428571
 40
0.7321428571428571
 40
0.7321428571428571
 40
0.7410714285714286
 40
0.7410714285714286
 40
0.7410714285714286
 40
0.7410714285714286
 40
0.75
 40
0.75
 40
0.75
 40
0.75
 40
0.7589285714285714
 40
0.7589285714285714
 40
0.7589285714285714
 40
0.7589285714285714
 40
0.7678571428571429
 40
0.7678571428571429
 40
0.7678571428571429
 40
0.7678571428571429
 40
0.7767857142857143
 40
0.7767857142857143
 40
0.7767857142857143
 40
0.7767857142857143
 40
0.7857142857142857
 40
0.7857142857142857
 40
0.7857142857142857
 40
0.7857142857142857
 40
0.7946428571428571
 40
0.7946428571428571
 40
0.7946428571428571
 40
0.7946428571428571
 40
0.8035714285714286
 40
0.8035714285714286
 40
0.8035714285714286
 40
0.8035714285714286
 40
0.8125
 40
0.8125
 40
0.8125
 40
0.8125
 40
0.8214285714285714
 40
0.8214285714285714
 40
0.8214285714285714
 40
0.8214285714285714
 40
0.8303571428571429
 40
0.8303571428571429
 40
0.8303571428571429
 40
0.8303571428571429
 40
0.8392857142857143
 40
0.8392857142857143
 40
0.8392857142857143
 40
0.8392857142857143
 40
0.8482142857142857
 40
0.8482142857142857
 40
0.8482142857142857
 40
0.8482142857142857
 40
0.8571428571428571
 40
0.8571428571428571
 40
0.8571428571428571
 40
0.8571428571428571
 40
0.8660714285714286
 40
0.8660714285714286
 40
0.8660714285714286
 40
0.8660714285714286
 40
0.875
 40
0.875
 40
0.875
 40
0.875
 40
0.8839285714285714
 40
0.8839285714285714
 40
0.8839285714285714
 40
0.8839285714285714
 40
0.8928571428571429
 40
0.8928571428571429
 40
0.8928571428571429
 40
0.8928571428571429
 40
0.9017857142857143
 40
0.9017857142857143
 40
0.9017857142857143
 40
0.9017857142857143
 40
0.9107142857142857
 40
0.9107142857142857
 40
0.9107142857142857
 40
0.9107142857142857
 40
0.9196428571428571
 40
0.9196428571428571
 40
0.9196428571428571
 40
0.9196428571428571
 40
0.9285714285714286
 40
0.9285714285714286
 40
0.9285714285714286
 40
0.9285714285714286
 40
0.9375
 40
0.9375
 40
0.9375
 40
0.9375
 40
0.9464285714285714
 40
0.9464285714285714
 40
0.9464285714285714
 40
0.9464285714285714
 40
0.9553571428571429
 40
0.9553571428571429
 40
0.9553571428571429
 40
0.9553571428571429
 40
0.9642857142857143
 40
0.9642857142857143
 40
0.9642857142857143
 40
0.9642857142857143
 40
0.9732142857142857
 40
0.9732142857142857
 40
0.9732142857142857
 40
0.9732142857142857
 40
0.9821428571428571
 40
0.9821428571428571
 40
0.9821428571428571
 40
0.9821428571428571
 40
1.0
 40
1.0
 40
1.0
 40
1.0
 10
367.1698
 20
303.2636
 30
0.0
 10
367.1698
 20
303.2636
 30
0.0
 10
368.1964
 20
284.2897
 30
0.0
 10
368.1964
 20
284.2897
 30
0.0
 10
368.1964
 20
284.2897
 30
0.0
 10
351.7914
 20
291.204
 30
0.0
 10
334.91
 20
297.4907
 30
0.0
 10
318.2795
 20
303.9839
 30
0.0
 10
318.2795
 20
303.9839
 30
0.0
 10
318.2795
 20
303.9839
 30
0.0
 10
318.1087
 20
302.8336
 30
0.0
 10
318.1087
 20
302.8336
 30
0.0
 10
318.1087
 20
302.8336
 30
0.0
 10
318.9052
 20
302.0178
 30
0.0
 10
319.8674
 20
300.3754
 30
0.0
 10
320.0516
 20
299.379
 30
0.0
 10
320.0516
 20
299.379
 30
0.0
 10
321.1375
 20
298.7765
 30
0.0
 10
322.7733
 20
295.5187
 30
0.0
 10
323.5914
 20
294.1896
 30
0.0
 10
323.5914
 20
294.1896
 30
0.0
 10
327.0755
 20
288.6743
 30
0.0
 10
346.3648
 20
259.5914
 30
0.0
 10
346.3483
 20
258.5318
 30
0.0
 10
346.3483
 20
258.5318
 30
0.0
 10
346.3346
 20
257.6477
 30
0.0
 10
329.6601
 20
241.0094
 30
0.0
 10
328.886
 20
237.8556
 30
0.0
 10
328.886
 20
237.8556
 30
0.0
 10
327.7695
 20
227.5825
 30
0.0
 10
322.3566
 20
222.606
 30
0.0
 10
323.5553
 20
209.6584
 30
0.0
 10
323.5553
 20
209.6584
 30
0.0
 10
323.7945
 20
207.0729
 30
0.0
 10
324.276
 20
204.4714
 30
0.0
 10
324.3687
 20
201.9845
 30
0.0
 10
324.3687
 20
201.9845
 30
0.0
 10
324.5187
 20
197.9639
 30
0.0
 10
324.2807
 20
198.4203
 30
0.0
 10
322.6885
 20
195.5234
 30
0.0
 10
322.6885
 20
195.5234
 30
0.0
 10
319.8269
 20
190.3207
 30
0.0
 10
316.963
 20
185.3089
 30
0.0
 10
314.1946
 20
180.0904
 30
0.0
 10
314.1946
 20
180.0904
 30
0.0
 10
312.005
 20
175.9642
 30
0.0
 10
311.809
 20
176.3562
 30
0.0
 10
312.9056
 20
169.09
 30
0.0
 10
312.9056
 20
169.09
 30
0.0
 10
313.3765
 20
165.9704
 30
0.0
 10
313.6325
 20
166.4449
 30
0.0
 10
315.2216
 20
164.7541
 30
0.0
 10
315.2216
 20
164.7541
 30
0.0
 10
318.0525
 20
161.7421
 30
0.0
 10
319.8917
 20
160.5246
 30
0.0
 10
322.2647
 20
158.1681
 30
0.0
 10
322.2647
 20
158.1681
 30
0.0
 10
322.9367
 20
157.5008
 30
0.0
 10
323.291
 20
156.8826
 30
0.0
 10
323.9653
 20
156.2154
 30
0.0
 10
323.9653
 20
156.2154
 30
0.0
 10
323.9653
 20
156.2154
 30
0.0
 10
329.221
 20
151.4918
 30
0.0
 10
329.221
 20
151.4918
 30
0.0
 10
329.221
 20
151.4918
 30
0.0
 10
330.5179
 20
150.3104
 30
0.0
 10
331.3352
 20
149.0811
 30
0.0
 10
332.667
 20
147.9563
 30
0.0
 10
332.667
 20
147.9563
 30
0.0
 10
333.9497
 20
146.8731
 30
0.0
 10
335.0113
 20
145.9773
 30
0.0
 10
336.1778
 20
144.8143
 30
0.0
 10
336.1778
 20
144.8143
 30
0.0
 10
345.2376
 20
135.7835
 30
0.0
 10
340.692
 20
138.6439
 30
0.0
 10
356.1238
 20
137.4032
 30
0.0
 10
356.1238
 20
137.4032
 30
0.0
 10
360.3631
 20
137.0623
 30
0.0
 10
364.7654
 20
136.8553
 30
0.0
 10
369.0016
 20
136.6558
 30
0.0
 10
369.0016
 20
136.6558
 30
0.0
 10
368.7259
 20
132.3792
 30
0.0
 10
359.2548
 20
96.6212
 30
0.0
 10
357.1599
 20
87.958
 30
0.0
 10
357.1599
 20
87.958
 30
0.0
 10
355.4738
 20
80.9867
 30
0.0
 10
359.0321
 20
76.4713
 30
0.0
 10
356.1128
 20
71.6543
 30
0.0
 10
356.1128
 20
71.6543
 30
0.0
 10
356.1128
 20
71.6543
 30
0.0
 10
331.1176
 20
30.8149
 30
0.0
 10
331.1176
 20
30.8149
 30
0.0
 10
331.1176
 20
30.8149
 30
0.0
 10
331.1176
 20
30.8149
 30
0.0
 10
324.2889
 20
19.7049
 30
0.0
 10
324.2889
 20
19.7049
 30
0.0
 10
324.2889
 20
19.7049
 30
0.0
 10
323.7265
 20
18.5251
 30
0.0
 10
323.5462
 20
16.1144
 30
0.0
 10
323.3381
 20
14.6176
 30
0.0
 10
323.3381
 20
14.6176
 30
0.0
 10
323.3381
 20
14.6176
 30
0.0
 10
317.8746
 20
-27.753
 30
0.0
 10
317.8746
 20
-27.753
 30
0.0
 10
317.8746
 20
-27.753
 30
0.0
 10
317.1162
 20
-34.2569
 30
0.0
 10
315.7781
 20
-41.6814
 30
0.0
 10
315.1725
 20
-48.3526
 30
0.0
 10
315.1725
 20
-48.3526
 30
0.0
 10
314.5602
 20
-55.0964
 30
0.0
 10
313.2052
 20
-62.7263
 30
0.0
 10
312.3891
 20
-69.4058
 30
0.0
 10
312.3891
 20
-69.4058
 30
0.0
 10
312.3891
 20
-69.4058
 30
0.0
 10
305.5482
 20
-122.5424
 30
0.0
 10
305.5482
 20
-122.5424
 30
0.0
 10
305.5482
 20
-122.5424
 30
0.0
 10
304.9764
 20
-128.0012
 30
0.0
 10
305.2344
 20
-127.8488
 30
0.0
 10
306.9751
 20
-132.4208
 30
0.0
 10
306.9751
 20
-132.4208
 30
0.0
 10
308.658
 20
-136.8419
 30
0.0
 10
320.2648
 20
-164.9595
 30
0.0
 10
320.2594
 20
-167.0658
 30
0.0
 10
320.2594
 20
-167.0658
 30
0.0
 10
320.2594
 20
-167.0658
 30
0.0
 10
286.2903
 20
-166.9149
 30
0.0
 10
286.2903
 20
-166.9149
 30
0.0
 10
286.2903
 20
-166.9149
 30
0.0
 10
276.6484
 20
-166.9554
 30
0.0
 10
251.4356
 20
-173.5508
 30
0.0
 10
239.3347
 20
-175.3264
 30
0.0
 10
239.3347
 20
-175.3264
 30
0.0
 10
235.4021
 20
-175.9033
 30
0.0
 10
218.0231
 20
-179.6847
 30
0.0
 10
216.1084
 20
-179.5692
 30
0.0
 10
216.1084
 20
-179.5692
 30
0.0
 10
216.1084
 20
-179.5692
 30
0.0
 10
213.4378
 20
-183.7288
 30
0.0
 10
213.4378
 20
-183.7288
 30
0.0
 10
213.4378
 20
-183.7288
 30
0.0
 10
212.5396
 20
-186.5637
 30
0.0
 10
206.2179
 20
-196.3635
 30
0.0
 10
203.9549
 20
-200.1849
 30
0.0
 10
203.9549
 20
-200.1849
 30
0.0
 10
202.4436
 20
-202.7374
 30
0.0
 10
192.5197
 20
-219.5347
 30
0.0
 10
191.8768
 20
-221.4403
 30
0.0
 10
191.8768
 20
-221.4403
 30
0.0
 10
193.4701
 20
-222.2954
 30
0.0
 10
195.2996
 20
-223.5635
 30
0.0
 10
196.9762
 20
-224.5026
 30
0.0
 10
196.9762
 20
-224.5026
 30
0.0
 10
196.9762
 20
-224.5026
 30
0.0
 10
229.084
 20
-243.603
 30
0.0
 10
229.084
 20
-243.603
 30
0.0
 10
229.084
 20
-243.603
 30
0.0
 10
241.1158
 20
-251.09
 30
0.0
 10
237.8674
 20
-250.2888
 30
0.0
 10
247.7281
 20
-249.7283
 30
0.0
 10
247.7281
 20
-249.7283
 30
0.0
 10
247.7281
 20
-249.7283
 30
0.0
 10
299.9221
 20
-247.0121
 30
0.0
 10
299.9221
 20
-247.0121
 30
0.0
 10
299.9221
 20
-247.0121
 30
0.0
 10
300.463
 20
-246.9708
 30
0.0
 10
301.1059
 20
-247.082
 30
0.0
 10
301.6015
 20
-246.5643
 30
0.0
 10
301.6015
 20
-246.5643
 30
0.0
 10
303.0633
 20
-245.0381
 30
0.0
 10
298.9014
 20
-235.8133
 30
0.0
 10
298.2867
 20
-234.2627
 30
0.0
 10
298.2867
 20
-234.2627
 30
0.0
 10
298.2867
 20
-234.2627
 30
0.0
 10
293.1068
 20
-220.5139
 30
0.0
 10
293.1068
 20
-220.5139
 30
0.0
 10
293.1068
 20
-220.5139
 30
0.0
 10
293.1068
 20
-220.5139
 30
0.0
 10
272.1868
 20
-223.4976
 30
0.0
 10
272.1868
 20
-223.4976
 30
0.0
 10
272.1868
 20
-223.4976
 30
0.0
 10
263.9858
 20
-224.8329
 30
0.0
 10
266.9134
 20
-224.296
 30
0.0
 10
258.9104
 20
-220.7267
 30
0.0
 10
258.9104
 20
-220.7267
 30
0.0
 10
257.5515
 20
-220.1207
 30
0.0
 10
256.1839
 20
-219.5285
 30
0.0
 10
254.6962
 20
-218.9075
 30
0.0
 10
254.6962
 20
-218.9075
 30
0.0
 10
255.81
 20
-213.228
 30
0.0
 10
255.5147
 20
-214.2295
 30
0.0
 10
259.4885
 20
-212.8027
 30
0.0
 10
259.4885
 20
-212.8027
 30
0.0
 10
261.4322
 20
-212.1048
 30
0.0
 10
263.0503
 20
-211.4355
 30
0.0
 10
265.0623
 20
-210.7089
 30
0.0
 10
265.0623
 20
-210.7089
 30
0.0
 10
267.5524
 20
-209.8099
 30
0.0
 10
274.4851
 20
-206.9515
 30
0.0
 10
276.3491
 20
-206.8145
 30
0.0
 10
276.3491
 20
-206.8145
 30
0.0
 10
277.1424
 20
-206.0635
 30
0.0
 10
280.6328
 20
-204.8551
 30
0.0
 10
281.3232
 20
-204.8236
 30
0.0
 10
281.3232
 20
-204.8236
 30
0.0
 10
283.1782
 20
-204.7396
 30
0.0
 10
305.2988
 20
-211.3365
 30
0.0
 10
310.5495
 20
-211.4991
 30
0.0
 10
310.5495
 20
-211.4991
 30
0.0
 10
323.3051
 20
-211.8935
 30
0.0
 10
341.1865
 20
-211.4791
 30
0.0
 10
352.4508
 20
-213.3431
 30
0.0
 10
352.4508
 20
-213.3431
 30
0.0
 10
360.6109
 20
-214.6934
 30
0.0
 10
369.8079
 20
-215.4549
 30
0.0
 10
377.6141
 20
-217.1688
 30
0.0
 10
377.6141
 20
-217.1688
 30
0.0
 10
379.5221
 20
-225.7904
 30
0.0
 10
373.947
 20
-220.8112
 30
0.0
 10
385.0504
 20
-233.0114
 30
0.0
 10
385.0504
 20
-233.0114
 30
0.0
 10
387.9779
 20
-232.7012
 30
0.0
 10
393.0691
 20
-230.6844
 30
0.0
 10
395.4098
 20
-231.8807
 30
0.0
 10
395.4098
 20
-231.8807
 30
0.0
 10
396.4683
 20
-232.4212
 30
0.0
 10
402.9357
 20
-235.5985
 30
0.0
 10
403.6124
 20
-236.4327
 30
0.0
 10
403.6124
 20
-236.4327
 30
0.0
 10
403.6124
 20
-236.4327
 30
0.0
 10
406.0961
 20
-237.25
 30
0.0
 10
406.0961
 20
-237.25
 30
0.0
 10
406.0961
 20
-237.25
 30
0.0
 10
407.1663
 20
-236.3565
 30
0.0
 10
407.3014
 20
-235.6499
 30
0.0
 10
408.5704
 20
-234.9143
 30
0.0
 10
408.5704
 20
-234.9143
 30
0.0
 10
408.5704
 20
-234.9143
 30
0.0
 10
410.9987
 20
-232.6505
 30
0.0
 10
410.9987
 20
-232.6505
 30
0.0
 10
410.9987
 20
-232.6505
 30
0.0
 10
412.0662
 20
-232.8842
 30
0.0
 10
416.8577
 20
-235.5671
 30
0.0
 10
417.5109
 20
-236.4527
 30
0.0
 10
417.5109
 20
-236.4527
 30
0.0
 10
418.64
 20
-236.5265
 30
0.0
 10
418.5462
 20
-236.4731
 30
0.0
 10
419.2841
 20
-237.4035
 30
0.0
 10
419.2841
 20
-237.4035
 30
0.0
 10
419.2841
 20
-237.4035
 30
0.0
 10
420.6525
 20
-236.7901
 30
0.0
 10
420.6525
 20
-236.7901
 30
0.0
 10
420.6525
 20
-236.7901
 30
0.0
 10
420.9757
 20
-235.8255
 30
0.0
 10
421.6029
 20
-234.9347
 30
0.0
 10
422.3448
 20
-234.5113
 30
0.0
 10
422.3448
 20
-234.5113
 30
0.0
 10
422.7002
 20
-233.3975
 30
0.0
 10
422.1366
 20
-233.8559
 30
0.0
 10
422.972
 20
-233.6041
 30
0.0
 10
422.972
 20
-233.6041
 30
0.0
 10
422.972
 20
-233.6041
 30
0.0
 10
424.274
 20
-231.7299
 30
0.0
 10
424.274
 20
-231.7299
 30
0.0
 10
424.274
 20
-231.7299
 30
0.0
 10
424.274
 20
-231.7299
 30
0.0
 10
429.9979
 20
-234.3923
 30
0.0
 10
429.9979
 20
-234.3923
 30
0.0
 10
429.9979
 20
-234.3923
 30
0.0
 10
431.0241
 20
-234.4151
 30
0.0
 10
430.8379
 20
-234.324
 30
0.0
 10
431.5315
 20
-235.0965
 30
0.0
 10
431.5315
 20
-235.0965
 30
0.0
 10
433.3068
 20
-235.1771
 30
0.0
 10
432.63
 20
-235.3271
 30
0.0
 10
434.0015
 20
-234.3495
 30
0.0
 10
434.0015
 20
-234.3495
 30
0.0
 10
434.8369
 20
-233.7537
 30
0.0
 10
435.5328
 20
-233.1909
 30
0.0
 10
436.2382
 20
-232.7259
 30
0.0
 10
436.2382
 20
-232.7259
 30
0.0
 10
439.4144
 20
-228.3668
 30
0.0
 10
441.4315
 20
-231.2323
 30
0.0
 10
448.4805
 20
-234.0448
 30
0.0
 10
448.4805
 20
-234.0448
 30
0.0
 10
448.4805
 20
-234.0448
 30
0.0
 10
452.2454
 20
-235.6322
 30
0.0
 10
452.2454
 20
-235.6322
 30
0.0
 10
452.2454
 20
-235.6322
 30
0.0
 10
452.9166
 20
-236.0521
 30
0.0
 10
452.472
 20
-235.73
 30
0.0
 10
452.8486
 20
-236.0953
 30
0.0
 10
452.8486
 20
-236.0953
 30
0.0
 10
455.7561
 20
-236.164
 30
0.0
 10
454.4467
 20
-236.0706
 30
0.0
 10
456.9226
 20
-234.8644
 30
0.0
 10
456.9226
 20
-234.8644
 30
0.0
 10
456.9226
 20
-234.8644
 30
0.0
 10
458.7367
 20
-233.4576
 30
0.0
 10
458.7367
 20
-233.4576
 30
0.0
 10
458.7367
 20
-233.4576
 30
0.0
 10
462.1304
 20
-231.2971
 30
0.0
 10
460.5221
 20
-232.1105
 30
0.0
 10
465.9892
 20
-235.1397
 30
0.0
 10
465.9892
 20
-235.1397
 30
0.0
 10
465.9892
 20
-235.1397
 30
0.0
 10
468.9116
 20
-236.7217
 30
0.0
 10
468.9116
 20
-236.7217
 30
0.0
 10
468.9116
 20
-236.7217
 30
0.0
 10
469.7234
 20
-235.7049
 30
0.0
 10
469.7226
 20
-235.4532
 30
0.0
 10
470.9444
 20
-235.1684
 30
0.0
 10
470.9444
 20
-235.1684
 30
0.0
 10
471.5234
 20
-234.1803
 30
0.0
 10
471.6663
 20
-233.9375
 30
0.0
 10
472.993
 20
-233.5004
 30
0.0
 10
472.993
 20
-233.5004
 30
0.0
 10
474.0515
 20
-231.0473
 30
0.0
 10
476.5796
 20
-232.2676
 30
0.0
 10
478.0477
 20
-233.7706
 30
0.0
 10
478.0477
 20
-233.7706
 30
0.0
 10
479.1403
 20
-233.9415
 30
0.0
 10
480.0546
 20
-234.3323
 30
0.0
 10
480.7643
 20
-235.0871
 30
0.0
 10
480.7643
 20
-235.0871
 30
0.0
 10
480.7643
 20
-235.0871
 30
0.0
 10
482.3797
 20
-235.3008
 30
0.0
 10
482.3797
 20
-235.3008
 30
0.0
 10
482.3797
 20
-235.3008
 30
0.0
 10
483.184
 20
-233.5012
 30
0.0
 10
487.6998
 20
-228.0295
 30
0.0
 10
489.1828
 20
-226.0068
 30
0.0
 10
489.1828
 20
-226.0068
 30
0.0
 10
497.0279
 20
-215.3072
 30
0.0
 10
493.2913
 20
-221.2876
 30
0.0
 10
492.9748
 20
-215.8598
 30
0.0
 10
492.9748
 20
-215.8598
 30
0.0
 10
491.9803
 20
-215.2027
 30
0.0
 10
491.9155
 20
-214.4734
 30
0.0
 10
491.553
 20
-213.1883
 30
0.0
 10
491.553
 20
-213.1883
 30
0.0
 10
491.553
 20
-213.1883
 30
0.0
 10
528.9786
 20
-195.9354
 30
0.0
 10
528.9786
 20
-195.9354
 30
0.0
 10
528.9786
 20
-195.9354
 30
0.0
 10
532.8067
 20
-194.6256
 30
0.0
 10
532.1092
 20
-194.4437
 30
0.0
 10
533.1728
 20
-190.4892
 30
0.0
 10
533.1728
 20
-190.4892
 30
0.0
 10
533.1728
 20
-190.4892
 30
0.0
 10
543.2648
 20
-152.3924
 30
0.0
 10
543.2648
 20
-152.3924
 30
0.0
 10
543.2648
 20
-152.3924
 30
0.0
 10
545.1578
 20
-145.0342
 30
0.0
 10
550.0456
 20
-96.779
 30
0.0
 10
551.7395
 20
-83.668
 30
0.0
 10
551.7395
 20
-83.668
 30
0.0
 10
552.2422
 20
-79.7747
 30
0.0
 10
551.309
 20
-79.3297
 30
0.0
 10
549.8441
 20
-76.4705
 30
0.0
 10
549.8441
 20
-76.4705
 30
0.0
 10
544.6948
 20
-66.4193
 30
0.0
 10
537.8386
 20
-55.0576
 30
0.0
 10
532.6418
 20
-45.125
 30
0.0
 10
532.6418
 20
-45.125
 30
0.0
 10
529.547
 20
-39.2098
 30
0.0
 10
527.7423
 20
-37.6789
 30
0.0
 10
526.8456
 20
-31.5615
 30
0.0
 10
526.8456
 20
-31.5615
 30
0.0
 10
526.8456
 20
-31.5615
 30
0.0
 10
519.1062
 20
18.7776
 30
0.0
 10
519.1062
 20
18.7776
 30
0.0
 10
519.1062
 20
18.7776
 30
0.0
 10
517.4119
 20
29.8189
 30
0.0
 10
517.5132
 20
25.1503
 30
0.0
 10
518.7468
 20
36.4037
 30
0.0
 10
518.7468
 20
36.4037
 30
0.0
 10
518.7468
 20
36.4037
 30
0.0
 10
526.3347
 20
106.2611
 30
0.0
 10
526.3347
 20
106.2611
 30
0.0
 10
526.3347
 20
106.2611
 30
0.0
 10
527.507
 20
117.0012
 30
0.0
 10
528.4371
 20
115.3214
 30
0.0
 10
524.477
 20
121.6223
 30
0.0
 10
524.477
 20
121.6223
 30
0.0
 10
524.477
 20
121.6223
 30
0.0
 10
494.6573
 20
169.2781
 30
0.0
 10
494.6573
 20
169.2781
 30
0.0
 10
494.6573
 20
169.2781
 30
0.0
 10
493.4158
 20
171.3074
 30
0.0
 10
494.5894
 20
175.0594
 30
0.0
 10
494.9259
 20
177.5655
 30
0.0
 10
494.9259
 20
177.5655
 30
0.0
 10
494.9259
 20
177.5655
 30
0.0
 10
498.3216
 20
203.0681
 30
0.0
 10
498.3216
 20
203.0681
 30
0.0
 10
498.3216
 20
203.0681
 30
0.0
 10
498.9457
 20
207.7983
 30
0.0
 10
498.9473
 20
206.8196
 30
0.0
 10
497.3861
 20
210.9073
 30
0.0
 10
497.3861
 20
210.9073
 30
0.0
 10
497.3861
 20
210.9073
 30
0.0
 10
485.044
 20
242.1248
 30
0.0
 10
485.044
 20
242.1248
 30
0.0
 10
485.044
 20
242.1248
 30
0.0
 10
484.3375
 20
243.9911
 30
0.0
 10
483.475
 20
245.1528
 30
0.0
 10
482.1821
 20
246.5946
 30
0.0
 10
482.1821
 20
246.5946
 30
0.0
 10
482.1821
 20
246.5946
 30
0.0
 10
469.9414
 20
260.9538
 30
0.0
 10
469.9414
 20
260.9538
 30
0.0
 10
469.9414
 20
260.9538
 30
0.0
 10
469.9414
 20
260.9538
 30
0.0
 10
456.5923
 20
276.82
 30
0.0
 10
456.5923
 20
276.82
 30
0.0
 10
456.5923
 20
276.82
 30
0.0
 10
451.8695
 20
277.0718
 30
0.0
 10
446.9716
 20
277.234
 30
0.0
 10
442.2523
 20
277.3184
 30
0.0
 10
442.2523
 20
277.3184
 30
0.0
 10
439.8774
 20
277.3608
 30
0.0
 10
437.4581
 20
277.5835
 30
0.0
 10
435.06
 20
277.6436
 30
0.0
 10
435.06
 20
277.6436
 30
0.0
 10
431.6203
 20
277.7292
 30
0.0
 10
431.7483
 20
277.9511
 30
0.0
 10
429.0125
 20
279.2389
 30
0.0
 10
429.0125
 20
279.2389
 30
0.0
 10
422.0483
 20
282.5176
 30
0.0
 10
415.2997
 20
285.5378
 30
0.0
 10
408.3347
 20
288.8286
 30
0.0
 10
408.3347
 20
288.8286
 30
0.0
 10
401.7845
 20
291.9243
 30
0.0
 10
394.3973
 20
295.0619
 30
0.0
 10
387.8817
 20
298.2836
 30
0.0
 10
387.8817
 20
298.2836
 30
0.0
 10
385.1753
 20
299.6217
 30
0.0
 10
368.6202
 20
307.5033
 30
0.0
 10
367.1513
 20
307.7975
 30
0.0
 10
367.1513
 20
307.7975
 30
0.0
 10
367.1513
 20
307.7975
 30
0.0
 10
367.1698
 20
303.2636
 30
0.0
 10
367.1698
 20
303.2636
 30
0.0
  0
ENDSEC
  0
SECTION
  2
OBJECTS
  0
DICTIONARY
  5
C
330
0
100
AcDbDictionary
281
     1
  3
ACAD_DETAILVIEWSTYLE
350
103
  3
ACAD_GROUP
350
D
  3
ACAD_LAYOUT
350
1A
  3
ACAD_MATERIAL
350
43
  3
ACAD_MLEADERSTYLE
350
6B
  3
ACAD_MLINESTYLE
350
17
  3
ACAD_PLOTSETTINGS
350
19
  3
ACAD_PLOTSTYLENAME
350
E
  3
ACAD_SCALELIST
350
47
  3
ACAD_SECTIONVIEWSTYLE
350
104
  3
ACAD_TABLESTYLE
350
69
  3
ACAD_VISUALSTYLE
350
2A
  3
ACDB_RECOMPOSE_DATA
350
100
  3
AcDbVariableDictionary
350
C8
  0
SUN
  5
6D
330
29
100
AcDbSun
 90
        1
290
     0
 63
     7
421
 16777215
 40
1.0
291
     1
 91
  2455826
 92
 54000000
292
     0
 70
     2
 71
   256
280
     1
  0
DICTIONARY
  5
103
102
{ACAD_REACTORS
330
C
102
}
330
C
100
AcDbDictionary
281
     1
  0
DICTIONARY
  5
D
102
{ACAD_REACTORS
330
C
102
}
330
C
100
AcDbDictionary
281
     1
  0
DICTIONARY
  5
1A
102
{ACAD_REACTORS
330
C
102
}
330
C
100
AcDbDictionary
281
     1
  3
Layout1
350
1E
  3
Layout2
350
26
  3
Model
350
22
  0
DICTIONARY
  5
43
102
{ACAD_REACTORS
330
C
102
}
330
C
100
AcDbDictionary
281
     1
  3
ByBlock
350
45
  3
ByLayer
350
44
  3
Global
350
46
  0
DICTIONARY
  5
6B
102
{ACAD_REACTORS
330
C
102
}
330
C
100
AcDbDictionary
281
     1
  3
Standard
350
6C
  0
DICTIONARY
  5
17
102
{ACAD_REACTORS
330
C
102
}
330
C
100
AcDbDictionary
281
     1
  3
Standard
350
18
  0
DICTIONARY
  5
19
102
{ACAD_REACTORS
330
C
102
}
330
C
100
AcDbDictionary
281
     1
  0
ACDBDICTIONARYWDFLT
  5
E
102
{ACAD_REACTORS
330
C
102
}
330
C
100
AcDbDictionary
281
     1
  3
Normal
350
F
100
AcDbDictionaryWithDefault
340
F
  0
DICTIONARY
  5
47
102
{ACAD_REACTORS
330
C
102
}
330
C
100
AcDbDictionary
281
     1
  3
A0
350
48
  3
A1
350
49
  3
A2
350
4A
  3
A3
350
4B
  3
A4
350
4C
  3
A5
350
4D
  3
A6
350
4E
  3
A7
350
4F
  3
A8
350
50
  3
A9
350
51
  3
B0
350
52
  3
B1
350
53
  3
B2
350
54
  3
B3
350
55
  3
B4
350
56
  3
B5
350
57
  3
B6
350
58
  3
B7
350
59
  3
B8
350
5A
  3
B9
350
5B
  3
C0
350
5C
  3
C1
350
5D
  3
C2
350
5E
  3
C3
350
5F
  3
C4
350
60
  3
C5
350
61
  3
C6
350
62
  3
C7
350
63
  3
C8
350
64
  3
C9
350
65
  3
D0
350
66
  3
D1
350
67
  3
D2
350
68
  0
DICTIONARY
  5
104
102
{ACAD_REACTORS
330
C
102
}
330
C
100
AcDbDictionary
281
     1
  0
DICTIONARY
  5
69
102
{ACAD_REACTORS
330
C
102
}
330
C
100
AcDbDictionary
281
     1
  3
Standard
350
6A
  0
DICTIONARY
  5
2A
102
{ACAD_REACTORS
330
C
102
}
330
C
100
AcDbDictionary
281
     1
  3
2dWireframe
350
2F
  3
Basic
350
32
  3
Brighten
350
36
  3
ColorChange
350
3A
  3
Conceptual
350
34
  3
Dim
350
35
  3
EdgeColorOff
350
3D
  3
Facepattern
350
39
  3
Flat
350
2B
  3
FlatWithEdges
350
2C
  3
Gouraud
350
2D
  3
GouraudWithEdges
350
2E
  3
Hidden
350
31
  3
JitterOff
350
3B
  3
Linepattern
350
38
  3
OverhangOff
350
3C
  3
Realistic
350
33
  3
Shaded
350
42
  3
Shaded with edges
350
41
  3
Shades of Gray
350
3E
  3
Sketchy
350
3F
  3
Thicken
350
37
  3
Wireframe
350
30
  3
X-Ray
350
40
  0
XRECORD
  5
100
102
{ACAD_REACTORS
330
C
102
}
330
C
100
AcDbXrecord
280
     1
 90
        1
330
6A
  0
DICTIONARY
  5
C8
102
{ACAD_REACTORS
330
C
102
}
330
C
100
AcDbDictionary
281
     1
  3
CANNOSCALE
350
C9
  3
CMLEADERSTYLE
350
102
  3
CTABLESTYLE
350
101
  3
XCLIPFRAME
350
CA
  0
LAYOUT
  5
1E
102
{ACAD_REACTORS
330
1A
102
}
330
1A
100
AcDbPlotSettings
  1

  2
none_device
  4

  6

 40
0.0
 41
0.0
 42
0.0
 43
0.0
 44
0.0
 45
0.0
 46
0.0
 47
0.0
 48
0.0
 49
0.0
140
0.0
141
0.0
142
1.0
143
1.0
 70
   688
 72
     0
 73
     0
 74
     5
  7

 75
    16
 76
     0
 77
     2
 78
   300
147
1.0
148
0.0
149
0.0
100
AcDbLayout
  1
Layout1
 70
     1
 71
     1
 10
0.0
 20
0.0
 11
12.0
 21
9.0
 12
0.0
 22
0.0
 32
0.0
 14
1.000000000000000E+20
 24
1.000000000000000E+20
 34
1.000000000000000E+20
 15
-1.000000000000000E+20
 25
-1.000000000000000E+20
 35
-1.000000000000000E+20
146
0.0
 13
0.0
 23
0.0
 33
0.0
 16
1.0
 26
0.0
 36
0.0
 17
0.0
 27
1.0
 37
0.0
 76
     0
330
1B
  0
LAYOUT
  5
26
102
{ACAD_REACTORS
330
1A
102
}
330
1A
100
AcDbPlotSettings
  1

  2
none_device
  4

  6

 40
0.0
 41
0.0
 42
0.0
 43
0.0
 44
0.0
 45
0.0
 46
0.0
 47
0.0
 48
0.0
 49
0.0
140
0.0
141
0.0
142
1.0
143
1.0
 70
   688
 72
     0
 73
     0
 74
     5
  7

 75
    16
 76
     0
 77
     2
 78
   300
147
1.0
148
0.0
149
0.0
100
AcDbLayout
  1
Layout2
 70
     1
 71
     2
 10
0.0
 20
0.0
 11
0.0
 21
0.0
 12
0.0
 22
0.0
 32
0.0
 14
0.0
 24
0.0
 34
0.0
 15
0.0
 25
0.0
 35
0.0
146
0.0
 13
0.0
 23
0.0
 33
0.0
 16
1.0
 26
0.0
 36
0.0
 17
0.0
 27
1.0
 37
0.0
 76
     0
330
23
  0
LAYOUT
  5
22
102
{ACAD_REACTORS
330
1A
102
}
330
1A
100
AcDbPlotSettings
  1

  2
none_device
  4
Letter_(8.50_x_11.00_Inches)
  6

 40
6.35
 41
6.35
 42
6.35000508
 43
6.35000508
 44
215.9
 45
279.4
 46
0.0
 47
0.0
 48
0.0
 49
0.0
140
0.0
141
0.0
142
1.0
143
1.0
 70
  1712
 72
     0
 73
     0
 74
     0
  7

 75
     0
 76
     0
 77
     2
 78
   300
147
1.0
148
0.0
149
0.0
100
AcDbLayout
  1
Model
 70
     1
 71
     0
 10
0.0
 20
0.0
 11
12.0
 21
9.0
 12
0.0
 22
0.0
 32
0.0
 14
191.8304
 24
-250.1067
 34
0.0
 15
551.9149
 25
307.8441
 35
0.0
146
0.0
 13
0.0
 23
0.0
 33
0.0
 16
1.0
 26
0.0
 36
0.0
 17
0.0
 27
1.0
 37
0.0
 76
     0
330
1F
331
29
  0
MATERIAL
  5
45
102
{ACAD_REACTORS
330
43
102
}
330
43
100
AcDbMaterial
  1
ByBlock
 72
     1
 94
      127
  0
MATERIAL
  5
44
102
{ACAD_REACTORS
330
43
102
}
330
43
100
AcDbMaterial
  1
ByLayer
 72
     1
 94
      127
  0
MATERIAL
  5
46
102
{ACAD_REACTORS
330
43
102
}
330
43
100
AcDbMaterial
  1
Global
 72
     1
 94
      127
  0
MLEADERSTYLE
  5
6C
102
{ACAD_REACTORS
330
6B
102
}
102
{ACAD_XDICTIONARY
360
FE
102
}
330
6B
100
AcDbMLeaderStyle
170
     2
171
     1
172
     0
 90
        2
 40
0.0
 41
0.0
173
     1
 91
-1056964608
340
14
 92
       -2
290
     1
 42
0.09
291
     1
 43
0.36
  3
Standard
341
0
 44
0.18
300

342
11
174
     1
178
     6
175
     1
176
     0
 93
-1056964608
 45
0.18
292
     0
297
     0
 46
0.18
343
0
 94
-1056964608
 47
1.0
 49
1.0
140
1.0
293
     1
141
0.0
294
     1
177
     0
142
1.0
295
     0
296
     0
143
0.125
1001
ACAD_MLEADERVER
1070
     2
  0
MLINESTYLE
  5
18
102
{ACAD_REACTORS
330
17
102
}
330
17
100
AcDbMlineStyle
  2
Standard
 70
     0
  3

 62
   256
 51
90.0
 52
90.0
 71
     2
 49
0.5
 62
   256
  6
BYLAYER
 49
-0.5
 62
   256
  6
BYLAYER
  0
ACDBPLACEHOLDER
  5
F
102
{ACAD_REACTORS
330
E
102
}
330
E
  0
SCALE
  5
48
102
{ACAD_REACTORS
330
47
102
}
330
47
100
AcDbScale
 70
     0
300
1:1
140
1.0
141
1.0
290
     1
  0
SCALE
  5
49
102
{ACAD_REACTORS
330
47
102
}
330
47
100
AcDbScale
 70
     0
300
1:2
140
1.0
141
2.0
290
     0
  0
SCALE
  5
4A
102
{ACAD_REACTORS
330
47
102
}
330
47
100
AcDbScale
 70
     0
300
1:4
140
1.0
141
4.0
290
     0
  0
SCALE
  5
4B
102
{ACAD_REACTORS
330
47
102
}
330
47
100
AcDbScale
 70
     0
300
1:5
140
1.0
141
5.0
290
     0
  0
SCALE
  5
4C
102
{ACAD_REACTORS
330
47
102
}
330
47
100
AcDbScale
 70
     0
300
1:8
140
1.0
141
8.0
290
     0
  0
SCALE
  5
4D
102
{ACAD_REACTORS
330
47
102
}
330
47
100
AcDbScale
 70
     0
300
1:10
140
1.0
141
10.0
290
     0
  0
SCALE
  5
4E
102
{ACAD_REACTORS
330
47
102
}
330
47
100
AcDbScale
 70
     0
300
1:16
140
1.0
141
16.0
290
     0
  0
SCALE
  5
4F
102
{ACAD_REACTORS
330
47
102
}
330
47
100
AcDbScale
 70
     0
300
1:20
140
1.0
141
20.0
290
     0
  0
SCALE
  5
50
102
{ACAD_REACTORS
330
47
102
}
330
47
100
AcDbScale
 70
     0
300
1:30
140
1.0
141
30.0
290
     0
  0
SCALE
  5
51
102
{ACAD_REACTORS
330
47
102
}
330
47
100
AcDbScale
 70
     0
300
1:40
140
1.0
141
40.0
290
     0
  0
SCALE
  5
52
102
{ACAD_REACTORS
330
47
102
}
330
47
100
AcDbScale
 70
     0
300
1:50
140
1.0
141
50.0
290
     0
  0
SCALE
  5
53
102
{ACAD_REACTORS
330
47
102
}
330
47
100
AcDbScale
 70
     0
300
1:100
140
1.0
141
100.0
290
     0
  0
SCALE
  5
54
102
{ACAD_REACTORS
330
47
102
}
330
47
100
AcDbScale
 70
     0
300
2:1
140
2.0
141
1.0
290
     0
  0
SCALE
  5
55
102
{ACAD_REACTORS
330
47
102
}
330
47
100
AcDbScale
 70
     0
300
4:1
140
4.0
141
1.0
290
     0
  0
SCALE
  5
56
102
{ACAD_REACTORS
330
47
102
}
330
47
100
AcDbScale
 70
     0
300
8:1
140
8.0
141
1.0
290
     0
  0
SCALE
  5
57
102
{ACAD_REACTORS
330
47
102
}
330
47
100
AcDbScale
 70
     0
300
10:1
140
10.0
141
1.0
290
     0
  0
SCALE
  5
58
102
{ACAD_REACTORS
330
47
102
}
330
47
100
AcDbScale
 70
     0
300
100:1
140
100.0
141
1.0
290
     0
  0
SCALE
  5
59
102
{ACAD_REACTORS
330
47
102
}
330
47
100
AcDbScale
 70
     0
300
1/128" = 1'-0"
140
0.0078125
141
12.0
290
     0
  0
SCALE
  5
5A
102
{ACAD_REACTORS
330
47
102
}
330
47
100
AcDbScale
 70
     0
300
1/64" = 1'-0"
140
0.015625
141
12.0
290
     0
  0
SCALE
  5
5B
102
{ACAD_REACTORS
330
47
102
}
330
47
100
AcDbScale
 70
     0
300
1/32" = 1'-0"
140
0.03125
141
12.0
290
     0
  0
SCALE
  5
5C
102
{ACAD_REACTORS
330
47
102
}
330
47
100
AcDbScale
 70
     0
300
1/16" = 1'-0"
140
0.0625
141
12.0
290
     0
  0
SCALE
  5
5D
102
{ACAD_REACTORS
330
47
102
}
330
47
100
AcDbScale
 70
     0
300
3/32" = 1'-0"
140
0.09375
141
12.0
290
     0
  0
SCALE
  5
5E
102
{ACAD_REACTORS
330
47
102
}
330
47
100
AcDbScale
 70
     0
300
1/8" = 1'-0"
140
0.125
141
12.0
290
     0
  0
SCALE
  5
5F
102
{ACAD_REACTORS
330
47
102
}
330
47
100
AcDbScale
 70
     0
300
3/16" = 1'-0"
140
0.1875
141
12.0
290
     0
  0
SCALE
  5
60
102
{ACAD_REACTORS
330
47
102
}
330
47
100
AcDbScale
 70
     0
300
1/4" = 1'-0"
140
0.25
141
12.0
290
     0
  0
SCALE
  5
61
102
{ACAD_REACTORS
330
47
102
}
330
47
100
AcDbScale
 70
     0
300
3/8" = 1'-0"
140
0.375
141
12.0
290
     0
  0
SCALE
  5
62
102
{ACAD_REACTORS
330
47
102
}
330
47
100
AcDbScale
 70
     0
300
1/2" = 1'-0"
140
0.5
141
12.0
290
     0
  0
SCALE
  5
63
102
{ACAD_REACTORS
330
47
102
}
330
47
100
AcDbScale
 70
     0
300
3/4" = 1'-0"
140
0.75
141
12.0
290
     0
  0
SCALE
  5
64
102
{ACAD_REACTORS
330
47
102
}
330
47
100
AcDbScale
 70
     0
300
1" = 1'-0"
140
1.0
141
12.0
290
     0
  0
SCALE
  5
65
102
{ACAD_REACTORS
330
47
102
}
330
47
100
AcDbScale
 70
     0
300
1-1/2" = 1'-0"
140
1.5
141
12.0
290
     0
  0
SCALE
  5
66
102
{ACAD_REACTORS
330
47
102
}
330
47
100
AcDbScale
 70
     0
300
3" = 1'-0"
140
3.0
141
12.0
290
     0
  0
SCALE
  5
67
102
{ACAD_REACTORS
330
47
102
}
330
47
100
AcDbScale
 70
     0
300
6" = 1'-0"
140
6.0
141
12.0
290
     0
  0
SCALE
  5
68
102
{ACAD_REACTORS
330
47
102
}
330
47
100
AcDbScale
 70
     0
300
1'-0" = 1'-0"
140
12.0
141
12.0
290
     0
  0
TABLESTYLE
  5
6A
102
{ACAD_REACTORS
330
69
102
}
102
{ACAD_XDICTIONARY
360
FB
102
}
330
69
100
AcDbTableStyle
  3
Standard
 70
     0
 71
     0
 40
0.06
 41
0.06
280
     0
281
     0
  7
Standard
140
0.18
170
     2
 62
     0
 63
   257
283
     0
 90
        4
 91
        0
  1

274
    -2
284
     1
 64
     0
275
    -2
285
     1
 65
     0
276
    -2
286
     1
 66
     0
277
    -2
287
     1
 67
     0
278
    -2
288
     1
 68
     0
279
    -2
289
     1
 69
     0
  7
Standard
140
0.25
170
     5
 62
     0
 63
   257
283
     0
 90
        4
 91
        0
  1

274
    -2
284
     1
 64
     0
275
    -2
285
     1
 65
     0
276
    -2
286
     1
 66
     0
277
    -2
287
     1
 67
     0
278
    -2
288
     1
 68
     0
279
    -2
289
     1
 69
     0
  7
Standard
140
0.18
170
     5
 62
     0
 63
   257
283
     0
 90
        4
 91
        0
  1

274
    -2
284
     1
 64
     0
275
    -2
285
     1
 65
     0
276
    -2
286
     1
 66
     0
277
    -2
287
     1
 67
     0
278
    -2
288
     1
 68
     0
279
    -2
289
     1
 69
     0
  0
VISUALSTYLE
  5
2F
102
{ACAD_REACTORS
330
2A
102
}
102
{ACAD_XDICTIONARY
360
D3
102
}
330
2A
100
AcDbVisualStyle
  2
2dWireframe
 70
     4
 71
     0
 72
     2
 73
     0
 90
        0
 40
0.6
 41
30.0
 62
     5
 63
     7
421
 16777215
 74
     1
 91
        4
 64
     7
 65
   257
 75
     1
175
     1
 42
1.0
 92
        0
 66
   257
 43
1.0
 76
     1
 77
     6
 78
     2
 67
     7
 79
     5
170
     0
171
     0
290
     0
174
     0
 93
        1
 44
0.0
173
     0
291
     0
 45
0.0
  0
VISUALSTYLE
  5
32
102
{ACAD_REACTORS
330
2A
102
}
102
{ACAD_XDICTIONARY
360
D9
102
}
330
2A
100
AcDbVisualStyle
  2
Basic
 70
     7
 71
     1
 72
     0
 73
     1
 90
        0
 40
0.6
 41
30.0
 62
     5
 63
     7
421
 16777215
 74
     0
 91
        4
 64
     7
 65
   257
 75
     1
175
     1
 42
1.0
 92
        8
 66
     7
 43
1.0
 76
     1
 77
     6
 78
     2
 67
     7
 79
     5
170
     0
171
     0
290
     0
174
     0
 93
        1
 44
0.0
173
     0
291
     1
 45
0.0
  0
VISUALSTYLE
  5
36
102
{ACAD_REACTORS
330
2A
102
}
102
{ACAD_XDICTIONARY
360
E1
102
}
330
2A
100
AcDbVisualStyle
  2
Brighten
 70
    12
 71
     2
 72
     2
 73
     0
 90
        0
 40
0.6
 41
30.0
 62
     5
 63
     7
421
 16777215
 74
     1
 91
        4
 64
     7
 65
   257
 75
     1
175
     1
 42
1.0
 92
        8
 66
     7
 43
1.0
 76
     1
 77
     6
 78
     2
 67
     7
 79
     5
170
     0
171
     0
290
     0
174
     0
 93
        1
 44
50.0
173
     0
291
     1
 45
0.0
  0
VISUALSTYLE
  5
3A
102
{ACAD_REACTORS
330
2A
102
}
102
{ACAD_XDICTIONARY
360
E9
102
}
330
2A
100
AcDbVisualStyle
  2
ColorChange
 70
    16
 71
     2
 72
     2
 73
     3
 90
        0
 40
0.6
 41
30.0
 62
     5
 63
     8
421
  8421504
 74
     1
 91
        4
 64
     7
 65
   257
 75
     1
175
     1
 42
1.0
 92
        8
 66
     8
424
  8421504
 43
1.0
 76
     1
 77
     6
 78
     2
 67
     7
 79
     5
170
     0
171
     0
290
     0
174
     0
 93
        1
 44
0.0
173
     0
291
     1
 45
0.0
  0
VISUALSTYLE
  5
34
102
{ACAD_REACTORS
330
2A
102
}
102
{ACAD_XDICTIONARY
360
DD
102
}
330
2A
100
AcDbVisualStyle
  2
Conceptual
 70
     9
 71
     3
 72
     2
 73
     0
 90
        0
 40
0.6
 41
30.0
 62
     5
 63
     7
421
 16777215
 74
     2
 91
        2
 64
     7
 65
   257
 75
     1
175
     1
 42
179.0
 92
        8
 66
     7
 43
1.0
 76
     1
 77
     6
 78
     2
 67
     7
 79
     3
170
     0
171
     0
290
     0
174
     0
 93
        1
 44
0.0
173
     0
291
     0
 45
0.0
  0
VISUALSTYLE
  5
35
102
{ACAD_REACTORS
330
2A
102
}
102
{ACAD_XDICTIONARY
360
DF
102
}
330
2A
100
AcDbVisualStyle
  2
Dim
 70
    11
 71
     2
 72
     2
 73
     0
 90
        0
 40
0.6
 41
30.0
 62
     5
 63
     7
421
 16777215
 74
     1
 91
        4
 64
     7
 65
   257
 75
     1
175
     1
 42
1.0
 92
        8
 66
     7
 43
1.0
 76
     1
 77
     6
 78
     2
 67
     7
 79
     5
170
     0
171
     0
290
     0
174
     0
 93
        1
 44
-50.0
173
     0
291
     1
 45
0.0
  0
VISUALSTYLE
  5
3D
102
{ACAD_REACTORS
330
2A
102
}
102
{ACAD_XDICTIONARY
360
EF
102
}
330
2A
100
AcDbVisualStyle
  2
EdgeColorOff
 70
    22
 71
     2
 72
     2
 73
     0
 90
        0
 40
0.6
 41
30.0
 62
     5
 63
     7
421
 16777215
 74
     1
 91
        4
 64
     7
 65
   257
 75
     1
175
     1
 42
1.0
 92
        8
 66
     7
 43
1.0
 76
     1
 77
     6
 78
     2
 67
     7
 79
     5
170
     0
171
     0
290
     0
174
     0
 93
        1
 44
0.0
173
     0
291
     1
 45
0.0
  0
VISUALSTYLE
  5
39
102
{ACAD_REACTORS
330
2A
102
}
102
{ACAD_XDICTIONARY
360
E7
102
}
330
2A
100
AcDbVisualStyle
  2
Facepattern
 70
    15
 71
     2
 72
     2
 73
     0
 90
        0
 40
0.6
 41
30.0
 62
     5
 63
     7
421
 16777215
 74
     1
 91
        4
 64
     7
 65
   257
 75
     1
175
     1
 42
1.0
 92
        8
 66
     7
 43
1.0
 76
     1
 77
     6
 78
     2
 67
     7
 79
     5
170
     0
171
     0
290
     0
174
     0
 93
        1
 44
0.0
173
     0
291
     1
 45
0.0
  0
VISUALSTYLE
  5
2B
102
{ACAD_REACTORS
330
2A
102
}
102
{ACAD_XDICTIONARY
360
CB
102
}
330
2A
100
AcDbVisualStyle
  2
Flat
 70
     0
 71
     2
 72
     1
 73
     1
 90
        2
 40
0.6
 41
30.0
 62
     5
 63
     7
421
 16777215
 74
     0
 91
        0
 64
     7
 65
   257
 75
     1
175
     1
 42
1.0
 92
        8
 66
     7
 43
1.0
 76
     1
 77
     6
 78
     2
 67
     7
 79
     5
170
     0
171
     0
290
     0
174
     0
 93
       13
 44
0.0
173
     0
291
     1
 45
0.0
  0
VISUALSTYLE
  5
2C
102
{ACAD_REACTORS
330
2A
102
}
102
{ACAD_XDICTIONARY
360
CD
102
}
330
2A
100
AcDbVisualStyle
  2
FlatWithEdges
 70
     1
 71
     2
 72
     1
 73
     1
 90
        2
 40
0.6
 41
30.0
 62
     5
 63
     7
421
 16777215
 74
     1
 91
        0
 64
     7
 65
   257
 75
     1
175
     1
 42
1.0
 92
        0
 66
   257
 43
1.0
 76
     1
 77
     6
 78
     2
 67
     7
 79
     5
170
     0
171
     0
290
     0
174
     0
 93
       13
 44
0.0
173
     0
291
     1
 45
0.0
  0
VISUALSTYLE
  5
2D
102
{ACAD_REACTORS
330
2A
102
}
102
{ACAD_XDICTIONARY
360
CF
102
}
330
2A
100
AcDbVisualStyle
  2
Gouraud
 70
     2
 71
     2
 72
     2
 73
     1
 90
        2
 40
0.6
 41
30.0
 62
     5
 63
     7
421
 16777215
 74
     0
 91
        0
 64
     7
 65
   257
 75
     1
175
     1
 42
1.0
 92
        0
 66
     7
 43
1.0
 76
     1
 77
     6
 78
     2
 67
     7
 79
     5
170
     0
171
     0
290
     0
174
     0
 93
       13
 44
0.0
173
     0
291
     1
 45
0.0
  0
VISUALSTYLE
  5
2E
102
{ACAD_REACTORS
330
2A
102
}
102
{ACAD_XDICTIONARY
360
D1
102
}
330
2A
100
AcDbVisualStyle
  2
GouraudWithEdges
 70
     3
 71
     2
 72
     2
 73
     1
 90
        2
 40
0.6
 41
30.0
 62
     5
 63
     7
421
 16777215
 74
     1
 91
        0
 64
     7
 65
   257
 75
     1
175
     1
 42
1.0
 92
        0
 66
   257
 43
1.0
 76
     1
 77
     6
 78
     2
 67
     7
 79
     5
170
     0
171
     0
290
     0
174
     0
 93
       13
 44
0.0
173
     0
291
     1
 45
0.0
  0
VISUALSTYLE
  5
31
102
{ACAD_REACTORS
330
2A
102
}
102
{ACAD_XDICTIONARY
360
D7
102
}
330
2A
100
AcDbVisualStyle
  2
Hidden
 70
     6
 71
     1
 72
     2
 73
     2
 90
        0
 40
0.6
 41
30.0
 62
     5
 63
     7
421
 16777215
 74
     2
 91
        2
 64
     7
 65
   257
 75
     2
175
     1
 42
40.0
 92
        0
 66
   257
 43
1.0
 76
     1
 77
     6
 78
     2
 67
     7
 79
     3
170
     0
171
     0
290
     0
174
     0
 93
        1
 44
0.0
173
     0
291
     0
 45
0.0
  0
VISUALSTYLE
  5
3B
102
{ACAD_REACTORS
330
2A
102
}
102
{ACAD_XDICTIONARY
360
EB
102
}
330
2A
100
AcDbVisualStyle
  2
JitterOff
 70
    20
 71
     2
 72
     2
 73
     0
 90
        0
 40
0.6
 41
30.0
 62
     5
 63
     7
421
 16777215
 74
     1
 91
        4
 64
     7
 65
   257
 75
     1
175
     1
 42
1.0
 92
       10
 66
     7
 43
1.0
 76
     1
 77
     6
 78
     2
 67
     7
 79
     5
170
     0
171
     0
290
     0
174
     0
 93
        1
 44
0.0
173
     0
291
     1
 45
0.0
  0
VISUALSTYLE
  5
38
102
{ACAD_REACTORS
330
2A
102
}
102
{ACAD_XDICTIONARY
360
E5
102
}
330
2A
100
AcDbVisualStyle
  2
Linepattern
 70
    14
 71
     2
 72
     2
 73
     0
 90
        0
 40
0.6
 41
30.0
 62
     5
 63
     7
421
 16777215
 74
     1
 91
        4
 64
     7
 65
   257
 75
     7
175
     7
 42
1.0
 92
        8
 66
     7
 43
1.0
 76
     1
 77
     6
 78
     2
 67
     7
 79
     5
170
     0
171
     0
290
     0
174
     0
 93
        1
 44
0.0
173
     0
291
     1
 45
0.0
  0
VISUALSTYLE
  5
3C
102
{ACAD_REACTORS
330
2A
102
}
102
{ACAD_XDICTIONARY
360
ED
102
}
330
2A
100
AcDbVisualStyle
  2
OverhangOff
 70
    21
 71
     2
 72
     2
 73
     0
 90
        0
 40
0.6
 41
30.0
 62
     5
 63
     7
421
 16777215
 74
     1
 91
        4
 64
     7
 65
   257
 75
     1
175
     1
 42
1.0
 92
        9
 66
     7
 43
1.0
 76
     1
 77
     6
 78
     2
 67
     7
 79
     5
170
     0
171
     0
290
     0
174
     0
 93
        1
 44
0.0
173
     0
291
     1
 45
0.0
  0
VISUALSTYLE
  5
33
102
{ACAD_REACTORS
330
2A
102
}
102
{ACAD_XDICTIONARY
360
DB
102
}
330
2A
100
AcDbVisualStyle
  2
Realistic
 70
     8
 71
     2
 72
     3
 73
     0
 90
        2
 40
0.6
 41
30.0
 62
     5
 63
     7
421
 16777215
 74
     0
 91
        0
 64
     7
 65
   257
 75
     1
175
     1
 42
1.0
 92
        8
 66
   257
 43
1.0
 76
     1
 77
     6
 78
     2
 67
     7
 79
     3
170
     0
171
     0
290
     0
174
     0
 93
       13
 44
0.0
173
     0
291
     0
 45
0.0
  0
VISUALSTYLE
  5
42
102
{ACAD_REACTORS
330
2A
102
}
102
{ACAD_XDICTIONARY
360
F9
102
}
330
2A
100
AcDbVisualStyle
  2
Shaded
 70
    27
 71
     2
 72
     2
 73
     1
 90
        2
 40
0.6
 41
30.0
 62
     5
 63
     7
421
 16777215
 74
     0
 91
        4
 64
     7
 65
   257
 75
     1
175
     1
 42
1.0
 92
        8
 66
   257
 43
1.0
 76
     1
 77
     6
 78
     2
 67
     8
425
  7895160
 79
     3
170
     0
171
     0
290
     0
174
     0
 93
        5
 44
0.0
173
     0
291
     0
 45
0.0
  0
VISUALSTYLE
  5
41
102
{ACAD_REACTORS
330
2A
102
}
102
{ACAD_XDICTIONARY
360
F7
102
}
330
2A
100
AcDbVisualStyle
  2
Shaded with edges
 70
    26
 71
     2
 72
     2
 73
     1
 90
        2
 40
0.6
 41
30.0
 62
     5
 63
     7
421
 16777215
 74
     1
 91
       10
 64
     7
 65
   257
 75
     2
175
     1
 42
1.0
 92
        8
 66
   257
 43
1.0
 76
     1
 77
     6
 78
     2
 67
     7
 79
     3
170
     0
171
     0
290
     0
174
     0
 93
        5
 44
0.0
173
     0
291
     0
 45
0.0
  0
VISUALSTYLE
  5
3E
102
{ACAD_REACTORS
330
2A
102
}
102
{ACAD_XDICTIONARY
360
F1
102
}
330
2A
100
AcDbVisualStyle
  2
Shades of Gray
 70
    23
 71
     2
 72
     2
 73
     3
 90
        0
 40
0.6
 41
30.0
 62
     5
 63
     7
421
 16777215
 74
     2
 91
        2
 64
     7
 65
     7
 75
     1
175
     1
 42
40.0
 92
        8
 66
     7
 43
1.0
 76
     1
 77
     6
 78
     2
 67
     7
 79
     3
170
     0
171
     0
290
     0
174
     0
 93
        1
 44
0.0
173
     0
291
     0
 45
0.0
  0
VISUALSTYLE
  5
3F
102
{ACAD_REACTORS
330
2A
102
}
102
{ACAD_XDICTIONARY
360
F3
102
}
330
2A
100
AcDbVisualStyle
  2
Sketchy
 70
    24
 71
     1
 72
     2
 73
     2
 90
        0
 40
0.6
 41
30.0
 62
     5
 63
     7
421
 16777215
 74
     2
 91
        2
 64
     7
 65
     7
 75
     1
175
     1
 42
40.0
 92
       11
 66
     7
 43
1.0
 76
     1
 77
     6
 78
     2
 67
     7
 79
     6
170
     0
171
     0
290
     0
174
     0
 93
        1
 44
0.0
173
     0
291
     0
 45
0.0
  0
VISUALSTYLE
  5
37
102
{ACAD_REACTORS
330
2A
102
}
102
{ACAD_XDICTIONARY
360
E3
102
}
330
2A
100
AcDbVisualStyle
  2
Thicken
 70
    13
 71
     2
 72
     2
 73
     0
 90
        0
 40
0.6
 41
30.0
 62
     5
 63
     7
421
 16777215
 74
     1
 91
        4
 64
     7
 65
   257
 75
     1
175
     1
 42
1.0
 92
       12
 66
     7
 43
1.0
 76
     1
 77
     6
 78
     2
 67
     7
 79
     5
170
     0
171
     0
290
     0
174
     0
 93
        1
 44
0.0
173
     0
291
     1
 45
0.0
  0
VISUALSTYLE
  5
30
102
{ACAD_REACTORS
330
2A
102
}
102
{ACAD_XDICTIONARY
360
D5
102
}
330
2A
100
AcDbVisualStyle
  2
Wireframe
 70
     5
 71
     0
 72
     2
 73
     0
 90
        0
 40
0.6
 41
30.0
 62
     5
 63
     7
421
 16777215
 74
     1
 91
        4
 64
     7
 65
   257
 75
     1
175
     1
 42
1.0
 92
        0
 66
   257
 43
1.0
 76
     1
 77
     6
 78
     2
 67
     7
 79
     3
170
     0
171
     0
290
     0
174
     0
 93
        1
 44
0.0
173
     0
291
     0
 45
0.0
  0
VISUALSTYLE
  5
40
102
{ACAD_REACTORS
330
2A
102
}
102
{ACAD_XDICTIONARY
360
F5
102
}
330
2A
100
AcDbVisualStyle
  2
X-Ray
 70
    25
 71
     2
 72
     2
 73
     1
 90
        1
 40
0.5
 41
30.0
 62
     5
 63
     7
421
 16777215
 74
     1
 91
        0
 64
     7
 65
   257
 75
     1
175
     1
 42
1.0
 92
        8
 66
     7
 43
1.0
 76
     1
 77
     6
 78
     2
 67
     7
 79
     3
170
     0
171
     0
290
     0
174
     0
 93
       13
 44
0.0
173
     0
291
     0
 45
0.0
  0
DICTIONARYVAR
  5
C9
102
{ACAD_REACTORS
330
C8
102
}
330
C8
100
DictionaryVariables
280
     0
  1
1:1
  0
DICTIONARYVAR
  5
102
102
{ACAD_REACTORS
330
C8
102
}
330
C8
100
DictionaryVariables
280
     0
  1
Standard
  0
DICTIONARYVAR
  5
101
102
{ACAD_REACTORS
330
C8
102
}
330
C8
100
DictionaryVariables
280
     0
  1
Standard
  0
DICTIONARYVAR
  5
CA
102
{ACAD_REACTORS
330
C8
102
}
330
C8
100
DictionaryVariables
280
     0
  1
2
  0
DICTIONARY
  5
FE
330
6C
100
AcDbDictionary
280
     1
281
     1
  3
ACAD_XREC_ROUNDTRIP
360
FF
  0
DICTIONARY
  5
FB
330
6A
100
AcDbDictionary
280
     1
281
     1
  3
ACAD_ROUNDTRIP_2008_TABLESTYLE_CELLSTYLEMAP
360
FC
  0
DICTIONARY
  5
D3
330
2F
100
AcDbDictionary
280
     1
281
     1
  3
ACAD_XREC_ROUNDTRIP
360
D4
  0
DICTIONARY
  5
D9
330
32
100
AcDbDictionary
280
     1
281
     1
  3
ACAD_XREC_ROUNDTRIP
360
DA
  0
DICTIONARY
  5
E1
330
36
100
AcDbDictionary
280
     1
281
     1
  3
ACAD_XREC_ROUNDTRIP
360
E2
  0
DICTIONARY
  5
E9
330
3A
100
AcDbDictionary
280
     1
281
     1
  3
ACAD_XREC_ROUNDTRIP
360
EA
  0
DICTIONARY
  5
DD
330
34
100
AcDbDictionary
280
     1
281
     1
  3
ACAD_XREC_ROUNDTRIP
360
DE
  0
DICTIONARY
  5
DF
330
35
100
AcDbDictionary
280
     1
281
     1
  3
ACAD_XREC_ROUNDTRIP
360
E0
  0
DICTIONARY
  5
EF
330
3D
100
AcDbDictionary
280
     1
281
     1
  3
ACAD_XREC_ROUNDTRIP
360
F0
  0
DICTIONARY
  5
E7
330
39
100
AcDbDictionary
280
     1
281
     1
  3
ACAD_XREC_ROUNDTRIP
360
E8
  0
DICTIONARY
  5
CB
330
2B
100
AcDbDictionary
280
     1
281
     1
  3
ACAD_XREC_ROUNDTRIP
360
CC
  0
DICTIONARY
  5
CD
330
2C
100
AcDbDictionary
280
     1
281
     1
  3
ACAD_XREC_ROUNDTRIP
360
CE
  0
DICTIONARY
  5
CF
330
2D
100
AcDbDictionary
280
     1
281
     1
  3
ACAD_XREC_ROUNDTRIP
360
D0
  0
DICTIONARY
  5
D1
330
2E
100
AcDbDictionary
280
     1
281
     1
  3
ACAD_XREC_ROUNDTRIP
360
D2
  0
DICTIONARY
  5
D7
330
31
100
AcDbDictionary
280
     1
281
     1
  3
ACAD_XREC_ROUNDTRIP
360
D8
  0
DICTIONARY
  5
EB
330
3B
100
AcDbDictionary
280
     1
281
     1
  3
ACAD_XREC_ROUNDTRIP
360
EC
  0
DICTIONARY
  5
E5
330
38
100
AcDbDictionary
280
     1
281
     1
  3
ACAD_XREC_ROUNDTRIP
360
E6
  0
DICTIONARY
  5
ED
330
3C
100
AcDbDictionary
280
     1
281
     1
  3
ACAD_XREC_ROUNDTRIP
360
EE
  0
DICTIONARY
  5
DB
330
33
100
AcDbDictionary
280
     1
281
     1
  3
ACAD_XREC_ROUNDTRIP
360
DC
  0
DICTIONARY
  5
F9
330
42
100
AcDbDictionary
280
     1
281
     1
  3
ACAD_XREC_ROUNDTRIP
360
FA
  0
DICTIONARY
  5
F7
330
41
100
AcDbDictionary
280
     1
281
     1
  3
ACAD_XREC_ROUNDTRIP
360
F8
  0
DICTIONARY
  5
F1
330
3E
100
AcDbDictionary
280
     1
281
     1
  3
ACAD_XREC_ROUNDTRIP
360
F2
  0
DICTIONARY
  5
F3
330
3F
100
AcDbDictionary
280
     1
281
     1
  3
ACAD_XREC_ROUNDTRIP
360
F4
  0
DICTIONARY
  5
E3
330
37
100
AcDbDictionary
280
     1
281
     1
  3
ACAD_XREC_ROUNDTRIP
360
E4
  0
DICTIONARY
  5
D5
330
30
100
AcDbDictionary
280
     1
281
     1
  3
ACAD_XREC_ROUNDTRIP
360
D6
  0
DICTIONARY
  5
F5
330
40
100
AcDbDictionary
280
     1
281
     1
  3
ACAD_XREC_ROUNDTRIP
360
F6
  0
XRECORD
  5
FF
102
{ACAD_REACTORS
330
FE
102
}
330
FE
100
AcDbXrecord
280
     1
102
ACAD_ROUNDTRIP_2010_MLEADER_STYLE
  0
CELLSTYLEMAP
  5
FC
102
{ACAD_REACTORS
330
FB
102
}
330
FB
100
AcDbCellStyleMap
 90
        3
300
CELLSTYLE
  1
TABLEFORMAT_BEGIN
 90
        5
170
     1
 91
        0
 92
    32768
 62
   257
 93
        1
300
CONTENTFORMAT
  1
CONTENTFORMAT_BEGIN
 90
        0
 91
        0
 92
        4
 93
        0
300

 40
0.0
140
1.0
 94
        5
 62
     0
340
11
144
0.25
309
CONTENTFORMAT_END
171
     1
301
MARGIN
  1
CELLMARGIN_BEGIN
 40
0.06
 40
0.06
 40
0.06
 40
0.06
 40
0.06
 40
0.06
309
CELLMARGIN_END
 94
        6
 95
        1
302
GRIDFORMAT
  1
GRIDFORMAT_BEGIN
 90
        0
 91
        1
 62
     0
 92
       -2
340
14
 93
        0
 40
0.045
309
GRIDFORMAT_END
 95
        2
302
GRIDFORMAT
  1
GRIDFORMAT_BEGIN
 90
        0
 91
        1
 62
     0
 92
       -2
340
14
 93
        0
 40
0.045
309
GRIDFORMAT_END
 95
        4
302
GRIDFORMAT
  1
GRIDFORMAT_BEGIN
 90
        0
 91
        1
 62
     0
 92
       -2
340
14
 93
        0
 40
0.045
309
GRIDFORMAT_END
 95
        8
302
GRIDFORMAT
  1
GRIDFORMAT_BEGIN
 90
        0
 91
        1
 62
     0
 92
       -2
340
14
 93
        0
 40
0.045
309
GRIDFORMAT_END
 95
       16
302
GRIDFORMAT
  1
GRIDFORMAT_BEGIN
 90
        0
 91
        1
 62
     0
 92
       -2
340
14
 93
        0
 40
0.045
309
GRIDFORMAT_END
 95
       32
302
GRIDFORMAT
  1
GRIDFORMAT_BEGIN
 90
        0
 91
        1
 62
     0
 92
       -2
340
14
 93
        0
 40
0.045
309
GRIDFORMAT_END
309
TABLEFORMAT_END
  1
CELLSTYLE_BEGIN
 90
        1
 91
        1
300
_TITLE
309
CELLSTYLE_END
300
CELLSTYLE
  1
TABLEFORMAT_BEGIN
 90
        5
170
     1
 91
        0
 92
        0
 62
   257
 93
        1
300
CONTENTFORMAT
  1
CONTENTFORMAT_BEGIN
 90
        0
 91
        0
 92
        4
 93
        0
300

 40
0.0
140
1.0
 94
        5
 62
     0
340
11
144
0.18
309
CONTENTFORMAT_END
171
     1
301
MARGIN
  1
CELLMARGIN_BEGIN
 40
0.06
 40
0.06
 40
0.06
 40
0.06
 40
0.06
 40
0.06
309
CELLMARGIN_END
 94
        6
 95
        1
302
GRIDFORMAT
  1
GRIDFORMAT_BEGIN
 90
        0
 91
        1
 62
     0
 92
       -2
340
14
 93
        0
 40
0.045
309
GRIDFORMAT_END
 95
        2
302
GRIDFORMAT
  1
GRIDFORMAT_BEGIN
 90
        0
 91
        1
 62
     0
 92
       -2
340
14
 93
        0
 40
0.045
309
GRIDFORMAT_END
 95
        4
302
GRIDFORMAT
  1
GRIDFORMAT_BEGIN
 90
        0
 91
        1
 62
     0
 92
       -2
340
14
 93
        0
 40
0.045
309
GRIDFORMAT_END
 95
        8
302
GRIDFORMAT
  1
GRIDFORMAT_BEGIN
 90
        0
 91
        1
 62
     0
 92
       -2
340
14
 93
        0
 40
0.045
309
GRIDFORMAT_END
 95
       16
302
GRIDFORMAT
  1
GRIDFORMAT_BEGIN
 90
        0
 91
        1
 62
     0
 92
       -2
340
14
 93
        0
 40
0.045
309
GRIDFORMAT_END
 95
       32
302
GRIDFORMAT
  1
GRIDFORMAT_BEGIN
 90
        0
 91
        1
 62
     0
 92
       -2
340
14
 93
        0
 40
0.045
309
GRIDFORMAT_END
309
TABLEFORMAT_END
  1
CELLSTYLE_BEGIN
 90
        2
 91
        1
300
_HEADER
309
CELLSTYLE_END
300
CELLSTYLE
  1
TABLEFORMAT_BEGIN
 90
        5
170
     1
 91
        0
 92
        0
 62
   257
 93
        1
300
CONTENTFORMAT
  1
CONTENTFORMAT_BEGIN
 90
        0
 91
        0
 92
        4
 93
        0
300

 40
0.0
140
1.0
 94
        2
 62
     0
340
11
144
0.18
309
CONTENTFORMAT_END
171
     1
301
MARGIN
  1
CELLMARGIN_BEGIN
 40
0.06
 40
0.06
 40
0.06
 40
0.06
 40
0.06
 40
0.06
309
CELLMARGIN_END
 94
        6
 95
        1
302
GRIDFORMAT
  1
GRIDFORMAT_BEGIN
 90
        0
 91
        1
 62
     0
 92
       -2
340
14
 93
        0
 40
0.045
309
GRIDFORMAT_END
 95
        2
302
GRIDFORMAT
  1
GRIDFORMAT_BEGIN
 90
        0
 91
        1
 62
     0
 92
       -2
340
14
 93
        0
 40
0.045
309
GRIDFORMAT_END
 95
        4
302
GRIDFORMAT
  1
GRIDFORMAT_BEGIN
 90
        0
 91
        1
 62
     0
 92
       -2
340
14
 93
        0
 40
0.045
309
GRIDFORMAT_END
 95
        8
302
GRIDFORMAT
  1
GRIDFORMAT_BEGIN
 90
        0
 91
        1
 62
     0
 92
       -2
340
14
 93
        0
 40
0.045
309
GRIDFORMAT_END
 95
       16
302
GRIDFORMAT
  1
GRIDFORMAT_BEGIN
 90
        0
 91
        1
 62
     0
 92
       -2
340
14
 93
        0
 40
0.045
309
GRIDFORMAT_END
 95
       32
302
GRIDFORMAT
  1
GRIDFORMAT_BEGIN
 90
        0
 91
        1
 62
     0
 92
       -2
340
14
 93
        0
 40
0.045
309
GRIDFORMAT_END
309
TABLEFORMAT_END
  1
CELLSTYLE_BEGIN
 90
        3
 91
        2
300
_DATA
309
CELLSTYLE_END
  0
XRECORD
  5
D4
102
{ACAD_REACTORS
330
D3
102
}
330
D3
100
AcDbXrecord
280
     1
102
RTVSPropertyOp0
 70
     1
102
RTVSPropertyOp1
 70
     1
102
RTVSPropertyOp2
 70
     1
102
RTVSPropertyOp3
 70
     1
102
RTVSPropertyOp4
 70
     1
102
RTVSPropertyOp5
 70
     1
102
RTVSPropertyOp6
 70
     1
102
RTVSPropertyOp7
 70
     1
102
RTVSPropertyOp8
 70
     1
102
RTVSPropertyOp9
 70
     1
102
RTVSPropertyOp10
 70
     1
102
RTVSPropertyOp11
 70
     1
102
RTVSPropertyOp12
 70
     1
102
RTVSPropertyOp13
 70
     1
102
RTVSPropertyOp14
 70
     1
102
RTVSPropertyOp15
 70
     1
102
RTVSPropertyOp16
 70
     1
102
RTVSPropertyOp17
 70
     1
102
RTVSPropertyOp18
 70
     1
102
RTVSPropertyOp19
 70
     1
102
RTVSPropertyOp20
 70
     1
102
RTVSPropertyOp21
 70
     1
102
RTVSPropertyOp22
 70
     1
102
RTVSPropertyOp23
 70
     1
102
RTVSPropertyOp24
 70
     1
102
RTVSPropertyOp25
 70
     1
102
RTVSPropertyOp26
 70
     1
102
RTVSPropertyOp27
 70
     1
102
RTVSPropertyOp28
 70
     1
102
RTVSPropertyOp29
 70
     1
102
RTVSPropertyOp30
 70
     1
102
RTVSPropertyOp31
 70
     1
102
RTVSPropertyOp32
 70
     1
102
RTVSPropertyOp33
 70
     1
102
RTVSPropertyOp34
 70
     1
102
RTVSPropertyOp35
 70
     1
102
RTVSPropertyOp36
 70
     1
102
RTVSPropertyOp37
 70
     1
102
RTVSPropertyOp38
 70
     1
102
RTVSPropertyOp39
 70
     1
102
RTVSPropertyOp40
 70
     1
102
RTVSPropertyOp41
 70
     1
102
RTVSPropertyOp42
 70
     1
102
RTVSPropertyOp43
 70
     1
102
RTVSPropertyOp44
 70
     1
102
RTVSPropertyOp45
 70
     1
102
RTVSPropertyOp46
 70
     1
102
RTVSPropertyOp47
 70
     1
102
RTVSPropertyOp48
 70
     1
102
RTVSPropertyOp49
 70
     1
102
RTVSPropertyOp50
 70
     1
102
RTVSPropertyOp51
 70
     0
102
RTVSPropertyOp52
 70
     0
102
RTVSPropertyOp53
 70
     1
102
RTVSPropertyOp54
 70
     1
102
RTVSPropertyOp55
 70
     1
102
RTVSPropertyOp56
 70
     1
102
RTVSPropertyOp57
 70
     1
102
RTVSPost2010Prop28
280
     1
102
RTVSPost2010PropOp28
 70
     1
102
RTVSPost2010Prop29
280
     1
102
RTVSPost2010PropOp29
 70
     1
102
RTVSPost2010Prop30
280
     0
102
RTVSPost2010PropOp30
 70
     1
102
RTVSPost2010Prop31
280
     0
102
RTVSPost2010PropOp31
 70
     1
102
RTVSPost2010Prop32
280
     0
102
RTVSPost2010PropOp32
 70
     1
102
RTVSPost2010Prop33
280
     0
102
RTVSPost2010PropOp33
 70
     1
102
RTVSPost2010Prop34
280
     0
102
RTVSPost2010PropOp34
 70
     1
102
RTVSPost2010Prop35
280
     0
102
RTVSPost2010PropOp35
 70
     1
102
RTVSPost2010Prop36
280
     0
102
RTVSPost2010PropOp36
 70
     1
102
RTVSPost2010Prop37
 90
       50
102
RTVSPost2010PropOp37
 70
     1
102
RTVSPost2010Prop38
140
0.0
102
RTVSPost2010PropOp38
 70
     1
102
RTVSPost2010Prop39
140
1.0
102
RTVSPost2010PropOp39
 70
     1
102
RTVSPost2010Prop40
 90
        0
102
RTVSPost2010PropOp40
 70
     1
102
RTVSPost2010Prop41ColorIndex
 90
       18
102
RTVSPost2010Prop41ColorRGB
 90
        0
102
RTVSPost2010PropOp41
 70
     1
102
RTVSPost2010Prop42
 90
       50
102
RTVSPost2010PropOp42
 70
     1
102
RTVSPost2010Prop43
 90
        3
102
RTVSPost2010PropOp43
 70
     1
102
RTVSPost2010Prop44ColorIndex
 90
        5
102
RTVSPost2010Prop44ColorRGB
 90
      255
102
RTVSPost2010PropOp44
 70
     1
102
RTVSPost2010Prop45
280
     0
102
RTVSPost2010PropOp45
 70
     1
102
RTVSPost2010Prop46
 90
       50
102
RTVSPost2010PropOp46
 70
     1
102
RTVSPost2010Prop47
 90
       50
102
RTVSPost2010PropOp47
 70
     1
102
RTVSPost2010Prop48
 90
       50
102
RTVSPost2010PropOp48
 70
     1
102
RTVSPost2010Prop49
280
     0
102
RTVSPost2010PropOp49
 70
     1
102
RTVSPost2010Prop50
 90
       50
102
RTVSPost2010PropOp50
 70
     1
102
RTVSPost2010Prop51ColorIndex
 90
      256
102
RTVSPost2010Prop51ColorRGB
 90
-16777216
102
RTVSPost2010PropOp51
 70
     0
102
RTVSPost2010Prop52
140
1.0
102
RTVSPost2010PropOp52
 70
     0
102
RTVSPost2010Prop53
 90
        2
102
RTVSPost2010PropOp53
 70
     1
102
RTVSPost2010Prop54
  1
strokes_ogs.tif
102
RTVSPost2010PropOp54
 70
     1
102
RTVSPost2010Prop55
280
     0
102
RTVSPost2010PropOp55
 70
     1
102
RTVSPost2010Prop56
140
1.0
102
RTVSPost2010PropOp56
 70
     1
102
RTVSPost2010Prop57
140
1.0
102
RTVSPost2010PropOp57
 70
     1
  0
XRECORD
  5
DA
102
{ACAD_REACTORS
330
D9
102
}
330
D9
100
AcDbXrecord
280
     1
102
RTVSPropertyOp0
 70
     1
102
RTVSPropertyOp1
 70
     1
102
RTVSPropertyOp2
 70
     1
102
RTVSPropertyOp3
 70
     1
102
RTVSPropertyOp4
 70
     1
102
RTVSPropertyOp5
 70
     1
102
RTVSPropertyOp6
 70
     1
102
RTVSPropertyOp7
 70
     1
102
RTVSPropertyOp8
 70
     1
102
RTVSPropertyOp9
 70
     1
102
RTVSPropertyOp10
 70
     1
102
RTVSPropertyOp11
 70
     1
102
RTVSPropertyOp12
 70
     1
102
RTVSPropertyOp13
 70
     1
102
RTVSPropertyOp14
 70
     1
102
RTVSPropertyOp15
 70
     1
102
RTVSPropertyOp16
 70
     1
102
RTVSPropertyOp17
 70
     1
102
RTVSPropertyOp18
 70
     1
102
RTVSPropertyOp19
 70
     1
102
RTVSPropertyOp20
 70
     1
102
RTVSPropertyOp21
 70
     1
102
RTVSPropertyOp22
 70
     1
102
RTVSPropertyOp23
 70
     1
102
RTVSPropertyOp24
 70
     1
102
RTVSPropertyOp25
 70
     1
102
RTVSPropertyOp26
 70
     1
102
RTVSPropertyOp27
 70
     1
102
RTVSPropertyOp28
 70
     1
102
RTVSPropertyOp29
 70
     1
102
RTVSPropertyOp30
 70
     1
102
RTVSPropertyOp31
 70
     1
102
RTVSPropertyOp32
 70
     1
102
RTVSPropertyOp33
 70
     1
102
RTVSPropertyOp34
 70
     1
102
RTVSPropertyOp35
 70
     1
102
RTVSPropertyOp36
 70
     1
102
RTVSPropertyOp37
 70
     1
102
RTVSPropertyOp38
 70
     1
102
RTVSPropertyOp39
 70
     1
102
RTVSPropertyOp40
 70
     1
102
RTVSPropertyOp41
 70
     1
102
RTVSPropertyOp42
 70
     1
102
RTVSPropertyOp43
 70
     1
102
RTVSPropertyOp44
 70
     1
102
RTVSPropertyOp45
 70
     1
102
RTVSPropertyOp46
 70
     1
102
RTVSPropertyOp47
 70
     1
102
RTVSPropertyOp48
 70
     1
102
RTVSPropertyOp49
 70
     1
102
RTVSPropertyOp50
 70
     1
102
RTVSPropertyOp51
 70
     0
102
RTVSPropertyOp52
 70
     0
102
RTVSPropertyOp53
 70
     1
102
RTVSPropertyOp54
 70
     1
102
RTVSPropertyOp55
 70
     1
102
RTVSPropertyOp56
 70
     1
102
RTVSPropertyOp57
 70
     1
102
RTVSPost2010Prop28
280
     0
102
RTVSPost2010PropOp28
 70
     1
102
RTVSPost2010Prop29
280
     1
102
RTVSPost2010PropOp29
 70
     1
102
RTVSPost2010Prop30
280
     1
102
RTVSPost2010PropOp30
 70
     1
102
RTVSPost2010Prop31
280
     0
102
RTVSPost2010PropOp31
 70
     1
102
RTVSPost2010Prop32
280
     0
102
RTVSPost2010PropOp32
 70
     1
102
RTVSPost2010Prop33
280
     0
102
RTVSPost2010PropOp33
 70
     1
102
RTVSPost2010Prop34
280
     0
102
RTVSPost2010PropOp34
 70
     1
102
RTVSPost2010Prop35
280
     0
102
RTVSPost2010PropOp35
 70
     1
102
RTVSPost2010Prop36
280
     0
102
RTVSPost2010PropOp36
 70
     1
102
RTVSPost2010Prop37
 90
       50
102
RTVSPost2010PropOp37
 70
     1
102
RTVSPost2010Prop38
140
0.0
102
RTVSPost2010PropOp38
 70
     1
102
RTVSPost2010Prop39
140
1.0
102
RTVSPost2010PropOp39
 70
     1
102
RTVSPost2010Prop40
 90
        0
102
RTVSPost2010PropOp40
 70
     1
102
RTVSPost2010Prop41ColorIndex
 90
       18
102
RTVSPost2010Prop41ColorRGB
 90
        0
102
RTVSPost2010PropOp41
 70
     1
102
RTVSPost2010Prop42
 90
       50
102
RTVSPost2010PropOp42
 70
     1
102
RTVSPost2010Prop43
 90
        3
102
RTVSPost2010PropOp43
 70
     1
102
RTVSPost2010Prop44ColorIndex
 90
        5
102
RTVSPost2010Prop44ColorRGB
 90
      255
102
RTVSPost2010PropOp44
 70
     1
102
RTVSPost2010Prop45
280
     0
102
RTVSPost2010PropOp45
 70
     1
102
RTVSPost2010Prop46
 90
       50
102
RTVSPost2010PropOp46
 70
     1
102
RTVSPost2010Prop47
 90
       50
102
RTVSPost2010PropOp47
 70
     1
102
RTVSPost2010Prop48
 90
       50
102
RTVSPost2010PropOp48
 70
     1
102
RTVSPost2010Prop49
280
     0
102
RTVSPost2010PropOp49
 70
     1
102
RTVSPost2010Prop50
 90
       50
102
RTVSPost2010PropOp50
 70
     1
102
RTVSPost2010Prop51ColorIndex
 90
      256
102
RTVSPost2010Prop51ColorRGB
 90
-16777216
102
RTVSPost2010PropOp51
 70
     0
102
RTVSPost2010Prop52
140
1.0
102
RTVSPost2010PropOp52
 70
     0
102
RTVSPost2010Prop53
 90
        2
102
RTVSPost2010PropOp53
 70
     1
102
RTVSPost2010Prop54
  1
strokes_ogs.tif
102
RTVSPost2010PropOp54
 70
     1
102
RTVSPost2010Prop55
280
     0
102
RTVSPost2010PropOp55
 70
     1
102
RTVSPost2010Prop56
140
1.0
102
RTVSPost2010PropOp56
 70
     1
102
RTVSPost2010Prop57
140
1.0
102
RTVSPost2010PropOp57
 70
     1
  0
XRECORD
  5
E2
102
{ACAD_REACTORS
330
E1
102
}
330
E1
100
AcDbXrecord
280
     1
102
RTVSPropertyOp0
 70
     1
102
RTVSPropertyOp1
 70
     1
102
RTVSPropertyOp2
 70
     1
102
RTVSPropertyOp3
 70
     1
102
RTVSPropertyOp4
 70
     1
102
RTVSPropertyOp5
 70
     1
102
RTVSPropertyOp6
 70
     1
102
RTVSPropertyOp7
 70
     1
102
RTVSPropertyOp8
 70
     1
102
RTVSPropertyOp9
 70
     1
102
RTVSPropertyOp10
 70
     1
102
RTVSPropertyOp11
 70
     1
102
RTVSPropertyOp12
 70
     1
102
RTVSPropertyOp13
 70
     1
102
RTVSPropertyOp14
 70
     1
102
RTVSPropertyOp15
 70
     1
102
RTVSPropertyOp16
 70
     1
102
RTVSPropertyOp17
 70
     1
102
RTVSPropertyOp18
 70
     1
102
RTVSPropertyOp19
 70
     1
102
RTVSPropertyOp20
 70
     1
102
RTVSPropertyOp21
 70
     1
102
RTVSPropertyOp22
 70
     1
102
RTVSPropertyOp23
 70
     1
102
RTVSPropertyOp24
 70
     1
102
RTVSPropertyOp25
 70
     1
102
RTVSPropertyOp26
 70
     1
102
RTVSPropertyOp27
 70
     1
102
RTVSPropertyOp28
 70
     1
102
RTVSPropertyOp29
 70
     1
102
RTVSPropertyOp30
 70
     1
102
RTVSPropertyOp31
 70
     1
102
RTVSPropertyOp32
 70
     1
102
RTVSPropertyOp33
 70
     1
102
RTVSPropertyOp34
 70
     1
102
RTVSPropertyOp35
 70
     1
102
RTVSPropertyOp36
 70
     1
102
RTVSPropertyOp37
 70
     1
102
RTVSPropertyOp38
 70
     1
102
RTVSPropertyOp39
 70
     1
102
RTVSPropertyOp40
 70
     1
102
RTVSPropertyOp41
 70
     1
102
RTVSPropertyOp42
 70
     1
102
RTVSPropertyOp43
 70
     1
102
RTVSPropertyOp44
 70
     1
102
RTVSPropertyOp45
 70
     1
102
RTVSPropertyOp46
 70
     1
102
RTVSPropertyOp47
 70
     1
102
RTVSPropertyOp48
 70
     1
102
RTVSPropertyOp49
 70
     1
102
RTVSPropertyOp50
 70
     1
102
RTVSPropertyOp51
 70
     0
102
RTVSPropertyOp52
 70
     0
102
RTVSPropertyOp53
 70
     1
102
RTVSPropertyOp54
 70
     1
102
RTVSPropertyOp55
 70
     1
102
RTVSPropertyOp56
 70
     1
102
RTVSPropertyOp57
 70
     1
102
RTVSPost2010Prop28
280
     0
102
RTVSPost2010PropOp28
 70
     1
102
RTVSPost2010Prop29
280
     1
102
RTVSPost2010PropOp29
 70
     1
102
RTVSPost2010Prop30
280
     1
102
RTVSPost2010PropOp30
 70
     1
102
RTVSPost2010Prop31
280
     0
102
RTVSPost2010PropOp31
 70
     1
102
RTVSPost2010Prop32
280
     0
102
RTVSPost2010PropOp32
 70
     1
102
RTVSPost2010Prop33
280
     0
102
RTVSPost2010PropOp33
 70
     1
102
RTVSPost2010Prop34
280
     0
102
RTVSPost2010PropOp34
 70
     1
102
RTVSPost2010Prop35
280
     0
102
RTVSPost2010PropOp35
 70
     1
102
RTVSPost2010Prop36
280
     0
102
RTVSPost2010PropOp36
 70
     1
102
RTVSPost2010Prop37
 90
       50
102
RTVSPost2010PropOp37
 70
     1
102
RTVSPost2010Prop38
140
0.0
102
RTVSPost2010PropOp38
 70
     1
102
RTVSPost2010Prop39
140
1.0
102
RTVSPost2010PropOp39
 70
     1
102
RTVSPost2010Prop40
 90
        0
102
RTVSPost2010PropOp40
 70
     1
102
RTVSPost2010Prop41ColorIndex
 90
       18
102
RTVSPost2010Prop41ColorRGB
 90
        0
102
RTVSPost2010PropOp41
 70
     1
102
RTVSPost2010Prop42
 90
       50
102
RTVSPost2010PropOp42
 70
     1
102
RTVSPost2010Prop43
 90
        3
102
RTVSPost2010PropOp43
 70
     1
102
RTVSPost2010Prop44ColorIndex
 90
        5
102
RTVSPost2010Prop44ColorRGB
 90
      255
102
RTVSPost2010PropOp44
 70
     1
102
RTVSPost2010Prop45
280
     0
102
RTVSPost2010PropOp45
 70
     1
102
RTVSPost2010Prop46
 90
       50
102
RTVSPost2010PropOp46
 70
     1
102
RTVSPost2010Prop47
 90
       50
102
RTVSPost2010PropOp47
 70
     1
102
RTVSPost2010Prop48
 90
       50
102
RTVSPost2010PropOp48
 70
     1
102
RTVSPost2010Prop49
280
     0
102
RTVSPost2010PropOp49
 70
     1
102
RTVSPost2010Prop50
 90
       50
102
RTVSPost2010PropOp50
 70
     1
102
RTVSPost2010Prop51ColorIndex
 90
      256
102
RTVSPost2010Prop51ColorRGB
 90
-16777216
102
RTVSPost2010PropOp51
 70
     0
102
RTVSPost2010Prop52
140
1.0
102
RTVSPost2010PropOp52
 70
     0
102
RTVSPost2010Prop53
 90
        2
102
RTVSPost2010PropOp53
 70
     1
102
RTVSPost2010Prop54
  1
strokes_ogs.tif
102
RTVSPost2010PropOp54
 70
     1
102
RTVSPost2010Prop55
280
     0
102
RTVSPost2010PropOp55
 70
     1
102
RTVSPost2010Prop56
140
1.0
102
RTVSPost2010PropOp56
 70
     1
102
RTVSPost2010Prop57
140
1.0
102
RTVSPost2010PropOp57
 70
     1
  0
XRECORD
  5
EA
102
{ACAD_REACTORS
330
E9
102
}
330
E9
100
AcDbXrecord
280
     1
102
RTVSPropertyOp0
 70
     1
102
RTVSPropertyOp1
 70
     1
102
RTVSPropertyOp2
 70
     1
102
RTVSPropertyOp3
 70
     1
102
RTVSPropertyOp4
 70
     1
102
RTVSPropertyOp5
 70
     1
102
RTVSPropertyOp6
 70
     1
102
RTVSPropertyOp7
 70
     1
102
RTVSPropertyOp8
 70
     1
102
RTVSPropertyOp9
 70
     1
102
RTVSPropertyOp10
 70
     1
102
RTVSPropertyOp11
 70
     1
102
RTVSPropertyOp12
 70
     1
102
RTVSPropertyOp13
 70
     1
102
RTVSPropertyOp14
 70
     1
102
RTVSPropertyOp15
 70
     1
102
RTVSPropertyOp16
 70
     1
102
RTVSPropertyOp17
 70
     1
102
RTVSPropertyOp18
 70
     1
102
RTVSPropertyOp19
 70
     1
102
RTVSPropertyOp20
 70
     1
102
RTVSPropertyOp21
 70
     1
102
RTVSPropertyOp22
 70
     1
102
RTVSPropertyOp23
 70
     1
102
RTVSPropertyOp24
 70
     1
102
RTVSPropertyOp25
 70
     1
102
RTVSPropertyOp26
 70
     1
102
RTVSPropertyOp27
 70
     1
102
RTVSPropertyOp28
 70
     1
102
RTVSPropertyOp29
 70
     1
102
RTVSPropertyOp30
 70
     1
102
RTVSPropertyOp31
 70
     1
102
RTVSPropertyOp32
 70
     1
102
RTVSPropertyOp33
 70
     1
102
RTVSPropertyOp34
 70
     1
102
RTVSPropertyOp35
 70
     1
102
RTVSPropertyOp36
 70
     1
102
RTVSPropertyOp37
 70
     1
102
RTVSPropertyOp38
 70
     1
102
RTVSPropertyOp39
 70
     1
102
RTVSPropertyOp40
 70
     1
102
RTVSPropertyOp41
 70
     1
102
RTVSPropertyOp42
 70
     1
102
RTVSPropertyOp43
 70
     1
102
RTVSPropertyOp44
 70
     1
102
RTVSPropertyOp45
 70
     1
102
RTVSPropertyOp46
 70
     1
102
RTVSPropertyOp47
 70
     1
102
RTVSPropertyOp48
 70
     1
102
RTVSPropertyOp49
 70
     1
102
RTVSPropertyOp50
 70
     1
102
RTVSPropertyOp51
 70
     0
102
RTVSPropertyOp52
 70
     0
102
RTVSPropertyOp53
 70
     1
102
RTVSPropertyOp54
 70
     1
102
RTVSPropertyOp55
 70
     1
102
RTVSPropertyOp56
 70
     1
102
RTVSPropertyOp57
 70
     1
102
RTVSPost2010Prop28
280
     0
102
RTVSPost2010PropOp28
 70
     1
102
RTVSPost2010Prop29
280
     1
102
RTVSPost2010PropOp29
 70
     1
102
RTVSPost2010Prop30
280
     1
102
RTVSPost2010PropOp30
 70
     1
102
RTVSPost2010Prop31
280
     0
102
RTVSPost2010PropOp31
 70
     1
102
RTVSPost2010Prop32
280
     0
102
RTVSPost2010PropOp32
 70
     1
102
RTVSPost2010Prop33
280
     0
102
RTVSPost2010PropOp33
 70
     1
102
RTVSPost2010Prop34
280
     0
102
RTVSPost2010PropOp34
 70
     1
102
RTVSPost2010Prop35
280
     0
102
RTVSPost2010PropOp35
 70
     1
102
RTVSPost2010Prop36
280
     0
102
RTVSPost2010PropOp36
 70
     1
102
RTVSPost2010Prop37
 90
       50
102
RTVSPost2010PropOp37
 70
     1
102
RTVSPost2010Prop38
140
0.0
102
RTVSPost2010PropOp38
 70
     1
102
RTVSPost2010Prop39
140
1.0
102
RTVSPost2010PropOp39
 70
     1
102
RTVSPost2010Prop40
 90
        0
102
RTVSPost2010PropOp40
 70
     1
102
RTVSPost2010Prop41ColorIndex
 90
       18
102
RTVSPost2010Prop41ColorRGB
 90
        0
102
RTVSPost2010PropOp41
 70
     1
102
RTVSPost2010Prop42
 90
       50
102
RTVSPost2010PropOp42
 70
     1
102
RTVSPost2010Prop43
 90
        3
102
RTVSPost2010PropOp43
 70
     1
102
RTVSPost2010Prop44ColorIndex
 90
        5
102
RTVSPost2010Prop44ColorRGB
 90
      255
102
RTVSPost2010PropOp44
 70
     1
102
RTVSPost2010Prop45
280
     0
102
RTVSPost2010PropOp45
 70
     1
102
RTVSPost2010Prop46
 90
       50
102
RTVSPost2010PropOp46
 70
     1
102
RTVSPost2010Prop47
 90
       50
102
RTVSPost2010PropOp47
 70
     1
102
RTVSPost2010Prop48
 90
       50
102
RTVSPost2010PropOp48
 70
     1
102
RTVSPost2010Prop49
280
     0
102
RTVSPost2010PropOp49
 70
     1
102
RTVSPost2010Prop50
 90
       50
102
RTVSPost2010PropOp50
 70
     1
102
RTVSPost2010Prop51ColorIndex
 90
      256
102
RTVSPost2010Prop51ColorRGB
 90
-16777216
102
RTVSPost2010PropOp51
 70
     0
102
RTVSPost2010Prop52
140
1.0
102
RTVSPost2010PropOp52
 70
     0
102
RTVSPost2010Prop53
 90
        2
102
RTVSPost2010PropOp53
 70
     1
102
RTVSPost2010Prop54
  1
strokes_ogs.tif
102
RTVSPost2010PropOp54
 70
     1
102
RTVSPost2010Prop55
280
     0
102
RTVSPost2010PropOp55
 70
     1
102
RTVSPost2010Prop56
140
1.0
102
RTVSPost2010PropOp56
 70
     1
102
RTVSPost2010Prop57
140
1.0
102
RTVSPost2010PropOp57
 70
     1
  0
XRECORD
  5
DE
102
{ACAD_REACTORS
330
DD
102
}
330
DD
100
AcDbXrecord
280
     1
102
RTVSPropertyOp0
 70
     1
102
RTVSPropertyOp1
 70
     1
102
RTVSPropertyOp2
 70
     1
102
RTVSPropertyOp3
 70
     1
102
RTVSPropertyOp4
 70
     1
102
RTVSPropertyOp5
 70
     1
102
RTVSPropertyOp6
 70
     1
102
RTVSPropertyOp7
 70
     1
102
RTVSPropertyOp8
 70
     1
102
RTVSPropertyOp9
 70
     1
102
RTVSPropertyOp10
 70
     1
102
RTVSPropertyOp11
 70
     1
102
RTVSPropertyOp12
 70
     1
102
RTVSPropertyOp13
 70
     1
102
RTVSPropertyOp14
 70
     1
102
RTVSPropertyOp15
 70
     1
102
RTVSPropertyOp16
 70
     1
102
RTVSPropertyOp17
 70
     1
102
RTVSPropertyOp18
 70
     1
102
RTVSPropertyOp19
 70
     1
102
RTVSPropertyOp20
 70
     1
102
RTVSPropertyOp21
 70
     1
102
RTVSPropertyOp22
 70
     1
102
RTVSPropertyOp23
 70
     1
102
RTVSPropertyOp24
 70
     1
102
RTVSPropertyOp25
 70
     1
102
RTVSPropertyOp26
 70
     1
102
RTVSPropertyOp27
 70
     1
102
RTVSPropertyOp28
 70
     1
102
RTVSPropertyOp29
 70
     1
102
RTVSPropertyOp30
 70
     1
102
RTVSPropertyOp31
 70
     1
102
RTVSPropertyOp32
 70
     1
102
RTVSPropertyOp33
 70
     1
102
RTVSPropertyOp34
 70
     1
102
RTVSPropertyOp35
 70
     1
102
RTVSPropertyOp36
 70
     1
102
RTVSPropertyOp37
 70
     1
102
RTVSPropertyOp38
 70
     1
102
RTVSPropertyOp39
 70
     1
102
RTVSPropertyOp40
 70
     1
102
RTVSPropertyOp41
 70
     1
102
RTVSPropertyOp42
 70
     1
102
RTVSPropertyOp43
 70
     1
102
RTVSPropertyOp44
 70
     1
102
RTVSPropertyOp45
 70
     1
102
RTVSPropertyOp46
 70
     1
102
RTVSPropertyOp47
 70
     1
102
RTVSPropertyOp48
 70
     1
102
RTVSPropertyOp49
 70
     1
102
RTVSPropertyOp50
 70
     1
102
RTVSPropertyOp51
 70
     0
102
RTVSPropertyOp52
 70
     0
102
RTVSPropertyOp53
 70
     1
102
RTVSPropertyOp54
 70
     1
102
RTVSPropertyOp55
 70
     1
102
RTVSPropertyOp56
 70
     1
102
RTVSPropertyOp57
 70
     1
102
RTVSPost2010Prop28
280
     0
102
RTVSPost2010PropOp28
 70
     1
102
RTVSPost2010Prop29
280
     1
102
RTVSPost2010PropOp29
 70
     1
102
RTVSPost2010Prop30
280
     1
102
RTVSPost2010PropOp30
 70
     1
102
RTVSPost2010Prop31
280
     0
102
RTVSPost2010PropOp31
 70
     1
102
RTVSPost2010Prop32
280
     0
102
RTVSPost2010PropOp32
 70
     1
102
RTVSPost2010Prop33
280
     0
102
RTVSPost2010PropOp33
 70
     1
102
RTVSPost2010Prop34
280
     0
102
RTVSPost2010PropOp34
 70
     1
102
RTVSPost2010Prop35
280
     0
102
RTVSPost2010PropOp35
 70
     1
102
RTVSPost2010Prop36
280
     0
102
RTVSPost2010PropOp36
 70
     1
102
RTVSPost2010Prop37
 90
       50
102
RTVSPost2010PropOp37
 70
     1
102
RTVSPost2010Prop38
140
0.0
102
RTVSPost2010PropOp38
 70
     1
102
RTVSPost2010Prop39
140
1.0
102
RTVSPost2010PropOp39
 70
     1
102
RTVSPost2010Prop40
 90
        0
102
RTVSPost2010PropOp40
 70
     1
102
RTVSPost2010Prop41ColorIndex
 90
       18
102
RTVSPost2010Prop41ColorRGB
 90
        0
102
RTVSPost2010PropOp41
 70
     1
102
RTVSPost2010Prop42
 90
       50
102
RTVSPost2010PropOp42
 70
     1
102
RTVSPost2010Prop43
 90
        3
102
RTVSPost2010PropOp43
 70
     1
102
RTVSPost2010Prop44ColorIndex
 90
        5
102
RTVSPost2010Prop44ColorRGB
 90
      255
102
RTVSPost2010PropOp44
 70
     1
102
RTVSPost2010Prop45
280
     0
102
RTVSPost2010PropOp45
 70
     1
102
RTVSPost2010Prop46
 90
       50
102
RTVSPost2010PropOp46
 70
     1
102
RTVSPost2010Prop47
 90
       50
102
RTVSPost2010PropOp47
 70
     1
102
RTVSPost2010Prop48
 90
       50
102
RTVSPost2010PropOp48
 70
     1
102
RTVSPost2010Prop49
280
     0
102
RTVSPost2010PropOp49
 70
     1
102
RTVSPost2010Prop50
 90
       50
102
RTVSPost2010PropOp50
 70
     1
102
RTVSPost2010Prop51ColorIndex
 90
      256
102
RTVSPost2010Prop51ColorRGB
 90
-16777216
102
RTVSPost2010PropOp51
 70
     0
102
RTVSPost2010Prop52
140
1.0
102
RTVSPost2010PropOp52
 70
     0
102
RTVSPost2010Prop53
 90
        2
102
RTVSPost2010PropOp53
 70
     1
102
RTVSPost2010Prop54
  1
strokes_ogs.tif
102
RTVSPost2010PropOp54
 70
     1
102
RTVSPost2010Prop55
280
     0
102
RTVSPost2010PropOp55
 70
     1
102
RTVSPost2010Prop56
140
1.0
102
RTVSPost2010PropOp56
 70
     1
102
RTVSPost2010Prop57
140
1.0
102
RTVSPost2010PropOp57
 70
     1
  0
XRECORD
  5
E0
102
{ACAD_REACTORS
330
DF
102
}
330
DF
100
AcDbXrecord
280
     1
102
RTVSPropertyOp0
 70
     1
102
RTVSPropertyOp1
 70
     1
102
RTVSPropertyOp2
 70
     1
102
RTVSPropertyOp3
 70
     1
102
RTVSPropertyOp4
 70
     1
102
RTVSPropertyOp5
 70
     1
102
RTVSPropertyOp6
 70
     1
102
RTVSPropertyOp7
 70
     1
102
RTVSPropertyOp8
 70
     1
102
RTVSPropertyOp9
 70
     1
102
RTVSPropertyOp10
 70
     1
102
RTVSPropertyOp11
 70
     1
102
RTVSPropertyOp12
 70
     1
102
RTVSPropertyOp13
 70
     1
102
RTVSPropertyOp14
 70
     1
102
RTVSPropertyOp15
 70
     1
102
RTVSPropertyOp16
 70
     1
102
RTVSPropertyOp17
 70
     1
102
RTVSPropertyOp18
 70
     1
102
RTVSPropertyOp19
 70
     1
102
RTVSPropertyOp20
 70
     1
102
RTVSPropertyOp21
 70
     1
102
RTVSPropertyOp22
 70
     1
102
RTVSPropertyOp23
 70
     1
102
RTVSPropertyOp24
 70
     1
102
RTVSPropertyOp25
 70
     1
102
RTVSPropertyOp26
 70
     1
102
RTVSPropertyOp27
 70
     1
102
RTVSPropertyOp28
 70
     1
102
RTVSPropertyOp29
 70
     1
102
RTVSPropertyOp30
 70
     1
102
RTVSPropertyOp31
 70
     1
102
RTVSPropertyOp32
 70
     1
102
RTVSPropertyOp33
 70
     1
102
RTVSPropertyOp34
 70
     1
102
RTVSPropertyOp35
 70
     1
102
RTVSPropertyOp36
 70
     1
102
RTVSPropertyOp37
 70
     1
102
RTVSPropertyOp38
 70
     1
102
RTVSPropertyOp39
 70
     1
102
RTVSPropertyOp40
 70
     1
102
RTVSPropertyOp41
 70
     1
102
RTVSPropertyOp42
 70
     1
102
RTVSPropertyOp43
 70
     1
102
RTVSPropertyOp44
 70
     1
102
RTVSPropertyOp45
 70
     1
102
RTVSPropertyOp46
 70
     1
102
RTVSPropertyOp47
 70
     1
102
RTVSPropertyOp48
 70
     1
102
RTVSPropertyOp49
 70
     1
102
RTVSPropertyOp50
 70
     1
102
RTVSPropertyOp51
 70
     0
102
RTVSPropertyOp52
 70
     0
102
RTVSPropertyOp53
 70
     1
102
RTVSPropertyOp54
 70
     1
102
RTVSPropertyOp55
 70
     1
102
RTVSPropertyOp56
 70
     1
102
RTVSPropertyOp57
 70
     1
102
RTVSPost2010Prop28
280
     0
102
RTVSPost2010PropOp28
 70
     1
102
RTVSPost2010Prop29
280
     1
102
RTVSPost2010PropOp29
 70
     1
102
RTVSPost2010Prop30
280
     1
102
RTVSPost2010PropOp30
 70
     1
102
RTVSPost2010Prop31
280
     0
102
RTVSPost2010PropOp31
 70
     1
102
RTVSPost2010Prop32
280
     0
102
RTVSPost2010PropOp32
 70
     1
102
RTVSPost2010Prop33
280
     0
102
RTVSPost2010PropOp33
 70
     1
102
RTVSPost2010Prop34
280
     0
102
RTVSPost2010PropOp34
 70
     1
102
RTVSPost2010Prop35
280
     0
102
RTVSPost2010PropOp35
 70
     1
102
RTVSPost2010Prop36
280
     0
102
RTVSPost2010PropOp36
 70
     1
102
RTVSPost2010Prop37
 90
       50
102
RTVSPost2010PropOp37
 70
     1
102
RTVSPost2010Prop38
140
0.0
102
RTVSPost2010PropOp38
 70
     1
102
RTVSPost2010Prop39
140
1.0
102
RTVSPost2010PropOp39
 70
     1
102
RTVSPost2010Prop40
 90
        0
102
RTVSPost2010PropOp40
 70
     1
102
RTVSPost2010Prop41ColorIndex
 90
       18
102
RTVSPost2010Prop41ColorRGB
 90
        0
102
RTVSPost2010PropOp41
 70
     1
102
RTVSPost2010Prop42
 90
       50
102
RTVSPost2010PropOp42
 70
     1
102
RTVSPost2010Prop43
 90
        3
102
RTVSPost2010PropOp43
 70
     1
102
RTVSPost2010Prop44ColorIndex
 90
        5
102
RTVSPost2010Prop44ColorRGB
 90
      255
102
RTVSPost2010PropOp44
 70
     1
102
RTVSPost2010Prop45
280
     0
102
RTVSPost2010PropOp45
 70
     1
102
RTVSPost2010Prop46
 90
       50
102
RTVSPost2010PropOp46
 70
     1
102
RTVSPost2010Prop47
 90
       50
102
RTVSPost2010PropOp47
 70
     1
102
RTVSPost2010Prop48
 90
       50
102
RTVSPost2010PropOp48
 70
     1
102
RTVSPost2010Prop49
280
     0
102
RTVSPost2010PropOp49
 70
     1
102
RTVSPost2010Prop50
 90
       50
102
RTVSPost2010PropOp50
 70
     1
102
RTVSPost2010Prop51ColorIndex
 90
      256
102
RTVSPost2010Prop51ColorRGB
 90
-16777216
102
RTVSPost2010PropOp51
 70
     0
102
RTVSPost2010Prop52
140
1.0
102
RTVSPost2010PropOp52
 70
     0
102
RTVSPost2010Prop53
 90
        2
102
RTVSPost2010PropOp53
 70
     1
102
RTVSPost2010Prop54
  1
strokes_ogs.tif
102
RTVSPost2010PropOp54
 70
     1
102
RTVSPost2010Prop55
280
     0
102
RTVSPost2010PropOp55
 70
     1
102
RTVSPost2010Prop56
140
1.0
102
RTVSPost2010PropOp56
 70
     1
102
RTVSPost2010Prop57
140
1.0
102
RTVSPost2010PropOp57
 70
     1
  0
XRECORD
  5
F0
102
{ACAD_REACTORS
330
EF
102
}
330
EF
100
AcDbXrecord
280
     1
102
RTVSPropertyOp0
 70
     0
102
RTVSPropertyOp1
 70
     0
102
RTVSPropertyOp2
 70
     0
102
RTVSPropertyOp3
 70
     0
102
RTVSPropertyOp4
 70
     0
102
RTVSPropertyOp5
 70
     0
102
RTVSPropertyOp6
 70
     0
102
RTVSPropertyOp7
 70
     0
102
RTVSPropertyOp8
 70
     0
102
RTVSPropertyOp9
 70
     0
102
RTVSPropertyOp10
 70
     0
102
RTVSPropertyOp11
 70
     0
102
RTVSPropertyOp12
 70
     0
102
RTVSPropertyOp13
 70
     0
102
RTVSPropertyOp14
 70
     2
102
RTVSPropertyOp15
 70
     0
102
RTVSPropertyOp16
 70
     0
102
RTVSPropertyOp17
 70
     0
102
RTVSPropertyOp18
 70
     0
102
RTVSPropertyOp19
 70
     0
102
RTVSPropertyOp20
 70
     0
102
RTVSPropertyOp21
 70
     0
102
RTVSPropertyOp22
 70
     0
102
RTVSPropertyOp23
 70
     0
102
RTVSPropertyOp24
 70
     0
102
RTVSPropertyOp25
 70
     0
102
RTVSPropertyOp26
 70
     0
102
RTVSPropertyOp27
 70
     0
102
RTVSPropertyOp28
 70
     0
102
RTVSPropertyOp29
 70
     0
102
RTVSPropertyOp30
 70
     0
102
RTVSPropertyOp31
 70
     0
102
RTVSPropertyOp32
 70
     0
102
RTVSPropertyOp33
 70
     0
102
RTVSPropertyOp34
 70
     0
102
RTVSPropertyOp35
 70
     0
102
RTVSPropertyOp36
 70
     0
102
RTVSPropertyOp37
 70
     0
102
RTVSPropertyOp38
 70
     0
102
RTVSPropertyOp39
 70
     0
102
RTVSPropertyOp40
 70
     0
102
RTVSPropertyOp41
 70
     0
102
RTVSPropertyOp42
 70
     0
102
RTVSPropertyOp43
 70
     0
102
RTVSPropertyOp44
 70
     0
102
RTVSPropertyOp45
 70
     0
102
RTVSPropertyOp46
 70
     0
102
RTVSPropertyOp47
 70
     0
102
RTVSPropertyOp48
 70
     0
102
RTVSPropertyOp49
 70
     0
102
RTVSPropertyOp50
 70
     0
102
RTVSPropertyOp51
 70
     0
102
RTVSPropertyOp52
 70
     0
102
RTVSPropertyOp53
 70
     0
102
RTVSPropertyOp54
 70
     0
102
RTVSPropertyOp55
 70
     0
102
RTVSPropertyOp56
 70
     0
102
RTVSPropertyOp57
 70
     0
102
RTVSPost2010Prop28
280
     0
102
RTVSPost2010PropOp28
 70
     0
102
RTVSPost2010Prop29
280
     1
102
RTVSPost2010PropOp29
 70
     0
102
RTVSPost2010Prop30
280
     1
102
RTVSPost2010PropOp30
 70
     0
102
RTVSPost2010Prop31
280
     0
102
RTVSPost2010PropOp31
 70
     0
102
RTVSPost2010Prop32
280
     0
102
RTVSPost2010PropOp32
 70
     0
102
RTVSPost2010Prop33
280
     0
102
RTVSPost2010PropOp33
 70
     0
102
RTVSPost2010Prop34
280
     0
102
RTVSPost2010PropOp34
 70
     0
102
RTVSPost2010Prop35
280
     0
102
RTVSPost2010PropOp35
 70
     0
102
RTVSPost2010Prop36
280
     0
102
RTVSPost2010PropOp36
 70
     0
102
RTVSPost2010Prop37
 90
       50
102
RTVSPost2010PropOp37
 70
     0
102
RTVSPost2010Prop38
140
0.0
102
RTVSPost2010PropOp38
 70
     0
102
RTVSPost2010Prop39
140
1.0
102
RTVSPost2010PropOp39
 70
     0
102
RTVSPost2010Prop40
 90
        0
102
RTVSPost2010PropOp40
 70
     0
102
RTVSPost2010Prop41ColorIndex
 90
       18
102
RTVSPost2010Prop41ColorRGB
 90
        0
102
RTVSPost2010PropOp41
 70
     0
102
RTVSPost2010Prop42
 90
       50
102
RTVSPost2010PropOp42
 70
     0
102
RTVSPost2010Prop43
 90
        3
102
RTVSPost2010PropOp43
 70
     0
102
RTVSPost2010Prop44ColorIndex
 90
        5
102
RTVSPost2010Prop44ColorRGB
 90
      255
102
RTVSPost2010PropOp44
 70
     0
102
RTVSPost2010Prop45
280
     0
102
RTVSPost2010PropOp45
 70
     0
102
RTVSPost2010Prop46
 90
       50
102
RTVSPost2010PropOp46
 70
     0
102
RTVSPost2010Prop47
 90
       50
102
RTVSPost2010PropOp47
 70
     0
102
RTVSPost2010Prop48
 90
       50
102
RTVSPost2010PropOp48
 70
     0
102
RTVSPost2010Prop49
280
     0
102
RTVSPost2010PropOp49
 70
     0
102
RTVSPost2010Prop50
 90
       50
102
RTVSPost2010PropOp50
 70
     0
102
RTVSPost2010Prop51ColorIndex
 90
      256
102
RTVSPost2010Prop51ColorRGB
 90
-16777216
102
RTVSPost2010PropOp51
 70
     0
102
RTVSPost2010Prop52
140
1.0
102
RTVSPost2010PropOp52
 70
     0
102
RTVSPost2010Prop53
 90
        2
102
RTVSPost2010PropOp53
 70
     0
102
RTVSPost2010Prop54
  1
strokes_ogs.tif
102
RTVSPost2010PropOp54
 70
     0
102
RTVSPost2010Prop55
280
     0
102
RTVSPost2010PropOp55
 70
     0
102
RTVSPost2010Prop56
140
1.0
102
RTVSPost2010PropOp56
 70
     0
102
RTVSPost2010Prop57
140
1.0
102
RTVSPost2010PropOp57
 70
     0
  0
XRECORD
  5
E8
102
{ACAD_REACTORS
330
E7
102
}
330
E7
100
AcDbXrecord
280
     1
102
RTVSPropertyOp0
 70
     1
102
RTVSPropertyOp1
 70
     1
102
RTVSPropertyOp2
 70
     1
102
RTVSPropertyOp3
 70
     1
102
RTVSPropertyOp4
 70
     1
102
RTVSPropertyOp5
 70
     1
102
RTVSPropertyOp6
 70
     1
102
RTVSPropertyOp7
 70
     1
102
RTVSPropertyOp8
 70
     1
102
RTVSPropertyOp9
 70
     1
102
RTVSPropertyOp10
 70
     1
102
RTVSPropertyOp11
 70
     1
102
RTVSPropertyOp12
 70
     1
102
RTVSPropertyOp13
 70
     1
102
RTVSPropertyOp14
 70
     1
102
RTVSPropertyOp15
 70
     1
102
RTVSPropertyOp16
 70
     1
102
RTVSPropertyOp17
 70
     1
102
RTVSPropertyOp18
 70
     1
102
RTVSPropertyOp19
 70
     1
102
RTVSPropertyOp20
 70
     1
102
RTVSPropertyOp21
 70
     1
102
RTVSPropertyOp22
 70
     1
102
RTVSPropertyOp23
 70
     1
102
RTVSPropertyOp24
 70
     1
102
RTVSPropertyOp25
 70
     1
102
RTVSPropertyOp26
 70
     1
102
RTVSPropertyOp27
 70
     1
102
RTVSPropertyOp28
 70
     1
102
RTVSPropertyOp29
 70
     1
102
RTVSPropertyOp30
 70
     1
102
RTVSPropertyOp31
 70
     1
102
RTVSPropertyOp32
 70
     1
102
RTVSPropertyOp33
 70
     1
102
RTVSPropertyOp34
 70
     1
102
RTVSPropertyOp35
 70
     1
102
RTVSPropertyOp36
 70
     1
102
RTVSPropertyOp37
 70
     1
102
RTVSPropertyOp38
 70
     1
102
RTVSPropertyOp39
 70
     1
102
RTVSPropertyOp40
 70
     1
102
RTVSPropertyOp41
 70
     1
102
RTVSPropertyOp42
 70
     1
102
RTVSPropertyOp43
 70
     1
102
RTVSPropertyOp44
 70
     1
102
RTVSPropertyOp45
 70
     1
102
RTVSPropertyOp46
 70
     1
102
RTVSPropertyOp47
 70
     1
102
RTVSPropertyOp48
 70
     1
102
RTVSPropertyOp49
 70
     1
102
RTVSPropertyOp50
 70
     1
102
RTVSPropertyOp51
 70
     0
102
RTVSPropertyOp52
 70
     0
102
RTVSPropertyOp53
 70
     1
102
RTVSPropertyOp54
 70
     1
102
RTVSPropertyOp55
 70
     1
102
RTVSPropertyOp56
 70
     1
102
RTVSPropertyOp57
 70
     1
102
RTVSPost2010Prop28
280
     0
102
RTVSPost2010PropOp28
 70
     1
102
RTVSPost2010Prop29
280
     1
102
RTVSPost2010PropOp29
 70
     1
102
RTVSPost2010Prop30
280
     1
102
RTVSPost2010PropOp30
 70
     1
102
RTVSPost2010Prop31
280
     0
102
RTVSPost2010PropOp31
 70
     1
102
RTVSPost2010Prop32
280
     0
102
RTVSPost2010PropOp32
 70
     1
102
RTVSPost2010Prop33
280
     0
102
RTVSPost2010PropOp33
 70
     1
102
RTVSPost2010Prop34
280
     0
102
RTVSPost2010PropOp34
 70
     1
102
RTVSPost2010Prop35
280
     0
102
RTVSPost2010PropOp35
 70
     1
102
RTVSPost2010Prop36
280
     0
102
RTVSPost2010PropOp36
 70
     1
102
RTVSPost2010Prop37
 90
       50
102
RTVSPost2010PropOp37
 70
     1
102
RTVSPost2010Prop38
140
0.0
102
RTVSPost2010PropOp38
 70
     1
102
RTVSPost2010Prop39
140
1.0
102
RTVSPost2010PropOp39
 70
     1
102
RTVSPost2010Prop40
 90
        0
102
RTVSPost2010PropOp40
 70
     1
102
RTVSPost2010Prop41ColorIndex
 90
       18
102
RTVSPost2010Prop41ColorRGB
 90
        0
102
RTVSPost2010PropOp41
 70
     1
102
RTVSPost2010Prop42
 90
       50
102
RTVSPost2010PropOp42
 70
     1
102
RTVSPost2010Prop43
 90
        3
102
RTVSPost2010PropOp43
 70
     1
102
RTVSPost2010Prop44ColorIndex
 90
        5
102
RTVSPost2010Prop44ColorRGB
 90
      255
102
RTVSPost2010PropOp44
 70
     1
102
RTVSPost2010Prop45
280
     0
102
RTVSPost2010PropOp45
 70
     1
102
RTVSPost2010Prop46
 90
       50
102
RTVSPost2010PropOp46
 70
     1
102
RTVSPost2010Prop47
 90
       50
102
RTVSPost2010PropOp47
 70
     1
102
RTVSPost2010Prop48
 90
       50
102
RTVSPost2010PropOp48
 70
     1
102
RTVSPost2010Prop49
280
     0
102
RTVSPost2010PropOp49
 70
     1
102
RTVSPost2010Prop50
 90
       50
102
RTVSPost2010PropOp50
 70
     1
102
RTVSPost2010Prop51ColorIndex
 90
      256
102
RTVSPost2010Prop51ColorRGB
 90
-16777216
102
RTVSPost2010PropOp51
 70
     0
102
RTVSPost2010Prop52
140
1.0
102
RTVSPost2010PropOp52
 70
     0
102
RTVSPost2010Prop53
 90
        2
102
RTVSPost2010PropOp53
 70
     1
102
RTVSPost2010Prop54
  1
strokes_ogs.tif
102
RTVSPost2010PropOp54
 70
     1
102
RTVSPost2010Prop55
280
     0
102
RTVSPost2010PropOp55
 70
     1
102
RTVSPost2010Prop56
140
1.0
102
RTVSPost2010PropOp56
 70
     1
102
RTVSPost2010Prop57
140
1.0
102
RTVSPost2010PropOp57
 70
     1
  0
XRECORD
  5
CC
102
{ACAD_REACTORS
330
CB
102
}
330
CB
100
AcDbXrecord
280
     1
102
RTVSPropertyOp0
 70
     1
102
RTVSPropertyOp1
 70
     1
102
RTVSPropertyOp2
 70
     1
102
RTVSPropertyOp3
 70
     1
102
RTVSPropertyOp4
 70
     1
102
RTVSPropertyOp5
 70
     1
102
RTVSPropertyOp6
 70
     1
102
RTVSPropertyOp7
 70
     1
102
RTVSPropertyOp8
 70
     1
102
RTVSPropertyOp9
 70
     1
102
RTVSPropertyOp10
 70
     1
102
RTVSPropertyOp11
 70
     1
102
RTVSPropertyOp12
 70
     1
102
RTVSPropertyOp13
 70
     1
102
RTVSPropertyOp14
 70
     1
102
RTVSPropertyOp15
 70
     1
102
RTVSPropertyOp16
 70
     1
102
RTVSPropertyOp17
 70
     1
102
RTVSPropertyOp18
 70
     1
102
RTVSPropertyOp19
 70
     1
102
RTVSPropertyOp20
 70
     1
102
RTVSPropertyOp21
 70
     1
102
RTVSPropertyOp22
 70
     1
102
RTVSPropertyOp23
 70
     1
102
RTVSPropertyOp24
 70
     1
102
RTVSPropertyOp25
 70
     1
102
RTVSPropertyOp26
 70
     1
102
RTVSPropertyOp27
 70
     1
102
RTVSPropertyOp28
 70
     1
102
RTVSPropertyOp29
 70
     1
102
RTVSPropertyOp30
 70
     1
102
RTVSPropertyOp31
 70
     1
102
RTVSPropertyOp32
 70
     1
102
RTVSPropertyOp33
 70
     1
102
RTVSPropertyOp34
 70
     1
102
RTVSPropertyOp35
 70
     1
102
RTVSPropertyOp36
 70
     1
102
RTVSPropertyOp37
 70
     1
102
RTVSPropertyOp38
 70
     1
102
RTVSPropertyOp39
 70
     1
102
RTVSPropertyOp40
 70
     1
102
RTVSPropertyOp41
 70
     1
102
RTVSPropertyOp42
 70
     1
102
RTVSPropertyOp43
 70
     1
102
RTVSPropertyOp44
 70
     1
102
RTVSPropertyOp45
 70
     1
102
RTVSPropertyOp46
 70
     1
102
RTVSPropertyOp47
 70
     1
102
RTVSPropertyOp48
 70
     1
102
RTVSPropertyOp49
 70
     1
102
RTVSPropertyOp50
 70
     1
102
RTVSPropertyOp51
 70
     0
102
RTVSPropertyOp52
 70
     0
102
RTVSPropertyOp53
 70
     1
102
RTVSPropertyOp54
 70
     1
102
RTVSPropertyOp55
 70
     1
102
RTVSPropertyOp56
 70
     1
102
RTVSPropertyOp57
 70
     1
102
RTVSPost2010Prop28
280
     0
102
RTVSPost2010PropOp28
 70
     1
102
RTVSPost2010Prop29
280
     1
102
RTVSPost2010PropOp29
 70
     1
102
RTVSPost2010Prop30
280
     1
102
RTVSPost2010PropOp30
 70
     1
102
RTVSPost2010Prop31
280
     0
102
RTVSPost2010PropOp31
 70
     1
102
RTVSPost2010Prop32
280
     0
102
RTVSPost2010PropOp32
 70
     1
102
RTVSPost2010Prop33
280
     0
102
RTVSPost2010PropOp33
 70
     1
102
RTVSPost2010Prop34
280
     0
102
RTVSPost2010PropOp34
 70
     1
102
RTVSPost2010Prop35
280
     0
102
RTVSPost2010PropOp35
 70
     1
102
RTVSPost2010Prop36
280
     0
102
RTVSPost2010PropOp36
 70
     1
102
RTVSPost2010Prop37
 90
       50
102
RTVSPost2010PropOp37
 70
     1
102
RTVSPost2010Prop38
140
0.0
102
RTVSPost2010PropOp38
 70
     1
102
RTVSPost2010Prop39
140
1.0
102
RTVSPost2010PropOp39
 70
     1
102
RTVSPost2010Prop40
 90
        0
102
RTVSPost2010PropOp40
 70
     1
102
RTVSPost2010Prop41ColorIndex
 90
       18
102
RTVSPost2010Prop41ColorRGB
 90
        0
102
RTVSPost2010PropOp41
 70
     1
102
RTVSPost2010Prop42
 90
       50
102
RTVSPost2010PropOp42
 70
     1
102
RTVSPost2010Prop43
 90
        3
102
RTVSPost2010PropOp43
 70
     1
102
RTVSPost2010Prop44ColorIndex
 90
        5
102
RTVSPost2010Prop44ColorRGB
 90
      255
102
RTVSPost2010PropOp44
 70
     1
102
RTVSPost2010Prop45
280
     0
102
RTVSPost2010PropOp45
 70
     1
102
RTVSPost2010Prop46
 90
       50
102
RTVSPost2010PropOp46
 70
     1
102
RTVSPost2010Prop47
 90
       50
102
RTVSPost2010PropOp47
 70
     1
102
RTVSPost2010Prop48
 90
       50
102
RTVSPost2010PropOp48
 70
     1
102
RTVSPost2010Prop49
280
     0
102
RTVSPost2010PropOp49
 70
     1
102
RTVSPost2010Prop50
 90
       50
102
RTVSPost2010PropOp50
 70
     1
102
RTVSPost2010Prop51ColorIndex
 90
      256
102
RTVSPost2010Prop51ColorRGB
 90
-16777216
102
RTVSPost2010PropOp51
 70
     0
102
RTVSPost2010Prop52
140
1.0
102
RTVSPost2010PropOp52
 70
     0
102
RTVSPost2010Prop53
 90
        2
102
RTVSPost2010PropOp53
 70
     1
102
RTVSPost2010Prop54
  1
strokes_ogs.tif
102
RTVSPost2010PropOp54
 70
     1
102
RTVSPost2010Prop55
280
     0
102
RTVSPost2010PropOp55
 70
     1
102
RTVSPost2010Prop56
140
1.0
102
RTVSPost2010PropOp56
 70
     1
102
RTVSPost2010Prop57
140
1.0
102
RTVSPost2010PropOp57
 70
     1
  0
XRECORD
  5
CE
102
{ACAD_REACTORS
330
CD
102
}
330
CD
100
AcDbXrecord
280
     1
102
RTVSPropertyOp0
 70
     1
102
RTVSPropertyOp1
 70
     1
102
RTVSPropertyOp2
 70
     1
102
RTVSPropertyOp3
 70
     1
102
RTVSPropertyOp4
 70
     1
102
RTVSPropertyOp5
 70
     1
102
RTVSPropertyOp6
 70
     1
102
RTVSPropertyOp7
 70
     1
102
RTVSPropertyOp8
 70
     1
102
RTVSPropertyOp9
 70
     1
102
RTVSPropertyOp10
 70
     1
102
RTVSPropertyOp11
 70
     1
102
RTVSPropertyOp12
 70
     1
102
RTVSPropertyOp13
 70
     1
102
RTVSPropertyOp14
 70
     1
102
RTVSPropertyOp15
 70
     1
102
RTVSPropertyOp16
 70
     1
102
RTVSPropertyOp17
 70
     1
102
RTVSPropertyOp18
 70
     1
102
RTVSPropertyOp19
 70
     1
102
RTVSPropertyOp20
 70
     1
102
RTVSPropertyOp21
 70
     1
102
RTVSPropertyOp22
 70
     1
102
RTVSPropertyOp23
 70
     1
102
RTVSPropertyOp24
 70
     1
102
RTVSPropertyOp25
 70
     1
102
RTVSPropertyOp26
 70
     1
102
RTVSPropertyOp27
 70
     1
102
RTVSPropertyOp28
 70
     1
102
RTVSPropertyOp29
 70
     1
102
RTVSPropertyOp30
 70
     1
102
RTVSPropertyOp31
 70
     1
102
RTVSPropertyOp32
 70
     1
102
RTVSPropertyOp33
 70
     1
102
RTVSPropertyOp34
 70
     1
102
RTVSPropertyOp35
 70
     1
102
RTVSPropertyOp36
 70
     1
102
RTVSPropertyOp37
 70
     1
102
RTVSPropertyOp38
 70
     1
102
RTVSPropertyOp39
 70
     1
102
RTVSPropertyOp40
 70
     1
102
RTVSPropertyOp41
 70
     1
102
RTVSPropertyOp42
 70
     1
102
RTVSPropertyOp43
 70
     1
102
RTVSPropertyOp44
 70
     1
102
RTVSPropertyOp45
 70
     1
102
RTVSPropertyOp46
 70
     1
102
RTVSPropertyOp47
 70
     1
102
RTVSPropertyOp48
 70
     1
102
RTVSPropertyOp49
 70
     1
102
RTVSPropertyOp50
 70
     1
102
RTVSPropertyOp51
 70
     0
102
RTVSPropertyOp52
 70
     0
102
RTVSPropertyOp53
 70
     1
102
RTVSPropertyOp54
 70
     1
102
RTVSPropertyOp55
 70
     1
102
RTVSPropertyOp56
 70
     1
102
RTVSPropertyOp57
 70
     1
102
RTVSPost2010Prop28
280
     0
102
RTVSPost2010PropOp28
 70
     1
102
RTVSPost2010Prop29
280
     1
102
RTVSPost2010PropOp29
 70
     1
102
RTVSPost2010Prop30
280
     1
102
RTVSPost2010PropOp30
 70
     1
102
RTVSPost2010Prop31
280
     0
102
RTVSPost2010PropOp31
 70
     1
102
RTVSPost2010Prop32
280
     0
102
RTVSPost2010PropOp32
 70
     1
102
RTVSPost2010Prop33
280
     0
102
RTVSPost2010PropOp33
 70
     1
102
RTVSPost2010Prop34
280
     0
102
RTVSPost2010PropOp34
 70
     1
102
RTVSPost2010Prop35
280
     0
102
RTVSPost2010PropOp35
 70
     1
102
RTVSPost2010Prop36
280
     0
102
RTVSPost2010PropOp36
 70
     1
102
RTVSPost2010Prop37
 90
       50
102
RTVSPost2010PropOp37
 70
     1
102
RTVSPost2010Prop38
140
0.0
102
RTVSPost2010PropOp38
 70
     1
102
RTVSPost2010Prop39
140
1.0
102
RTVSPost2010PropOp39
 70
     1
102
RTVSPost2010Prop40
 90
        0
102
RTVSPost2010PropOp40
 70
     1
102
RTVSPost2010Prop41ColorIndex
 90
       18
102
RTVSPost2010Prop41ColorRGB
 90
        0
102
RTVSPost2010PropOp41
 70
     1
102
RTVSPost2010Prop42
 90
       50
102
RTVSPost2010PropOp42
 70
     1
102
RTVSPost2010Prop43
 90
        3
102
RTVSPost2010PropOp43
 70
     1
102
RTVSPost2010Prop44ColorIndex
 90
        5
102
RTVSPost2010Prop44ColorRGB
 90
      255
102
RTVSPost2010PropOp44
 70
     1
102
RTVSPost2010Prop45
280
     0
102
RTVSPost2010PropOp45
 70
     1
102
RTVSPost2010Prop46
 90
       50
102
RTVSPost2010PropOp46
 70
     1
102
RTVSPost2010Prop47
 90
       50
102
RTVSPost2010PropOp47
 70
     1
102
RTVSPost2010Prop48
 90
       50
102
RTVSPost2010PropOp48
 70
     1
102
RTVSPost2010Prop49
280
     0
102
RTVSPost2010PropOp49
 70
     1
102
RTVSPost2010Prop50
 90
       50
102
RTVSPost2010PropOp50
 70
     1
102
RTVSPost2010Prop51ColorIndex
 90
      256
102
RTVSPost2010Prop51ColorRGB
 90
-16777216
102
RTVSPost2010PropOp51
 70
     0
102
RTVSPost2010Prop52
140
1.0
102
RTVSPost2010PropOp52
 70
     0
102
RTVSPost2010Prop53
 90
        2
102
RTVSPost2010PropOp53
 70
     1
102
RTVSPost2010Prop54
  1
strokes_ogs.tif
102
RTVSPost2010PropOp54
 70
     1
102
RTVSPost2010Prop55
280
     0
102
RTVSPost2010PropOp55
 70
     1
102
RTVSPost2010Prop56
140
1.0
102
RTVSPost2010PropOp56
 70
     1
102
RTVSPost2010Prop57
140
1.0
102
RTVSPost2010PropOp57
 70
     1
  0
XRECORD
  5
D0
102
{ACAD_REACTORS
330
CF
102
}
330
CF
100
AcDbXrecord
280
     1
102
RTVSPropertyOp0
 70
     1
102
RTVSPropertyOp1
 70
     1
102
RTVSPropertyOp2
 70
     1
102
RTVSPropertyOp3
 70
     1
102
RTVSPropertyOp4
 70
     1
102
RTVSPropertyOp5
 70
     1
102
RTVSPropertyOp6
 70
     1
102
RTVSPropertyOp7
 70
     1
102
RTVSPropertyOp8
 70
     1
102
RTVSPropertyOp9
 70
     1
102
RTVSPropertyOp10
 70
     1
102
RTVSPropertyOp11
 70
     1
102
RTVSPropertyOp12
 70
     1
102
RTVSPropertyOp13
 70
     1
102
RTVSPropertyOp14
 70
     1
102
RTVSPropertyOp15
 70
     1
102
RTVSPropertyOp16
 70
     1
102
RTVSPropertyOp17
 70
     1
102
RTVSPropertyOp18
 70
     1
102
RTVSPropertyOp19
 70
     1
102
RTVSPropertyOp20
 70
     1
102
RTVSPropertyOp21
 70
     1
102
RTVSPropertyOp22
 70
     1
102
RTVSPropertyOp23
 70
     1
102
RTVSPropertyOp24
 70
     1
102
RTVSPropertyOp25
 70
     1
102
RTVSPropertyOp26
 70
     1
102
RTVSPropertyOp27
 70
     1
102
RTVSPropertyOp28
 70
     1
102
RTVSPropertyOp29
 70
     1
102
RTVSPropertyOp30
 70
     1
102
RTVSPropertyOp31
 70
     1
102
RTVSPropertyOp32
 70
     1
102
RTVSPropertyOp33
 70
     1
102
RTVSPropertyOp34
 70
     1
102
RTVSPropertyOp35
 70
     1
102
RTVSPropertyOp36
 70
     1
102
RTVSPropertyOp37
 70
     1
102
RTVSPropertyOp38
 70
     1
102
RTVSPropertyOp39
 70
     1
102
RTVSPropertyOp40
 70
     1
102
RTVSPropertyOp41
 70
     1
102
RTVSPropertyOp42
 70
     1
102
RTVSPropertyOp43
 70
     1
102
RTVSPropertyOp44
 70
     1
102
RTVSPropertyOp45
 70
     1
102
RTVSPropertyOp46
 70
     1
102
RTVSPropertyOp47
 70
     1
102
RTVSPropertyOp48
 70
     1
102
RTVSPropertyOp49
 70
     1
102
RTVSPropertyOp50
 70
     1
102
RTVSPropertyOp51
 70
     0
102
RTVSPropertyOp52
 70
     0
102
RTVSPropertyOp53
 70
     1
102
RTVSPropertyOp54
 70
     1
102
RTVSPropertyOp55
 70
     1
102
RTVSPropertyOp56
 70
     1
102
RTVSPropertyOp57
 70
     1
102
RTVSPost2010Prop28
280
     0
102
RTVSPost2010PropOp28
 70
     1
102
RTVSPost2010Prop29
280
     1
102
RTVSPost2010PropOp29
 70
     1
102
RTVSPost2010Prop30
280
     1
102
RTVSPost2010PropOp30
 70
     1
102
RTVSPost2010Prop31
280
     0
102
RTVSPost2010PropOp31
 70
     1
102
RTVSPost2010Prop32
280
     0
102
RTVSPost2010PropOp32
 70
     1
102
RTVSPost2010Prop33
280
     0
102
RTVSPost2010PropOp33
 70
     1
102
RTVSPost2010Prop34
280
     0
102
RTVSPost2010PropOp34
 70
     1
102
RTVSPost2010Prop35
280
     0
102
RTVSPost2010PropOp35
 70
     1
102
RTVSPost2010Prop36
280
     0
102
RTVSPost2010PropOp36
 70
     1
102
RTVSPost2010Prop37
 90
       50
102
RTVSPost2010PropOp37
 70
     1
102
RTVSPost2010Prop38
140
0.0
102
RTVSPost2010PropOp38
 70
     1
102
RTVSPost2010Prop39
140
1.0
102
RTVSPost2010PropOp39
 70
     1
102
RTVSPost2010Prop40
 90
        0
102
RTVSPost2010PropOp40
 70
     1
102
RTVSPost2010Prop41ColorIndex
 90
       18
102
RTVSPost2010Prop41ColorRGB
 90
        0
102
RTVSPost2010PropOp41
 70
     1
102
RTVSPost2010Prop42
 90
       50
102
RTVSPost2010PropOp42
 70
     1
102
RTVSPost2010Prop43
 90
        3
102
RTVSPost2010PropOp43
 70
     1
102
RTVSPost2010Prop44ColorIndex
 90
        5
102
RTVSPost2010Prop44ColorRGB
 90
      255
102
RTVSPost2010PropOp44
 70
     1
102
RTVSPost2010Prop45
280
     0
102
RTVSPost2010PropOp45
 70
     1
102
RTVSPost2010Prop46
 90
       50
102
RTVSPost2010PropOp46
 70
     1
102
RTVSPost2010Prop47
 90
       50
102
RTVSPost2010PropOp47
 70
     1
102
RTVSPost2010Prop48
 90
       50
102
RTVSPost2010PropOp48
 70
     1
102
RTVSPost2010Prop49
280
     0
102
RTVSPost2010PropOp49
 70
     1
102
RTVSPost2010Prop50
 90
       50
102
RTVSPost2010PropOp50
 70
     1
102
RTVSPost2010Prop51ColorIndex
 90
      256
102
RTVSPost2010Prop51ColorRGB
 90
-16777216
102
RTVSPost2010PropOp51
 70
     0
102
RTVSPost2010Prop52
140
1.0
102
RTVSPost2010PropOp52
 70
     0
102
RTVSPost2010Prop53
 90
        2
102
RTVSPost2010PropOp53
 70
     1
102
RTVSPost2010Prop54
  1
strokes_ogs.tif
102
RTVSPost2010PropOp54
 70
     1
102
RTVSPost2010Prop55
280
     0
102
RTVSPost2010PropOp55
 70
     1
102
RTVSPost2010Prop56
140
1.0
102
RTVSPost2010PropOp56
 70
     1
102
RTVSPost2010Prop57
140
1.0
102
RTVSPost2010PropOp57
 70
     1
  0
XRECORD
  5
D2
102
{ACAD_REACTORS
330
D1
102
}
330
D1
100
AcDbXrecord
280
     1
102
RTVSPropertyOp0
 70
     1
102
RTVSPropertyOp1
 70
     1
102
RTVSPropertyOp2
 70
     1
102
RTVSPropertyOp3
 70
     1
102
RTVSPropertyOp4
 70
     1
102
RTVSPropertyOp5
 70
     1
102
RTVSPropertyOp6
 70
     1
102
RTVSPropertyOp7
 70
     1
102
RTVSPropertyOp8
 70
     1
102
RTVSPropertyOp9
 70
     1
102
RTVSPropertyOp10
 70
     1
102
RTVSPropertyOp11
 70
     1
102
RTVSPropertyOp12
 70
     1
102
RTVSPropertyOp13
 70
     1
102
RTVSPropertyOp14
 70
     1
102
RTVSPropertyOp15
 70
     1
102
RTVSPropertyOp16
 70
     1
102
RTVSPropertyOp17
 70
     1
102
RTVSPropertyOp18
 70
     1
102
RTVSPropertyOp19
 70
     1
102
RTVSPropertyOp20
 70
     1
102
RTVSPropertyOp21
 70
     1
102
RTVSPropertyOp22
 70
     1
102
RTVSPropertyOp23
 70
     1
102
RTVSPropertyOp24
 70
     1
102
RTVSPropertyOp25
 70
     1
102
RTVSPropertyOp26
 70
     1
102
RTVSPropertyOp27
 70
     1
102
RTVSPropertyOp28
 70
     1
102
RTVSPropertyOp29
 70
     1
102
RTVSPropertyOp30
 70
     1
102
RTVSPropertyOp31
 70
     1
102
RTVSPropertyOp32
 70
     1
102
RTVSPropertyOp33
 70
     1
102
RTVSPropertyOp34
 70
     1
102
RTVSPropertyOp35
 70
     1
102
RTVSPropertyOp36
 70
     1
102
RTVSPropertyOp37
 70
     1
102
RTVSPropertyOp38
 70
     1
102
RTVSPropertyOp39
 70
     1
102
RTVSPropertyOp40
 70
     1
102
RTVSPropertyOp41
 70
     1
102
RTVSPropertyOp42
 70
     1
102
RTVSPropertyOp43
 70
     1
102
RTVSPropertyOp44
 70
     1
102
RTVSPropertyOp45
 70
     1
102
RTVSPropertyOp46
 70
     1
102
RTVSPropertyOp47
 70
     1
102
RTVSPropertyOp48
 70
     1
102
RTVSPropertyOp49
 70
     1
102
RTVSPropertyOp50
 70
     1
102
RTVSPropertyOp51
 70
     0
102
RTVSPropertyOp52
 70
     0
102
RTVSPropertyOp53
 70
     1
102
RTVSPropertyOp54
 70
     1
102
RTVSPropertyOp55
 70
     1
102
RTVSPropertyOp56
 70
     1
102
RTVSPropertyOp57
 70
     1
102
RTVSPost2010Prop28
280
     0
102
RTVSPost2010PropOp28
 70
     1
102
RTVSPost2010Prop29
280
     1
102
RTVSPost2010PropOp29
 70
     1
102
RTVSPost2010Prop30
280
     1
102
RTVSPost2010PropOp30
 70
     1
102
RTVSPost2010Prop31
280
     0
102
RTVSPost2010PropOp31
 70
     1
102
RTVSPost2010Prop32
280
     0
102
RTVSPost2010PropOp32
 70
     1
102
RTVSPost2010Prop33
280
     0
102
RTVSPost2010PropOp33
 70
     1
102
RTVSPost2010Prop34
280
     0
102
RTVSPost2010PropOp34
 70
     1
102
RTVSPost2010Prop35
280
     0
102
RTVSPost2010PropOp35
 70
     1
102
RTVSPost2010Prop36
280
     0
102
RTVSPost2010PropOp36
 70
     1
102
RTVSPost2010Prop37
 90
       50
102
RTVSPost2010PropOp37
 70
     1
102
RTVSPost2010Prop38
140
0.0
102
RTVSPost2010PropOp38
 70
     1
102
RTVSPost2010Prop39
140
1.0
102
RTVSPost2010PropOp39
 70
     1
102
RTVSPost2010Prop40
 90
        0
102
RTVSPost2010PropOp40
 70
     1
102
RTVSPost2010Prop41ColorIndex
 90
       18
102
RTVSPost2010Prop41ColorRGB
 90
        0
102
RTVSPost2010PropOp41
 70
     1
102
RTVSPost2010Prop42
 90
       50
102
RTVSPost2010PropOp42
 70
     1
102
RTVSPost2010Prop43
 90
        3
102
RTVSPost2010PropOp43
 70
     1
102
RTVSPost2010Prop44ColorIndex
 90
        5
102
RTVSPost2010Prop44ColorRGB
 90
      255
102
RTVSPost2010PropOp44
 70
     1
102
RTVSPost2010Prop45
280
     0
102
RTVSPost2010PropOp45
 70
     1
102
RTVSPost2010Prop46
 90
       50
102
RTVSPost2010PropOp46
 70
     1
102
RTVSPost2010Prop47
 90
       50
102
RTVSPost2010PropOp47
 70
     1
102
RTVSPost2010Prop48
 90
       50
102
RTVSPost2010PropOp48
 70
     1
102
RTVSPost2010Prop49
280
     0
102
RTVSPost2010PropOp49
 70
     1
102
RTVSPost2010Prop50
 90
       50
102
RTVSPost2010PropOp50
 70
     1
102
RTVSPost2010Prop51ColorIndex
 90
      256
102
RTVSPost2010Prop51ColorRGB
 90
-16777216
102
RTVSPost2010PropOp51
 70
     0
102
RTVSPost2010Prop52
140
1.0
102
RTVSPost2010PropOp52
 70
     0
102
RTVSPost2010Prop53
 90
        2
102
RTVSPost2010PropOp53
 70
     1
102
RTVSPost2010Prop54
  1
strokes_ogs.tif
102
RTVSPost2010PropOp54
 70
     1
102
RTVSPost2010Prop55
280
     0
102
RTVSPost2010PropOp55
 70
     1
102
RTVSPost2010Prop56
140
1.0
102
RTVSPost2010PropOp56
 70
     1
102
RTVSPost2010Prop57
140
1.0
102
RTVSPost2010PropOp57
 70
     1
  0
XRECORD
  5
D8
102
{ACAD_REACTORS
330
D7
102
}
330
D7
100
AcDbXrecord
280
     1
102
RTVSPropertyOp0
 70
     1
102
RTVSPropertyOp1
 70
     1
102
RTVSPropertyOp2
 70
     1
102
RTVSPropertyOp3
 70
     1
102
RTVSPropertyOp4
 70
     1
102
RTVSPropertyOp5
 70
     1
102
RTVSPropertyOp6
 70
     1
102
RTVSPropertyOp7
 70
     1
102
RTVSPropertyOp8
 70
     1
102
RTVSPropertyOp9
 70
     1
102
RTVSPropertyOp10
 70
     1
102
RTVSPropertyOp11
 70
     1
102
RTVSPropertyOp12
 70
     1
102
RTVSPropertyOp13
 70
     1
102
RTVSPropertyOp14
 70
     1
102
RTVSPropertyOp15
 70
     1
102
RTVSPropertyOp16
 70
     1
102
RTVSPropertyOp17
 70
     1
102
RTVSPropertyOp18
 70
     1
102
RTVSPropertyOp19
 70
     1
102
RTVSPropertyOp20
 70
     1
102
RTVSPropertyOp21
 70
     1
102
RTVSPropertyOp22
 70
     1
102
RTVSPropertyOp23
 70
     1
102
RTVSPropertyOp24
 70
     1
102
RTVSPropertyOp25
 70
     1
102
RTVSPropertyOp26
 70
     1
102
RTVSPropertyOp27
 70
     1
102
RTVSPropertyOp28
 70
     1
102
RTVSPropertyOp29
 70
     1
102
RTVSPropertyOp30
 70
     1
102
RTVSPropertyOp31
 70
     1
102
RTVSPropertyOp32
 70
     1
102
RTVSPropertyOp33
 70
     1
102
RTVSPropertyOp34
 70
     1
102
RTVSPropertyOp35
 70
     1
102
RTVSPropertyOp36
 70
     1
102
RTVSPropertyOp37
 70
     1
102
RTVSPropertyOp38
 70
     1
102
RTVSPropertyOp39
 70
     1
102
RTVSPropertyOp40
 70
     1
102
RTVSPropertyOp41
 70
     1
102
RTVSPropertyOp42
 70
     1
102
RTVSPropertyOp43
 70
     1
102
RTVSPropertyOp44
 70
     1
102
RTVSPropertyOp45
 70
     1
102
RTVSPropertyOp46
 70
     1
102
RTVSPropertyOp47
 70
     1
102
RTVSPropertyOp48
 70
     1
102
RTVSPropertyOp49
 70
     1
102
RTVSPropertyOp50
 70
     1
102
RTVSPropertyOp51
 70
     0
102
RTVSPropertyOp52
 70
     0
102
RTVSPropertyOp53
 70
     1
102
RTVSPropertyOp54
 70
     1
102
RTVSPropertyOp55
 70
     1
102
RTVSPropertyOp56
 70
     1
102
RTVSPropertyOp57
 70
     1
102
RTVSPost2010Prop28
280
     0
102
RTVSPost2010PropOp28
 70
     1
102
RTVSPost2010Prop29
280
     1
102
RTVSPost2010PropOp29
 70
     1
102
RTVSPost2010Prop30
280
     1
102
RTVSPost2010PropOp30
 70
     1
102
RTVSPost2010Prop31
280
     0
102
RTVSPost2010PropOp31
 70
     1
102
RTVSPost2010Prop32
280
     0
102
RTVSPost2010PropOp32
 70
     1
102
RTVSPost2010Prop33
280
     0
102
RTVSPost2010PropOp33
 70
     1
102
RTVSPost2010Prop34
280
     0
102
RTVSPost2010PropOp34
 70
     1
102
RTVSPost2010Prop35
280
     0
102
RTVSPost2010PropOp35
 70
     1
102
RTVSPost2010Prop36
280
     0
102
RTVSPost2010PropOp36
 70
     1
102
RTVSPost2010Prop37
 90
       50
102
RTVSPost2010PropOp37
 70
     1
102
RTVSPost2010Prop38
140
0.0
102
RTVSPost2010PropOp38
 70
     1
102
RTVSPost2010Prop39
140
1.0
102
RTVSPost2010PropOp39
 70
     1
102
RTVSPost2010Prop40
 90
        0
102
RTVSPost2010PropOp40
 70
     1
102
RTVSPost2010Prop41ColorIndex
 90
       18
102
RTVSPost2010Prop41ColorRGB
 90
        0
102
RTVSPost2010PropOp41
 70
     1
102
RTVSPost2010Prop42
 90
       50
102
RTVSPost2010PropOp42
 70
     1
102
RTVSPost2010Prop43
 90
        3
102
RTVSPost2010PropOp43
 70
     1
102
RTVSPost2010Prop44ColorIndex
 90
        5
102
RTVSPost2010Prop44ColorRGB
 90
      255
102
RTVSPost2010PropOp44
 70
     1
102
RTVSPost2010Prop45
280
     0
102
RTVSPost2010PropOp45
 70
     1
102
RTVSPost2010Prop46
 90
       50
102
RTVSPost2010PropOp46
 70
     1
102
RTVSPost2010Prop47
 90
       50
102
RTVSPost2010PropOp47
 70
     1
102
RTVSPost2010Prop48
 90
       50
102
RTVSPost2010PropOp48
 70
     1
102
RTVSPost2010Prop49
280
     0
102
RTVSPost2010PropOp49
 70
     1
102
RTVSPost2010Prop50
 90
       50
102
RTVSPost2010PropOp50
 70
     1
102
RTVSPost2010Prop51ColorIndex
 90
      256
102
RTVSPost2010Prop51ColorRGB
 90
-16777216
102
RTVSPost2010PropOp51
 70
     0
102
RTVSPost2010Prop52
140
1.0
102
RTVSPost2010PropOp52
 70
     0
102
RTVSPost2010Prop53
 90
        2
102
RTVSPost2010PropOp53
 70
     1
102
RTVSPost2010Prop54
  1
strokes_ogs.tif
102
RTVSPost2010PropOp54
 70
     1
102
RTVSPost2010Prop55
280
     0
102
RTVSPost2010PropOp55
 70
     1
102
RTVSPost2010Prop56
140
1.0
102
RTVSPost2010PropOp56
 70
     1
102
RTVSPost2010Prop57
140
1.0
102
RTVSPost2010PropOp57
 70
     1
  0
XRECORD
  5
EC
102
{ACAD_REACTORS
330
EB
102
}
330
EB
100
AcDbXrecord
280
     1
102
RTVSPropertyOp0
 70
     0
102
RTVSPropertyOp1
 70
     0
102
RTVSPropertyOp2
 70
     0
102
RTVSPropertyOp3
 70
     0
102
RTVSPropertyOp4
 70
     0
102
RTVSPropertyOp5
 70
     0
102
RTVSPropertyOp6
 70
     0
102
RTVSPropertyOp7
 70
     0
102
RTVSPropertyOp8
 70
     0
102
RTVSPropertyOp9
 70
     0
102
RTVSPropertyOp10
 70
     0
102
RTVSPropertyOp11
 70
     0
102
RTVSPropertyOp12
 70
     0
102
RTVSPropertyOp13
 70
     0
102
RTVSPropertyOp14
 70
     2
102
RTVSPropertyOp15
 70
     0
102
RTVSPropertyOp16
 70
     0
102
RTVSPropertyOp17
 70
     0
102
RTVSPropertyOp18
 70
     0
102
RTVSPropertyOp19
 70
     0
102
RTVSPropertyOp20
 70
     0
102
RTVSPropertyOp21
 70
     0
102
RTVSPropertyOp22
 70
     0
102
RTVSPropertyOp23
 70
     0
102
RTVSPropertyOp24
 70
     0
102
RTVSPropertyOp25
 70
     0
102
RTVSPropertyOp26
 70
     0
102
RTVSPropertyOp27
 70
     0
102
RTVSPropertyOp28
 70
     0
102
RTVSPropertyOp29
 70
     0
102
RTVSPropertyOp30
 70
     0
102
RTVSPropertyOp31
 70
     0
102
RTVSPropertyOp32
 70
     0
102
RTVSPropertyOp33
 70
     0
102
RTVSPropertyOp34
 70
     0
102
RTVSPropertyOp35
 70
     0
102
RTVSPropertyOp36
 70
     0
102
RTVSPropertyOp37
 70
     0
102
RTVSPropertyOp38
 70
     0
102
RTVSPropertyOp39
 70
     0
102
RTVSPropertyOp40
 70
     0
102
RTVSPropertyOp41
 70
     0
102
RTVSPropertyOp42
 70
     0
102
RTVSPropertyOp43
 70
     0
102
RTVSPropertyOp44
 70
     0
102
RTVSPropertyOp45
 70
     0
102
RTVSPropertyOp46
 70
     0
102
RTVSPropertyOp47
 70
     0
102
RTVSPropertyOp48
 70
     0
102
RTVSPropertyOp49
 70
     0
102
RTVSPropertyOp50
 70
     0
102
RTVSPropertyOp51
 70
     0
102
RTVSPropertyOp52
 70
     0
102
RTVSPropertyOp53
 70
     0
102
RTVSPropertyOp54
 70
     0
102
RTVSPropertyOp55
 70
     0
102
RTVSPropertyOp56
 70
     0
102
RTVSPropertyOp57
 70
     0
102
RTVSPost2010Prop28
280
     0
102
RTVSPost2010PropOp28
 70
     0
102
RTVSPost2010Prop29
280
     1
102
RTVSPost2010PropOp29
 70
     0
102
RTVSPost2010Prop30
280
     1
102
RTVSPost2010PropOp30
 70
     0
102
RTVSPost2010Prop31
280
     0
102
RTVSPost2010PropOp31
 70
     0
102
RTVSPost2010Prop32
280
     0
102
RTVSPost2010PropOp32
 70
     0
102
RTVSPost2010Prop33
280
     0
102
RTVSPost2010PropOp33
 70
     0
102
RTVSPost2010Prop34
280
     0
102
RTVSPost2010PropOp34
 70
     0
102
RTVSPost2010Prop35
280
     0
102
RTVSPost2010PropOp35
 70
     0
102
RTVSPost2010Prop36
280
     0
102
RTVSPost2010PropOp36
 70
     0
102
RTVSPost2010Prop37
 90
       50
102
RTVSPost2010PropOp37
 70
     0
102
RTVSPost2010Prop38
140
0.0
102
RTVSPost2010PropOp38
 70
     0
102
RTVSPost2010Prop39
140
1.0
102
RTVSPost2010PropOp39
 70
     0
102
RTVSPost2010Prop40
 90
        0
102
RTVSPost2010PropOp40
 70
     0
102
RTVSPost2010Prop41ColorIndex
 90
       18
102
RTVSPost2010Prop41ColorRGB
 90
        0
102
RTVSPost2010PropOp41
 70
     0
102
RTVSPost2010Prop42
 90
       50
102
RTVSPost2010PropOp42
 70
     0
102
RTVSPost2010Prop43
 90
        3
102
RTVSPost2010PropOp43
 70
     0
102
RTVSPost2010Prop44ColorIndex
 90
        5
102
RTVSPost2010Prop44ColorRGB
 90
      255
102
RTVSPost2010PropOp44
 70
     0
102
RTVSPost2010Prop45
280
     0
102
RTVSPost2010PropOp45
 70
     0
102
RTVSPost2010Prop46
 90
       50
102
RTVSPost2010PropOp46
 70
     0
102
RTVSPost2010Prop47
 90
       50
102
RTVSPost2010PropOp47
 70
     0
102
RTVSPost2010Prop48
 90
       50
102
RTVSPost2010PropOp48
 70
     0
102
RTVSPost2010Prop49
280
     0
102
RTVSPost2010PropOp49
 70
     0
102
RTVSPost2010Prop50
 90
       50
102
RTVSPost2010PropOp50
 70
     0
102
RTVSPost2010Prop51ColorIndex
 90
      256
102
RTVSPost2010Prop51ColorRGB
 90
-16777216
102
RTVSPost2010PropOp51
 70
     0
102
RTVSPost2010Prop52
140
1.0
102
RTVSPost2010PropOp52
 70
     0
102
RTVSPost2010Prop53
 90
        2
102
RTVSPost2010PropOp53
 70
     0
102
RTVSPost2010Prop54
  1
strokes_ogs.tif
102
RTVSPost2010PropOp54
 70
     0
102
RTVSPost2010Prop55
280
     0
102
RTVSPost2010PropOp55
 70
     0
102
RTVSPost2010Prop56
140
1.0
102
RTVSPost2010PropOp56
 70
     0
102
RTVSPost2010Prop57
140
1.0
102
RTVSPost2010PropOp57
 70
     0
  0
XRECORD
  5
E6
102
{ACAD_REACTORS
330
E5
102
}
330
E5
100
AcDbXrecord
280
     1
102
RTVSPropertyOp0
 70
     1
102
RTVSPropertyOp1
 70
     1
102
RTVSPropertyOp2
 70
     1
102
RTVSPropertyOp3
 70
     1
102
RTVSPropertyOp4
 70
     1
102
RTVSPropertyOp5
 70
     1
102
RTVSPropertyOp6
 70
     1
102
RTVSPropertyOp7
 70
     1
102
RTVSPropertyOp8
 70
     1
102
RTVSPropertyOp9
 70
     1
102
RTVSPropertyOp10
 70
     1
102
RTVSPropertyOp11
 70
     1
102
RTVSPropertyOp12
 70
     1
102
RTVSPropertyOp13
 70
     1
102
RTVSPropertyOp14
 70
     1
102
RTVSPropertyOp15
 70
     1
102
RTVSPropertyOp16
 70
     1
102
RTVSPropertyOp17
 70
     1
102
RTVSPropertyOp18
 70
     1
102
RTVSPropertyOp19
 70
     1
102
RTVSPropertyOp20
 70
     1
102
RTVSPropertyOp21
 70
     1
102
RTVSPropertyOp22
 70
     1
102
RTVSPropertyOp23
 70
     1
102
RTVSPropertyOp24
 70
     1
102
RTVSPropertyOp25
 70
     1
102
RTVSPropertyOp26
 70
     1
102
RTVSPropertyOp27
 70
     1
102
RTVSPropertyOp28
 70
     1
102
RTVSPropertyOp29
 70
     1
102
RTVSPropertyOp30
 70
     1
102
RTVSPropertyOp31
 70
     1
102
RTVSPropertyOp32
 70
     1
102
RTVSPropertyOp33
 70
     1
102
RTVSPropertyOp34
 70
     1
102
RTVSPropertyOp35
 70
     1
102
RTVSPropertyOp36
 70
     1
102
RTVSPropertyOp37
 70
     1
102
RTVSPropertyOp38
 70
     1
102
RTVSPropertyOp39
 70
     1
102
RTVSPropertyOp40
 70
     1
102
RTVSPropertyOp41
 70
     1
102
RTVSPropertyOp42
 70
     1
102
RTVSPropertyOp43
 70
     1
102
RTVSPropertyOp44
 70
     1
102
RTVSPropertyOp45
 70
     1
102
RTVSPropertyOp46
 70
     1
102
RTVSPropertyOp47
 70
     1
102
RTVSPropertyOp48
 70
     1
102
RTVSPropertyOp49
 70
     1
102
RTVSPropertyOp50
 70
     1
102
RTVSPropertyOp51
 70
     0
102
RTVSPropertyOp52
 70
     0
102
RTVSPropertyOp53
 70
     1
102
RTVSPropertyOp54
 70
     1
102
RTVSPropertyOp55
 70
     1
102
RTVSPropertyOp56
 70
     1
102
RTVSPropertyOp57
 70
     1
102
RTVSPost2010Prop28
280
     0
102
RTVSPost2010PropOp28
 70
     1
102
RTVSPost2010Prop29
280
     1
102
RTVSPost2010PropOp29
 70
     1
102
RTVSPost2010Prop30
280
     1
102
RTVSPost2010PropOp30
 70
     1
102
RTVSPost2010Prop31
280
     0
102
RTVSPost2010PropOp31
 70
     1
102
RTVSPost2010Prop32
280
     0
102
RTVSPost2010PropOp32
 70
     1
102
RTVSPost2010Prop33
280
     0
102
RTVSPost2010PropOp33
 70
     1
102
RTVSPost2010Prop34
280
     0
102
RTVSPost2010PropOp34
 70
     1
102
RTVSPost2010Prop35
280
     0
102
RTVSPost2010PropOp35
 70
     1
102
RTVSPost2010Prop36
280
     0
102
RTVSPost2010PropOp36
 70
     1
102
RTVSPost2010Prop37
 90
       50
102
RTVSPost2010PropOp37
 70
     1
102
RTVSPost2010Prop38
140
0.0
102
RTVSPost2010PropOp38
 70
     1
102
RTVSPost2010Prop39
140
1.0
102
RTVSPost2010PropOp39
 70
     1
102
RTVSPost2010Prop40
 90
        0
102
RTVSPost2010PropOp40
 70
     1
102
RTVSPost2010Prop41ColorIndex
 90
       18
102
RTVSPost2010Prop41ColorRGB
 90
        0
102
RTVSPost2010PropOp41
 70
     1
102
RTVSPost2010Prop42
 90
       50
102
RTVSPost2010PropOp42
 70
     1
102
RTVSPost2010Prop43
 90
        3
102
RTVSPost2010PropOp43
 70
     1
102
RTVSPost2010Prop44ColorIndex
 90
        5
102
RTVSPost2010Prop44ColorRGB
 90
      255
102
RTVSPost2010PropOp44
 70
     1
102
RTVSPost2010Prop45
280
     0
102
RTVSPost2010PropOp45
 70
     1
102
RTVSPost2010Prop46
 90
       50
102
RTVSPost2010PropOp46
 70
     1
102
RTVSPost2010Prop47
 90
       50
102
RTVSPost2010PropOp47
 70
     1
102
RTVSPost2010Prop48
 90
       50
102
RTVSPost2010PropOp48
 70
     1
102
RTVSPost2010Prop49
280
     0
102
RTVSPost2010PropOp49
 70
     1
102
RTVSPost2010Prop50
 90
       50
102
RTVSPost2010PropOp50
 70
     1
102
RTVSPost2010Prop51ColorIndex
 90
      256
102
RTVSPost2010Prop51ColorRGB
 90
-16777216
102
RTVSPost2010PropOp51
 70
     0
102
RTVSPost2010Prop52
140
1.0
102
RTVSPost2010PropOp52
 70
     0
102
RTVSPost2010Prop53
 90
        2
102
RTVSPost2010PropOp53
 70
     1
102
RTVSPost2010Prop54
  1
strokes_ogs.tif
102
RTVSPost2010PropOp54
 70
     1
102
RTVSPost2010Prop55
280
     0
102
RTVSPost2010PropOp55
 70
     1
102
RTVSPost2010Prop56
140
1.0
102
RTVSPost2010PropOp56
 70
     1
102
RTVSPost2010Prop57
140
1.0
102
RTVSPost2010PropOp57
 70
     1
  0
XRECORD
  5
EE
102
{ACAD_REACTORS
330
ED
102
}
330
ED
100
AcDbXrecord
280
     1
102
RTVSPropertyOp0
 70
     0
102
RTVSPropertyOp1
 70
     0
102
RTVSPropertyOp2
 70
     0
102
RTVSPropertyOp3
 70
     0
102
RTVSPropertyOp4
 70
     0
102
RTVSPropertyOp5
 70
     0
102
RTVSPropertyOp6
 70
     0
102
RTVSPropertyOp7
 70
     0
102
RTVSPropertyOp8
 70
     0
102
RTVSPropertyOp9
 70
     0
102
RTVSPropertyOp10
 70
     0
102
RTVSPropertyOp11
 70
     0
102
RTVSPropertyOp12
 70
     0
102
RTVSPropertyOp13
 70
     0
102
RTVSPropertyOp14
 70
     2
102
RTVSPropertyOp15
 70
     0
102
RTVSPropertyOp16
 70
     0
102
RTVSPropertyOp17
 70
     0
102
RTVSPropertyOp18
 70
     0
102
RTVSPropertyOp19
 70
     0
102
RTVSPropertyOp20
 70
     0
102
RTVSPropertyOp21
 70
     0
102
RTVSPropertyOp22
 70
     0
102
RTVSPropertyOp23
 70
     0
102
RTVSPropertyOp24
 70
     0
102
RTVSPropertyOp25
 70
     0
102
RTVSPropertyOp26
 70
     0
102
RTVSPropertyOp27
 70
     0
102
RTVSPropertyOp28
 70
     0
102
RTVSPropertyOp29
 70
     0
102
RTVSPropertyOp30
 70
     0
102
RTVSPropertyOp31
 70
     0
102
RTVSPropertyOp32
 70
     0
102
RTVSPropertyOp33
 70
     0
102
RTVSPropertyOp34
 70
     0
102
RTVSPropertyOp35
 70
     0
102
RTVSPropertyOp36
 70
     0
102
RTVSPropertyOp37
 70
     0
102
RTVSPropertyOp38
 70
     0
102
RTVSPropertyOp39
 70
     0
102
RTVSPropertyOp40
 70
     0
102
RTVSPropertyOp41
 70
     0
102
RTVSPropertyOp42
 70
     0
102
RTVSPropertyOp43
 70
     0
102
RTVSPropertyOp44
 70
     0
102
RTVSPropertyOp45
 70
     0
102
RTVSPropertyOp46
 70
     0
102
RTVSPropertyOp47
 70
     0
102
RTVSPropertyOp48
 70
     0
102
RTVSPropertyOp49
 70
     0
102
RTVSPropertyOp50
 70
     0
102
RTVSPropertyOp51
 70
     0
102
RTVSPropertyOp52
 70
     0
102
RTVSPropertyOp53
 70
     0
102
RTVSPropertyOp54
 70
     0
102
RTVSPropertyOp55
 70
     0
102
RTVSPropertyOp56
 70
     0
102
RTVSPropertyOp57
 70
     0
102
RTVSPost2010Prop28
280
     0
102
RTVSPost2010PropOp28
 70
     0
102
RTVSPost2010Prop29
280
     1
102
RTVSPost2010PropOp29
 70
     0
102
RTVSPost2010Prop30
280
     1
102
RTVSPost2010PropOp30
 70
     0
102
RTVSPost2010Prop31
280
     0
102
RTVSPost2010PropOp31
 70
     0
102
RTVSPost2010Prop32
280
     0
102
RTVSPost2010PropOp32
 70
     0
102
RTVSPost2010Prop33
280
     0
102
RTVSPost2010PropOp33
 70
     0
102
RTVSPost2010Prop34
280
     0
102
RTVSPost2010PropOp34
 70
     0
102
RTVSPost2010Prop35
280
     0
102
RTVSPost2010PropOp35
 70
     0
102
RTVSPost2010Prop36
280
     0
102
RTVSPost2010PropOp36
 70
     0
102
RTVSPost2010Prop37
 90
       50
102
RTVSPost2010PropOp37
 70
     0
102
RTVSPost2010Prop38
140
0.0
102
RTVSPost2010PropOp38
 70
     0
102
RTVSPost2010Prop39
140
1.0
102
RTVSPost2010PropOp39
 70
     0
102
RTVSPost2010Prop40
 90
        0
102
RTVSPost2010PropOp40
 70
     0
102
RTVSPost2010Prop41ColorIndex
 90
       18
102
RTVSPost2010Prop41ColorRGB
 90
        0
102
RTVSPost2010PropOp41
 70
     0
102
RTVSPost2010Prop42
 90
       50
102
RTVSPost2010PropOp42
 70
     0
102
RTVSPost2010Prop43
 90
        3
102
RTVSPost2010PropOp43
 70
     0
102
RTVSPost2010Prop44ColorIndex
 90
        5
102
RTVSPost2010Prop44ColorRGB
 90
      255
102
RTVSPost2010PropOp44
 70
     0
102
RTVSPost2010Prop45
280
     0
102
RTVSPost2010PropOp45
 70
     0
102
RTVSPost2010Prop46
 90
       50
102
RTVSPost2010PropOp46
 70
     0
102
RTVSPost2010Prop47
 90
       50
102
RTVSPost2010PropOp47
 70
     0
102
RTVSPost2010Prop48
 90
       50
102
RTVSPost2010PropOp48
 70
     0
102
RTVSPost2010Prop49
280
     0
102
RTVSPost2010PropOp49
 70
     0
102
RTVSPost2010Prop50
 90
       50
102
RTVSPost2010PropOp50
 70
     0
102
RTVSPost2010Prop51ColorIndex
 90
      256
102
RTVSPost2010Prop51ColorRGB
 90
-16777216
102
RTVSPost2010PropOp51
 70
     0
102
RTVSPost2010Prop52
140
1.0
102
RTVSPost2010PropOp52
 70
     0
102
RTVSPost2010Prop53
 90
        2
102
RTVSPost2010PropOp53
 70
     0
102
RTVSPost2010Prop54
  1
strokes_ogs.tif
102
RTVSPost2010PropOp54
 70
     0
102
RTVSPost2010Prop55
280
     0
102
RTVSPost2010PropOp55
 70
     0
102
RTVSPost2010Prop56
140
1.0
102
RTVSPost2010PropOp56
 70
     0
102
RTVSPost2010Prop57
140
1.0
102
RTVSPost2010PropOp57
 70
     0
  0
XRECORD
  5
DC
102
{ACAD_REACTORS
330
DB
102
}
330
DB
100
AcDbXrecord
280
     1
102
RTVSPropertyOp0
 70
     1
102
RTVSPropertyOp1
 70
     1
102
RTVSPropertyOp2
 70
     1
102
RTVSPropertyOp3
 70
     1
102
RTVSPropertyOp4
 70
     1
102
RTVSPropertyOp5
 70
     1
102
RTVSPropertyOp6
 70
     1
102
RTVSPropertyOp7
 70
     1
102
RTVSPropertyOp8
 70
     1
102
RTVSPropertyOp9
 70
     1
102
RTVSPropertyOp10
 70
     1
102
RTVSPropertyOp11
 70
     1
102
RTVSPropertyOp12
 70
     1
102
RTVSPropertyOp13
 70
     1
102
RTVSPropertyOp14
 70
     1
102
RTVSPropertyOp15
 70
     1
102
RTVSPropertyOp16
 70
     1
102
RTVSPropertyOp17
 70
     1
102
RTVSPropertyOp18
 70
     1
102
RTVSPropertyOp19
 70
     1
102
RTVSPropertyOp20
 70
     1
102
RTVSPropertyOp21
 70
     1
102
RTVSPropertyOp22
 70
     1
102
RTVSPropertyOp23
 70
     1
102
RTVSPropertyOp24
 70
     1
102
RTVSPropertyOp25
 70
     1
102
RTVSPropertyOp26
 70
     1
102
RTVSPropertyOp27
 70
     1
102
RTVSPropertyOp28
 70
     1
102
RTVSPropertyOp29
 70
     1
102
RTVSPropertyOp30
 70
     1
102
RTVSPropertyOp31
 70
     1
102
RTVSPropertyOp32
 70
     1
102
RTVSPropertyOp33
 70
     1
102
RTVSPropertyOp34
 70
     1
102
RTVSPropertyOp35
 70
     1
102
RTVSPropertyOp36
 70
     1
102
RTVSPropertyOp37
 70
     1
102
RTVSPropertyOp38
 70
     1
102
RTVSPropertyOp39
 70
     1
102
RTVSPropertyOp40
 70
     1
102
RTVSPropertyOp41
 70
     1
102
RTVSPropertyOp42
 70
     1
102
RTVSPropertyOp43
 70
     1
102
RTVSPropertyOp44
 70
     1
102
RTVSPropertyOp45
 70
     1
102
RTVSPropertyOp46
 70
     1
102
RTVSPropertyOp47
 70
     1
102
RTVSPropertyOp48
 70
     1
102
RTVSPropertyOp49
 70
     1
102
RTVSPropertyOp50
 70
     1
102
RTVSPropertyOp51
 70
     0
102
RTVSPropertyOp52
 70
     0
102
RTVSPropertyOp53
 70
     1
102
RTVSPropertyOp54
 70
     1
102
RTVSPropertyOp55
 70
     1
102
RTVSPropertyOp56
 70
     1
102
RTVSPropertyOp57
 70
     1
102
RTVSPost2010Prop28
280
     0
102
RTVSPost2010PropOp28
 70
     1
102
RTVSPost2010Prop29
280
     1
102
RTVSPost2010PropOp29
 70
     1
102
RTVSPost2010Prop30
280
     1
102
RTVSPost2010PropOp30
 70
     1
102
RTVSPost2010Prop31
280
     0
102
RTVSPost2010PropOp31
 70
     1
102
RTVSPost2010Prop32
280
     0
102
RTVSPost2010PropOp32
 70
     1
102
RTVSPost2010Prop33
280
     0
102
RTVSPost2010PropOp33
 70
     1
102
RTVSPost2010Prop34
280
     0
102
RTVSPost2010PropOp34
 70
     1
102
RTVSPost2010Prop35
280
     0
102
RTVSPost2010PropOp35
 70
     1
102
RTVSPost2010Prop36
280
     0
102
RTVSPost2010PropOp36
 70
     1
102
RTVSPost2010Prop37
 90
       50
102
RTVSPost2010PropOp37
 70
     1
102
RTVSPost2010Prop38
140
0.0
102
RTVSPost2010PropOp38
 70
     1
102
RTVSPost2010Prop39
140
1.0
102
RTVSPost2010PropOp39
 70
     1
102
RTVSPost2010Prop40
 90
        0
102
RTVSPost2010PropOp40
 70
     1
102
RTVSPost2010Prop41ColorIndex
 90
       18
102
RTVSPost2010Prop41ColorRGB
 90
        0
102
RTVSPost2010PropOp41
 70
     1
102
RTVSPost2010Prop42
 90
       50
102
RTVSPost2010PropOp42
 70
     1
102
RTVSPost2010Prop43
 90
        3
102
RTVSPost2010PropOp43
 70
     1
102
RTVSPost2010Prop44ColorIndex
 90
        5
102
RTVSPost2010Prop44ColorRGB
 90
      255
102
RTVSPost2010PropOp44
 70
     1
102
RTVSPost2010Prop45
280
     0
102
RTVSPost2010PropOp45
 70
     1
102
RTVSPost2010Prop46
 90
       50
102
RTVSPost2010PropOp46
 70
     1
102
RTVSPost2010Prop47
 90
       50
102
RTVSPost2010PropOp47
 70
     1
102
RTVSPost2010Prop48
 90
       50
102
RTVSPost2010PropOp48
 70
     1
102
RTVSPost2010Prop49
280
     0
102
RTVSPost2010PropOp49
 70
     1
102
RTVSPost2010Prop50
 90
       50
102
RTVSPost2010PropOp50
 70
     1
102
RTVSPost2010Prop51ColorIndex
 90
      256
102
RTVSPost2010Prop51ColorRGB
 90
-16777216
102
RTVSPost2010PropOp51
 70
     0
102
RTVSPost2010Prop52
140
1.0
102
RTVSPost2010PropOp52
 70
     0
102
RTVSPost2010Prop53
 90
        2
102
RTVSPost2010PropOp53
 70
     1
102
RTVSPost2010Prop54
  1
strokes_ogs.tif
102
RTVSPost2010PropOp54
 70
     1
102
RTVSPost2010Prop55
280
     0
102
RTVSPost2010PropOp55
 70
     1
102
RTVSPost2010Prop56
140
1.0
102
RTVSPost2010PropOp56
 70
     1
102
RTVSPost2010Prop57
140
1.0
102
RTVSPost2010PropOp57
 70
     1
  0
XRECORD
  5
FA
102
{ACAD_REACTORS
330
F9
102
}
330
F9
100
AcDbXrecord
280
     1
102
RTVSPropertyOp0
 70
     1
102
RTVSPropertyOp1
 70
     1
102
RTVSPropertyOp2
 70
     1
102
RTVSPropertyOp3
 70
     1
102
RTVSPropertyOp4
 70
     1
102
RTVSPropertyOp5
 70
     1
102
RTVSPropertyOp6
 70
     1
102
RTVSPropertyOp7
 70
     1
102
RTVSPropertyOp8
 70
     1
102
RTVSPropertyOp9
 70
     1
102
RTVSPropertyOp10
 70
     1
102
RTVSPropertyOp11
 70
     1
102
RTVSPropertyOp12
 70
     1
102
RTVSPropertyOp13
 70
     1
102
RTVSPropertyOp14
 70
     1
102
RTVSPropertyOp15
 70
     1
102
RTVSPropertyOp16
 70
     1
102
RTVSPropertyOp17
 70
     1
102
RTVSPropertyOp18
 70
     1
102
RTVSPropertyOp19
 70
     1
102
RTVSPropertyOp20
 70
     1
102
RTVSPropertyOp21
 70
     1
102
RTVSPropertyOp22
 70
     1
102
RTVSPropertyOp23
 70
     1
102
RTVSPropertyOp24
 70
     1
102
RTVSPropertyOp25
 70
     1
102
RTVSPropertyOp26
 70
     1
102
RTVSPropertyOp27
 70
     1
102
RTVSPropertyOp28
 70
     1
102
RTVSPropertyOp29
 70
     1
102
RTVSPropertyOp30
 70
     1
102
RTVSPropertyOp31
 70
     1
102
RTVSPropertyOp32
 70
     1
102
RTVSPropertyOp33
 70
     1
102
RTVSPropertyOp34
 70
     1
102
RTVSPropertyOp35
 70
     1
102
RTVSPropertyOp36
 70
     1
102
RTVSPropertyOp37
 70
     1
102
RTVSPropertyOp38
 70
     1
102
RTVSPropertyOp39
 70
     1
102
RTVSPropertyOp40
 70
     1
102
RTVSPropertyOp41
 70
     1
102
RTVSPropertyOp42
 70
     1
102
RTVSPropertyOp43
 70
     1
102
RTVSPropertyOp44
 70
     1
102
RTVSPropertyOp45
 70
     1
102
RTVSPropertyOp46
 70
     1
102
RTVSPropertyOp47
 70
     1
102
RTVSPropertyOp48
 70
     1
102
RTVSPropertyOp49
 70
     1
102
RTVSPropertyOp50
 70
     1
102
RTVSPropertyOp51
 70
     0
102
RTVSPropertyOp52
 70
     0
102
RTVSPropertyOp53
 70
     1
102
RTVSPropertyOp54
 70
     1
102
RTVSPropertyOp55
 70
     1
102
RTVSPropertyOp56
 70
     1
102
RTVSPropertyOp57
 70
     1
102
RTVSPost2010Prop28
280
     0
102
RTVSPost2010PropOp28
 70
     1
102
RTVSPost2010Prop29
280
     1
102
RTVSPost2010PropOp29
 70
     1
102
RTVSPost2010Prop30
280
     1
102
RTVSPost2010PropOp30
 70
     1
102
RTVSPost2010Prop31
280
     0
102
RTVSPost2010PropOp31
 70
     1
102
RTVSPost2010Prop32
280
     0
102
RTVSPost2010PropOp32
 70
     1
102
RTVSPost2010Prop33
280
     0
102
RTVSPost2010PropOp33
 70
     1
102
RTVSPost2010Prop34
280
     0
102
RTVSPost2010PropOp34
 70
     1
102
RTVSPost2010Prop35
280
     0
102
RTVSPost2010PropOp35
 70
     1
102
RTVSPost2010Prop36
280
     0
102
RTVSPost2010PropOp36
 70
     1
102
RTVSPost2010Prop37
 90
       50
102
RTVSPost2010PropOp37
 70
     1
102
RTVSPost2010Prop38
140
0.0
102
RTVSPost2010PropOp38
 70
     1
102
RTVSPost2010Prop39
140
1.0
102
RTVSPost2010PropOp39
 70
     1
102
RTVSPost2010Prop40
 90
        0
102
RTVSPost2010PropOp40
 70
     1
102
RTVSPost2010Prop41ColorIndex
 90
       18
102
RTVSPost2010Prop41ColorRGB
 90
        0
102
RTVSPost2010PropOp41
 70
     1
102
RTVSPost2010Prop42
 90
       50
102
RTVSPost2010PropOp42
 70
     1
102
RTVSPost2010Prop43
 90
        3
102
RTVSPost2010PropOp43
 70
     1
102
RTVSPost2010Prop44ColorIndex
 90
        5
102
RTVSPost2010Prop44ColorRGB
 90
      255
102
RTVSPost2010PropOp44
 70
     1
102
RTVSPost2010Prop45
280
     0
102
RTVSPost2010PropOp45
 70
     1
102
RTVSPost2010Prop46
 90
       50
102
RTVSPost2010PropOp46
 70
     1
102
RTVSPost2010Prop47
 90
       50
102
RTVSPost2010PropOp47
 70
     1
102
RTVSPost2010Prop48
 90
       50
102
RTVSPost2010PropOp48
 70
     1
102
RTVSPost2010Prop49
280
     0
102
RTVSPost2010PropOp49
 70
     1
102
RTVSPost2010Prop50
 90
       50
102
RTVSPost2010PropOp50
 70
     1
102
RTVSPost2010Prop51ColorIndex
 90
      256
102
RTVSPost2010Prop51ColorRGB
 90
-16777216
102
RTVSPost2010PropOp51
 70
     0
102
RTVSPost2010Prop52
140
1.0
102
RTVSPost2010PropOp52
 70
     0
102
RTVSPost2010Prop53
 90
        2
102
RTVSPost2010PropOp53
 70
     1
102
RTVSPost2010Prop54
  1
strokes_ogs.tif
102
RTVSPost2010PropOp54
 70
     1
102
RTVSPost2010Prop55
280
     0
102
RTVSPost2010PropOp55
 70
     1
102
RTVSPost2010Prop56
140
1.0
102
RTVSPost2010PropOp56
 70
     1
102
RTVSPost2010Prop57
140
1.0
102
RTVSPost2010PropOp57
 70
     1
  0
XRECORD
  5
F8
102
{ACAD_REACTORS
330
F7
102
}
330
F7
100
AcDbXrecord
280
     1
102
RTVSPropertyOp0
 70
     1
102
RTVSPropertyOp1
 70
     1
102
RTVSPropertyOp2
 70
     1
102
RTVSPropertyOp3
 70
     1
102
RTVSPropertyOp4
 70
     1
102
RTVSPropertyOp5
 70
     1
102
RTVSPropertyOp6
 70
     1
102
RTVSPropertyOp7
 70
     1
102
RTVSPropertyOp8
 70
     1
102
RTVSPropertyOp9
 70
     1
102
RTVSPropertyOp10
 70
     1
102
RTVSPropertyOp11
 70
     1
102
RTVSPropertyOp12
 70
     1
102
RTVSPropertyOp13
 70
     1
102
RTVSPropertyOp14
 70
     1
102
RTVSPropertyOp15
 70
     1
102
RTVSPropertyOp16
 70
     1
102
RTVSPropertyOp17
 70
     1
102
RTVSPropertyOp18
 70
     1
102
RTVSPropertyOp19
 70
     1
102
RTVSPropertyOp20
 70
     1
102
RTVSPropertyOp21
 70
     1
102
RTVSPropertyOp22
 70
     1
102
RTVSPropertyOp23
 70
     1
102
RTVSPropertyOp24
 70
     1
102
RTVSPropertyOp25
 70
     1
102
RTVSPropertyOp26
 70
     1
102
RTVSPropertyOp27
 70
     1
102
RTVSPropertyOp28
 70
     1
102
RTVSPropertyOp29
 70
     1
102
RTVSPropertyOp30
 70
     1
102
RTVSPropertyOp31
 70
     1
102
RTVSPropertyOp32
 70
     1
102
RTVSPropertyOp33
 70
     1
102
RTVSPropertyOp34
 70
     1
102
RTVSPropertyOp35
 70
     1
102
RTVSPropertyOp36
 70
     1
102
RTVSPropertyOp37
 70
     1
102
RTVSPropertyOp38
 70
     1
102
RTVSPropertyOp39
 70
     1
102
RTVSPropertyOp40
 70
     1
102
RTVSPropertyOp41
 70
     1
102
RTVSPropertyOp42
 70
     1
102
RTVSPropertyOp43
 70
     1
102
RTVSPropertyOp44
 70
     1
102
RTVSPropertyOp45
 70
     1
102
RTVSPropertyOp46
 70
     1
102
RTVSPropertyOp47
 70
     1
102
RTVSPropertyOp48
 70
     1
102
RTVSPropertyOp49
 70
     1
102
RTVSPropertyOp50
 70
     1
102
RTVSPropertyOp51
 70
     0
102
RTVSPropertyOp52
 70
     0
102
RTVSPropertyOp53
 70
     1
102
RTVSPropertyOp54
 70
     1
102
RTVSPropertyOp55
 70
     1
102
RTVSPropertyOp56
 70
     1
102
RTVSPropertyOp57
 70
     1
102
RTVSPost2010Prop28
280
     0
102
RTVSPost2010PropOp28
 70
     1
102
RTVSPost2010Prop29
280
     1
102
RTVSPost2010PropOp29
 70
     1
102
RTVSPost2010Prop30
280
     1
102
RTVSPost2010PropOp30
 70
     1
102
RTVSPost2010Prop31
280
     0
102
RTVSPost2010PropOp31
 70
     1
102
RTVSPost2010Prop32
280
     0
102
RTVSPost2010PropOp32
 70
     1
102
RTVSPost2010Prop33
280
     0
102
RTVSPost2010PropOp33
 70
     1
102
RTVSPost2010Prop34
280
     0
102
RTVSPost2010PropOp34
 70
     1
102
RTVSPost2010Prop35
280
     0
102
RTVSPost2010PropOp35
 70
     1
102
RTVSPost2010Prop36
280
     0
102
RTVSPost2010PropOp36
 70
     1
102
RTVSPost2010Prop37
 90
       50
102
RTVSPost2010PropOp37
 70
     1
102
RTVSPost2010Prop38
140
0.0
102
RTVSPost2010PropOp38
 70
     1
102
RTVSPost2010Prop39
140
1.0
102
RTVSPost2010PropOp39
 70
     1
102
RTVSPost2010Prop40
 90
        0
102
RTVSPost2010PropOp40
 70
     1
102
RTVSPost2010Prop41ColorIndex
 90
       18
102
RTVSPost2010Prop41ColorRGB
 90
        0
102
RTVSPost2010PropOp41
 70
     1
102
RTVSPost2010Prop42
 90
       50
102
RTVSPost2010PropOp42
 70
     1
102
RTVSPost2010Prop43
 90
        3
102
RTVSPost2010PropOp43
 70
     1
102
RTVSPost2010Prop44ColorIndex
 90
        5
102
RTVSPost2010Prop44ColorRGB
 90
      255
102
RTVSPost2010PropOp44
 70
     1
102
RTVSPost2010Prop45
280
     0
102
RTVSPost2010PropOp45
 70
     1
102
RTVSPost2010Prop46
 90
       50
102
RTVSPost2010PropOp46
 70
     1
102
RTVSPost2010Prop47
 90
       50
102
RTVSPost2010PropOp47
 70
     1
102
RTVSPost2010Prop48
 90
       50
102
RTVSPost2010PropOp48
 70
     1
102
RTVSPost2010Prop49
280
     0
102
RTVSPost2010PropOp49
 70
     1
102
RTVSPost2010Prop50
 90
       50
102
RTVSPost2010PropOp50
 70
     1
102
RTVSPost2010Prop51ColorIndex
 90
      256
102
RTVSPost2010Prop51ColorRGB
 90
-16777216
102
RTVSPost2010PropOp51
 70
     0
102
RTVSPost2010Prop52
140
1.0
102
RTVSPost2010PropOp52
 70
     0
102
RTVSPost2010Prop53
 90
        2
102
RTVSPost2010PropOp53
 70
     1
102
RTVSPost2010Prop54
  1
strokes_ogs.tif
102
RTVSPost2010PropOp54
 70
     1
102
RTVSPost2010Prop55
280
     0
102
RTVSPost2010PropOp55
 70
     1
102
RTVSPost2010Prop56
140
1.0
102
RTVSPost2010PropOp56
 70
     1
102
RTVSPost2010Prop57
140
1.0
102
RTVSPost2010PropOp57
 70
     1
  0
XRECORD
  5
F2
102
{ACAD_REACTORS
330
F1
102
}
330
F1
100
AcDbXrecord
280
     1
102
RTVSPropertyOp0
 70
     1
102
RTVSPropertyOp1
 70
     1
102
RTVSPropertyOp2
 70
     1
102
RTVSPropertyOp3
 70
     1
102
RTVSPropertyOp4
 70
     1
102
RTVSPropertyOp5
 70
     1
102
RTVSPropertyOp6
 70
     1
102
RTVSPropertyOp7
 70
     1
102
RTVSPropertyOp8
 70
     1
102
RTVSPropertyOp9
 70
     1
102
RTVSPropertyOp10
 70
     1
102
RTVSPropertyOp11
 70
     1
102
RTVSPropertyOp12
 70
     1
102
RTVSPropertyOp13
 70
     1
102
RTVSPropertyOp14
 70
     1
102
RTVSPropertyOp15
 70
     1
102
RTVSPropertyOp16
 70
     1
102
RTVSPropertyOp17
 70
     1
102
RTVSPropertyOp18
 70
     1
102
RTVSPropertyOp19
 70
     1
102
RTVSPropertyOp20
 70
     1
102
RTVSPropertyOp21
 70
     1
102
RTVSPropertyOp22
 70
     1
102
RTVSPropertyOp23
 70
     1
102
RTVSPropertyOp24
 70
     1
102
RTVSPropertyOp25
 70
     1
102
RTVSPropertyOp26
 70
     1
102
RTVSPropertyOp27
 70
     1
102
RTVSPropertyOp28
 70
     1
102
RTVSPropertyOp29
 70
     1
102
RTVSPropertyOp30
 70
     1
102
RTVSPropertyOp31
 70
     1
102
RTVSPropertyOp32
 70
     1
102
RTVSPropertyOp33
 70
     1
102
RTVSPropertyOp34
 70
     1
102
RTVSPropertyOp35
 70
     1
102
RTVSPropertyOp36
 70
     1
102
RTVSPropertyOp37
 70
     1
102
RTVSPropertyOp38
 70
     1
102
RTVSPropertyOp39
 70
     1
102
RTVSPropertyOp40
 70
     1
102
RTVSPropertyOp41
 70
     1
102
RTVSPropertyOp42
 70
     1
102
RTVSPropertyOp43
 70
     1
102
RTVSPropertyOp44
 70
     1
102
RTVSPropertyOp45
 70
     1
102
RTVSPropertyOp46
 70
     1
102
RTVSPropertyOp47
 70
     1
102
RTVSPropertyOp48
 70
     1
102
RTVSPropertyOp49
 70
     1
102
RTVSPropertyOp50
 70
     1
102
RTVSPropertyOp51
 70
     0
102
RTVSPropertyOp52
 70
     0
102
RTVSPropertyOp53
 70
     1
102
RTVSPropertyOp54
 70
     1
102
RTVSPropertyOp55
 70
     1
102
RTVSPropertyOp56
 70
     1
102
RTVSPropertyOp57
 70
     1
102
RTVSPost2010Prop28
280
     0
102
RTVSPost2010PropOp28
 70
     1
102
RTVSPost2010Prop29
280
     1
102
RTVSPost2010PropOp29
 70
     1
102
RTVSPost2010Prop30
280
     1
102
RTVSPost2010PropOp30
 70
     1
102
RTVSPost2010Prop31
280
     0
102
RTVSPost2010PropOp31
 70
     1
102
RTVSPost2010Prop32
280
     0
102
RTVSPost2010PropOp32
 70
     1
102
RTVSPost2010Prop33
280
     0
102
RTVSPost2010PropOp33
 70
     1
102
RTVSPost2010Prop34
280
     0
102
RTVSPost2010PropOp34
 70
     1
102
RTVSPost2010Prop35
280
     0
102
RTVSPost2010PropOp35
 70
     1
102
RTVSPost2010Prop36
280
     0
102
RTVSPost2010PropOp36
 70
     1
102
RTVSPost2010Prop37
 90
       50
102
RTVSPost2010PropOp37
 70
     1
102
RTVSPost2010Prop38
140
0.0
102
RTVSPost2010PropOp38
 70
     1
102
RTVSPost2010Prop39
140
1.0
102
RTVSPost2010PropOp39
 70
     1
102
RTVSPost2010Prop40
 90
        0
102
RTVSPost2010PropOp40
 70
     1
102
RTVSPost2010Prop41ColorIndex
 90
       18
102
RTVSPost2010Prop41ColorRGB
 90
        0
102
RTVSPost2010PropOp41
 70
     1
102
RTVSPost2010Prop42
 90
       50
102
RTVSPost2010PropOp42
 70
     1
102
RTVSPost2010Prop43
 90
        3
102
RTVSPost2010PropOp43
 70
     1
102
RTVSPost2010Prop44ColorIndex
 90
        5
102
RTVSPost2010Prop44ColorRGB
 90
      255
102
RTVSPost2010PropOp44
 70
     1
102
RTVSPost2010Prop45
280
     0
102
RTVSPost2010PropOp45
 70
     1
102
RTVSPost2010Prop46
 90
       50
102
RTVSPost2010PropOp46
 70
     1
102
RTVSPost2010Prop47
 90
       50
102
RTVSPost2010PropOp47
 70
     1
102
RTVSPost2010Prop48
 90
       50
102
RTVSPost2010PropOp48
 70
     1
102
RTVSPost2010Prop49
280
     0
102
RTVSPost2010PropOp49
 70
     1
102
RTVSPost2010Prop50
 90
       50
102
RTVSPost2010PropOp50
 70
     1
102
RTVSPost2010Prop51ColorIndex
 90
      256
102
RTVSPost2010Prop51ColorRGB
 90
-16777216
102
RTVSPost2010PropOp51
 70
     0
102
RTVSPost2010Prop52
140
1.0
102
RTVSPost2010PropOp52
 70
     0
102
RTVSPost2010Prop53
 90
        2
102
RTVSPost2010PropOp53
 70
     1
102
RTVSPost2010Prop54
  1
strokes_ogs.tif
102
RTVSPost2010PropOp54
 70
     1
102
RTVSPost2010Prop55
280
     0
102
RTVSPost2010PropOp55
 70
     1
102
RTVSPost2010Prop56
140
1.0
102
RTVSPost2010PropOp56
 70
     1
102
RTVSPost2010Prop57
140
1.0
102
RTVSPost2010PropOp57
 70
     1
  0
XRECORD
  5
F4
102
{ACAD_REACTORS
330
F3
102
}
330
F3
100
AcDbXrecord
280
     1
102
RTVSPropertyOp0
 70
     1
102
RTVSPropertyOp1
 70
     1
102
RTVSPropertyOp2
 70
     1
102
RTVSPropertyOp3
 70
     1
102
RTVSPropertyOp4
 70
     1
102
RTVSPropertyOp5
 70
     1
102
RTVSPropertyOp6
 70
     1
102
RTVSPropertyOp7
 70
     1
102
RTVSPropertyOp8
 70
     1
102
RTVSPropertyOp9
 70
     1
102
RTVSPropertyOp10
 70
     1
102
RTVSPropertyOp11
 70
     1
102
RTVSPropertyOp12
 70
     1
102
RTVSPropertyOp13
 70
     1
102
RTVSPropertyOp14
 70
     1
102
RTVSPropertyOp15
 70
     1
102
RTVSPropertyOp16
 70
     1
102
RTVSPropertyOp17
 70
     1
102
RTVSPropertyOp18
 70
     1
102
RTVSPropertyOp19
 70
     1
102
RTVSPropertyOp20
 70
     1
102
RTVSPropertyOp21
 70
     1
102
RTVSPropertyOp22
 70
     1
102
RTVSPropertyOp23
 70
     1
102
RTVSPropertyOp24
 70
     1
102
RTVSPropertyOp25
 70
     1
102
RTVSPropertyOp26
 70
     1
102
RTVSPropertyOp27
 70
     1
102
RTVSPropertyOp28
 70
     1
102
RTVSPropertyOp29
 70
     1
102
RTVSPropertyOp30
 70
     1
102
RTVSPropertyOp31
 70
     1
102
RTVSPropertyOp32
 70
     1
102
RTVSPropertyOp33
 70
     1
102
RTVSPropertyOp34
 70
     1
102
RTVSPropertyOp35
 70
     1
102
RTVSPropertyOp36
 70
     1
102
RTVSPropertyOp37
 70
     1
102
RTVSPropertyOp38
 70
     1
102
RTVSPropertyOp39
 70
     1
102
RTVSPropertyOp40
 70
     1
102
RTVSPropertyOp41
 70
     1
102
RTVSPropertyOp42
 70
     1
102
RTVSPropertyOp43
 70
     1
102
RTVSPropertyOp44
 70
     1
102
RTVSPropertyOp45
 70
     1
102
RTVSPropertyOp46
 70
     1
102
RTVSPropertyOp47
 70
     1
102
RTVSPropertyOp48
 70
     1
102
RTVSPropertyOp49
 70
     1
102
RTVSPropertyOp50
 70
     1
102
RTVSPropertyOp51
 70
     0
102
RTVSPropertyOp52
 70
     0
102
RTVSPropertyOp53
 70
     1
102
RTVSPropertyOp54
 70
     1
102
RTVSPropertyOp55
 70
     1
102
RTVSPropertyOp56
 70
     1
102
RTVSPropertyOp57
 70
     1
102
RTVSPost2010Prop28
280
     0
102
RTVSPost2010PropOp28
 70
     1
102
RTVSPost2010Prop29
280
     1
102
RTVSPost2010PropOp29
 70
     1
102
RTVSPost2010Prop30
280
     1
102
RTVSPost2010PropOp30
 70
     1
102
RTVSPost2010Prop31
280
     0
102
RTVSPost2010PropOp31
 70
     1
102
RTVSPost2010Prop32
280
     0
102
RTVSPost2010PropOp32
 70
     1
102
RTVSPost2010Prop33
280
     0
102
RTVSPost2010PropOp33
 70
     1
102
RTVSPost2010Prop34
280
     0
102
RTVSPost2010PropOp34
 70
     1
102
RTVSPost2010Prop35
280
     0
102
RTVSPost2010PropOp35
 70
     1
102
RTVSPost2010Prop36
280
     0
102
RTVSPost2010PropOp36
 70
     1
102
RTVSPost2010Prop37
 90
       50
102
RTVSPost2010PropOp37
 70
     1
102
RTVSPost2010Prop38
140
0.0
102
RTVSPost2010PropOp38
 70
     1
102
RTVSPost2010Prop39
140
1.0
102
RTVSPost2010PropOp39
 70
     1
102
RTVSPost2010Prop40
 90
        0
102
RTVSPost2010PropOp40
 70
     1
102
RTVSPost2010Prop41ColorIndex
 90
       18
102
RTVSPost2010Prop41ColorRGB
 90
        0
102
RTVSPost2010PropOp41
 70
     1
102
RTVSPost2010Prop42
 90
       50
102
RTVSPost2010PropOp42
 70
     1
102
RTVSPost2010Prop43
 90
        3
102
RTVSPost2010PropOp43
 70
     1
102
RTVSPost2010Prop44ColorIndex
 90
        5
102
RTVSPost2010Prop44ColorRGB
 90
      255
102
RTVSPost2010PropOp44
 70
     1
102
RTVSPost2010Prop45
280
     0
102
RTVSPost2010PropOp45
 70
     1
102
RTVSPost2010Prop46
 90
       50
102
RTVSPost2010PropOp46
 70
     1
102
RTVSPost2010Prop47
 90
       50
102
RTVSPost2010PropOp47
 70
     1
102
RTVSPost2010Prop48
 90
       50
102
RTVSPost2010PropOp48
 70
     1
102
RTVSPost2010Prop49
280
     0
102
RTVSPost2010PropOp49
 70
     1
102
RTVSPost2010Prop50
 90
       50
102
RTVSPost2010PropOp50
 70
     1
102
RTVSPost2010Prop51ColorIndex
 90
      256
102
RTVSPost2010Prop51ColorRGB
 90
-16777216
102
RTVSPost2010PropOp51
 70
     0
102
RTVSPost2010Prop52
140
1.0
102
RTVSPost2010PropOp52
 70
     0
102
RTVSPost2010Prop53
 90
        2
102
RTVSPost2010PropOp53
 70
     1
102
RTVSPost2010Prop54
  1
strokes_ogs.tif
102
RTVSPost2010PropOp54
 70
     1
102
RTVSPost2010Prop55
280
     0
102
RTVSPost2010PropOp55
 70
     1
102
RTVSPost2010Prop56
140
1.0
102
RTVSPost2010PropOp56
 70
     1
102
RTVSPost2010Prop57
140
1.0
102
RTVSPost2010PropOp57
 70
     1
  0
XRECORD
  5
E4
102
{ACAD_REACTORS
330
E3
102
}
330
E3
100
AcDbXrecord
280
     1
102
RTVSPropertyOp0
 70
     1
102
RTVSPropertyOp1
 70
     1
102
RTVSPropertyOp2
 70
     1
102
RTVSPropertyOp3
 70
     1
102
RTVSPropertyOp4
 70
     1
102
RTVSPropertyOp5
 70
     1
102
RTVSPropertyOp6
 70
     1
102
RTVSPropertyOp7
 70
     1
102
RTVSPropertyOp8
 70
     1
102
RTVSPropertyOp9
 70
     1
102
RTVSPropertyOp10
 70
     1
102
RTVSPropertyOp11
 70
     1
102
RTVSPropertyOp12
 70
     1
102
RTVSPropertyOp13
 70
     1
102
RTVSPropertyOp14
 70
     1
102
RTVSPropertyOp15
 70
     1
102
RTVSPropertyOp16
 70
     1
102
RTVSPropertyOp17
 70
     1
102
RTVSPropertyOp18
 70
     1
102
RTVSPropertyOp19
 70
     1
102
RTVSPropertyOp20
 70
     1
102
RTVSPropertyOp21
 70
     1
102
RTVSPropertyOp22
 70
     1
102
RTVSPropertyOp23
 70
     1
102
RTVSPropertyOp24
 70
     1
102
RTVSPropertyOp25
 70
     1
102
RTVSPropertyOp26
 70
     1
102
RTVSPropertyOp27
 70
     1
102
RTVSPropertyOp28
 70
     1
102
RTVSPropertyOp29
 70
     1
102
RTVSPropertyOp30
 70
     1
102
RTVSPropertyOp31
 70
     1
102
RTVSPropertyOp32
 70
     1
102
RTVSPropertyOp33
 70
     1
102
RTVSPropertyOp34
 70
     1
102
RTVSPropertyOp35
 70
     1
102
RTVSPropertyOp36
 70
     1
102
RTVSPropertyOp37
 70
     1
102
RTVSPropertyOp38
 70
     1
102
RTVSPropertyOp39
 70
     1
102
RTVSPropertyOp40
 70
     1
102
RTVSPropertyOp41
 70
     1
102
RTVSPropertyOp42
 70
     1
102
RTVSPropertyOp43
 70
     1
102
RTVSPropertyOp44
 70
     1
102
RTVSPropertyOp45
 70
     1
102
RTVSPropertyOp46
 70
     1
102
RTVSPropertyOp47
 70
     1
102
RTVSPropertyOp48
 70
     1
102
RTVSPropertyOp49
 70
     1
102
RTVSPropertyOp50
 70
     1
102
RTVSPropertyOp51
 70
     0
102
RTVSPropertyOp52
 70
     0
102
RTVSPropertyOp53
 70
     1
102
RTVSPropertyOp54
 70
     1
102
RTVSPropertyOp55
 70
     1
102
RTVSPropertyOp56
 70
     1
102
RTVSPropertyOp57
 70
     1
102
RTVSPost2010Prop28
280
     0
102
RTVSPost2010PropOp28
 70
     1
102
RTVSPost2010Prop29
280
     1
102
RTVSPost2010PropOp29
 70
     1
102
RTVSPost2010Prop30
280
     1
102
RTVSPost2010PropOp30
 70
     1
102
RTVSPost2010Prop31
280
     0
102
RTVSPost2010PropOp31
 70
     1
102
RTVSPost2010Prop32
280
     0
102
RTVSPost2010PropOp32
 70
     1
102
RTVSPost2010Prop33
280
     0
102
RTVSPost2010PropOp33
 70
     1
102
RTVSPost2010Prop34
280
     0
102
RTVSPost2010PropOp34
 70
     1
102
RTVSPost2010Prop35
280
     0
102
RTVSPost2010PropOp35
 70
     1
102
RTVSPost2010Prop36
280
     0
102
RTVSPost2010PropOp36
 70
     1
102
RTVSPost2010Prop37
 90
       50
102
RTVSPost2010PropOp37
 70
     1
102
RTVSPost2010Prop38
140
0.0
102
RTVSPost2010PropOp38
 70
     1
102
RTVSPost2010Prop39
140
1.0
102
RTVSPost2010PropOp39
 70
     1
102
RTVSPost2010Prop40
 90
        0
102
RTVSPost2010PropOp40
 70
     1
102
RTVSPost2010Prop41ColorIndex
 90
       18
102
RTVSPost2010Prop41ColorRGB
 90
        0
102
RTVSPost2010PropOp41
 70
     1
102
RTVSPost2010Prop42
 90
       50
102
RTVSPost2010PropOp42
 70
     1
102
RTVSPost2010Prop43
 90
        3
102
RTVSPost2010PropOp43
 70
     1
102
RTVSPost2010Prop44ColorIndex
 90
        5
102
RTVSPost2010Prop44ColorRGB
 90
      255
102
RTVSPost2010PropOp44
 70
     1
102
RTVSPost2010Prop45
280
     0
102
RTVSPost2010PropOp45
 70
     1
102
RTVSPost2010Prop46
 90
       50
102
RTVSPost2010PropOp46
 70
     1
102
RTVSPost2010Prop47
 90
       50
102
RTVSPost2010PropOp47
 70
     1
102
RTVSPost2010Prop48
 90
       50
102
RTVSPost2010PropOp48
 70
     1
102
RTVSPost2010Prop49
280
     0
102
RTVSPost2010PropOp49
 70
     1
102
RTVSPost2010Prop50
 90
       50
102
RTVSPost2010PropOp50
 70
     1
102
RTVSPost2010Prop51ColorIndex
 90
      256
102
RTVSPost2010Prop51ColorRGB
 90
-16777216
102
RTVSPost2010PropOp51
 70
     0
102
RTVSPost2010Prop52
140
1.0
102
RTVSPost2010PropOp52
 70
     0
102
RTVSPost2010Prop53
 90
        2
102
RTVSPost2010PropOp53
 70
     1
102
RTVSPost2010Prop54
  1
strokes_ogs.tif
102
RTVSPost2010PropOp54
 70
     1
102
RTVSPost2010Prop55
280
     0
102
RTVSPost2010PropOp55
 70
     1
102
RTVSPost2010Prop56
140
1.0
102
RTVSPost2010PropOp56
 70
     1
102
RTVSPost2010Prop57
140
1.0
102
RTVSPost2010PropOp57
 70
     1
  0
XRECORD
  5
D6
102
{ACAD_REACTORS
330
D5
102
}
330
D5
100
AcDbXrecord
280
     1
102
RTVSPropertyOp0
 70
     1
102
RTVSPropertyOp1
 70
     1
102
RTVSPropertyOp2
 70
     1
102
RTVSPropertyOp3
 70
     1
102
RTVSPropertyOp4
 70
     1
102
RTVSPropertyOp5
 70
     1
102
RTVSPropertyOp6
 70
     1
102
RTVSPropertyOp7
 70
     1
102
RTVSPropertyOp8
 70
     1
102
RTVSPropertyOp9
 70
     1
102
RTVSPropertyOp10
 70
     1
102
RTVSPropertyOp11
 70
     1
102
RTVSPropertyOp12
 70
     1
102
RTVSPropertyOp13
 70
     1
102
RTVSPropertyOp14
 70
     1
102
RTVSPropertyOp15
 70
     1
102
RTVSPropertyOp16
 70
     1
102
RTVSPropertyOp17
 70
     1
102
RTVSPropertyOp18
 70
     1
102
RTVSPropertyOp19
 70
     1
102
RTVSPropertyOp20
 70
     1
102
RTVSPropertyOp21
 70
     1
102
RTVSPropertyOp22
 70
     1
102
RTVSPropertyOp23
 70
     1
102
RTVSPropertyOp24
 70
     1
102
RTVSPropertyOp25
 70
     1
102
RTVSPropertyOp26
 70
     1
102
RTVSPropertyOp27
 70
     1
102
RTVSPropertyOp28
 70
     1
102
RTVSPropertyOp29
 70
     1
102
RTVSPropertyOp30
 70
     1
102
RTVSPropertyOp31
 70
     1
102
RTVSPropertyOp32
 70
     1
102
RTVSPropertyOp33
 70
     1
102
RTVSPropertyOp34
 70
     1
102
RTVSPropertyOp35
 70
     1
102
RTVSPropertyOp36
 70
     1
102
RTVSPropertyOp37
 70
     1
102
RTVSPropertyOp38
 70
     1
102
RTVSPropertyOp39
 70
     1
102
RTVSPropertyOp40
 70
     1
102
RTVSPropertyOp41
 70
     1
102
RTVSPropertyOp42
 70
     1
102
RTVSPropertyOp43
 70
     1
102
RTVSPropertyOp44
 70
     1
102
RTVSPropertyOp45
 70
     1
102
RTVSPropertyOp46
 70
     1
102
RTVSPropertyOp47
 70
     1
102
RTVSPropertyOp48
 70
     1
102
RTVSPropertyOp49
 70
     1
102
RTVSPropertyOp50
 70
     1
102
RTVSPropertyOp51
 70
     0
102
RTVSPropertyOp52
 70
     0
102
RTVSPropertyOp53
 70
     1
102
RTVSPropertyOp54
 70
     1
102
RTVSPropertyOp55
 70
     1
102
RTVSPropertyOp56
 70
     1
102
RTVSPropertyOp57
 70
     1
102
RTVSPost2010Prop28
280
     0
102
RTVSPost2010PropOp28
 70
     1
102
RTVSPost2010Prop29
280
     1
102
RTVSPost2010PropOp29
 70
     1
102
RTVSPost2010Prop30
280
     1
102
RTVSPost2010PropOp30
 70
     1
102
RTVSPost2010Prop31
280
     0
102
RTVSPost2010PropOp31
 70
     1
102
RTVSPost2010Prop32
280
     0
102
RTVSPost2010PropOp32
 70
     1
102
RTVSPost2010Prop33
280
     0
102
RTVSPost2010PropOp33
 70
     1
102
RTVSPost2010Prop34
280
     0
102
RTVSPost2010PropOp34
 70
     1
102
RTVSPost2010Prop35
280
     0
102
RTVSPost2010PropOp35
 70
     1
102
RTVSPost2010Prop36
280
     0
102
RTVSPost2010PropOp36
 70
     1
102
RTVSPost2010Prop37
 90
       50
102
RTVSPost2010PropOp37
 70
     1
102
RTVSPost2010Prop38
140
0.0
102
RTVSPost2010PropOp38
 70
     1
102
RTVSPost2010Prop39
140
1.0
102
RTVSPost2010PropOp39
 70
     1
102
RTVSPost2010Prop40
 90
        0
102
RTVSPost2010PropOp40
 70
     1
102
RTVSPost2010Prop41ColorIndex
 90
       18
102
RTVSPost2010Prop41ColorRGB
 90
        0
102
RTVSPost2010PropOp41
 70
     1
102
RTVSPost2010Prop42
 90
       50
102
RTVSPost2010PropOp42
 70
     1
102
RTVSPost2010Prop43
 90
        3
102
RTVSPost2010PropOp43
 70
     1
102
RTVSPost2010Prop44ColorIndex
 90
        5
102
RTVSPost2010Prop44ColorRGB
 90
      255
102
RTVSPost2010PropOp44
 70
     1
102
RTVSPost2010Prop45
280
     0
102
RTVSPost2010PropOp45
 70
     1
102
RTVSPost2010Prop46
 90
       50
102
RTVSPost2010PropOp46
 70
     1
102
RTVSPost2010Prop47
 90
       50
102
RTVSPost2010PropOp47
 70
     1
102
RTVSPost2010Prop48
 90
       50
102
RTVSPost2010PropOp48
 70
     1
102
RTVSPost2010Prop49
280
     0
102
RTVSPost2010PropOp49
 70
     1
102
RTVSPost2010Prop50
 90
       50
102
RTVSPost2010PropOp50
 70
     1
102
RTVSPost2010Prop51ColorIndex
 90
      256
102
RTVSPost2010Prop51ColorRGB
 90
-16777216
102
RTVSPost2010PropOp51
 70
     0
102
RTVSPost2010Prop52
140
1.0
102
RTVSPost2010PropOp52
 70
     0
102
RTVSPost2010Prop53
 90
        2
102
RTVSPost2010PropOp53
 70
     1
102
RTVSPost2010Prop54
  1
strokes_ogs.tif
102
RTVSPost2010PropOp54
 70
     1
102
RTVSPost2010Prop55
280
     0
102
RTVSPost2010PropOp55
 70
     1
102
RTVSPost2010Prop56
140
1.0
102
RTVSPost2010PropOp56
 70
     1
102
RTVSPost2010Prop57
140
1.0
102
RTVSPost2010PropOp57
 70
     1
  0
XRECORD
  5
F6
102
{ACAD_REACTORS
330
F5
102
}
330
F5
100
AcDbXrecord
280
     1
102
RTVSPropertyOp0
 70
     1
102
RTVSPropertyOp1
 70
     1
102
RTVSPropertyOp2
 70
     1
102
RTVSPropertyOp3
 70
     1
102
RTVSPropertyOp4
 70
     1
102
RTVSPropertyOp5
 70
     1
102
RTVSPropertyOp6
 70
     1
102
RTVSPropertyOp7
 70
     1
102
RTVSPropertyOp8
 70
     1
102
RTVSPropertyOp9
 70
     1
102
RTVSPropertyOp10
 70
     1
102
RTVSPropertyOp11
 70
     1
102
RTVSPropertyOp12
 70
     1
102
RTVSPropertyOp13
 70
     1
102
RTVSPropertyOp14
 70
     1
102
RTVSPropertyOp15
 70
     1
102
RTVSPropertyOp16
 70
     1
102
RTVSPropertyOp17
 70
     1
102
RTVSPropertyOp18
 70
     1
102
RTVSPropertyOp19
 70
     1
102
RTVSPropertyOp20
 70
     1
102
RTVSPropertyOp21
 70
     1
102
RTVSPropertyOp22
 70
     1
102
RTVSPropertyOp23
 70
     1
102
RTVSPropertyOp24
 70
     1
102
RTVSPropertyOp25
 70
     1
102
RTVSPropertyOp26
 70
     1
102
RTVSPropertyOp27
 70
     1
102
RTVSPropertyOp28
 70
     1
102
RTVSPropertyOp29
 70
     1
102
RTVSPropertyOp30
 70
     1
102
RTVSPropertyOp31
 70
     1
102
RTVSPropertyOp32
 70
     1
102
RTVSPropertyOp33
 70
     1
102
RTVSPropertyOp34
 70
     1
102
RTVSPropertyOp35
 70
     1
102
RTVSPropertyOp36
 70
     1
102
RTVSPropertyOp37
 70
     1
102
RTVSPropertyOp38
 70
     1
102
RTVSPropertyOp39
 70
     1
102
RTVSPropertyOp40
 70
     1
102
RTVSPropertyOp41
 70
     1
102
RTVSPropertyOp42
 70
     1
102
RTVSPropertyOp43
 70
     1
102
RTVSPropertyOp44
 70
     1
102
RTVSPropertyOp45
 70
     1
102
RTVSPropertyOp46
 70
     1
102
RTVSPropertyOp47
 70
     1
102
RTVSPropertyOp48
 70
     1
102
RTVSPropertyOp49
 70
     1
102
RTVSPropertyOp50
 70
     1
102
RTVSPropertyOp51
 70
     0
102
RTVSPropertyOp52
 70
     0
102
RTVSPropertyOp53
 70
     1
102
RTVSPropertyOp54
 70
     1
102
RTVSPropertyOp55
 70
     1
102
RTVSPropertyOp56
 70
     1
102
RTVSPropertyOp57
 70
     1
102
RTVSPost2010Prop28
280
     0
102
RTVSPost2010PropOp28
 70
     1
102
RTVSPost2010Prop29
280
     1
102
RTVSPost2010PropOp29
 70
     1
102
RTVSPost2010Prop30
280
     1
102
RTVSPost2010PropOp30
 70
     1
102
RTVSPost2010Prop31
280
     0
102
RTVSPost2010PropOp31
 70
     1
102
RTVSPost2010Prop32
280
     0
102
RTVSPost2010PropOp32
 70
     1
102
RTVSPost2010Prop33
280
     0
102
RTVSPost2010PropOp33
 70
     1
102
RTVSPost2010Prop34
280
     0
102
RTVSPost2010PropOp34
 70
     1
102
RTVSPost2010Prop35
280
     0
102
RTVSPost2010PropOp35
 70
     1
102
RTVSPost2010Prop36
280
     0
102
RTVSPost2010PropOp36
 70
     1
102
RTVSPost2010Prop37
 90
       50
102
RTVSPost2010PropOp37
 70
     1
102
RTVSPost2010Prop38
140
0.0
102
RTVSPost2010PropOp38
 70
     1
102
RTVSPost2010Prop39
140
1.0
102
RTVSPost2010PropOp39
 70
     1
102
RTVSPost2010Prop40
 90
        0
102
RTVSPost2010PropOp40
 70
     1
102
RTVSPost2010Prop41ColorIndex
 90
       18
102
RTVSPost2010Prop41ColorRGB
 90
        0
102
RTVSPost2010PropOp41
 70
     1
102
RTVSPost2010Prop42
 90
       50
102
RTVSPost2010PropOp42
 70
     1
102
RTVSPost2010Prop43
 90
        3
102
RTVSPost2010PropOp43
 70
     1
102
RTVSPost2010Prop44ColorIndex
 90
        5
102
RTVSPost2010Prop44ColorRGB
 90
      255
102
RTVSPost2010PropOp44
 70
     1
102
RTVSPost2010Prop45
280
     0
102
RTVSPost2010PropOp45
 70
     1
102
RTVSPost2010Prop46
 90
       50
102
RTVSPost2010PropOp46
 70
     1
102
RTVSPost2010Prop47
 90
       50
102
RTVSPost2010PropOp47
 70
     1
102
RTVSPost2010Prop48
 90
       50
102
RTVSPost2010PropOp48
 70
     1
102
RTVSPost2010Prop49
280
     0
102
RTVSPost2010PropOp49
 70
     1
102
RTVSPost2010Prop50
 90
       50
102
RTVSPost2010PropOp50
 70
     1
102
RTVSPost2010Prop51ColorIndex
 90
      256
102
RTVSPost2010Prop51ColorRGB
 90
-16777216
102
RTVSPost2010PropOp51
 70
     0
102
RTVSPost2010Prop52
140
1.0
102
RTVSPost2010PropOp52
 70
     0
102
RTVSPost2010Prop53
 90
        2
102
RTVSPost2010PropOp53
 70
     1
102
RTVSPost2010Prop54
  1
strokes_ogs.tif
102
RTVSPost2010PropOp54
 70
     1
102
RTVSPost2010Prop55
280
     0
102
RTVSPost2010PropOp55
 70
     1
102
RTVSPost2010Prop56
140
1.0
102
RTVSPost2010PropOp56
 70
     1
102
RTVSPost2010Prop57
140
1.0
102
RTVSPost2010PropOp57
 70
     1
  0
ENDSEC
  0
EOF
