  0
SECTION
  2
HEADER
  9
$ACADVER
  1
AC1009
  9
$INSBASE
 10
0.0
 20
0.0
 30
0.0
  9
$EXTMIN
 10
6582.7282405465967
 20
4404.1374540377501
 30
0.0
  9
$EXTMAX
 10
17161.323471036241
 20
14952.57254615797
 30
0.0
  9
$LIMMIN
 10
0.0
 20
0.0
  9
$LIMMAX
 10
420.0
 20
297.0
  9
$ORTHOMODE
 70
     1
  9
$REGENMODE
 70
     1
  9
$FILLMODE
 70
     1
  9
$QTEXTMODE
 70
     0
  9
$MIRRTEXT
 70
     0
  9
$DRAGMODE
 70
     2
  9
$LTSCALE
 40
1.0
  9
$OSMODE
 70
  3071
  9
$ATTMODE
 70
     1
  9
$TEXTSIZE
 40
2.5
  9
$TRACEWID
 40
1.0
  9
$TEXTSTYLE
  7
STANDARD
  9
$CLAYER
  8
0
  9
$CELTYPE
  6
BYLAYER
  9
$CECOLOR
 62
     1
  9
$DIMSCALE
 40
1.0
  9
$DIMASZ
 40
2.5
  9
$DIMEXO
 40
0.625
  9
$DIMDLI
 40
3.75
  9
$DIMRND
 40
0.0
  9
$DIMDLE
 40
0.0
  9
$DIMEXE
 40
1.25
  9
$DIMTP
 40
0.0
  9
$DIMTM
 40
0.0
  9
$DIMTXT
 40
2.5
  9
$DIMCEN
 40
2.5
  9
$DIMTSZ
 40
0.0
  9
$DIMTOL
 70
     0
  9
$DIMLIM
 70
     0
  9
$DIMTIH
 70
     0
  9
$DIMTOH
 70
     0
  9
$DIMSE1
 70
     0
  9
$DIMSE2
 70
     0
  9
$DIMTAD
 70
     1
  9
$DIMZIN
 70
     8
  9
$DIMBLK
  1

  9
$DIMASO
 70
     1
  9
$DIMSHO
 70
     1
  9
$DIMPOST
  1

  9
$DIMAPOST
  1

  9
$DIMALT
 70
     0
  9
$DIMALTD
 70
     3
  9
$DIMALTF
 40
0.03937007874016
  9
$DIMLFAC
 40
1.0
  9
$DIMTOFL
 70
     1
  9
$DIMTVP
 40
0.0
  9
$DIMTIX
 70
     0
  9
$DIMSOXD
 70
     0
  9
$DIMSAH
 70
     0
  9
$DIMBLK1
  1

  9
$DIMBLK2
  1

  9
$DIMSTYLE
  2
ISO-25
  9
$DIMCLRD
 70
     0
  9
$DIMCLRE
 70
     0
  9
$DIMCLRT
 70
     0
  9
$DIMTFAC
 40
1.0
  9
$DIMGAP
 40
0.625
  9
$LUNITS
 70
     2
  9
$LUPREC
 70
     4
  9
$SKETCHINC
 40
1.0
  9
$FILLETRAD
 40
3.0
  9
$AUNITS
 70
     0
  9
$AUPREC
 70
     0
  9
$MENU
  1
.
  9
$ELEVATION
 40
0.0
  9
$PELEVATION
 40
0.0
  9
$THICKNESS
 40
0.0
  9
$LIMCHECK
 70
     0
  9
$BLIPMODE
 70
     0
  9
$CHAMFERA
 40
0.0
  9
$CHAMFERB
 40
0.0
  9
$SKPOLY
 70
     0
  9
$TDCREATE
 40
2457457.4918474071
  9
$TDUPDATE
 40
2457457.6401455789
  9
$TDINDWG
 40
0.147567963
  9
$TDUSRTIMER
 40
0.1475656134
  9
$USRTIMER
 70
     1
  9
$ANGBASE
 50
0.0
  9
$ANGDIR
 70
     0
  9
$PDMODE
 70
     0
  9
$PDSIZE
 40
0.0
  9
$PLINEWID
 40
0.0
  9
$COORDS
 70
     1
  9
$SPLFRAME
 70
     0
  9
$SPLINETYPE
 70
     6
  9
$SPLINESEGS
 70
     8
  9
$ATTDIA
 70
     0
  9
$ATTREQ
 70
     1
  9
$HANDLING
 70
     1
  9
$HANDSEED
  5
163D
  9
$SURFTAB1
 70
     6
  9
$SURFTAB2
 70
     6
  9
$SURFTYPE
 70
     6
  9
$SURFU
 70
     6
  9
$SURFV
 70
     6
  9
$UCSNAME
  2

  9
$UCSORG
 10
0.0
 20
0.0
 30
0.0
  9
$UCSXDIR
 10
1.0
 20
0.0
 30
0.0
  9
$UCSYDIR
 10
0.0
 20
1.0
 30
0.0
  9
$PUCSNAME
  2

  9
$PUCSORG
 10
0.0
 20
0.0
 30
0.0
  9
$PUCSXDIR
 10
1.0
 20
0.0
 30
0.0
  9
$PUCSYDIR
 10
0.0
 20
1.0
 30
0.0
  9
$USERI1
 70
     0
  9
$USERI2
 70
     0
  9
$USERI3
 70
     0
  9
$USERI4
 70
     0
  9
$USERI5
 70
     0
  9
$USERR1
 40
0.0
  9
$USERR2
 40
0.0
  9
$USERR3
 40
0.0
  9
$USERR4
 40
0.0
  9
$USERR5
 40
0.0
  9
$WORLDVIEW
 70
     1
  9
$SHADEDGE
 70
     3
  9
$SHADEDIF
 70
    70
  9
$TILEMODE
 70
     1
  9
$MAXACTVP
 70
    64
  9
$PLIMCHECK
 70
     0
  9
$PEXTMIN
 10
0.0
 20
0.0
 30
0.0
  9
$PEXTMAX
 10
0.0
 20
0.0
 30
0.0
  9
$PLIMMIN
 10
0.0
 20
0.0
  9
$PLIMMAX
 10
12.0
 20
9.0
  9
$UNITMODE
 70
     0
  9
$VISRETAIN
 70
     1
  9
$PLINEGEN
 70
     0
  9
$PSLTSCALE
 70
     1
  0
ENDSEC
  0
SECTION
  2
TABLES
  0
TABLE
  2
VPORT
 70
     1
  0
VPORT
  2
*ACTIVE
 70
     0
 10
0.0
 20
0.0
 11
1.0
 21
1.0
 12
11189.79084974553
 22
7140.5051787950233
 13
0.0
 23
0.0
 14
10.0
 24
10.0
 15
10.0
 25
10.0
 16
0.0
 26
0.0
 36
1.0
 17
0.0
 27
0.0
 37
0.0
 40
3839.040235309968
 41
2.3996175908221788
 42
50.0
 43
0.0
 44
0.0
 50
0.0
 51
0.0
 71
     0
 72
  1000
 73
     1
 74
     3
 75
     0
 76
     0
 77
     0
 78
     0
  0
ENDTAB
  0
TABLE
  2
LTYPE
 70
     2
  0
LTYPE
  2
CONTINUOUS
 70
     0
  3
Solid line
 72
    65
 73
     0
 40
0.0
  0
ENDTAB
  0
TABLE
  2
LAYER
 70
     2
  0
LAYER
  2
0
 70
     0
 62
     7
  6
CONTINUOUS
  0
LAYER
  2
DEFPOINTS
 70
     0
 62
     7
  6
CONTINUOUS
  0
ENDTAB
  0
TABLE
  2
STYLE
 70
     3
  0
STYLE
  2
STANDARD
 70
     0
 40
0.0
 41
1.0
 50
0.0
 71
     0
 42
2.5
  3
txt
  4

  0
STYLE
  2
ANNOTATIVE
 70
     0
 40
0.0
 41
1.0
 50
0.0
 71
     0
 42
0.2
  3
txt
  4

  0
STYLE
  2
АННОТАТИВНЫЙ
 70
     0
 40
0.0
 41
1.0
 50
0.0
 71
     0
 42
2.5
  3
txt
  4

  0
ENDTAB
  0
TABLE
  2
VIEW
 70
     0
  0
ENDTAB
  0
TABLE
  2
UCS
 70
     0
  0
ENDTAB
  0
TABLE
  2
APPID
 70
     8
  0
APPID
  2
ACAD
 70
     0
  0
APPID
  2
ACADANNOTATIVE
 70
     0
  0
APPID
  2
ACAD_PSEXT
 70
     0
  0
APPID
  2
ACADANNOPO
 70
     0
  0
APPID
  2
ACAD_DSTYLE_DIMJAG
 70
     0
  0
APPID
  2
ACAD_DSTYLE_DIMTALN
 70
     0
  0
APPID
  2
ACAD_MLEADERVER
 70
     0
  0
APPID
  2
ACAD_EXEMPT_FROM_CAD_STANDARDS
 70
     0
  0
ENDTAB
  0
TABLE
  2
DIMSTYLE
 70
     4
  0
DIMSTYLE
  2
STANDARD
 70
     0
  3

  4

  5

  6

  7

 40
1.0
 41
0.18
 42
0.0625
 43
0.38
 44
0.18
 45
0.0
 46
0.0
 47
0.0
 48
0.0
140
0.18
141
0.09
142
0.0
143
25.399999999999999
144
1.0
145
0.0
146
1.0
147
0.09
 71
     0
 72
     0
 73
     1
 74
     1
 75
     0
 76
     0
 77
     0
 78
     0
170
     0
171
     2
172
     0
173
     0
174
     0
175
     0
176
     0
177
     0
178
     0
  0
DIMSTYLE
  2
ANNOTATIVE
 70
     0
  3

  4

  5

  6

  7

 40
1.0
 41
0.18
 42
0.0625
 43
0.38
 44
0.18
 45
0.0
 46
0.0
 47
0.0
 48
0.0
140
0.18
141
0.09
142
0.0
143
25.399999999999999
144
1.0
145
0.0
146
1.0
147
0.09
 71
     0
 72
     0
 73
     1
 74
     1
 75
     0
 76
     0
 77
     0
 78
     0
170
     0
171
     2
172
     0
173
     0
174
     0
175
     0
176
     0
177
     0
178
     0
  0
DIMSTYLE
  2
АННОТАТИВНЫЙ
 70
     0
  3

  4

  5

  6

  7

 40
0.0
 41
2.5
 42
0.625
 43
3.75
 44
1.25
 45
0.0
 46
0.0
 47
0.0
 48
0.0
140
2.5
141
2.5
142
0.0
143
0.03937007874016
144
1.0
145
0.0
146
1.0
147
0.625
 71
     0
 72
     0
 73
     0
 74
     0
 75
     0
 76
     0
 77
     1
 78
     8
170
     0
171
     3
172
     1
173
     0
174
     0
175
     0
176
     0
177
     0
178
     0
  0
DIMSTYLE
  2
ISO-25
 70
     0
  3

  4

  5

  6

  7

 40
1.0
 41
2.5
 42
0.625
 43
3.75
 44
1.25
 45
0.0
 46
0.0
 47
0.0
 48
0.0
140
2.5
141
2.5
142
0.0
143
0.03937007874016
144
1.0
145
0.0
146
1.0
147
0.625
 71
     0
 72
     0
 73
     0
 74
     0
 75
     0
 76
     0
 77
     1
 78
     8
170
     0
171
     3
172
     1
173
     0
174
     0
175
     0
176
     0
177
     0
178
     0
  0
ENDTAB
  0
ENDSEC
  0
SECTION
  2
BLOCKS
  0
BLOCK
  8
0
  2
$MODEL_SPACE
 70
     0
 10
0.0
 20
0.0
 30
0.0
  3
$MODEL_SPACE
  1

  0
ENDBLK
  5
57F
  8
0
  0
BLOCK
 67
     1
  8
0
  2
$PAPER_SPACE
 70
     0
 10
0.0
 20
0.0
 30
0.0
  3
$PAPER_SPACE
  1

  0
ENDBLK
  5
57B
 67
     1
  8
0
  0
BLOCK
  8
0
  2
*D2
 70
     1
 10
0.0
 20
0.0
 30
0.0
  3
*D2
  1

  0
LINE
  5
1FF
  8
0
 62
     0
 10
1733.083359926211
 20
2151.8446947730658
 30
0.0
 11
1733.083359926211
 21
194.97996593113561
 31
0.0
  0
LINE
  5
200
  8
0
 62
     0
 10
11893.08335992621
 20
2151.8446947730658
 30
0.0
 11
11893.08335992621
 21
194.97996593113561
 31
0.0
  0
LINE
  5
201
  8
0
 62
     0
 10
1735.583359926211
 20
196.22996593113561
 30
0.0
 11
11890.58335992621
 21
196.22996593113561
 31
0.0
  0
SOLID
  5
202
  8
0
 62
     0
 10
1735.583359926211
 20
196.6466325978023
 30
0.0
 11
1735.583359926211
 21
195.8132992644689
 31
0.0
 12
1733.083359926211
 22
196.22996593113561
 32
0.0
 13
1733.083359926211
 23
196.22996593113561
 33
0.0
  0
SOLID
  5
203
  8
0
 62
     0
 10
11890.58335992621
 20
196.6466325978023
 30
0.0
 11
11890.58335992621
 21
195.8132992644689
 31
0.0
 12
11893.08335992621
 22
196.22996593113561
 32
0.0
 13
11893.08335992621
 23
196.22996593113561
 33
0.0
  0
INSERT
  5
204
  8
0
 62
     1
  2
*U3
 10
0.0
 20
0.0
 30
0.0
  0
POINT
  5
205
  8
DEFPOINTS
 62
     0
 10
1733.083359926211
 20
2152.4696947730672
 30
0.0
  0
POINT
  5
206
  8
DEFPOINTS
 62
     0
 10
11893.08335992621
 20
2152.4696947730672
 30
0.0
  0
POINT
  5
207
  8
DEFPOINTS
 62
     0
 10
11893.08335992621
 20
196.22996593113561
 30
0.0
  0
ENDBLK
  5
1FE
  8
0
  0
BLOCK
  8
0
 62
     1
  2
*U3
 70
     1
 10
0.0
 20
0.0
 30
0.0
  3
*U3
  1

  0
TEXT
  5
477
  8
0
 62
     0
 10
6808.1208769794166
 20
196.89759894614241
 30
0.0
 40
2.5
  1
10160
  0
ENDBLK
  5
479
  8
0
 62
     1
  0
BLOCK
  8
0
 62
     1
  2
*D4
 70
     1
 10
0.0
 20
0.0
 30
0.0
  3
*D4
  1

  0
LINE
  5
23D
  8
0
 62
     0
 10
6650.0796227401879
 20
6484.6982413604183
 30
0.0
 11
6650.0796227401879
 21
6515.0751231745598
 31
0.0
  0
LINE
  5
23E
  8
0
 62
     0
 10
6984.8633401119441
 20
6484.6982413604183
 30
0.0
 11
6984.8633401119441
 21
6515.0751231745598
 31
0.0
  0
LINE
  5
23F
  8
0
 62
     0
 10
6652.5796227401879
 20
6513.8251231745608
 30
0.0
 11
6982.3633401119441
 21
6513.8251231745608
 31
0.0
  0
SOLID
  5
240
  8
0
 62
     0
 10
6652.5796227401879
 20
6514.2417898412277
 30
0.0
 11
6652.5796227401879
 21
6513.4084565078929
 31
0.0
 12
6650.0796227401879
 22
6513.8251231745608
 32
0.0
 13
6650.0796227401879
 23
6513.8251231745608
 33
0.0
  0
SOLID
  5
241
  8
0
 62
     0
 10
6982.3633401119441
 20
6514.2417898412277
 30
0.0
 11
6982.3633401119441
 21
6513.4084565078929
 31
0.0
 12
6984.8633401119441
 22
6513.8251231745608
 32
0.0
 13
6984.8633401119441
 23
6513.8251231745608
 33
0.0
  0
INSERT
  5
242
  8
0
 62
     1
  2
*U5
 10
0.0
 20
0.0
 30
0.0
  0
POINT
  5
243
  8
DEFPOINTS
 62
     0
 10
6650.0796227401879
 20
6484.0732413604201
 30
0.0
  0
POINT
  5
244
  8
DEFPOINTS
 62
     0
 10
6984.8633401119441
 20
6484.0732413604201
 30
0.0
  0
POINT
  5
245
  8
DEFPOINTS
 62
     0
 10
6984.8633401119441
 20
6513.8251231745608
 30
0.0
  0
ENDBLK
  5
232
  8
0
 62
     1
  0
BLOCK
  8
0
 62
     1
  2
*U5
 70
     1
 10
0.0
 20
0.0
 30
0.0
  3
*U5
  1

  0
TEXT
  5
47B
  8
0
 62
     0
 10
6812.1338279472129
 20
6514.94466614864
 30
0.0
 40
2.5
  1
334,78
  0
ENDBLK
  5
47D
  8
0
 62
     1
  0
BLOCK
  8
0
 62
     1
  2
*D6
 70
     1
 10
0.0
 20
0.0
 30
0.0
  3
*D6
  1

  0
LINE
  5
255
  8
0
 62
     0
 10
6710.2095712702649
 20
6484.0732413604201
 30
0.0
 11
6596.0786941770339
 21
6484.0732413604201
 31
0.0
  0
LINE
  5
256
  8
0
 62
     0
 10
6710.2095712702649
 20
6463.8419607697497
 30
0.0
 11
6596.0786941770339
 21
6463.8419607697497
 31
0.0
  0
LINE
  5
257
  8
0
 62
     0
 10
6597.3286941770339
 20
6481.5732413604183
 30
0.0
 11
6597.3286941770339
 21
6466.3419607697488
 31
0.0
  0
SOLID
  5
258
  8
0
 62
     0
 10
6596.9120275103669
 20
6481.5732413604183
 30
0.0
 11
6597.7453608437027
 21
6481.5732413604183
 31
0.0
 12
6597.3286941770339
 22
6484.0732413604201
 32
0.0
 13
6597.3286941770339
 23
6484.0732413604201
 33
0.0
  0
SOLID
  5
259
  8
0
 62
     0
 10
6596.9120275103669
 20
6466.3419607697488
 30
0.0
 11
6597.7453608437027
 21
6466.3419607697488
 31
0.0
 12
6597.3286941770339
 22
6463.8419607697497
 32
0.0
 13
6597.3286941770339
 23
6463.8419607697497
 33
0.0
  0
INSERT
  5
25A
  8
0
 62
     1
  2
*U7
 10
0.0
 20
0.0
 30
0.0
  0
POINT
  5
25B
  8
DEFPOINTS
 62
     0
 10
6710.8345712702649
 20
6484.0732413604201
 30
0.0
  0
POINT
  5
25C
  8
DEFPOINTS
 62
     0
 10
6710.8345712702649
 20
6463.8419607697497
 30
0.0
  0
POINT
  5
25D
  8
DEFPOINTS
 62
     0
 10
6597.3286941770339
 20
6463.8419607697497
 30
0.0
  0
ENDBLK
  5
24A
  8
0
 62
     1
  0
BLOCK
  8
0
 62
     1
  2
*U7
 70
     1
 10
0.0
 20
0.0
 30
0.0
  3
*U7
  1

  0
TEXT
  5
47F
  8
0
 62
     0
 10
6596.2091512029547
 20
6469.6158548167932
 30
0.0
 40
2.5
  1
20,23
 50
90.0
  0
ENDBLK
  5
481
  8
0
 62
     1
  0
BLOCK
  8
0
 62
     1
  2
*D8
 70
     1
 10
0.0
 20
0.0
 30
0.0
  3
*D8
  1

  0
LINE
  5
26E
  8
0
 62
     0
 10
6709.5845712702658
 20
6484.0732413604201
 30
0.0
 11
6007.7858102538448
 21
6484.073241360421
 31
0.0
  0
LINE
  5
26F
  8
0
 62
     0
 10
6096.184723121376
 20
6578.656543573391
 30
0.0
 11
6007.7858102538448
 21
6578.656543573391
 31
0.0
  0
LINE
  5
270
  8
0
 62
     0
 10
6009.0358102538448
 20
6486.573241360421
 30
0.0
 11
6009.0358102538448
 21
6576.1565435733892
 31
0.0
  0
SOLID
  5
271
  8
0
 62
     0
 10
6008.6191435871779
 20
6486.573241360421
 30
0.0
 11
6009.4524769205118
 21
6486.573241360421
 31
0.0
 12
6009.0358102538448
 22
6484.073241360421
 32
0.0
 13
6009.0358102538448
 23
6484.073241360421
 33
0.0
  0
SOLID
  5
272
  8
0
 62
     0
 10
6008.6191435871779
 20
6576.1565435733892
 30
0.0
 11
6009.4524769205118
 21
6576.1565435733892
 31
0.0
 12
6009.0358102538448
 22
6578.656543573391
 32
0.0
 13
6009.0358102538448
 23
6578.656543573391
 33
0.0
  0
INSERT
  5
273
  8
0
 62
     1
  2
*U9
 10
0.0
 20
0.0
 30
0.0
  0
POINT
  5
274
  8
DEFPOINTS
 62
     0
 10
6710.2095712702649
 20
6484.0732413604201
 30
0.0
  0
POINT
  5
275
  8
DEFPOINTS
 62
     0
 10
6096.809723121376
 20
6578.656543573391
 30
0.0
  0
POINT
  5
276
  8
DEFPOINTS
 62
     0
 10
6009.0358102538448
 20
6578.656543573391
 30
0.0
  0
ENDBLK
  5
263
  8
0
 62
     1
  0
BLOCK
  8
0
 62
     1
  2
*U9
 70
     1
 10
0.0
 20
0.0
 30
0.0
  3
*U9
  1

  0
TEXT
  5
488
  8
0
 62
     0
 10
6007.9162672797647
 20
6526.9992717302084
 30
0.0
 40
2.5
  1
94,58
 50
90.0
  0
ENDBLK
  5
48A
  8
0
 62
     1
  0
BLOCK
  8
0
 62
     1
  2
*D10
 70
     1
 10
0.0
 20
0.0
 30
0.0
  3
*D10
  1

  0
LINE
  5
288
  8
0
 62
     0
 10
6439.3249145316804
 20
6305.9362729647437
 30
0.0
 11
6439.3249145316804
 21
6359.1748384916209
 31
0.0
  0
LINE
  5
289
  8
0
 62
     0
 10
6460.056260951671
 20
6305.9362729647437
 30
0.0
 11
6460.056260951671
 21
6359.1748384916209
 31
0.0
  0
LINE
  5
28A
  8
0
 62
     0
 10
6441.8249145316822
 20
6357.9248384916209
 30
0.0
 11
6457.556260951671
 21
6357.9248384916209
 31
0.0
  0
SOLID
  5
28B
  8
0
 62
     0
 10
6441.8249145316822
 20
6358.3415051582888
 30
0.0
 11
6441.8249145316822
 21
6357.5081718249539
 31
0.0
 12
6439.3249145316804
 22
6357.9248384916209
 32
0.0
 13
6439.3249145316804
 23
6357.9248384916209
 33
0.0
  0
SOLID
  5
28C
  8
0
 62
     0
 10
6457.556260951671
 20
6358.3415051582888
 30
0.0
 11
6457.556260951671
 21
6357.5081718249539
 31
0.0
 12
6460.056260951671
 22
6357.9248384916209
 32
0.0
 13
6460.056260951671
 23
6357.9248384916209
 33
0.0
  0
INSERT
  5
28D
  8
0
 62
     1
  2
*U11
 10
0.0
 20
0.0
 30
0.0
  0
POINT
  5
28E
  8
DEFPOINTS
 62
     0
 10
6439.3249145316804
 20
6305.3112729647428
 30
0.0
  0
POINT
  5
28F
  8
DEFPOINTS
 62
     0
 10
6460.056260951671
 20
6305.3112729647428
 30
0.0
  0
POINT
  5
290
  8
DEFPOINTS
 62
     0
 10
6460.056260951671
 20
6357.9248384916209
 30
0.0
  0
ENDBLK
  5
27D
  8
0
 62
     1
  0
BLOCK
  8
0
 62
     1
  2
*U11
 70
     1
 10
0.0
 20
0.0
 30
0.0
  3
*U11
  1

  0
TEXT
  5
491
  8
0
 62
     0
 10
6445.3488414933809
 20
6359.0443814656992
 30
0.0
 40
2.5
  1
20,73
  0
ENDBLK
  5
493
  8
0
 62
     1
  0
BLOCK
  8
0
 62
     1
  2
*D12
 70
     1
 10
0.0
 20
0.0
 30
0.0
  3
*D12
  1

  0
LINE
  5
2A0
  8
0
 62
     0
 10
6450.3155877416757
 20
6339.946640764726
 30
0.0
 11
6484.4916115997194
 21
6339.946640764726
 31
0.0
  0
LINE
  5
2A1
  8
0
 62
     0
 10
6450.3155877416757
 20
6203.5157942917349
 30
0.0
 11
6484.4916115997194
 21
6203.5157942917349
 31
0.0
  0
LINE
  5
2A2
  8
0
 62
     0
 10
6483.2416115997203
 20
6337.4466407647269
 30
0.0
 11
6483.2416115997203
 21
6206.0157942917358
 31
0.0
  0
SOLID
  5
2A3
  8
0
 62
     0
 10
6482.8249449330506
 20
6337.4466407647269
 30
0.0
 11
6483.6582782663863
 21
6337.4466407647269
 31
0.0
 12
6483.2416115997203
 22
6339.946640764726
 32
0.0
 13
6483.2416115997203
 23
6339.946640764726
 33
0.0
  0
SOLID
  5
2A4
  8
0
 62
     0
 10
6482.8249449330506
 20
6206.0157942917358
 30
0.0
 11
6483.6582782663863
 21
6206.0157942917358
 31
0.0
 12
6483.2416115997203
 22
6203.5157942917349
 32
0.0
 13
6483.2416115997203
 23
6203.5157942917349
 33
0.0
  0
INSERT
  5
2A5
  8
0
 62
     1
  2
*U13
 10
0.0
 20
0.0
 30
0.0
  0
POINT
  5
2A6
  8
DEFPOINTS
 62
     0
 10
6449.6905877416766
 20
6339.946640764726
 30
0.0
  0
POINT
  5
2A7
  8
DEFPOINTS
 62
     0
 10
6449.6905877416766
 20
6203.5157942917349
 30
0.0
  0
POINT
  5
2A8
  8
DEFPOINTS
 62
     0
 10
6483.2416115997203
 20
6203.5157942917349
 30
0.0
  0
ENDBLK
  5
295
  8
0
 62
     1
  0
BLOCK
  8
0
 62
     1
  2
*U13
 70
     1
 10
0.0
 20
0.0
 30
0.0
  3
*U13
  1

  0
TEXT
  5
495
  8
0
 62
     0
 10
6482.1220686256383
 20
6266.2793075691616
 30
0.0
 40
2.5
  1
136,43
 50
90.0
  0
ENDBLK
  5
497
  8
0
 62
     1
  0
BLOCK
  8
0
 62
     1
  2
*D14
 70
     1
 10
0.0
 20
0.0
 30
0.0
  3
*D14
  1

  0
LINE
  5
2CE
  8
0
 62
     0
 10
10357.768997804889
 20
7470.8062173064991
 30
0.0
 11
10357.768997804889
 21
7504.3239971717248
 31
0.0
  0
LINE
  5
2CF
  8
0
 62
     0
 10
10153.26740148838
 20
7470.8062173064991
 30
0.0
 11
10153.26740148838
 21
7504.3239971717248
 31
0.0
  0
LINE
  5
2D0
  8
0
 62
     0
 10
10355.26899780488
 20
7503.0739971717248
 30
0.0
 11
10155.76740148838
 21
7503.0739971717248
 31
0.0
  0
SOLID
  5
2D1
  8
0
 62
     0
 10
10355.26899780488
 20
7503.4906638383954
 30
0.0
 11
10355.26899780488
 21
7502.6573305050588
 31
0.0
 12
10357.768997804889
 22
7503.0739971717248
 32
0.0
 13
10357.768997804889
 23
7503.0739971717248
 33
0.0
  0
SOLID
  5
2D2
  8
0
 62
     0
 10
10155.76740148838
 20
7503.4906638383954
 30
0.0
 11
10155.76740148838
 21
7502.6573305050588
 31
0.0
 12
10153.26740148838
 22
7503.0739971717248
 32
0.0
 13
10153.26740148838
 23
7503.0739971717248
 33
0.0
  0
INSERT
  5
2D3
  8
0
 62
     1
  2
*U15
 10
0.0
 20
0.0
 30
0.0
  0
POINT
  5
2D4
  8
DEFPOINTS
 62
     0
 10
10357.768997804889
 20
7470.1812173064982
 30
0.0
  0
POINT
  5
2D5
  8
DEFPOINTS
 62
     0
 10
10153.26740148838
 20
7470.1812173064982
 30
0.0
  0
POINT
  5
2D6
  8
DEFPOINTS
 62
     0
 10
10153.26740148838
 20
7503.0739971717248
 30
0.0
  0
ENDBLK
  5
2C3
  8
0
 62
     1
  0
BLOCK
  8
0
 62
     1
  2
*U15
 70
     1
 10
0.0
 20
0.0
 30
0.0
  3
*U15
  1

  0
TEXT
  5
4A3
  8
0
 62
     0
 10
10251.167074135041
 20
7504.1935401458059
 30
0.0
 40
2.5
  1
204,5
  0
ENDBLK
  5
4A5
  8
0
 62
     1
  0
BLOCK
  8
0
 62
     1
  2
*D16
 70
     1
 10
0.0
 20
0.0
 30
0.0
  3
*D16
  1

  0
LINE
  5
302
  8
0
 62
     0
 10
9070.2218714160663
 20
7357.6018285654227
 30
0.0
 11
9120.6733580274886
 21
7357.6018285654227
 31
0.0
  0
LINE
  5
303
  8
0
 62
     0
 10
9070.2218714160663
 20
7507.6018285654227
 30
0.0
 11
9120.6733580274886
 21
7507.6018285654227
 31
0.0
  0
LINE
  5
304
  8
0
 62
     0
 10
9119.4233580274868
 20
7360.1018285654263
 30
0.0
 11
9119.4233580274868
 21
7505.1018285654263
 31
0.0
  0
SOLID
  5
305
  8
0
 62
     0
 10
9119.0066913608207
 20
7360.1018285654263
 30
0.0
 11
9119.8400246941546
 21
7360.1018285654263
 31
0.0
 12
9119.4233580274868
 22
7357.6018285654227
 32
0.0
 13
9119.4233580274868
 23
7357.6018285654227
 33
0.0
  0
SOLID
  5
306
  8
0
 62
     0
 10
9119.0066913608207
 20
7505.1018285654263
 30
0.0
 11
9119.8400246941546
 21
7505.1018285654263
 31
0.0
 12
9119.4233580274868
 22
7507.6018285654227
 32
0.0
 13
9119.4233580274868
 23
7507.6018285654227
 33
0.0
  0
INSERT
  5
307
  8
0
 62
     1
  2
*U17
 10
0.0
 20
0.0
 30
0.0
  0
POINT
  5
308
  8
DEFPOINTS
 62
     0
 10
9069.5968714160663
 20
7357.6018285654227
 30
0.0
  0
POINT
  5
309
  8
DEFPOINTS
 62
     0
 10
9069.5968714160663
 20
7507.6018285654227
 30
0.0
  0
POINT
  5
30A
  8
DEFPOINTS
 62
     0
 10
9119.4233580274868
 20
7507.6018285654227
 30
0.0
  0
ENDBLK
  5
2F7
  8
0
 62
     1
  0
BLOCK
  8
0
 62
     1
  2
*U17
 70
     1
 10
0.0
 20
0.0
 30
0.0
  3
*U17
  1

  0
TEXT
  5
4A7
  8
0
 62
     0
 10
9118.7557250124846
 20
7429.5817057823433
 30
0.0
 40
2.5
  1
150
 50
90.0
  0
ENDBLK
  5
4A9
  8
0
 62
     1
  0
BLOCK
  8
0
 62
     2
  2
*D18
 70
     1
 10
0.0
 20
0.0
 30
0.0
  3
*D18
  1

  0
LINE
  5
36A
  8
0
 62
     0
 10
9079.5968714160663
 20
7358.2268285654272
 30
0.0
 11
9079.5968714160663
 21
7375.9020782431644
 31
0.0
  0
LINE
  5
36B
  8
0
 62
     0
 10
9179.5968714160626
 20
7358.2268285654272
 30
0.0
 11
9179.5968714160626
 21
7375.9020782431644
 31
0.0
  0
LINE
  5
36C
  8
0
 62
     0
 10
9082.0968714160681
 20
7374.6520782431653
 30
0.0
 11
9177.0968714160626
 21
7374.6520782431653
 31
0.0
  0
SOLID
  5
36D
  8
0
 62
     0
 10
9082.0968714160681
 20
7375.0687449098323
 30
0.0
 11
9082.0968714160681
 21
7374.2354115764983
 31
0.0
 12
9079.5968714160663
 22
7374.6520782431653
 32
0.0
 13
9079.5968714160663
 23
7374.6520782431653
 33
0.0
  0
SOLID
  5
36E
  8
0
 62
     0
 10
9177.0968714160626
 20
7375.0687449098323
 30
0.0
 11
9177.0968714160626
 21
7374.2354115764983
 31
0.0
 12
9179.5968714160626
 22
7374.6520782431653
 32
0.0
 13
9179.5968714160626
 23
7374.6520782431653
 33
0.0
  0
INSERT
  5
36F
  8
0
 62
     1
  2
*U19
 10
0.0
 20
0.0
 30
0.0
  0
POINT
  5
370
  8
DEFPOINTS
 62
     0
 10
9079.5968714160663
 20
7357.6018285654227
 30
0.0
  0
POINT
  5
371
  8
DEFPOINTS
 62
     0
 10
9179.5968714160626
 20
7357.6018285654227
 30
0.0
  0
POINT
  5
372
  8
DEFPOINTS
 62
     0
 10
9179.5968714160626
 20
7374.6520782431653
 30
0.0
  0
ENDBLK
  5
35F
  8
0
 62
     2
  0
BLOCK
  8
0
 62
     1
  2
*U19
 70
     1
 10
0.0
 20
0.0
 30
0.0
  3
*U19
  1

  0
TEXT
  5
4DA
  8
0
 62
     0
 10
9126.5767486329805
 20
7375.3197112581711
 30
0.0
 40
2.5
  1
100
  0
ENDBLK
  5
4DC
  8
0
 62
     1
  0
BLOCK
  8
0
 62
     2
  2
*D20
 70
     1
 10
0.0
 20
0.0
 30
0.0
  3
*D20
  1

  0
LINE
  5
38D
  8
0
 62
     0
 10
9697.9014753878237
 20
7543.0929636701403
 30
0.0
 11
9697.9014753878237
 21
7581.3169535454781
 31
0.0
  0
LINE
  5
38E
  8
0
 62
     0
 10
9757.6655764924053
 20
7539.3381953102862
 30
0.0
 11
9757.6655764924053
 21
7581.3169535454781
 31
0.0
  0
LINE
  5
38F
  8
0
 62
     0
 10
9700.4014753878237
 20
7580.066953545479
 30
0.0
 11
9755.1655764924089
 21
7580.066953545479
 31
0.0
  0
SOLID
  5
390
  8
0
 62
     0
 10
9700.4014753878237
 20
7580.483620212146
 30
0.0
 11
9700.4014753878237
 21
7579.6502868788139
 31
0.0
 12
9697.9014753878237
 22
7580.066953545479
 32
0.0
 13
9697.9014753878237
 23
7580.066953545479
 33
0.0
  0
SOLID
  5
391
  8
0
 62
     0
 10
9755.1655764924089
 20
7580.483620212146
 30
0.0
 11
9755.1655764924089
 21
7579.6502868788139
 31
0.0
 12
9757.6655764924053
 22
7580.066953545479
 32
0.0
 13
9757.6655764924053
 23
7580.066953545479
 33
0.0
  0
INSERT
  5
392
  8
0
 62
     1
  2
*U21
 10
0.0
 20
0.0
 30
0.0
  0
POINT
  5
393
  8
DEFPOINTS
 62
     0
 10
9697.9014753878237
 20
7542.4679636701412
 30
0.0
  0
POINT
  5
394
  8
DEFPOINTS
 62
     0
 10
9757.6655764924053
 20
7538.7131953102853
 30
0.0
  0
POINT
  5
395
  8
DEFPOINTS
 62
     0
 10
9757.6655764924053
 20
7580.066953545479
 30
0.0
  0
ENDBLK
  5
382
  8
0
 62
     2
  0
BLOCK
  8
0
 62
     1
  2
*U21
 70
     1
 10
0.0
 20
0.0
 30
0.0
  3
*U21
  1

  0
TEXT
  5
4DE
  8
0
 62
     0
 10
9723.4213158446182
 20
7581.1864965195582
 30
0.0
 40
2.5
  1
59,76
  0
ENDBLK
  5
4E0
  8
0
 62
     1
  0
BLOCK
  8
0
 62
     2
  2
*D22
 70
     1
 10
0.0
 20
0.0
 30
0.0
  3
*D22
  1

  0
LINE
  5
3A5
  8
0
 62
     0
 10
11486.67091765678
 20
7888.0528792315808
 30
0.0
 11
11486.67091765678
 21
7893.283640328701
 31
0.0
  0
LINE
  5
3A6
  8
0
 62
     0
 10
11546.435083266249
 20
7884.2986222382297
 30
0.0
 11
11546.435083266249
 21
7893.283640328701
 31
0.0
  0
LINE
  5
3A7
  8
0
 62
     0
 10
11489.17091765678
 20
7892.033640328701
 30
0.0
 11
11543.935083266249
 21
7892.033640328701
 31
0.0
  0
SOLID
  5
3A8
  8
0
 62
     0
 10
11489.17091765678
 20
7892.4503069953662
 30
0.0
 11
11489.17091765678
 21
7891.616973662035
 31
0.0
 12
11486.67091765678
 22
7892.033640328701
 32
0.0
 13
11486.67091765678
 23
7892.033640328701
 33
0.0
  0
SOLID
  5
3A9
  8
0
 62
     0
 10
11543.935083266249
 20
7892.4503069953662
 30
0.0
 11
11543.935083266249
 21
7891.616973662035
 31
0.0
 12
11546.435083266249
 22
7892.033640328701
 32
0.0
 13
11546.435083266249
 23
7892.033640328701
 33
0.0
  0
INSERT
  5
3AA
  8
0
 62
     1
  2
*U23
 10
0.0
 20
0.0
 30
0.0
  0
POINT
  5
3AB
  8
DEFPOINTS
 62
     0
 10
11486.67091765678
 20
7887.4278792315818
 30
0.0
  0
POINT
  5
3AC
  8
DEFPOINTS
 62
     0
 10
11546.435083266249
 20
7883.6736222382278
 30
0.0
  0
POINT
  5
3AD
  8
DEFPOINTS
 62
     0
 10
11546.435083266249
 20
7892.033640328701
 30
0.0
  0
ENDBLK
  5
39A
  8
0
 62
     2
  0
BLOCK
  8
0
 62
     1
  2
*U23
 70
     1
 10
0.0
 20
0.0
 30
0.0
  3
*U23
  1

  0
TEXT
  5
4E2
  8
0
 62
     0
 10
11512.190790366019
 20
7893.1531833027793
 30
0.0
 40
2.5
  1
59,76
  0
ENDBLK
  5
4E4
  8
0
 62
     1
  0
BLOCK
  8
0
 62
     2
  2
*D24
 70
     1
 10
0.0
 20
0.0
 30
0.0
  3
*D24
  1

  0
LINE
  5
3BD
  8
0
 62
     0
 10
9760.2244984494628
 20
7579.4431833955869
 30
0.0
 11
9757.2224021447837
 21
7531.6592537670949
 31
0.0
  0
LINE
  5
3BE
  8
0
 62
     0
 10
9776.1615920773493
 20
7578.441911832957
 30
0.0
 11
9773.1594957726684
 21
7530.657982204466
 31
0.0
  0
LINE
  5
3BF
  8
0
 62
     0
 10
9759.7958613154169
 20
7532.7500369247628
 30
0.0
 11
9770.742793744148
 21
7532.0622796463776
 31
0.0
  0
SOLID
  5
3C0
  8
0
 62
     0
 10
9759.8219875057712
 20
7533.1658836913621
 30
0.0
 11
9759.7697351250627
 21
7532.334190158168
 31
0.0
 12
9757.3007807158447
 22
7532.9067940668847
 32
0.0
 13
9757.3007807158447
 23
7532.9067940668847
 33
0.0
  0
SOLID
  5
3C1
  8
0
 62
     0
 10
9770.7689199345041
 20
7532.4781264129742
 30
0.0
 11
9770.7166675537974
 21
7531.6464328797811
 31
0.0
 12
9773.2378743437275
 22
7531.9055225042557
 32
0.0
 13
9773.2378743437275
 23
7531.9055225042557
 33
0.0
  0
INSERT
  5
3C2
  8
0
 62
     1
  2
*U25
 10
0.0
 20
0.0
 30
0.0
  0
POINT
  5
3C3
  8
DEFPOINTS
 62
     0
 10
9760.2636877349905
 20
7580.066953545479
 30
0.0
  0
POINT
  5
3C4
  8
DEFPOINTS
 62
     0
 10
9776.2007813628788
 20
7579.0656819828528
 30
0.0
  0
POINT
  5
3C5
  8
DEFPOINTS
 62
     0
 10
9773.2378743437275
 20
7531.9055225042557
 30
0.0
  0
ENDBLK
  5
3B2
  8
0
 62
     2
  0
BLOCK
  8
0
 62
     1
  2
*U25
 70
     1
 10
0.0
 20
0.0
 30
0.0
  3
*U25
  1

  0
TEXT
  5
4E6
  8
0
 62
     0
 10
9760.8676131971861
 20
7533.8044528316468
 30
0.0
 40
2.5
  1
15,97
 50
356.40503261848772
  0
ENDBLK
  5
4E8
  8
0
 62
     1
  0
BLOCK
  8
0
 62
     2
  2
*D26
 70
     1
 10
0.0
 20
0.0
 30
0.0
  3
*D26
  1

  0
LINE
  5
422
  8
0
 62
     0
 10
9756.8098042294114
 20
7525.0919928427647
 30
0.0
 11
9757.2118760135854
 21
7531.4917108699528
 31
0.0
  0
LINE
  5
423
  8
0
 62
     0
 10
9772.7783200667145
 20
7524.0887471331898
 30
0.0
 11
9773.1803918508831
 21
7530.4884651603761
 31
0.0
  0
LINE
  5
424
  8
0
 62
     0
 10
9759.6285780420985
 20
7530.0874134280411
 30
0.0
 11
9770.6069326802462
 21
7529.3976820027074
 31
0.0
  0
SOLID
  5
425
  8
0
 62
     0
 10
9759.6547042324528
 20
7530.5032601946377
 30
0.0
 11
9759.6024518517479
 21
7529.6715666614409
 31
0.0
 12
9757.1334974425245
 22
7530.2441705701631
 32
0.0
 13
9757.1334974425245
 23
7530.2441705701631
 33
0.0
  0
SOLID
  5
426
  8
0
 62
     0
 10
9770.6330588706005
 20
7529.8135287693058
 30
0.0
 11
9770.5808064898956
 21
7528.9818352361126
 31
0.0
 12
9773.102013279824
 22
7529.2409248605863
 32
0.0
 13
9773.102013279824
 23
7529.2409248605863
 33
0.0
  0
INSERT
  5
427
  8
0
 62
     1
  2
*U27
 10
0.0
 20
0.0
 30
0.0
  0
POINT
  5
428
  8
DEFPOINTS
 62
     0
 10
9756.7706149438818
 20
7524.4682226928699
 30
0.0
  0
POINT
  5
429
  8
DEFPOINTS
 62
     0
 10
9772.7391307811813
 20
7523.4649769832949
 30
0.0
  0
POINT
  5
42A
  8
DEFPOINTS
 62
     0
 10
9773.102013279824
 20
7529.2409248605863
 30
0.0
  0
ENDBLK
  5
417
  8
0
 62
     2
  0
BLOCK
  8
0
 62
     1
  2
*U27
 70
     1
 10
0.0
 20
0.0
 30
0.0
  3
*U27
  1

  0
TEXT
  5
505
  8
0
 62
     0
 10
9763.1113030552715
 20
7530.5375554065567
 30
0.0
 40
2.5
  1
16
 50
356.40503261848647
  0
ENDBLK
  5
507
  8
0
 62
     1
  0
BLOCK
  8
0
 62
     1
  2
*D28
 70
     1
 10
0.0
 20
0.0
 30
0.0
  3
*D28
  1

  0
LINE
  5
667
  8
0
 62
     0
 10
9959.5675110600587
 20
7107.5636399923133
 30
0.0
 11
10145.44287035575
 21
7107.5636399923133
 31
0.0
  0
LINE
  5
668
  8
0
 62
     0
 10
9959.5675110600587
 20
7077.5636399923123
 30
0.0
 11
10145.44287035575
 21
7077.5636399923123
 31
0.0
  0
LINE
  5
669
  8
0
 62
     0
 10
10144.19287035575
 20
7105.0636399923123
 30
0.0
 11
10144.19287035575
 21
7080.0636399923123
 31
0.0
  0
SOLID
  5
66A
  8
0
 62
     0
 10
10143.776203689091
 20
7105.0636399923123
 30
0.0
 11
10144.609537022419
 21
7105.0636399923123
 31
0.0
 12
10144.19287035575
 22
7107.5636399923133
 32
0.0
 13
10144.19287035575
 23
7107.5636399923133
 33
0.0
  0
SOLID
  5
66B
  8
0
 62
     0
 10
10143.776203689091
 20
7080.0636399923123
 30
0.0
 11
10144.609537022419
 21
7080.0636399923123
 31
0.0
 12
10144.19287035575
 22
7077.5636399923123
 32
0.0
 13
10144.19287035575
 23
7077.5636399923123
 33
0.0
  0
INSERT
  5
66C
  8
0
 62
     1
  2
*U50
 10
0.0
 20
0.0
 30
0.0
  0
POINT
  5
66D
  8
DEFPOINTS
 62
     0
 10
9958.9425110600587
 20
7107.5636399923133
 30
0.0
  0
POINT
  5
66E
  8
DEFPOINTS
 62
     0
 10
9958.9425110600587
 20
7077.5636399923123
 30
0.0
  0
POINT
  5
66F
  8
DEFPOINTS
 62
     0
 10
10144.19287035575
 20
7077.5636399923123
 30
0.0
  0
ENDBLK
  5
666
  8
0
 62
     1
  0
BLOCK
  8
0
 62
     1
  2
*D29
 70
     1
 10
0.0
 20
0.0
 30
0.0
  3
*D29
  1

  0
LINE
  5
710
  8
0
 62
     0
 10
11057.36636189692
 20
7817.8721342332992
 30
0.0
 11
11072.12788765872
 21
7817.8721342332992
 31
0.0
  0
LINE
  5
711
  8
0
 62
     0
 10
11040.741225054921
 20
7797.8721342332992
 30
0.0
 11
11072.12788765872
 21
7797.8721342332992
 31
0.0
  0
LINE
  5
712
  8
0
 62
     0
 10
11070.87788765872
 20
7815.3721342333001
 30
0.0
 11
11070.87788765872
 21
7800.3721342332992
 31
0.0
  0
SOLID
  5
713
  8
0
 62
     0
 10
11070.46122099206
 20
7815.3721342333001
 30
0.0
 11
11071.29455432539
 21
7815.3721342333001
 31
0.0
 12
11070.87788765872
 22
7817.8721342332992
 32
0.0
 13
11070.87788765872
 23
7817.8721342332992
 33
0.0
  0
SOLID
  5
714
  8
0
 62
     0
 10
11070.46122099206
 20
7800.3721342332992
 30
0.0
 11
11071.29455432539
 21
7800.3721342332992
 31
0.0
 12
11070.87788765872
 22
7797.8721342332992
 32
0.0
 13
11070.87788765872
 23
7797.8721342332992
 33
0.0
  0
INSERT
  5
715
  8
0
 62
     1
  2
*U51
 10
0.0
 20
0.0
 30
0.0
  0
POINT
  5
716
  8
DEFPOINTS
 62
     0
 10
11056.74136189692
 20
7817.8721342332992
 30
0.0
  0
POINT
  5
717
  8
DEFPOINTS
 62
     0
 10
11040.116225054921
 20
7797.8721342332992
 30
0.0
  0
POINT
  5
718
  8
DEFPOINTS
 62
     0
 10
11070.87788765872
 20
7797.8721342332992
 30
0.0
  0
ENDBLK
  5
70F
  8
0
 62
     1
  0
BLOCK
  8
0
 62
     1
  2
*D30
 70
     1
 10
0.0
 20
0.0
 30
0.0
  3
*D30
  1

  0
LINE
  5
71D
  8
0
 62
     0
 10
9968.8259977602338
 20
7813.8721342332992
 30
0.0
 11
10003.64432974929
 21
7813.8721342332992
 31
0.0
  0
LINE
  5
71E
  8
0
 62
     0
 10
9892.8207740114085
 20
7797.8721342332992
 30
0.0
 11
10003.64432974929
 21
7797.8721342332992
 31
0.0
  0
LINE
  5
71F
  8
0
 62
     0
 10
10002.39432974929
 20
7811.3721342332992
 30
0.0
 11
10002.39432974929
 21
7800.3721342332992
 31
0.0
  0
SOLID
  5
720
  8
0
 62
     0
 10
10001.977663082631
 20
7811.3721342332992
 30
0.0
 11
10002.810996415959
 21
7811.3721342332992
 31
0.0
 12
10002.39432974929
 22
7813.8721342332992
 32
0.0
 13
10002.39432974929
 23
7813.8721342332992
 33
0.0
  0
SOLID
  5
721
  8
0
 62
     0
 10
10001.977663082631
 20
7800.3721342332992
 30
0.0
 11
10002.810996415959
 21
7800.3721342332992
 31
0.0
 12
10002.39432974929
 22
7797.8721342332992
 32
0.0
 13
10002.39432974929
 23
7797.8721342332992
 33
0.0
  0
INSERT
  5
722
  8
0
 62
     1
  2
*U52
 10
0.0
 20
0.0
 30
0.0
  0
POINT
  5
723
  8
DEFPOINTS
 62
     0
 10
9968.2009977602338
 20
7813.8721342332992
 30
0.0
  0
POINT
  5
724
  8
DEFPOINTS
 62
     0
 10
9892.1957740114067
 20
7797.8721342332992
 30
0.0
  0
POINT
  5
725
  8
DEFPOINTS
 62
     0
 10
10002.39432974929
 20
7797.8721342332992
 30
0.0
  0
ENDBLK
  5
71C
  8
0
 62
     1
  0
BLOCK
  8
0
 62
     1
  2
*D31
 70
     1
 10
0.0
 20
0.0
 30
0.0
  3
*D31
  1

  0
LINE
  5
7CE
  8
0
 62
     0
 10
10148.35994307014
 20
6981.5636399923123
 30
0.0
 11
10479.87461399436
 21
6981.5636399923123
 31
0.0
  0
LINE
  5
7CF
  8
0
 62
     0
 10
9968.8259977602338
 20
7813.8721342332992
 30
0.0
 11
10479.87461399436
 21
7813.8721342332992
 31
0.0
  0
LINE
  5
7D0
  8
0
 62
     0
 10
10478.62461399436
 20
6984.0636399923114
 30
0.0
 11
10478.62461399436
 21
7811.3721342332983
 31
0.0
  0
SOLID
  5
7D1
  8
0
 62
     0
 10
10478.20794732769
 20
6984.0636399923114
 30
0.0
 11
10479.041280661029
 21
6984.0636399923114
 31
0.0
 12
10478.62461399436
 22
6981.5636399923123
 32
0.0
 13
10478.62461399436
 23
6981.5636399923123
 33
0.0
  0
SOLID
  5
7D2
  8
0
 62
     0
 10
10478.20794732769
 20
7811.3721342332983
 30
0.0
 11
10479.041280661029
 21
7811.3721342332983
 31
0.0
 12
10478.62461399436
 22
7813.8721342332992
 32
0.0
 13
10478.62461399436
 23
7813.8721342332992
 33
0.0
  0
INSERT
  5
7D3
  8
0
 62
     1
  2
*U53
 10
0.0
 20
0.0
 30
0.0
  0
POINT
  5
7D4
  8
DEFPOINTS
 62
     0
 10
10147.73494307014
 20
6981.5636399923123
 30
0.0
  0
POINT
  5
7D5
  8
DEFPOINTS
 62
     0
 10
9968.2009977602338
 20
7813.8721342332992
 30
0.0
  0
POINT
  5
7D6
  8
DEFPOINTS
 62
     0
 10
10478.62461399436
 20
7813.8721342332992
 30
0.0
  0
ENDBLK
  5
7CD
  8
0
 62
     1
  0
BLOCK
  8
0
 62
     1
  2
*D32
 70
     1
 10
0.0
 20
0.0
 30
0.0
  3
*D32
  1

  0
LINE
  5
7DB
  8
0
 62
     0
 10
8283.8156845628764
 20
7431.9768285654227
 30
0.0
 11
8283.8156845628764
 21
7050.9906456080753
 31
0.0
  0
LINE
  5
7DC
  8
0
 62
     0
 10
9179.5968714160626
 20
7431.9768285654227
 30
0.0
 11
9179.5968714160626
 21
7050.9906456080753
 31
0.0
  0
LINE
  5
7DD
  8
0
 62
     0
 10
8286.3156845628764
 20
7052.2406456080762
 30
0.0
 11
9177.0968714160626
 21
7052.2406456080762
 31
0.0
  0
SOLID
  5
7DE
  8
0
 62
     0
 10
8286.3156845628764
 20
7052.6573122747423
 30
0.0
 11
8286.3156845628764
 21
7051.8239789414083
 31
0.0
 12
8283.8156845628764
 22
7052.2406456080762
 32
0.0
 13
8283.8156845628764
 23
7052.2406456080762
 33
0.0
  0
SOLID
  5
7DF
  8
0
 62
     0
 10
9177.0968714160626
 20
7052.6573122747423
 30
0.0
 11
9177.0968714160626
 21
7051.8239789414083
 31
0.0
 12
9179.5968714160626
 22
7052.2406456080762
 32
0.0
 13
9179.5968714160626
 23
7052.2406456080762
 33
0.0
  0
INSERT
  5
7E0
  8
0
 62
     1
  2
*U54
 10
0.0
 20
0.0
 30
0.0
  0
POINT
  5
7E1
  8
DEFPOINTS
 62
     0
 10
8283.8156845628764
 20
7432.6018285654227
 30
0.0
  0
POINT
  5
7E2
  8
DEFPOINTS
 62
     0
 10
9179.5968714160626
 20
7432.6018285654227
 30
0.0
  0
POINT
  5
7E3
  8
DEFPOINTS
 62
     0
 10
9179.5968714160626
 20
7052.2406456080762
 30
0.0
  0
ENDBLK
  5
7DA
  8
0
 62
     1
  0
BLOCK
  8
0
 62
     1
  2
*D33
 70
     1
 10
0.0
 20
0.0
 30
0.0
  3
*D33
  1

  0
LINE
  5
7E8
  8
0
 62
     0
 10
8721.7093645267287
 20
7737.6409857532226
 30
0.0
 11
9337.7897037644943
 21
7737.6409857532226
 31
0.0
  0
LINE
  5
7E9
  8
0
 62
     0
 10
8721.7093645267287
 20
7127.560952188177
 30
0.0
 11
9337.7897037644943
 21
7127.560952188177
 31
0.0
  0
LINE
  5
7EA
  8
0
 62
     0
 10
9336.5397037644925
 20
7735.1409857532226
 30
0.0
 11
9336.5397037644925
 21
7130.0609521881779
 31
0.0
  0
SOLID
  5
7EB
  8
0
 62
     0
 10
9336.1230370978283
 20
7735.1409857532226
 30
0.0
 11
9336.9563704311604
 21
7735.1409857532226
 31
0.0
 12
9336.5397037644925
 22
7737.6409857532226
 32
0.0
 13
9336.5397037644925
 23
7737.6409857532226
 33
0.0
  0
SOLID
  5
7EC
  8
0
 62
     0
 10
9336.1230370978283
 20
7130.0609521881779
 30
0.0
 11
9336.9563704311604
 21
7130.0609521881779
 31
0.0
 12
9336.5397037644925
 22
7127.560952188177
 32
0.0
 13
9336.5397037644925
 23
7127.560952188177
 33
0.0
  0
INSERT
  5
7ED
  8
0
 62
     1
  2
*U55
 10
0.0
 20
0.0
 30
0.0
  0
POINT
  5
7EE
  8
DEFPOINTS
 62
     0
 10
8721.0843645267287
 20
7737.6409857532226
 30
0.0
  0
POINT
  5
7EF
  8
DEFPOINTS
 62
     0
 10
8721.0843645267287
 20
7127.560952188177
 30
0.0
  0
POINT
  5
7F0
  8
DEFPOINTS
 62
     0
 10
9336.5397037644925
 20
7127.560952188177
 30
0.0
  0
ENDBLK
  5
7E7
  8
0
 62
     1
  0
BLOCK
  8
0
 62
     1
  2
*D34
 70
     1
 10
0.0
 20
0.0
 30
0.0
  3
*D34
  1

  0
LINE
  5
8A7
  8
0
 62
     0
 10
10146.42282778204
 20
7798.4971342333001
 30
0.0
 11
10146.42282778204
 21
7843.8029271831183
 31
0.0
  0
LINE
  5
8A8
  8
0
 62
     0
 10
9968.2009977602338
 20
7814.4971342332992
 30
0.0
 11
9968.2009977602338
 21
7843.8029271831183
 31
0.0
  0
LINE
  5
8A9
  8
0
 62
     0
 10
10143.922827782029
 20
7842.5529271831183
 30
0.0
 11
9970.700997760232
 21
7842.5529271831183
 31
0.0
  0
SOLID
  5
8AA
  8
0
 62
     0
 10
10143.922827782029
 20
7842.9695938497862
 30
0.0
 11
10143.922827782029
 21
7842.1362605164513
 31
0.0
 12
10146.42282778204
 22
7842.5529271831183
 32
0.0
 13
10146.42282778204
 23
7842.5529271831183
 33
0.0
  0
SOLID
  5
8AB
  8
0
 62
     0
 10
9970.700997760232
 20
7842.9695938497862
 30
0.0
 11
9970.700997760232
 21
7842.1362605164513
 31
0.0
 12
9968.2009977602338
 22
7842.5529271831183
 32
0.0
 13
9968.2009977602338
 23
7842.5529271831183
 33
0.0
  0
INSERT
  5
8AC
  8
0
 62
     1
  2
*U56
 10
0.0
 20
0.0
 30
0.0
  0
POINT
  5
8AD
  8
DEFPOINTS
 62
     0
 10
10146.42282778204
 20
7797.8721342332992
 30
0.0
  0
POINT
  5
8AE
  8
DEFPOINTS
 62
     0
 10
9968.2009977602338
 20
7813.8721342332992
 30
0.0
  0
POINT
  5
8AF
  8
DEFPOINTS
 62
     0
 10
9968.2009977602338
 20
7842.5529271831183
 30
0.0
  0
ENDBLK
  5
8A6
  8
0
 62
     1
  0
BLOCK
  8
0
 62
     1
  2
*D35
 70
     1
 10
0.0
 20
0.0
 30
0.0
  3
*D35
  1

  0
LINE
  5
8BF
  8
0
 62
     0
 10
9060.2218714160663
 20
7425.782671377624
 30
0.0
 11
9338.7171282845811
 21
7425.782671377624
 31
0.0
  0
LINE
  5
8C0
  8
0
 62
     0
 10
8850.3435410766469
 20
7610.8218285654229
 30
0.0
 11
9338.7171282845811
 21
7610.8218285654229
 31
0.0
  0
LINE
  5
8C1
  8
0
 62
     0
 10
9337.4671282845811
 20
7428.282671377624
 30
0.0
 11
9337.4671282845811
 21
7608.321828565422
 31
0.0
  0
SOLID
  5
8C2
  8
0
 62
     0
 10
9337.0504616179151
 20
7428.282671377624
 30
0.0
 11
9337.8837949512472
 21
7428.282671377624
 31
0.0
 12
9337.4671282845811
 22
7425.782671377624
 32
0.0
 13
9337.4671282845811
 23
7425.782671377624
 33
0.0
  0
SOLID
  5
8C3
  8
0
 62
     0
 10
9337.0504616179151
 20
7608.321828565422
 30
0.0
 11
9337.8837949512472
 21
7608.321828565422
 31
0.0
 12
9337.4671282845811
 22
7610.8218285654229
 32
0.0
 13
9337.4671282845811
 23
7610.8218285654229
 33
0.0
  0
INSERT
  5
8C4
  8
0
 62
     1
  2
*U57
 10
0.0
 20
0.0
 30
0.0
  0
POINT
  5
8C5
  8
DEFPOINTS
 62
     0
 10
9059.5968714160663
 20
7425.782671377624
 30
0.0
  0
POINT
  5
8C6
  8
DEFPOINTS
 62
     0
 10
8849.7185410766469
 20
7610.8218285654229
 30
0.0
  0
POINT
  5
8C7
  8
DEFPOINTS
 62
     0
 10
9337.4671282845811
 20
7610.8218285654229
 30
0.0
  0
ENDBLK
  5
8B3
  8
0
 62
     1
  0
BLOCK
  8
0
 62
     2
  2
*D36
 70
     1
 10
0.0
 20
0.0
 30
0.0
  3
*D36
  1

  0
LINE
  5
A3F
  8
0
 62
     0
 10
11190.116225054921
 20
7813.2471342332992
 30
0.0
 11
11190.116225054921
 21
7749.4630453929249
 31
0.0
  0
LINE
  5
A40
  8
0
 62
     0
 10
10835.94359285672
 20
7797.2471342332992
 30
0.0
 11
10835.94359285672
 21
7749.4630453929249
 31
0.0
  0
LINE
  5
A41
  8
0
 62
     0
 10
11187.616225054921
 20
7750.713045392924
 30
0.0
 11
10838.44359285672
 21
7750.713045392924
 31
0.0
  0
SOLID
  5
A42
  8
0
 62
     0
 10
11187.616225054921
 20
7751.1297120595909
 30
0.0
 11
11187.616225054921
 21
7750.296378726257
 31
0.0
 12
11190.116225054921
 22
7750.713045392924
 32
0.0
 13
11190.116225054921
 23
7750.713045392924
 33
0.0
  0
SOLID
  5
A43
  8
0
 62
     0
 10
10838.44359285672
 20
7751.1297120595909
 30
0.0
 11
10838.44359285672
 21
7750.296378726257
 31
0.0
 12
10835.94359285672
 22
7750.713045392924
 32
0.0
 13
10835.94359285672
 23
7750.713045392924
 33
0.0
  0
INSERT
  5
A44
  8
0
 62
     1
  2
*U58
 10
0.0
 20
0.0
 30
0.0
  0
POINT
  5
A45
  8
DEFPOINTS
 62
     0
 10
11190.116225054921
 20
7813.8721342332992
 30
0.0
  0
POINT
  5
A46
  8
DEFPOINTS
 62
     0
 10
10835.94359285672
 20
7797.8721342332992
 30
0.0
  0
POINT
  5
A47
  8
DEFPOINTS
 62
     0
 10
10835.94359285672
 20
7750.713045392924
 30
0.0
  0
ENDBLK
  5
A3E
  8
0
 62
     2
  0
BLOCK
  8
0
 62
     2
  2
*D37
 70
     1
 10
0.0
 20
0.0
 30
0.0
  3
*D37
  1

  0
LINE
  5
A4C
  8
0
 62
     0
 10
8731.7062779894695
 20
7253.7568285654233
 30
0.0
 11
8731.7062779894695
 21
7001.4489847475088
 31
0.0
  0
LINE
  5
A4D
  8
0
 62
     0
 10
8403.8156845628764
 20
7356.9768285654227
 30
0.0
 11
8403.8156845628764
 21
7001.4489847475088
 31
0.0
  0
LINE
  5
A4E
  8
0
 62
     0
 10
8729.2062779894695
 20
7002.6989847475088
 30
0.0
 11
8406.3156845628764
 21
7002.6989847475088
 31
0.0
  0
SOLID
  5
A4F
  8
0
 62
     0
 10
8729.2062779894695
 20
7003.1156514141758
 30
0.0
 11
8729.2062779894695
 21
7002.2823180808409
 31
0.0
 12
8731.7062779894695
 22
7002.6989847475088
 32
0.0
 13
8731.7062779894695
 23
7002.6989847475088
 33
0.0
  0
SOLID
  5
A50
  8
0
 62
     0
 10
8406.3156845628764
 20
7003.1156514141758
 30
0.0
 11
8406.3156845628764
 21
7002.2823180808409
 31
0.0
 12
8403.8156845628764
 22
7002.6989847475088
 32
0.0
 13
8403.8156845628764
 23
7002.6989847475088
 33
0.0
  0
INSERT
  5
A51
  8
0
 62
     1
  2
*U59
 10
0.0
 20
0.0
 30
0.0
  0
POINT
  5
A52
  8
DEFPOINTS
 62
     0
 10
8731.7062779894695
 20
7254.3818285654224
 30
0.0
  0
POINT
  5
A53
  8
DEFPOINTS
 62
     0
 10
8403.8156845628764
 20
7357.6018285654227
 30
0.0
  0
POINT
  5
A54
  8
DEFPOINTS
 62
     0
 10
8403.8156845628764
 20
7002.6989847475088
 30
0.0
  0
ENDBLK
  5
A4B
  8
0
 62
     2
  0
BLOCK
  8
0
 62
     2
  2
*D38
 70
     1
 10
0.0
 20
0.0
 30
0.0
  3
*D38
  1

  0
LINE
  5
B22
  8
0
 62
     0
 10
11040.116225054921
 20
7797.2471342332992
 30
0.0
 11
11040.116225054921
 21
7796.6097419708531
 31
0.0
  0
LINE
  5
B23
  8
0
 62
     0
 10
11040.127939153241
 20
7797.2471342332992
 30
0.0
 11
11040.127939153241
 21
7796.6097419708531
 31
0.0
  0
LINE
  5
B24
  8
0
 62
     0
 10
11037.616225054921
 20
7797.8597419708531
 30
0.0
 11
11035.116225054921
 21
7797.8597419708531
 31
0.0
  0
LINE
  5
B25
  8
0
 62
     0
 10
11042.627939153241
 20
7797.8597419708531
 30
0.0
 11
11056.377939153241
 21
7797.8597419708531
 31
0.0
  0
LINE
  5
B26
  8
0
 62
     0
 10
11040.116225054921
 20
7797.8597419708531
 30
0.0
 11
11040.127939153241
 21
7797.8597419708531
 31
0.0
  0
SOLID
  5
B27
  8
0
 62
     0
 10
11037.616225054921
 20
7798.2764086375191
 30
0.0
 11
11037.616225054921
 21
7797.4430753041861
 31
0.0
 12
11040.116225054921
 22
7797.8597419708531
 32
0.0
 13
11040.116225054921
 23
7797.8597419708531
 33
0.0
  0
SOLID
  5
B28
  8
0
 62
     0
 10
11042.627939153241
 20
7798.2764086375191
 30
0.0
 11
11042.627939153241
 21
7797.4430753041861
 31
0.0
 12
11040.127939153241
 22
7797.8597419708531
 32
0.0
 13
11040.127939153241
 23
7797.8597419708531
 33
0.0
  0
INSERT
  5
B29
  8
0
 62
     1
  2
*U60
 10
0.0
 20
0.0
 30
0.0
  0
POINT
  5
B2A
  8
DEFPOINTS
 62
     0
 10
11040.116225054921
 20
7797.8721342332992
 30
0.0
  0
POINT
  5
B2B
  8
DEFPOINTS
 62
     0
 10
11040.127939153241
 20
7797.8721342332992
 30
0.0
  0
POINT
  5
B2C
  8
DEFPOINTS
 62
     0
 10
11040.127939153241
 20
7797.8597419708531
 30
0.0
  0
ENDBLK
  5
B21
  8
0
 62
     2
  0
BLOCK
  8
0
 62
     2
  2
*D39
 70
     1
 10
0.0
 20
0.0
 30
0.0
  3
*D39
  1

  0
LINE
  5
CBD
  8
0
 62
     0
 10
9892.0003107087268
 20
7794.1359733136542
 30
0.0
 11
9892.0003107087268
 21
7764.3906345364076
 31
0.0
  0
LINE
  5
CBE
  8
0
 62
     0
 10
10044.401684811741
 20
7794.1359733136542
 30
0.0
 11
10044.401684811741
 21
7764.3906345364076
 31
0.0
  0
LINE
  5
CBF
  8
0
 62
     0
 10
9894.5003107087286
 20
7765.6406345364094
 30
0.0
 11
10041.901684811741
 21
7765.6406345364094
 31
0.0
  0
SOLID
  5
CC0
  8
0
 62
     0
 10
9894.5003107087286
 20
7766.0573012030754
 30
0.0
 11
9894.5003107087286
 21
7765.2239678697406
 31
0.0
 12
9892.0003107087268
 22
7765.6406345364094
 32
0.0
 13
9892.0003107087268
 23
7765.6406345364094
 33
0.0
  0
SOLID
  5
CC1
  8
0
 62
     0
 10
10041.901684811741
 20
7766.0573012030754
 30
0.0
 11
10041.901684811741
 21
7765.2239678697406
 31
0.0
 12
10044.401684811741
 22
7765.6406345364094
 32
0.0
 13
10044.401684811741
 23
7765.6406345364094
 33
0.0
  0
INSERT
  5
CC2
  8
0
 62
     1
  2
*U61
 10
0.0
 20
0.0
 30
0.0
  0
POINT
  5
CC3
  8
DEFPOINTS
 62
     0
 10
9892.0003107087268
 20
7794.7609733136533
 30
0.0
  0
POINT
  5
CC4
  8
DEFPOINTS
 62
     0
 10
10044.401684811741
 20
7794.7609733136542
 30
0.0
  0
POINT
  5
CC5
  8
DEFPOINTS
 62
     0
 10
10044.401684811741
 20
7765.6406345364094
 30
0.0
  0
ENDBLK
  5
CBC
  8
0
 62
     2
  0
BLOCK
  8
0
 62
     2
  2
*D40
 70
     1
 10
0.0
 20
0.0
 30
0.0
  3
*D40
  1

  0
LINE
  5
CCA
  8
0
 62
     0
 10
9892.1957740114067
 20
7797.2471342332992
 30
0.0
 11
9892.1957740114067
 21
7780.008379803312
 31
0.0
  0
LINE
  5
CCB
  8
0
 62
     0
 10
10044.206221509059
 20
7797.2471342332992
 30
0.0
 11
10044.206221509059
 21
7780.008379803312
 31
0.0
  0
LINE
  5
CCC
  8
0
 62
     0
 10
9894.6957740114085
 20
7781.2583798033111
 30
0.0
 11
10041.706221509059
 21
7781.2583798033111
 31
0.0
  0
SOLID
  5
CCD
  8
0
 62
     0
 10
9894.6957740114085
 20
7781.675046469979
 30
0.0
 11
9894.6957740114085
 21
7780.841713136645
 31
0.0
 12
9892.1957740114067
 22
7781.2583798033111
 32
0.0
 13
9892.1957740114067
 23
7781.2583798033111
 33
0.0
  0
SOLID
  5
CCE
  8
0
 62
     0
 10
10041.706221509059
 20
7781.675046469979
 30
0.0
 11
10041.706221509059
 21
7780.841713136645
 31
0.0
 12
10044.206221509059
 22
7781.2583798033111
 32
0.0
 13
10044.206221509059
 23
7781.2583798033111
 33
0.0
  0
INSERT
  5
CCF
  8
0
 62
     1
  2
*U62
 10
0.0
 20
0.0
 30
0.0
  0
POINT
  5
CD0
  8
DEFPOINTS
 62
     0
 10
9892.1957740114067
 20
7797.8721342332992
 30
0.0
  0
POINT
  5
CD1
  8
DEFPOINTS
 62
     0
 10
10044.206221509059
 20
7797.8721342332992
 30
0.0
  0
POINT
  5
CD2
  8
DEFPOINTS
 62
     0
 10
10044.206221509059
 20
7781.2583798033111
 30
0.0
  0
ENDBLK
  5
CC9
  8
0
 62
     2
  0
BLOCK
  8
0
 62
     1
  2
*D41
 70
     1
 10
0.0
 20
0.0
 30
0.0
  3
*D41
  1

  0
LINE
  5
CE8
  8
0
 62
     0
 10
11040.127939153241
 20
7797.2471342332992
 30
0.0
 11
11040.127939153241
 21
7769.2552753970122
 31
0.0
  0
LINE
  5
CE9
  8
0
 62
     0
 10
11340.116225054921
 20
7797.2471342332992
 30
0.0
 11
11340.116225054921
 21
7769.2552753970122
 31
0.0
  0
LINE
  5
CEA
  8
0
 62
     0
 10
11042.627939153241
 20
7770.5052753970122
 30
0.0
 11
11337.616225054921
 21
7770.5052753970122
 31
0.0
  0
SOLID
  5
CEB
  8
0
 62
     0
 10
11042.627939153241
 20
7770.9219420636791
 30
0.0
 11
11042.627939153241
 21
7770.0886087303461
 31
0.0
 12
11040.127939153241
 22
7770.5052753970122
 32
0.0
 13
11040.127939153241
 23
7770.5052753970122
 33
0.0
  0
SOLID
  5
CEC
  8
0
 62
     0
 10
11337.616225054921
 20
7770.9219420636791
 30
0.0
 11
11337.616225054921
 21
7770.0886087303461
 31
0.0
 12
11340.116225054921
 22
7770.5052753970122
 32
0.0
 13
11340.116225054921
 23
7770.5052753970122
 33
0.0
  0
INSERT
  5
CED
  8
0
 62
     1
  2
*U63
 10
0.0
 20
0.0
 30
0.0
  0
POINT
  5
CEE
  8
DEFPOINTS
 62
     0
 10
11040.127939153241
 20
7797.8721342332992
 30
0.0
  0
POINT
  5
CEF
  8
DEFPOINTS
 62
     0
 10
11340.116225054921
 20
7797.8721342332992
 30
0.0
  0
POINT
  5
CF0
  8
DEFPOINTS
 62
     0
 10
11340.116225054921
 20
7770.5052753970122
 30
0.0
  0
ENDBLK
  5
CE7
  8
0
 62
     1
  0
BLOCK
  8
0
 62
     1
  2
*D42
 70
     1
 10
0.0
 20
0.0
 30
0.0
  3
*D42
  1

  0
LINE
  5
D4A
  8
0
 62
     0
 10
10044.206221509059
 20
7797.2471342332992
 30
0.0
 11
10044.206221509059
 21
7785.9094853740125
 31
0.0
  0
LINE
  5
D4B
  8
0
 62
     0
 10
9892.1957740114067
 20
7797.2471342332992
 30
0.0
 11
9892.1957740114067
 21
7785.9094853740125
 31
0.0
  0
LINE
  5
D4C
  8
0
 62
     0
 10
10041.706221509059
 20
7787.1594853740125
 30
0.0
 11
9894.6957740114085
 21
7787.1594853740125
 31
0.0
  0
SOLID
  5
D4D
  8
0
 62
     0
 10
10041.706221509059
 20
7787.5761520406813
 30
0.0
 11
10041.706221509059
 21
7786.7428187073474
 31
0.0
 12
10044.206221509059
 22
7787.1594853740125
 32
0.0
 13
10044.206221509059
 23
7787.1594853740125
 33
0.0
  0
SOLID
  5
D4E
  8
0
 62
     0
 10
9894.6957740114085
 20
7787.5761520406813
 30
0.0
 11
9894.6957740114085
 21
7786.7428187073474
 31
0.0
 12
9892.1957740114067
 22
7787.1594853740125
 32
0.0
 13
9892.1957740114067
 23
7787.1594853740125
 33
0.0
  0
INSERT
  5
D4F
  8
0
 62
     1
  2
*U64
 10
0.0
 20
0.0
 30
0.0
  0
POINT
  5
D50
  8
DEFPOINTS
 62
     0
 10
10044.206221509059
 20
7797.8721342332992
 30
0.0
  0
POINT
  5
D51
  8
DEFPOINTS
 62
     0
 10
9892.1957740114067
 20
7797.8721342332992
 30
0.0
  0
POINT
  5
D52
  8
DEFPOINTS
 62
     0
 10
9892.1957740114067
 20
7787.1594853740125
 30
0.0
  0
ENDBLK
  5
D49
  8
0
 62
     1
  0
BLOCK
  8
0
 62
     1
  2
*D43
 70
     1
 10
0.0
 20
0.0
 30
0.0
  3
*D43
  1

  0
LINE
  5
10DC
  8
0
 62
     0
 10
8883.9879476365531
 20
7044.3322817921653
 30
0.0
 11
8462.2173952963785
 21
7044.3322817921653
 31
0.0
  0
LINE
  5
10DD
  8
0
 62
     0
 10
8883.9879476365531
 20
7752.6775461885827
 30
0.0
 11
8462.2173952963785
 21
7752.6775461885827
 31
0.0
  0
LINE
  5
10DE
  8
0
 62
     0
 10
8463.4673952963785
 20
7046.8322817921662
 30
0.0
 11
8463.4673952963785
 21
7750.1775461885827
 31
0.0
  0
SOLID
  5
10DF
  8
0
 62
     0
 10
8463.0507286297125
 20
7046.8322817921662
 30
0.0
 11
8463.8840619630446
 21
7046.8322817921662
 31
0.0
 12
8463.4673952963785
 22
7044.3322817921653
 32
0.0
 13
8463.4673952963785
 23
7044.3322817921653
 33
0.0
  0
SOLID
  5
10E0
  8
0
 62
     0
 10
8463.0507286297125
 20
7750.1775461885827
 30
0.0
 11
8463.8840619630446
 21
7750.1775461885827
 31
0.0
 12
8463.4673952963785
 22
7752.6775461885827
 32
0.0
 13
8463.4673952963785
 23
7752.6775461885827
 33
0.0
  0
INSERT
  5
10E1
  8
0
 62
     1
  2
*U65
 10
0.0
 20
0.0
 30
0.0
  0
POINT
  5
10E2
  8
DEFPOINTS
 62
     0
 10
8884.6129476365513
 20
7044.3322817921653
 30
0.0
  0
POINT
  5
10E3
  8
DEFPOINTS
 62
     0
 10
8884.6129476365513
 20
7752.6775461885827
 30
0.0
  0
POINT
  5
10E4
  8
DEFPOINTS
 62
     0
 10
8463.4673952963785
 20
7752.6775461885827
 30
0.0
  0
ENDBLK
  5
10DB
  8
0
 62
     1
  0
BLOCK
  8
0
 62
     1
  2
*D44
 70
     1
 10
0.0
 20
0.0
 30
0.0
  3
*D44
  1

  0
LINE
  5
10E9
  8
0
 62
     0
 10
8706.3911176147521
 20
7399.1299139903749
 30
0.0
 11
8706.3911176147521
 21
7454.0400478326192
 31
0.0
  0
LINE
  5
10EA
  8
0
 62
     0
 10
9062.8347776583541
 20
7399.1299139903749
 30
0.0
 11
9062.8347776583541
 21
7454.0400478326192
 31
0.0
  0
LINE
  5
10EB
  8
0
 62
     0
 10
8708.8911176147521
 20
7452.7900478326192
 30
0.0
 11
9060.3347776583541
 21
7452.7900478326192
 31
0.0
  0
SOLID
  5
10EC
  8
0
 62
     0
 10
8708.8911176147521
 20
7453.206714499287
 30
0.0
 11
8708.8911176147521
 21
7452.3733811659522
 31
0.0
 12
8706.3911176147521
 22
7452.7900478326192
 32
0.0
 13
8706.3911176147521
 23
7452.7900478326192
 33
0.0
  0
SOLID
  5
10ED
  8
0
 62
     0
 10
9060.3347776583541
 20
7453.206714499287
 30
0.0
 11
9060.3347776583541
 21
7452.3733811659522
 31
0.0
 12
9062.8347776583541
 22
7452.7900478326192
 32
0.0
 13
9062.8347776583541
 23
7452.7900478326192
 33
0.0
  0
INSERT
  5
10EE
  8
0
 62
     1
  2
*U66
 10
0.0
 20
0.0
 30
0.0
  0
POINT
  5
10EF
  8
DEFPOINTS
 62
     0
 10
8706.3911176147521
 20
7398.504913990374
 30
0.0
  0
POINT
  5
10F0
  8
DEFPOINTS
 62
     0
 10
9062.8347776583541
 20
7398.504913990374
 30
0.0
  0
POINT
  5
10F1
  8
DEFPOINTS
 62
     0
 10
9062.8347776583541
 20
7452.7900478326192
 30
0.0
  0
ENDBLK
  5
10E8
  8
0
 62
     1
  0
BLOCK
  8
0
 62
     1
  2
*D45
 70
     1
 10
0.0
 20
0.0
 30
0.0
  3
*D45
  1

  0
LINE
  5
10F7
  8
0
 62
     0
 10
10156.87672189888
 20
7630.854024177359
 30
0.0
 11
10156.87672189888
 21
7591.7630317899557
 31
0.0
  0
LINE
  5
10F8
  8
0
 62
     0
 10
10157.88194564771
 20
7614.854024177359
 30
0.0
 11
10157.88194564771
 21
7591.7630317899557
 31
0.0
  0
LINE
  5
10F9
  8
0
 62
     0
 10
10154.37672189888
 20
7593.0130317899566
 30
0.0
 11
10151.87672189888
 21
7593.0130317899566
 31
0.0
  0
LINE
  5
10FA
  8
0
 62
     0
 10
10160.38194564771
 20
7593.0130317899566
 30
0.0
 11
10174.965278981041
 21
7593.0130317899566
 31
0.0
  0
LINE
  5
10FB
  8
0
 62
     0
 10
10156.87672189888
 20
7593.0130317899566
 30
0.0
 11
10157.88194564771
 21
7593.0130317899566
 31
0.0
  0
SOLID
  5
10FC
  8
0
 62
     0
 10
10154.37672189888
 20
7593.4296984566226
 30
0.0
 11
10154.37672189888
 21
7592.5963651232887
 31
0.0
 12
10156.87672189888
 22
7593.0130317899566
 32
0.0
 13
10156.87672189888
 23
7593.0130317899566
 33
0.0
  0
SOLID
  5
10FD
  8
0
 62
     0
 10
10160.38194564771
 20
7593.4296984566226
 30
0.0
 11
10160.38194564771
 21
7592.5963651232887
 31
0.0
 12
10157.88194564771
 22
7593.0130317899566
 32
0.0
 13
10157.88194564771
 23
7593.0130317899566
 33
0.0
  0
INSERT
  5
10FE
  8
0
 62
     1
  2
*U67
 10
0.0
 20
0.0
 30
0.0
  0
POINT
  5
10FF
  8
DEFPOINTS
 62
     0
 10
10156.87672189888
 20
7631.479024177359
 30
0.0
  0
POINT
  5
1100
  8
DEFPOINTS
 62
     0
 10
10157.88194564771
 20
7615.4790241773599
 30
0.0
  0
POINT
  5
1101
  8
DEFPOINTS
 62
     0
 10
10157.88194564771
 20
7593.0130317899566
 30
0.0
  0
ENDBLK
  5
10F6
  8
0
 62
     1
  0
BLOCK
  8
0
 62
     1
  2
*D46
 70
     1
 10
0.0
 20
0.0
 30
0.0
  3
*D46
  1

  0
LINE
  5
1108
  8
0
 62
     0
 10
10043.20099776023
 20
7798.4971342333001
 30
0.0
 11
10043.20099776023
 21
7813.5738765500246
 31
0.0
  0
LINE
  5
1109
  8
0
 62
     0
 10
10146.42282778204
 20
7798.4971342333001
 30
0.0
 11
10146.42282778204
 21
7813.5738765500246
 31
0.0
  0
LINE
  5
110A
  8
0
 62
     0
 10
10045.70099776023
 20
7812.3238765500237
 30
0.0
 11
10143.922827782029
 21
7812.3238765500237
 31
0.0
  0
SOLID
  5
110B
  8
0
 62
     0
 10
10045.70099776023
 20
7812.7405432166915
 30
0.0
 11
10045.70099776023
 21
7811.9072098833576
 31
0.0
 12
10043.20099776023
 22
7812.3238765500237
 32
0.0
 13
10043.20099776023
 23
7812.3238765500237
 33
0.0
  0
SOLID
  5
110C
  8
0
 62
     0
 10
10143.922827782029
 20
7812.7405432166915
 30
0.0
 11
10143.922827782029
 21
7811.9072098833576
 31
0.0
 12
10146.42282778204
 22
7812.3238765500237
 32
0.0
 13
10146.42282778204
 23
7812.3238765500237
 33
0.0
  0
INSERT
  5
110D
  8
0
 62
     1
  2
*U68
 10
0.0
 20
0.0
 30
0.0
  0
POINT
  5
110E
  8
DEFPOINTS
 62
     0
 10
10043.20099776023
 20
7797.8721342332992
 30
0.0
  0
POINT
  5
110F
  8
DEFPOINTS
 62
     0
 10
10146.42282778204
 20
7797.8721342332992
 30
0.0
  0
POINT
  5
1110
  8
DEFPOINTS
 62
     0
 10
10146.42282778204
 20
7812.3238765500237
 30
0.0
  0
ENDBLK
  5
1107
  8
0
 62
     1
  0
BLOCK
  8
0
 62
     1
  2
*D47
 70
     1
 10
0.0
 20
0.0
 30
0.0
  3
*D47
  1

  0
LINE
  5
1118
  8
0
 62
     0
 10
10763.604577771321
 20
7797.2471342332992
 30
0.0
 11
10763.604577771321
 21
7751.9004951694369
 31
0.0
  0
LINE
  5
1119
  8
0
 62
     0
 10
11040.116225054921
 20
7797.2471342332992
 30
0.0
 11
11040.116225054921
 21
7751.9004951694369
 31
0.0
  0
LINE
  5
111A
  8
0
 62
     0
 10
10766.104577771321
 20
7753.1504951694369
 30
0.0
 11
11037.616225054921
 21
7753.1504951694369
 31
0.0
  0
SOLID
  5
111B
  8
0
 62
     0
 10
10766.104577771321
 20
7753.567161836103
 30
0.0
 11
10766.104577771321
 21
7752.733828502769
 31
0.0
 12
10763.604577771321
 22
7753.1504951694369
 32
0.0
 13
10763.604577771321
 23
7753.1504951694369
 33
0.0
  0
SOLID
  5
111C
  8
0
 62
     0
 10
11037.616225054921
 20
7753.567161836103
 30
0.0
 11
11037.616225054921
 21
7752.733828502769
 31
0.0
 12
11040.116225054921
 22
7753.1504951694369
 32
0.0
 13
11040.116225054921
 23
7753.1504951694369
 33
0.0
  0
INSERT
  5
111D
  8
0
 62
     1
  2
*U69
 10
0.0
 20
0.0
 30
0.0
  0
POINT
  5
111E
  8
DEFPOINTS
 62
     0
 10
10763.604577771321
 20
7797.8721342332992
 30
0.0
  0
POINT
  5
111F
  8
DEFPOINTS
 62
     0
 10
11040.116225054921
 20
7797.8721342332992
 30
0.0
  0
POINT
  5
1120
  8
DEFPOINTS
 62
     0
 10
11040.116225054921
 20
7753.1504951694369
 30
0.0
  0
ENDBLK
  5
1117
  8
0
 62
     1
  0
BLOCK
  8
0
 62
     1
  2
*D48
 70
     1
 10
0.0
 20
0.0
 30
0.0
  3
*D48
  1

  0
LINE
  5
1127
  8
0
 62
     0
 10
10835.9435928567
 20
7797.2471342332992
 30
0.0
 11
10835.9435928567
 21
7763.3311136741422
 31
0.0
  0
LINE
  5
1128
  8
0
 62
     0
 10
11040.116225054921
 20
7797.2471342332992
 30
0.0
 11
11040.116225054921
 21
7763.3311136741422
 31
0.0
  0
LINE
  5
1129
  8
0
 62
     0
 10
10838.443592856711
 20
7764.5811136741431
 30
0.0
 11
11037.616225054921
 21
7764.5811136741431
 31
0.0
  0
SOLID
  5
112A
  8
0
 62
     0
 10
10838.443592856711
 20
7764.9977803408101
 30
0.0
 11
10838.443592856711
 21
7764.1644470074771
 31
0.0
 12
10835.9435928567
 22
7764.5811136741431
 32
0.0
 13
10835.9435928567
 23
7764.5811136741431
 33
0.0
  0
SOLID
  5
112B
  8
0
 62
     0
 10
11037.616225054921
 20
7764.9977803408101
 30
0.0
 11
11037.616225054921
 21
7764.1644470074771
 31
0.0
 12
11040.116225054921
 22
7764.5811136741431
 32
0.0
 13
11040.116225054921
 23
7764.5811136741431
 33
0.0
  0
INSERT
  5
112C
  8
0
 62
     1
  2
*U70
 10
0.0
 20
0.0
 30
0.0
  0
POINT
  5
112D
  8
DEFPOINTS
 62
     0
 10
10835.9435928567
 20
7797.8721342332992
 30
0.0
  0
POINT
  5
112E
  8
DEFPOINTS
 62
     0
 10
11040.116225054921
 20
7797.8721342332992
 30
0.0
  0
POINT
  5
112F
  8
DEFPOINTS
 62
     0
 10
11040.116225054921
 20
7764.5811136741431
 30
0.0
  0
ENDBLK
  5
1126
  8
0
 62
     1
  0
BLOCK
  8
0
 62
     1
  2
*D49
 70
     1
 10
0.0
 20
0.0
 30
0.0
  3
*D49
  1

  0
LINE
  5
1430
  8
0
 62
     0
 10
11040.116225054921
 20
7797.2471342332992
 30
0.0
 11
11040.116225054921
 21
7783.0670763046319
 31
0.0
  0
LINE
  5
1431
  8
0
 62
     0
 10
11340.116225054921
 20
7797.2471342332992
 30
0.0
 11
11340.116225054921
 21
7783.0670763046319
 31
0.0
  0
LINE
  5
1432
  8
0
 62
     0
 10
11042.616225054921
 20
7784.3170763046328
 30
0.0
 11
11337.616225054921
 21
7784.3170763046328
 31
0.0
  0
SOLID
  5
1433
  8
0
 62
     0
 10
11042.616225054921
 20
7784.7337429712989
 30
0.0
 11
11042.616225054921
 21
7783.9004096379649
 31
0.0
 12
11040.116225054921
 22
7784.3170763046328
 32
0.0
 13
11040.116225054921
 23
7784.3170763046328
 33
0.0
  0
SOLID
  5
1434
  8
0
 62
     0
 10
11337.616225054921
 20
7784.7337429712989
 30
0.0
 11
11337.616225054921
 21
7783.9004096379649
 31
0.0
 12
11340.116225054921
 22
7784.3170763046328
 32
0.0
 13
11340.116225054921
 23
7784.3170763046328
 33
0.0
  0
INSERT
  5
1435
  8
0
 62
     1
  2
*U71
 10
0.0
 20
0.0
 30
0.0
  0
POINT
  5
1436
  8
DEFPOINTS
 62
     0
 10
11040.116225054921
 20
7797.8721342332992
 30
0.0
  0
POINT
  5
1437
  8
DEFPOINTS
 62
     0
 10
11340.116225054921
 20
7797.8721342332992
 30
0.0
  0
POINT
  5
1438
  8
DEFPOINTS
 62
     0
 10
11340.116225054921
 20
7784.3170763046328
 30
0.0
  0
ENDBLK
  5
142F
  8
0
 62
     1
  0
BLOCK
  8
0
 62
     1
  2
*U50
 70
     1
 10
0.0
 20
0.0
 30
0.0
  3
*U50
  1

  0
TEXT
  5
15BD
  8
0
 62
     0
 10
10143.56787035575
 20
7090.6886399923142
 30
0.0
 40
2.5
  1
30
 50
90.0
  0
ENDBLK
  5
15BF
  8
0
 62
     1
  0
BLOCK
  8
0
 62
     1
  2
*U51
 70
     1
 10
0.0
 20
0.0
 30
0.0
  3
*U51
  1

  0
TEXT
  5
15C1
  8
0
 62
     0
 10
11070.25288765872
 20
7805.997134233301
 30
0.0
 40
2.5
  1
20
 50
90.0
  0
ENDBLK
  5
15C3
  8
0
 62
     1
  0
BLOCK
  8
0
 62
     1
  2
*U52
 70
     1
 10
0.0
 20
0.0
 30
0.0
  3
*U52
  1

  0
TEXT
  5
15C5
  8
0
 62
     0
 10
10001.76932974929
 20
7804.2054675666332
 30
0.0
 40
2.5
  1
16
 50
90.0
  0
ENDBLK
  5
15C7
  8
0
 62
     1
  0
BLOCK
  8
0
 62
     1
  2
*U53
 70
     1
 10
0.0
 20
0.0
 30
0.0
  3
*U53
  1

  0
TEXT
  5
15C9
  8
0
 62
     0
 10
10477.99961399436
 20
7389.1762204461402
 30
0.0
 40
2.5
  1
832.3085
 50
90.0
  0
ENDBLK
  5
15CB
  8
0
 62
     1
  0
BLOCK
  8
0
 62
     1
  2
*U54
 70
     1
 10
0.0
 20
0.0
 30
0.0
  3
*U54
  1

  0
TEXT
  5
15CD
  8
0
 62
     0
 10
8723.3729446561356
 20
7052.8656456080762
 30
0.0
 40
2.5
  1
895.7812
  0
ENDBLK
  5
15CF
  8
0
 62
     1
  0
BLOCK
  8
0
 62
     1
  2
*U55
 70
     1
 10
0.0
 20
0.0
 30
0.0
  3
*U55
  1

  0
TEXT
  5
15D1
  8
0
 62
     0
 10
9335.9147037644925
 20
7427.1843023040337
 30
0.0
 40
2.5
  1
610.08
 50
90.0
  0
ENDBLK
  5
15D3
  8
0
 62
     1
  0
BLOCK
  8
0
 62
     1
  2
*U56
 70
     1
 10
0.0
 20
0.0
 30
0.0
  3
*U56
  1

  0
TEXT
  5
15D5
  8
0
 62
     0
 10
10049.39524610447
 20
7843.1779271831192
 30
0.0
 40
2.5
  1
178.2218
  0
ENDBLK
  5
15D7
  8
0
 62
     1
  0
BLOCK
  8
0
 62
     1
  2
*U57
 70
     1
 10
0.0
 20
0.0
 30
0.0
  3
*U57
  1

  0
TEXT
  5
15D9
  8
0
 62
     0
 10
9336.8421282845793
 20
7510.1772499715244
 30
0.0
 40
2.5
  1
185.0392
 50
90.0
  0
ENDBLK
  5
15DB
  8
0
 62
     1
  0
BLOCK
  8
0
 62
     1
  2
*U58
 70
     1
 10
0.0
 20
0.0
 30
0.0
  3
*U58
  1

  0
TEXT
  5
15DD
  8
0
 62
     0
 10
11004.696575622491
 20
7751.338045392924
 30
0.0
 40
2.5
  1
354.1726
  0
ENDBLK
  5
15DF
  8
0
 62
     1
  0
BLOCK
  8
0
 62
     1
  2
*U59
 70
     1
 10
0.0
 20
0.0
 30
0.0
  3
*U59
  1

  0
TEXT
  5
15E1
  8
0
 62
     0
 10
8559.2193146095069
 20
7003.3239847475088
 30
0.0
 40
2.5
  1
327.8906
  0
ENDBLK
  5
15E3
  8
0
 62
     1
  0
BLOCK
  8
0
 62
     1
  2
*U60
 70
     1
 10
0.0
 20
0.0
 30
0.0
  3
*U60
  1

  0
TEXT
  5
15E5
  8
0
 62
     0
 10
11045.752939153241
 20
7798.4847419708522
 30
0.0
 40
2.5
  1
0.0117
  0
ENDBLK
  5
15E7
  8
0
 62
     1
  0
BLOCK
  8
0
 62
     1
  2
*U61
 70
     1
 10
0.0
 20
0.0
 30
0.0
  3
*U61
  1

  0
TEXT
  5
15E9
  8
0
 62
     0
 10
9960.4926644269017
 20
7766.2656345364076
 30
0.0
 40
2.5
  1
152.4014
  0
ENDBLK
  5
15EB
  8
0
 62
     1
  0
BLOCK
  8
0
 62
     1
  2
*U62
 70
     1
 10
0.0
 20
0.0
 30
0.0
  3
*U62
  1

  0
TEXT
  5
15ED
  8
0
 62
     0
 10
9960.7009977602338
 20
7781.883379803312
 30
0.0
 40
2.5
  1
152.0104
  0
ENDBLK
  5
15EF
  8
0
 62
     1
  0
BLOCK
  8
0
 62
     1
  2
*U63
 70
     1
 10
0.0
 20
0.0
 30
0.0
  3
*U63
  1

  0
TEXT
  5
15F1
  8
0
 62
     0
 10
11181.372082104081
 20
7771.1302753970122
 30
0.0
 40
2.5
  1
299.9883
  0
ENDBLK
  5
15F3
  8
0
 62
     1
  0
BLOCK
  8
0
 62
     1
  2
*U64
 70
     1
 10
0.0
 20
0.0
 30
0.0
  3
*U64
  1

  0
TEXT
  5
1602
  8
0
 62
     0
 10
9960.7009977602338
 20
7787.7844853740153
 30
0.0
 40
2.5
  1
152.0104
  0
ENDBLK
  5
1604
  8
0
 62
     1
  0
BLOCK
  8
0
 62
     1
  2
*U65
 70
     1
 10
0.0
 20
0.0
 30
0.0
  3
*U65
  1

  0
TEXT
  5
1606
  8
0
 62
     0
 10
8462.8423952963767
 20
7389.9632473237079
 30
0.0
 40
2.5
  1
708.3453
 50
90.0
  0
ENDBLK
  5
1608
  8
0
 62
     1
  0
BLOCK
  8
0
 62
     1
  2
*U66
 70
     1
 10
0.0
 20
0.0
 30
0.0
  3
*U66
  1

  0
TEXT
  5
160A
  8
0
 62
     0
 10
8875.8629476365531
 20
7453.4150478326201
 30
0.0
 40
2.5
  1
356.4437
  0
ENDBLK
  5
160C
  8
0
 62
     1
  0
BLOCK
  8
0
 62
     1
  2
*U67
 70
     1
 10
0.0
 20
0.0
 30
0.0
  3
*U67
  1

  0
TEXT
  5
160E
  8
0
 62
     0
 10
10163.50694564771
 20
7593.6380317899557
 30
0.0
 40
2.5
  1
1.0052
  0
ENDBLK
  5
1610
  8
0
 62
     1
  0
BLOCK
  8
0
 62
     1
  2
*U68
 70
     1
 10
0.0
 20
0.0
 30
0.0
  3
*U68
  1

  0
TEXT
  5
1612
  8
0
 62
     0
 10
10087.1035794378
 20
7812.9488765500237
 30
0.0
 40
2.5
  1
103.2218
  0
ENDBLK
  5
1614
  8
0
 62
     1
  0
BLOCK
  8
0
 62
     1
  2
*U69
 70
     1
 10
0.0
 20
0.0
 30
0.0
  3
*U69
  1

  0
TEXT
  5
1616
  8
0
 62
     0
 10
10893.94373474645
 20
7753.7754951694369
 30
0.0
 40
2.5
  1
276.5116
  0
ENDBLK
  5
1618
  8
0
 62
     1
  0
BLOCK
  8
0
 62
     1
  2
*U70
 70
     1
 10
0.0
 20
0.0
 30
0.0
  3
*U70
  1

  0
TEXT
  5
161A
  8
0
 62
     0
 10
10929.90490895581
 20
7765.2061136741431
 30
0.0
 40
2.5
  1
204.1726
  0
ENDBLK
  5
161C
  8
0
 62
     1
  0
BLOCK
  8
0
 62
     1
  2
*U71
 70
     1
 10
0.0
 20
0.0
 30
0.0
  3
*U71
  1

  0
TEXT
  5
1632
  8
0
 62
     0
 10
11187.199558388251
 20
7784.9420763046319
 30
0.0
 40
2.5
  1
300
  0
ENDBLK
  5
1634
  8
0
 62
     1
  0
BLOCK
  8
0
 62
     1
  2
*U72
 70
     1
 10
0.0
 20
0.0
 30
0.0
  3
*U72
  1

  0
TEXT
  5
1636
  8
0
 62
     1
 10
9785.2193441773634
 20
8069.86617183611
 30
0.0
 40
100.0
  1
2 шт.
  0
ENDBLK
  5
1638
  8
0
 62
     1
  0
BLOCK
  8
0
 62
     1
  2
*U73
 70
     1
 10
0.0
 20
0.0
 30
0.0
  3
*U73
  1

  0
TEXT
  5
163A
  8
0
 62
     1
 10
10863.402162465911
 20
8069.86617183611
 30
0.0
 40
100.0
  1
2 шт.
  0
ENDBLK
  5
163C
  8
0
 62
     1
  0
ENDSEC
  0
SECTION
  2
ENTITIES
  0
POLYLINE
  5
357
  8
0
 62
     0
 66
     1
 10
0.0
 20
0.0
 30
0.0
 70
     1
  0
VERTEX
  5
153D
  8
0
 62
     0
 10
10068.20099776023
 20
7092.5636399923123
 30
0.0
  0
VERTEX
  5
153E
  8
0
 62
     0
 10
10068.20099776023
 20
7092.5636399923123
 30
0.0
 42
-0.4142135623730951
  0
VERTEX
  5
153F
  8
0
 62
     0
 10
10053.20099776023
 20
7077.5636399923123
 30
0.0
  0
VERTEX
  5
1540
  8
0
 62
     0
 10
9883.2009977602356
 20
7077.5636399923123
 30
0.0
 42
-0.4142135623730951
  0
VERTEX
  5
1541
  8
0
 62
     0
 10
9868.2009977602356
 20
7092.5636399923123
 30
0.0
  0
VERTEX
  5
1542
  8
0
 62
     0
 10
9868.2009977602356
 20
7092.5636399923123
 30
0.0
 42
-0.4142135623730951
  0
VERTEX
  5
1543
  8
0
 62
     0
 10
9883.2009977602356
 20
7107.5636399923133
 30
0.0
  0
VERTEX
  5
1544
  8
0
 62
     0
 10
10053.20099776023
 20
7107.5636399923133
 30
0.0
 42
-0.4142135623730951
  0
SEQEND
  5
1545
  8
0
 62
     0
  0
POLYLINE
  5
358
  8
0
 62
     0
 66
     1
 10
0.0
 20
0.0
 30
0.0
 70
     1
  0
VERTEX
  5
1546
  8
0
 62
     0
 10
10221.20760066096
 20
7772.8721342332992
 30
0.0
  0
VERTEX
  5
1547
  8
0
 62
     0
 10
10167.219430500259
 20
7772.8721342332992
 30
0.0
 42
0.4327125714632761
  0
VERTEX
  5
1548
  8
0
 62
     0
 10
10164.22533378076
 20
7769.6840256627538
 30
0.0
  0
VERTEX
  5
1549
  8
0
 62
     0
 10
10188.0512817902
 20
7390.4498814282033
 30
0.0
  0
VERTEX
  5
154A
  8
0
 62
     0
 10
10172.01985958078
 20
7390.4479072812564
 30
0.0
  0
VERTEX
  5
154B
  8
0
 62
     0
 10
10146.599613063499
 20
7795.058268656896
 30
0.0
 42
0.4036789672425394
  0
VERTEX
  5
154C
  8
0
 62
     0
 10
10143.636938553411
 20
7797.8721342332992
 30
0.0
  0
VERTEX
  5
154D
  8
0
 62
     0
 10
10043.20099776023
 20
7797.8721342332992
 30
0.0
  0
VERTEX
  5
154E
  8
0
 62
     0
 10
10043.20099776023
 20
7810.8721342332992
 30
0.0
 42
0.4142135623730951
  0
VERTEX
  5
154F
  8
0
 62
     0
 10
10040.20099776023
 20
7813.8721342332992
 30
0.0
  0
VERTEX
  5
1550
  8
0
 62
     0
 10
9896.200997760232
 20
7813.8721342332992
 30
0.0
 42
0.4142135623730951
  0
VERTEX
  5
1551
  8
0
 62
     0
 10
9893.2009977602302
 20
7810.8721342332992
 30
0.0
  0
VERTEX
  5
1552
  8
0
 62
     0
 10
9893.2009977602302
 20
7797.8721342332992
 30
0.0
  0
VERTEX
  5
1553
  8
0
 62
     0
 10
9792.7650569670568
 20
7797.8721342332992
 30
0.0
 42
0.4036789672420212
  0
VERTEX
  5
1554
  8
0
 62
     0
 10
9789.8023824569755
 20
7795.058268656896
 30
0.0
  0
VERTEX
  5
1555
  8
0
 62
     0
 10
9764.3821359396825
 20
7390.4479072812564
 30
0.0
  0
VERTEX
  5
1556
  8
0
 62
     0
 10
9748.3507137302677
 20
7390.4498814282033
 30
0.0
  0
VERTEX
  5
1557
  8
0
 62
     0
 10
9772.1766617397097
 20
7769.6840256627538
 30
0.0
 42
0.4327125714632759
  0
VERTEX
  5
1558
  8
0
 62
     0
 10
9769.1825650202118
 20
7772.8721342332992
 30
0.0
  0
VERTEX
  5
1559
  8
0
 62
     0
 10
9715.1943948595108
 20
7772.8721342332992
 30
0.0
 42
0.3959534102205399
  0
VERTEX
  5
155A
  8
0
 62
     0
 10
9712.2002981400128
 20
7770.0602428038428
 30
0.0
  0
VERTEX
  5
155B
  8
0
 62
     0
 10
9663.8673501033863
 20
7000.751748562855
 30
0.0
 42
0.4327125714632765
  0
VERTEX
  5
155C
  8
0
 62
     0
 10
9666.8614468228789
 20
6997.5636399923123
 30
0.0
  0
VERTEX
  5
155D
  8
0
 62
     0
 10
9710.8496169835798
 20
6997.5636399923123
 30
0.0
 42
-0.3959534102205188
  0
VERTEX
  5
155E
  8
0
 62
     0
 10
9713.8437137030778
 20
6994.7517485628578
 30
0.0
  0
VERTEX
  5
155F
  8
0
 62
     0
 10
9714.4956149464033
 20
6984.375531421766
 30
0.0
 42
0.395953410220522
  0
VERTEX
  5
1560
  8
0
 62
     0
 10
9717.4897116658958
 20
6981.5636399923123
 30
0.0
  0
VERTEX
  5
1561
  8
0
 62
     0
 10
9859.8443932347527
 20
6981.5636399923123
 30
0.0
 42
0.3959534102205219
  0
VERTEX
  5
1562
  8
0
 62
     0
 10
9862.8384899542489
 20
6984.375531421766
 30
0.0
  0
VERTEX
  5
1563
  8
0
 62
     0
 10
9863.4903911975744
 20
6994.7517485628578
 30
0.0
 42
-0.3959534102205189
  0
VERTEX
  5
1564
  8
0
 62
     0
 10
9866.4844879170705
 20
6997.5636399923123
 30
0.0
  0
VERTEX
  5
1565
  8
0
 62
     0
 10
10069.917507603401
 20
6997.5636399923123
 30
0.0
 42
-0.3959534102205188
  0
VERTEX
  5
1566
  8
0
 62
     0
 10
10072.911604322901
 20
6994.7517485628578
 30
0.0
  0
VERTEX
  5
1567
  8
0
 62
     0
 10
10073.563505566221
 20
6984.375531421766
 30
0.0
 42
0.395953410220522
  0
VERTEX
  5
1568
  8
0
 62
     0
 10
10076.5576022857
 20
6981.5636399923123
 30
0.0
  0
VERTEX
  5
1569
  8
0
 62
     0
 10
10218.91228385457
 20
6981.5636399923123
 30
0.0
 42
0.3959534102205219
  0
VERTEX
  5
156A
  8
0
 62
     0
 10
10221.906380574061
 20
6984.375531421766
 30
0.0
  0
VERTEX
  5
156B
  8
0
 62
     0
 10
10222.73494307014
 20
6997.5636399923123
 30
0.0
  0
VERTEX
  5
156C
  8
0
 62
     0
 10
10269.540548697591
 20
6997.5636399923123
 30
0.0
 42
0.4327125714632765
  0
VERTEX
  5
156D
  8
0
 62
     0
 10
10272.534645417079
 20
7000.751748562855
 30
0.0
  0
VERTEX
  5
156E
  8
0
 62
     0
 10
10224.201697380449
 20
7770.0602428038428
 30
0.0
 42
0.3959534102205399
  0
SEQEND
  5
156F
  8
0
 62
     0
  0
POLYLINE
  5
40F
  8
0
 62
     0
 66
     1
 10
0.0
 20
0.0
 30
0.0
 70
     1
  0
VERTEX
  5
1570
  8
0
 62
     0
 10
11616.804510956599
 20
7795.0602170836064
 30
0.0
 42
0.3959558944965703
  0
VERTEX
  5
1571
  8
0
 62
     0
 10
11613.810412621309
 20
7797.8721342332992
 30
0.0
  0
VERTEX
  5
1572
  8
0
 62
     0
 10
11340.116225054921
 20
7797.8721342332992
 30
0.0
  0
VERTEX
  5
1573
  8
0
 62
     0
 10
11340.116225054921
 20
7810.8721342332992
 30
0.0
 42
0.4142135623730951
  0
VERTEX
  5
1574
  8
0
 62
     0
 10
11337.116225054921
 20
7813.8721342332992
 30
0.0
  0
VERTEX
  5
1575
  8
0
 62
     0
 10
11043.116225054921
 20
7813.8721342332992
 30
0.0
 42
0.4142135623730951
  0
VERTEX
  5
1576
  8
0
 62
     0
 10
11040.116225054921
 20
7810.8721342332992
 30
0.0
  0
VERTEX
  5
1577
  8
0
 62
     0
 10
11040.116225054921
 20
7797.8721342332992
 30
0.0
  0
VERTEX
  5
1578
  8
0
 62
     0
 10
10766.42203748853
 20
7797.8721342332992
 30
0.0
 42
0.3959558944965695
  0
VERTEX
  5
1579
  8
0
 62
     0
 10
10763.42793915324
 20
7795.0602170836064
 30
0.0
  0
VERTEX
  5
157A
  8
0
 62
     0
 10
10714.95085169386
 20
7023.3515438852019
 30
0.0
 42
0.4777222536992931
  0
VERTEX
  5
157B
  8
0
 62
     0
 10
10718.39070336039
 20
7020.1967618644867
 30
0.0
 42
-0.004328079662938
  0
VERTEX
  5
157C
  8
0
 62
     0
 10
10772.81133870574
 20
7027.8924948806398
 30
0.0
 42
0.3583104951154489
  0
VERTEX
  5
157D
  8
0
 62
     0
 10
10775.411108062261
 20
7030.6783832232823
 30
0.0
  0
VERTEX
  5
157E
  8
0
 62
     0
 10
10796.28176959158
 20
7390.4498814282033
 30
0.0
  0
VERTEX
  5
157F
  8
0
 62
     0
 10
10812.30857885783
 20
7390.4483261990526
 30
0.0
  0
VERTEX
  5
1580
  8
0
 62
     0
 10
10791.6258766675
 20
7033.916898410499
 30
0.0
 42
0.4727257727943189
  0
VERTEX
  5
1581
  8
0
 62
     0
 10
10794.98206306344
 20
7030.7527965407116
 30
0.0
 42
-0.0624726939981555
  0
VERTEX
  5
1582
  8
0
 62
     0
 10
11585.25038704639
 20
7030.7527965407126
 30
0.0
 42
0.4727257727962332
  0
VERTEX
  5
1583
  8
0
 62
     0
 10
11588.606573442339
 20
7033.916898410499
 30
0.0
  0
VERTEX
  5
1584
  8
0
 62
     0
 10
11567.923871252009
 20
7390.4483261990526
 30
0.0
  0
VERTEX
  5
1585
  8
0
 62
     0
 10
11583.950680518259
 20
7390.4498814282033
 30
0.0
  0
VERTEX
  5
1586
  8
0
 62
     0
 10
11604.82134204758
 20
7030.6783832232823
 30
0.0
 42
0.3583104951155071
  0
VERTEX
  5
1587
  8
0
 62
     0
 10
11607.421111404101
 20
7027.8924948806389
 30
0.0
 42
-0.0043280796629381
  0
VERTEX
  5
1588
  8
0
 62
     0
 10
11661.841746749449
 20
7020.1967618644903
 30
0.0
 42
0.4777222536991414
  0
VERTEX
  5
1589
  8
0
 62
     0
 10
11665.28159841599
 20
7023.3515438852019
 30
0.0
  0
SEQEND
  5
158A
  8
0
 62
     0
  0
POLYLINE
  5
D38
  8
0
 62
     0
 66
     1
 10
0.0
 20
0.0
 30
0.0
 70
     1
  0
VERTEX
  5
15F4
  8
0
 62
     0
 10
9163.0789698107219
 20
7820.1622942395334
 30
0.0
 42
-0.0312195147705235
  0
VERTEX
  5
15F5
  8
0
 62
     0
 10
9189.6538240137997
 20
7402.0455709505341
 30
0.0
  0
VERTEX
  5
15F6
  8
0
 62
     0
 10
9189.6538240137997
 20
7394.9642570256228
 30
0.0
 42
-0.0312195147701815
  0
VERTEX
  5
15F7
  8
0
 62
     0
 10
9163.0789698107164
 20
6976.8475337412137
 30
0.0
 42
-0.3778033375114718
  0
VERTEX
  5
15F8
  8
0
 62
     0
 10
9133.316387311319
 20
6950.6143205637773
 30
0.0
  0
VERTEX
  5
15F9
  8
0
 62
     0
 10
8635.9095079617819
 20
6950.6143205637809
 30
0.0
 42
-0.3777853326194399
  0
VERTEX
  5
15FA
  8
0
 62
     0
 10
8606.1471629202715
 20
6976.8456579853619
 30
0.0
 42
-0.0307072310906919
  0
VERTEX
  5
15FB
  8
0
 62
     0
 10
8579.5737904487523
 20
7387.883000527293
 30
0.0
  0
VERTEX
  5
15FC
  8
0
 62
     0
 10
8579.5737904487523
 20
7409.1268274534659
 30
0.0
 42
-0.0307072310906911
  0
VERTEX
  5
15FD
  8
0
 62
     0
 10
8606.1471629202752
 20
7820.1641699953861
 30
0.0
 42
-0.3777853326194604
  0
VERTEX
  5
15FE
  8
0
 62
     0
 10
8635.9095079617873
 20
7846.395507416968
 30
0.0
  0
VERTEX
  5
15FF
  8
0
 62
     0
 10
9133.3163873113208
 20
7846.395507416968
 30
0.0
 42
-0.3778033375114975
  0
SEQEND
  5
1600
  8
0
 62
     0
  0
POLYLINE
  5
1324
  8
0
 62
     0
 66
     1
 10
0.0
 20
0.0
 30
0.0
 70
     1
  0
VERTEX
  5
161D
  8
0
 62
     0
 10
8690.3911176147503
 20
7248.004913990374
 30
0.0
  0
VERTEX
  5
161E
  8
0
 62
     0
 10
8690.3911176147503
 20
7549.004913990374
 30
0.0
  0
VERTEX
  5
161F
  8
0
 62
     0
 10
8707.3911176147521
 20
7549.004913990374
 30
0.0
  0
VERTEX
  5
1620
  8
0
 62
     0
 10
8707.3911176147521
 20
7248.004913990374
 30
0.0
  0
SEQEND
  5
1621
  8
0
 62
     0
  0
POLYLINE
  5
1325
  8
0
 62
     0
 66
     1
 10
0.0
 20
0.0
 30
0.0
 70
     1
  0
VERTEX
  5
1622
  8
0
 62
     0
 10
9078.834777658356
 20
7248.004913990374
 30
0.0
  0
VERTEX
  5
1623
  8
0
 62
     0
 10
9078.834777658356
 20
7549.004913990374
 30
0.0
  0
VERTEX
  5
1624
  8
0
 62
     0
 10
9061.8347776583541
 20
7549.004913990374
 30
0.0
  0
VERTEX
  5
1625
  8
0
 62
     0
 10
9061.8347776583541
 20
7248.004913990374
 30
0.0
  0
SEQEND
  5
1626
  8
0
 62
     0
  0
POLYLINE
  5
1326
  8
0
 62
     0
 66
     1
 10
0.0
 20
0.0
 30
0.0
 70
     1
  0
VERTEX
  5
1627
  8
0
 62
     0
 10
8809.1129476365531
 20
7751.6775461885827
 30
0.0
  0
VERTEX
  5
1628
  8
0
 62
     0
 10
8960.1129476365513
 20
7751.6775461885827
 30
0.0
  0
VERTEX
  5
1629
  8
0
 62
     0
 10
8960.1129476365513
 20
7768.6775461885827
 30
0.0
  0
VERTEX
  5
162A
  8
0
 62
     0
 10
8809.1129476365531
 20
7768.6775461885827
 30
0.0
  0
SEQEND
  5
162B
  8
0
 62
     0
  0
POLYLINE
  5
1327
  8
0
 62
     0
 66
     1
 10
0.0
 20
0.0
 30
0.0
 70
     1
  0
VERTEX
  5
162C
  8
0
 62
     0
 10
8809.1129476365531
 20
7045.3322817921662
 30
0.0
  0
VERTEX
  5
162D
  8
0
 62
     0
 10
8960.1129476365513
 20
7045.3322817921662
 30
0.0
  0
VERTEX
  5
162E
  8
0
 62
     0
 10
8960.1129476365513
 20
7028.3322817921662
 30
0.0
  0
VERTEX
  5
162F
  8
0
 62
     0
 10
8809.1129476365531
 20
7028.3322817921662
 30
0.0
  0
SEQEND
  5
1630
  8
0
 62
     0
  0
INSERT
  5
1537
  8
0
 62
     1
  2
*U72
 10
0.0
 20
0.0
 30
0.0
  0
INSERT
  5
1538
  8
0
 62
     1
  2
*U73
 10
0.0
 20
0.0
 30
0.0
  0
ENDSEC
  0
EOF
