  0
SECTION
  2
HEADER
  9
$ACADVER
  1
AC1032
  9
$ACADMAINTVER
 90
        9
  9
$DWGCODEPAGE
  3
ANSI_1252
  9
$LASTSAVEDBY
  1
par509140
  9
$REQUIREDVERSIONS
160
                 0
  9
$INSBASE
 10
0.0
 20
0.0
 30
0.0
  9
$EXTMIN
 10
0.0464999015957446
 20
0.0710253062422854
 30
0.0
  9
$EXTMAX
 10
1.409226122541454
 20
1.092837009656232
 30
0.0
  9
$LIMMIN
 10
0.0
 20
0.0
  9
$LIMMAX
 10
12.0
 20
9.0
  9
$ORTHOMODE
 70
     0
  9
$REGENMODE
 70
     1
  9
$FILLMODE
 70
     1
  9
$QTEXTMODE
 70
     0
  9
$MIRRTEXT
 70
     0
  9
$LTSCALE
 40
1.0
  9
$ATTMODE
 70
     1
  9
$TEXTSIZE
 40
0.2
  9
$TRACEWID
 40
0.05
  9
$TEXTSTYLE
  7
Standard
  9
$CLAYER
  8
Cut
  9
$CELTYPE
  6
ByLayer
  9
$CECOLOR
 62
   256
  9
$CELTSCALE
 40
1.0
  9
$DISPSILH
 70
     0
  9
$DIMSCALE
 40
1.0
  9
$DIMASZ
 40
0.18
  9
$DIMEXO
 40
0.0625
  9
$DIMDLI
 40
0.38
  9
$DIMRND
 40
0.0
  9
$DIMDLE
 40
0.0
  9
$DIMEXE
 40
0.18
  9
$DIMTP
 40
0.0
  9
$DIMTM
 40
0.0
  9
$DIMTXT
 40
0.18
  9
$DIMCEN
 40
0.09
  9
$DIMTSZ
 40
0.0
  9
$DIMTOL
 70
     0
  9
$DIMLIM
 70
     0
  9
$DIMTIH
 70
     1
  9
$DIMTOH
 70
     1
  9
$DIMSE1
 70
     0
  9
$DIMSE2
 70
     0
  9
$DIMTAD
 70
     0
  9
$DIMZIN
 70
     0
  9
$DIMBLK
  1

  9
$DIMASO
 70
     1
  9
$DIMSHO
 70
     1
  9
$DIMPOST
  1

  9
$DIMAPOST
  1

  9
$DIMALT
 70
     0
  9
$DIMALTD
 70
     2
  9
$DIMALTF
 40
25.4
  9
$DIMLFAC
 40
1.0
  9
$DIMTOFL
 70
     0
  9
$DIMTVP
 40
0.0
  9
$DIMTIX
 70
     0
  9
$DIMSOXD
 70
     0
  9
$DIMSAH
 70
     0
  9
$DIMBLK1
  1

  9
$DIMBLK2
  1

  9
$DIMSTYLE
  2
Standard
  9
$DIMCLRD
 70
     0
  9
$DIMCLRE
 70
     0
  9
$DIMCLRT
 70
     0
  9
$DIMTFAC
 40
1.0
  9
$DIMGAP
 40
0.09
  9
$DIMJUST
 70
     0
  9
$DIMSD1
 70
     0
  9
$DIMSD2
 70
     0
  9
$DIMTOLJ
 70
     1
  9
$DIMTZIN
 70
     0
  9
$DIMALTZ
 70
     0
  9
$DIMALTTZ
 70
     0
  9
$DIMUPT
 70
     0
  9
$DIMDEC
 70
     4
  9
$DIMTDEC
 70
     4
  9
$DIMALTU
 70
     2
  9
$DIMALTTD
 70
     2
  9
$DIMTXSTY
  7
Standard
  9
$DIMAUNIT
 70
     0
  9
$DIMADEC
 70
     0
  9
$DIMALTRND
 40
0.0
  9
$DIMAZIN
 70
     0
  9
$DIMDSEP
 70
    46
  9
$DIMATFIT
 70
     3
  9
$DIMFRAC
 70
     0
  9
$DIMLDRBLK
  1

  9
$DIMLUNIT
 70
     2
  9
$DIMLWD
 70
    -2
  9
$DIMLWE
 70
    -2
  9
$DIMTMOVE
 70
     0
  9
$DIMFXL
 40
1.0
  9
$DIMFXLON
 70
     0
  9
$DIMJOGANG
 40
0.7853981633974483
  9
$DIMTFILL
 70
     0
  9
$DIMTFILLCLR
 70
     0
  9
$DIMARCSYM
 70
     0
  9
$DIMLTYPE
  6

  9
$DIMLTEX1
  6

  9
$DIMLTEX2
  6

  9
$DIMTXTDIRECTION
 70
     0
  9
$LUNITS
 70
     2
  9
$LUPREC
 70
     4
  9
$SKETCHINC
 40
0.1
  9
$FILLETRAD
 40
0.0
  9
$AUNITS
 70
     0
  9
$AUPREC
 70
     0
  9
$MENU
  1
.
  9
$ELEVATION
 40
0.0
  9
$PELEVATION
 40
0.0
  9
$THICKNESS
 40
0.0
  9
$LIMCHECK
 70
     0
  9
$CHAMFERA
 40
0.0
  9
$CHAMFERB
 40
0.0
  9
$CHAMFERC
 40
0.0
  9
$CHAMFERD
 40
0.0
  9
$SKPOLY
 70
     0
  9
$TDCREATE
 40
2458429.560590278
  9
$TDUCREATE
 40
2458429.810590278
  9
$TDUPDATE
 40
2458431.565092593
  9
$TDUUPDATE
 40
2458431.815092593
  9
$TDINDWG
 40
0.0680324074
  9
$TDUSRTIMER
 40
0.0680324074
  9
$USRTIMER
 70
     1
  9
$ANGBASE
 50
0.0
  9
$ANGDIR
 70
     0
  9
$PDMODE
 70
     0
  9
$PDSIZE
 40
0.0
  9
$PLINEWID
 40
0.0
  9
$SPLFRAME
 70
     0
  9
$SPLINETYPE
 70
     6
  9
$SPLINESEGS
 70
     8
  9
$HANDSEED
  5
33B
  9
$SURFTAB1
 70
     6
  9
$SURFTAB2
 70
     6
  9
$SURFTYPE
 70
     6
  9
$SURFU
 70
     6
  9
$SURFV
 70
     6
  9
$UCSBASE
  2

  9
$UCSNAME
  2

  9
$UCSORG
 10
0.0
 20
0.0
 30
0.0
  9
$UCSXDIR
 10
1.0
 20
0.0
 30
0.0
  9
$UCSYDIR
 10
0.0
 20
1.0
 30
0.0
  9
$UCSORTHOREF
  2

  9
$UCSORTHOVIEW
 70
     0
  9
$UCSORGTOP
 10
0.0
 20
0.0
 30
0.0
  9
$UCSORGBOTTOM
 10
0.0
 20
0.0
 30
0.0
  9
$UCSORGLEFT
 10
0.0
 20
0.0
 30
0.0
  9
$UCSORGRIGHT
 10
0.0
 20
0.0
 30
0.0
  9
$UCSORGFRONT
 10
0.0
 20
0.0
 30
0.0
  9
$UCSORGBACK
 10
0.0
 20
0.0
 30
0.0
  9
$PUCSBASE
  2

  9
$PUCSNAME
  2

  9
$PUCSORG
 10
0.0
 20
0.0
 30
0.0
  9
$PUCSXDIR
 10
1.0
 20
0.0
 30
0.0
  9
$PUCSYDIR
 10
0.0
 20
1.0
 30
0.0
  9
$PUCSORTHOREF
  2

  9
$PUCSORTHOVIEW
 70
     0
  9
$PUCSORGTOP
 10
0.0
 20
0.0
 30
0.0
  9
$PUCSORGBOTTOM
 10
0.0
 20
0.0
 30
0.0
  9
$PUCSORGLEFT
 10
0.0
 20
0.0
 30
0.0
  9
$PUCSORGRIGHT
 10
0.0
 20
0.0
 30
0.0
  9
$PUCSORGFRONT
 10
0.0
 20
0.0
 30
0.0
  9
$PUCSORGBACK
 10
0.0
 20
0.0
 30
0.0
  9
$USERI1
 70
     0
  9
$USERI2
 70
     0
  9
$USERI3
 70
     0
  9
$USERI4
 70
     0
  9
$USERI5
 70
     0
  9
$USERR1
 40
0.0
  9
$USERR2
 40
0.0
  9
$USERR3
 40
0.0
  9
$USERR4
 40
0.0
  9
$USERR5
 40
0.0
  9
$WORLDVIEW
 70
     1
  9
$SHADEDGE
 70
     3
  9
$SHADEDIF
 70
    70
  9
$TILEMODE
 70
     1
  9
$MAXACTVP
 70
    64
  9
$PINSBASE
 10
0.0
 20
0.0
 30
0.0
  9
$PLIMCHECK
 70
     0
  9
$PEXTMIN
 10
0.0
 20
0.0
 30
0.0
  9
$PEXTMAX
 10
0.0
 20
0.0
 30
0.0
  9
$PLIMMIN
 10
0.0
 20
0.0
  9
$PLIMMAX
 10
12.0
 20
9.0
  9
$UNITMODE
 70
     0
  9
$VISRETAIN
 70
     1
  9
$PLINEGEN
 70
     0
  9
$PSLTSCALE
 70
     1
  9
$TREEDEPTH
 70
  3020
  9
$CMLSTYLE
  2
Standard
  9
$CMLJUST
 70
     0
  9
$CMLSCALE
 40
1.0
  9
$PROXYGRAPHICS
 70
     1
  9
$MEASUREMENT
 70
     0
  9
$CELWEIGHT
370
    -1
  9
$ENDCAPS
280
     0
  9
$JOINSTYLE
280
     0
  9
$LWDISPLAY
290
     0
  9
$INSUNITS
 70
     1
  9
$HYPERLINKBASE
  1

  9
$STYLESHEET
  1

  9
$XEDIT
290
     1
  9
$CEPSNTYPE
380
     0
  9
$PSTYLEMODE
290
     1
  9
$FINGERPRINTGUID
  2
{550015CC-5FF8-144B-ADCB-12EDEFC69489}
  9
$VERSIONGUID
  2
{09FFCE8E-4EA6-874F-8D37-E309C7646FA4}
  9
$EXTNAMES
290
     1
  9
$PSVPSCALE
 40
0.0
  9
$OLESTARTUP
290
     0
  9
$SORTENTS
280
   127
  9
$INDEXCTL
280
     0
  9
$HIDETEXT
280
     1
  9
$XCLIPFRAME
280
     2
  9
$HALOGAP
280
     0
  9
$OBSCOLOR
 70
   257
  9
$OBSLTYPE
280
     0
  9
$INTERSECTIONDISPLAY
280
     0
  9
$INTERSECTIONCOLOR
 70
   257
  9
$DIMASSOC
280
     2
  9
$PROJECTNAME
  1

  9
$CAMERADISPLAY
290
     0
  9
$LENSLENGTH
 40
50.0
  9
$CAMERAHEIGHT
 40
0.0
  9
$STEPSPERSEC
 40
2.0
  9
$STEPSIZE
 40
6.0
  9
$3DDWFPREC
 40
2.0
  9
$PSOLWIDTH
 40
0.25
  9
$PSOLHEIGHT
 40
4.0
  9
$LOFTANG1
 40
1.570796326794896
  9
$LOFTANG2
 40
1.570796326794896
  9
$LOFTMAG1
 40
0.0
  9
$LOFTMAG2
 40
0.0
  9
$LOFTPARAM
 70
     7
  9
$LOFTNORMALS
280
     1
  9
$LATITUDE
 40
37.795
  9
$LONGITUDE
 40
-122.394
  9
$NORTHDIRECTION
 40
0.0
  9
$TIMEZONE
 70
 -8000
  9
$LIGHTGLYPHDISPLAY
280
     1
  9
$TILEMODELIGHTSYNCH
280
     1
  9
$CMATERIAL
347
96
  9
$SOLIDHIST
280
     0
  9
$SHOWHIST
280
     1
  9
$DWFFRAME
280
     2
  9
$DGNFRAME
280
     0
  9
$REALWORLDSCALE
290
     1
  9
$INTERFERECOLOR
 62
     1
  9
$INTERFEREOBJVS
345
A3
  9
$INTERFEREVPVS
346
A0
  9
$CSHADOW
280
     0
  9
$SHADOWPLANELOCATION
 40
0.0
  0
ENDSEC
  0
SECTION
  2
CLASSES
  0
CLASS
  1
ACDBDICTIONARYWDFLT
  2
AcDbDictionaryWithDefault
  3
ObjectDBX Classes
 90
        0
 91
        1
280
     0
281
     0
  0
CLASS
  1
DICTIONARYVAR
  2
AcDbDictionaryVar
  3
ObjectDBX Classes
 90
        0
 91
        9
280
     0
281
     0
  0
CLASS
  1
TABLESTYLE
  2
AcDbTableStyle
  3
ObjectDBX Classes
 90
     4095
 91
        1
280
     0
281
     0
  0
CLASS
  1
MATERIAL
  2
AcDbMaterial
  3
ObjectDBX Classes
 90
     1153
 91
        3
280
     0
281
     0
  0
CLASS
  1
VISUALSTYLE
  2
AcDbVisualStyle
  3
ObjectDBX Classes
 90
     4095
 91
       24
280
     0
281
     0
  0
CLASS
  1
SCALE
  2
AcDbScale
  3
ObjectDBX Classes
 90
     1153
 91
       33
280
     0
281
     0
  0
CLASS
  1
MLEADERSTYLE
  2
AcDbMLeaderStyle
  3
ACDB_MLEADERSTYLE_CLASS
 90
     4095
 91
        2
280
     0
281
     0
  0
CLASS
  1
CELLSTYLEMAP
  2
AcDbCellStyleMap
  3
ObjectDBX Classes
 90
     1152
 91
        1
280
     0
281
     0
  0
CLASS
  1
EXACXREFPANELOBJECT
  2
ExAcXREFPanelObject
  3
EXAC_ESW
 90
     1025
 91
        0
280
     0
281
     0
  0
CLASS
  1
NPOCOLLECTION
  2
AcDbImpNonPersistentObjectsCollection
  3
ObjectDBX Classes
 90
     1153
 91
        0
280
     0
281
     0
  0
CLASS
  1
LAYER_INDEX
  2
AcDbLayerIndex
  3
ObjectDBX Classes
 90
        0
 91
        0
280
     0
281
     0
  0
CLASS
  1
SPATIAL_INDEX
  2
AcDbSpatialIndex
  3
ObjectDBX Classes
 90
        0
 91
        0
280
     0
281
     0
  0
CLASS
  1
IDBUFFER
  2
AcDbIdBuffer
  3
ObjectDBX Classes
 90
        0
 91
        0
280
     0
281
     0
  0
CLASS
  1
ACDBSECTIONVIEWSTYLE
  2
AcDbSectionViewStyle
  3
ObjectDBX Classes
 90
     1025
 91
        1
280
     0
281
     0
  0
CLASS
  1
ACDBDETAILVIEWSTYLE
  2
AcDbDetailViewStyle
  3
ObjectDBX Classes
 90
     1025
 91
        1
280
     0
281
     0
  0
CLASS
  1
IMAGEDEF
  2
AcDbRasterImageDef
  3
ISM
 90
        0
 91
        0
280
     0
281
     0
  0
CLASS
  1
RASTERVARIABLES
  2
AcDbRasterVariables
  3
ISM
 90
        0
 91
        1
280
     0
281
     0
  0
CLASS
  1
IMAGEDEF_REACTOR
  2
AcDbRasterImageDefReactor
  3
ISM
 90
        1
 91
        1
280
     0
281
     0
  0
CLASS
  1
IMAGE
  2
AcDbRasterImage
  3
ISM
 90
     2175
 91
        0
280
     0
281
     1
  0
ENDSEC
  0
SECTION
  2
TABLES
  0
TABLE
  2
VPORT
  5
8
330
0
100
AcDbSymbolTable
 70
     1
  0
VPORT
  5
94
330
8
100
AcDbSymbolTableRecord
100
AcDbViewportTableRecord
  2
*Active
 70
     0
 10
0.0
 20
0.0
 11
1.0
 21
1.0
 12
1.070869551385413
 22
0.6306047355253939
 13
0.0
 23
0.0
 14
0.5
 24
0.5
 15
0.5
 25
0.5
 16
0.0
 26
0.0
 36
1.0
 17
0.0
 27
0.0
 37
0.0
 40
2.660572374307375
 41
2.019189765458422
 42
50.0
 43
0.0
 44
0.0
 50
0.0
 51
0.0
 71
     0
 72
  1000
 73
     1
 74
     3
 75
     0
 76
     0
 77
     0
 78
     0
281
     0
 65
     1
110
0.0
120
0.0
130
0.0
111
1.0
121
0.0
131
0.0
112
0.0
122
1.0
132
0.0
 79
     0
146
0.0
348
9F
 60
     3
 61
     5
292
     1
282
     1
141
0.0
142
0.0
 63
   250
421
  3355443
1001
ACAD_NAV_VCDISPLAY
1070
     3
  0
ENDTAB
  0
TABLE
  2
LTYPE
  5
5
330
0
100
AcDbSymbolTable
 70
     2
  0
LTYPE
  5
14
330
5
100
AcDbSymbolTableRecord
100
AcDbLinetypeTableRecord
  2
ByBlock
 70
     0
  3

 72
    65
 73
     0
 40
0.0
  0
LTYPE
  5
15
330
5
100
AcDbSymbolTableRecord
100
AcDbLinetypeTableRecord
  2
ByLayer
 70
     0
  3

 72
    65
 73
     0
 40
0.0
  0
LTYPE
  5
16
330
5
100
AcDbSymbolTableRecord
100
AcDbLinetypeTableRecord
  2
Continuous
 70
     0
  3
Solid line
 72
    65
 73
     0
 40
0.0
  0
ENDTAB
  0
TABLE
  2
LAYER
  5
2
102
{ACAD_XDICTIONARY
360
18E
102
}
330
0
100
AcDbSymbolTable
 70
     2
  0
LAYER
  5
10
102
{ACAD_XDICTIONARY
360
E6
102
}
330
2
100
AcDbSymbolTableRecord
100
AcDbLayerTableRecord
  2
0
 70
     0
 62
     7
  6
Continuous
370
    -3
390
F
347
98
348
0
  0
LAYER
  5
202
330
2
100
AcDbSymbolTableRecord
100
AcDbLayerTableRecord
  2
Cut
 70
     2
 62
     1
  6
Continuous
370
    -3
390
F
347
98
348
0
1001
AcAecLayerStandard
1000

1000

1001
AcCmTransparency
1071
        0
  0
ENDTAB
  0
TABLE
  2
STYLE
  5
3
330
0
100
AcDbSymbolTable
 70
     2
  0
STYLE
  5
11
330
3
100
AcDbSymbolTableRecord
100
AcDbTextStyleTableRecord
  2
Standard
 70
     0
 40
0.0
 41
1.0
 50
0.0
 71
     0
 42
0.2
  3
arial.ttf
  4

1001
ACAD
1000
Arial
1071
       34
  0
STYLE
  5
DC
330
3
100
AcDbSymbolTableRecord
100
AcDbTextStyleTableRecord
  2
Annotative
 70
     0
 40
0.0
 41
1.0
 50
0.0
 71
     0
 42
0.2
  3
arial.ttf
  4

1001
AcadAnnotative
1000
AnnotativeData
1002
{
1070
     1
1070
     1
1002
}
1001
ACAD
1000
Arial
1071
       34
  0
ENDTAB
  0
TABLE
  2
VIEW
  5
6
330
0
100
AcDbSymbolTable
 70
     0
  0
ENDTAB
  0
TABLE
  2
UCS
  5
7
330
0
100
AcDbSymbolTable
 70
     0
  0
ENDTAB
  0
TABLE
  2
APPID
  5
9
330
0
100
AcDbSymbolTable
 70
    10
  0
APPID
  5
12
330
9
100
AcDbSymbolTableRecord
100
AcDbRegAppTableRecord
  2
ACAD
 70
     0
  0
APPID
  5
DD
330
9
100
AcDbSymbolTableRecord
100
AcDbRegAppTableRecord
  2
AcadAnnoPO
 70
     0
  0
APPID
  5
DE
330
9
100
AcDbSymbolTableRecord
100
AcDbRegAppTableRecord
  2
AcadAnnotative
 70
     0
  0
APPID
  5
DF
330
9
100
AcDbSymbolTableRecord
100
AcDbRegAppTableRecord
  2
ACAD_DSTYLE_DIMJAG
 70
     0
  0
APPID
  5
E0
330
9
100
AcDbSymbolTableRecord
100
AcDbRegAppTableRecord
  2
ACAD_DSTYLE_DIMTALN
 70
     0
  0
APPID
  5
107
330
9
100
AcDbSymbolTableRecord
100
AcDbRegAppTableRecord
  2
ACAD_MLEADERVER
 70
     0
  0
APPID
  5
1A6
330
9
100
AcDbSymbolTableRecord
100
AcDbRegAppTableRecord
  2
ACAD_NAV_VCDISPLAY
 70
     0
  0
APPID
  5
203
330
9
100
AcDbSymbolTableRecord
100
AcDbRegAppTableRecord
  2
AcAecLayerStandard
 70
     0
  0
APPID
  5
204
330
9
100
AcDbSymbolTableRecord
100
AcDbRegAppTableRecord
  2
AcCmTransparency
 70
     0
  0
APPID
  5
205
330
9
100
AcDbSymbolTableRecord
100
AcDbRegAppTableRecord
  2
ACAD_EXEMPT_FROM_CAD_STANDARDS
 70
     0
  0
ENDTAB
  0
TABLE
  2
DIMSTYLE
  5
A
330
0
100
AcDbSymbolTable
 70
     3
100
AcDbDimStyleTable
 71
     2
340
27
340
E1
  0
DIMSTYLE
105
27
330
A
100
AcDbSymbolTableRecord
100
AcDbDimStyleTableRecord
  2
Standard
 70
     0
340
11
  0
DIMSTYLE
105
E1
330
A
100
AcDbSymbolTableRecord
100
AcDbDimStyleTableRecord
  2
Annotative
 70
     0
 40
0.0
340
11
1001
AcadAnnotative
1000
AnnotativeData
1002
{
1070
     1
1070
     1
1002
}
1001
ACAD_DSTYLE_DIMJAG
1070
   388
1040
1.5
1001
ACAD_DSTYLE_DIMTALN
1070
   392
1070
     0
  0
ENDTAB
  0
TABLE
  2
BLOCK_RECORD
  5
1
330
0
100
AcDbSymbolTable
 70
     2
  0
BLOCK_RECORD
  5
1F
102
{ACAD_XDICTIONARY
360
15D
102
}
330
1
100
AcDbSymbolTableRecord
100
AcDbBlockTableRecord
  2
*Model_Space
340
22
 70
     0
280
     1
281
     0
  0
BLOCK_RECORD
  5
58
330
1
100
AcDbSymbolTableRecord
100
AcDbBlockTableRecord
  2
*Paper_Space
340
59
 70
     0
280
     1
281
     0
  0
BLOCK_RECORD
  5
5D
330
1
100
AcDbSymbolTableRecord
100
AcDbBlockTableRecord
  2
*Paper_Space0
340
5E
 70
     0
280
     1
281
     0
  0
ENDTAB
  0
ENDSEC
  0
SECTION
  2
BLOCKS
  0
BLOCK
  5
20
330
1F
100
AcDbEntity
  8
0
100
AcDbBlockBegin
  2
*Model_Space
 70
     0
 10
0.0
 20
0.0
 30
0.0
  3
*Model_Space
  1

  0
ENDBLK
  5
21
330
1F
100
AcDbEntity
  8
0
100
AcDbBlockEnd
  0
BLOCK
  5
5A
330
58
100
AcDbEntity
 67
     1
  8
0
100
AcDbBlockBegin
  2
*Paper_Space
 70
     0
 10
0.0
 20
0.0
 30
0.0
  3
*Paper_Space
  1

  0
ENDBLK
  5
5B
330
58
100
AcDbEntity
 67
     1
  8
0
100
AcDbBlockEnd
  0
BLOCK
  5
5F
330
5D
100
AcDbEntity
 67
     1
  8
0
100
AcDbBlockBegin
  2
*Paper_Space0
 70
     0
 10
0.0
 20
0.0
 30
0.0
  3
*Paper_Space0
  1

  0
ENDBLK
  5
60
330
5D
100
AcDbEntity
 67
     1
  8
0
100
AcDbBlockEnd
  0
ENDSEC
  0
SECTION
  2
ENTITIES
  0
LWPOLYLINE
  5
239
330
1F
100
AcDbEntity
  8
Cut
100
AcDbPolyline
 90
       17
 70
     0
 43
0.0
 10
0.0995455382538921
 20
0.5781390076141478
 10
0.1048239628228629
 20
0.5780008480979362
 10
0.1099189302834205
 20
0.575559348999434
 10
0.1147347410414952
 20
0.5718622041464912
 10
0.1197599069940125
 20
0.5670489033395328
 10
0.1218537549165433
 20
0.5636307855975673
 10
0.1210162354794022
 20
0.5607009296671777
 10
0.1187130323624359
 20
0.5595848212233108
 10
0.1150138977439781
 20
0.5595848212233108
 10
0.1097793765970252
 20
0.5595848212233108
 10
0.1063594480107426
 20
0.562026320321813
 10
0.1027999164083724
 20
0.5659327948956659
 10
0.1003057424914667
 20
0.5686700727393773
 10
0.098821674417124
 20
0.5715133846251704
 10
0.0976195421555719
 20
0.5738165383730736
 10
0.0973584572216737
 20
0.576215369150674
 10
0.0995455382538921
 20
0.5781390076141478
  0
LWPOLYLINE
  5
23A
330
1F
100
AcDbEntity
  8
Cut
100
AcDbPolyline
 90
       25
 70
     0
 43
0.0
 10
0.1118074680459031
 20
0.5915183884666533
 10
0.1079924579911307
 20
0.5892624165039067
 10
0.1079924579911307
 20
0.5872817183502832
 10
0.1103238776894457
 20
0.5858694791414436
 10
0.1159050385516096
 20
0.5850927832091913
 10
0.1196494084936432
 20
0.5836099439174447
 10
0.1235350093314622
 20
0.5798675694017064
 10
0.1295401095294011
 20
0.5754896516093737
 10
0.1342734903793854
 20
0.5730888687094194
 10
0.1380524076266215
 20
0.5711721921953085
 10
0.1419398124558258
 20
0.5700525900430265
 10
0.1450826608697326
 20
0.5700525900430265
 10
0.1464956111134583
 20
0.5727358207847502
 10
0.1464956111134583
 20
0.5767606431422579
 10
0.1444468011957625
 20
0.580997313258628
 10
0.1416915408210499
 20
0.5835393438345378
 10
0.1400629135458991
 20
0.5850419315275888
 10
0.1354038801721771
 20
0.586575574990782
 10
0.1327300615810725
 20
0.5874557327563693
 10
0.1293986617391746
 20
0.588552350698543
 10
0.1271936854377972
 20
0.5892781766842886
 10
0.1209210291822131
 20
0.5892781766842886
 10
0.1173179887953282
 20
0.5909534927831146
 10
0.1152595746624709
 20
0.5919105995497719
 10
0.1118074680459031
 20
0.5915183884666533
  0
LWPOLYLINE
  5
240
330
1F
100
AcDbEntity
  8
Cut
100
AcDbPolyline
 90
       19
 70
     0
 43
0.0
 10
0.1324633868202909
 20
0.5538418893112436
 10
0.1319582508186272
 20
0.5518868466386167
 10
0.1329684734922694
 20
0.5487850514753703
 10
0.1363795720644632
 20
0.5466935596519349
 10
0.1422477330494445
 20
0.545446750785402
 10
0.1468501929083743
 20
0.5440667234582648
 10
0.1512225297743654
 20
0.5440667234582648
 10
0.1545593378369361
 20
0.5455617728585623
 10
0.1578961458994996
 20
0.5455617728585623
 10
0.1637642575547957
 20
0.5472867713848757
 10
0.1666664217393716
 20
0.5484550846530342
 10
0.1677386335332896
 20
0.5522318653479417
 10
0.1654902046667388
 20
0.5568319406016827
 10
0.1607726586464935
 20
0.5598219918921217
 10
0.1531785998792543
 20
0.5601801234028443
 10
0.1481158940344258
 20
0.5598916417720261
 10
0.1441530429057281
 20
0.5578722703562989
 10
0.1364372746859796
 20
0.5546989724172989
 10
0.1324633868202909
 20
0.5538418893112436
  0
LWPOLYLINE
  5
25E
330
1F
100
AcDbEntity
  8
Cut
100
AcDbPolyline
 90
       37
 70
     0
 43
0.0
 10
0.1548454006956916
 20
0.5918935286110738
 10
0.1532565407857618
 20
0.5900849122207604
 10
0.1532565407857618
 20
0.5885851118054646
 10
0.155286753411211
 20
0.5871734902285724
 10
0.1569664832063483
 20
0.5860055619079415
 10
0.1569664832063483
 20
0.584791426327719
 10
0.1576700679409484
 20
0.5834239416801808
 10
0.1576700679409484
 20
0.5823652254975187
 10
0.1586410735128965
 20
0.5815711883605133
 10
0.1597885807073069
 20
0.5815711883605133
 10
0.1607154362088039
 20
0.5809536514307752
 10
0.1618155709412259
 20
0.5802206635768316
 10
0.1630104505976249
 20
0.5802206635768316
 10
0.1640697069808041
 20
0.5802206635768316
 10
0.1662765198880862
 20
0.579542029853883
 10
0.1684391333952178
 20
0.5800272510158635
 10
0.1699397424939235
 20
0.5809536514307752
 10
0.1712900541356883
 20
0.5817872657719584
 10
0.1724269115306469
 20
0.5824891042209544
 10
0.1724269115306469
 20
0.5844826103527013
 10
0.1719258543785997
 20
0.586070684626705
 10
0.1715767609835991
 20
0.5871771177702298
 10
0.1713063149133619
 20
0.5880342823569328
 10
0.1699397424939235
 20
0.5888938802703337
 10
0.168483283465676
 20
0.5907465860798525
 10
0.1681478027763372
 20
0.5911733382301462
 10
0.1660116687950222
 20
0.5911733382301462
 10
0.1653937651273623
 20
0.5911436284034295
 10
0.1647758861245414
 20
0.5911436284034295
 10
0.1641580071217206
 20
0.5917170759139623
 10
0.1624808470708743
 20
0.5923346603538562
 10
0.1603623343045157
 20
0.5923346603538562
 10
0.1595237789439352
 20
0.5923346603538562
 10
0.1573611161071113
 20
0.5923346603538562
 10
0.1565666614873038
 20
0.5923346603538562
 10
0.1548454006956916
 20
0.5918935286110738
 10
0.1548454006956916
 20
0.5918935286110738
  0
LWPOLYLINE
  5
263
330
1F
100
AcDbEntity
  8
Cut
100
AcDbPolyline
 90
       17
 70
     0
 43
0.0
 10
1.172834787014792
 20
0.8336639401089414
 10
1.172834787014792
 20
0.8284904648548092
 10
1.180152846179559
 20
0.8258145506761849
 10
1.191576121951619
 20
0.8183219149598102
 10
1.202900312798211
 20
0.8089588476147424
 10
1.214414419088052
 20
0.7929897880390869
 10
1.22281168017966
 20
0.7760422048807527
 10
1.22281168017966
 20
0.7697983259470576
 10
1.226738421976982
 20
0.7673008123816985
 10
1.22923726663523
 20
0.7673008123816985
 10
1.22923726663523
 20
0.7742582462582917
 10
1.22923726663523
 20
0.7813940332379943
 10
1.225923941371888
 20
0.7883514671145946
 10
1.219125569243439
 20
0.8045854953300306
 10
1.21781399086317
 20
0.8138620421587248
 10
1.192825544280736
 20
0.8272417080721297
 10
1.172834787014792
 20
0.8336639401089414
  0
LWPOLYLINE
  5
266
330
1F
100
AcDbEntity
  8
Cut
100
AcDbPolyline
 90
       16
 70
     0
 43
0.0
 10
1.271968319298068
 20
0.7772831179470119
 10
1.262204346229921
 20
0.7684813445889703
 10
1.257035186919118
 20
0.7561392053313299
 10
1.251335209871657
 20
0.7425296595125178
 10
1.241240511545136
 20
0.7425296595125178
 10
1.23233803214233
 20
0.7425296595125178
 10
1.22199971352073
 20
0.7366214655882857
 10
1.22199971352073
 20
0.7297328264088918
 10
1.232625229583902
 20
0.725140447799447
 10
1.243825091200541
 20
0.725140447799447
 10
1.256460841365658
 20
0.725140447799447
 10
1.26823504853575
 20
0.7326031046111794
 10
1.272542664851521
 20
0.7452322526849855
 10
1.276967903832103
 20
0.7582062490326055
 10
1.276967903832103
 20
0.7716386316074236
 10
1.271968319298068
 20
0.7772831179470119
  0
ARC
  5
267
330
1F
100
AcDbEntity
  8
Cut
100
AcDbCircle
 10
1.211620800407423
 20
0.8095637661362715
 30
0.0
 40
0.0602699626954978
100
AcDbArc
 50
174.8445391463249
 51
264.8445391463249
  0
ARC
  5
268
330
1F
100
AcDbEntity
  8
Cut
100
AcDbCircle
 10
1.162938548152741
 20
0.768939088025385
 30
0.0
 40
0.0474173599199483
100
AcDbArc
 50
335.847685306692
 51
103.8413929859578
  0
LWPOLYLINE
  5
269
330
1F
100
AcDbEntity
  8
Cut
100
AcDbPolyline
 90
       46
 70
     0
 43
0.0
 10
1.309590246879984
 20
0.7420854178995313
 10
1.291498189292177
 20
0.7377800481062593
 10
1.280716404689929
 20
0.7324507322400243
 10
1.276602863894614
 20
0.7288822521933867
 10
1.267662577510421
 20
0.7234287521151402
 10
1.267662577510421
 20
0.7234287521151402
 10
1.255888370340336
 20
0.709938530082674
 10
1.255888370340336
 20
0.709938530082674
 10
1.242965472063325
 20
0.7071210608119967
 10
1.238777753071236
 20
0.7057067120533942
 10
1.232914301553606
 20
0.7031351728409195
 10
1.224011871480492
 20
0.7004666690273212
 10
1.220565748830061
 20
0.7004666690273212
 10
1.211950466868827
 20
0.6944391513167361
 10
1.211950466868827
 20
0.6944391513167361
 10
1.205345419009539
 20
0.6944391513167361
 10
1.205345419009539
 20
0.6944391513167361
 10
1.201325000135341
 20
0.6901337340133083
 10
1.204483925344199
 20
0.686976446994855
 10
1.204483925344199
 20
0.686976446994855
 10
1.211088973203487
 20
0.683532151160236
 10
1.215887757525812
 20
0.6810297570512556
 10
1.220314422094008
 20
0.6787214100629661
 10
1.225734908140864
 20
0.6787214100629661
 10
1.229468228232867
 20
0.6787214100629661
 10
1.234062992660525
 20
0.6787214100629661
 10
1.238945003859441
 20
0.6787214100629661
 10
1.244114163170245
 20
0.6787214100629661
 10
1.249584030508061
 20
0.6758768463589054
 10
1.251580754024558
 20
0.6734862724725446
 10
1.257037061447249
 20
0.6734862724725446
 10
1.262780615641197
 20
0.6734862724725446
 10
1.271582529068119
 20
0.6786527162244767
 10
1.277426550578574
 20
0.685254299077549
 10
1.281325471541548
 20
0.6916563021451882
 10
1.289592989727322
 20
0.694263359592584
 10
1.293221225952549
 20
0.6955872340915548
 10
1.29666734860298
 20
0.7004666690273212
 10
1.299532797126338
 20
0.7045239156925748
 10
1.305056313643306
 20
0.7123447747260764
 10
1.307860746177462
 20
0.7171141780782336
 10
1.311720130976328
 20
0.7220359923699813
 10
1.318924314198706
 20
0.7268730479497592
 10
1.321651602161963
 20
0.7360579001889463
 10
1.317056837734305
 20
0.7415114002671928
 10
1.309590246879984
 20
0.7420854178995313
  0
LWPOLYLINE
  5
26A
330
1F
100
AcDbEntity
  8
Cut
100
AcDbPolyline
 90
       24
 70
     0
 43
0.0
 10
1.349507682147603
 20
0.7334746783129802
 10
1.343476979841774
 20
0.7280211782347337
 10
1.343476979841774
 20
0.7211325390553398
 10
1.343476979841774
 20
0.7119477343263015
 10
1.343476979841774
 20
0.7087904473078553
 10
1.343476979841774
 20
0.7033369472296016
 10
1.340318054632916
 20
0.6984575122938424
 10
1.340318054632916
 20
0.6938650861742488
 10
1.340318054632916
 20
0.6889856512384825
 10
1.336871931982486
 20
0.6775046334496509
 10
1.336871931982486
 20
0.6680327723942981
 10
1.33895869485102
 20
0.6647905208324448
 10
1.341179597627942
 20
0.6628662811322173
 10
1.34491286839026
 20
0.6606525492166502
 10
1.352953804798033
 20
0.6609111721203221
 10
1.352953804798033
 20
0.6609111721203221
 10
1.356166393475541
 20
0.6686068375367853
 10
1.359558852657322
 20
0.68181000324293
 10
1.362376688531269
 20
0.6935780773580831
 10
1.365611218073881
 20
0.7050590951469147
 10
1.367551937882056
 20
0.7196973999541996
 10
1.365302357521585
 20
0.7288822521933867
 10
1.358410112220724
 20
0.732900613170493
 10
1.349507682147603
 20
0.7334746783129802
  0
LWPOLYLINE
  5
26B
330
1F
100
AcDbEntity
  8
Cut
100
AcDbPolyline
 90
       14
 70
     0
 43
0.0
 10
1.345487213943719
 20
0.7831301491394101
 10
1.335148895322113
 20
0.7742323057163887
 10
1.335148895322113
 20
0.7687788531482909
 10
1.335148895322113
 20
0.7641864270286974
 10
1.345200016502147
 20
0.7581588618079636
 10
1.345200016502147
 20
0.7506962049962312
 10
1.357835766667264
 20
0.7443816309593317
 10
1.363866468973093
 20
0.7443816309593317
 10
1.369035628283896
 20
0.7443816309593317
 10
1.369035628283896
 20
0.7564367138906505
 10
1.365015160080012
 20
0.7702139447392824
 10
1.361853321843853
 20
0.7810488458195893
 10
1.34979483025949
 20
0.7810488458195893
 10
1.345487213943719
 20
0.7831301491394101
  0
LWPOLYLINE
  5
26C
330
1F
100
AcDbEntity
  8
Cut
100
AcDbPolyline
 90
       15
 70
     0
 43
0.0
 10
1.231083824833504
 20
0.8669001406450647
 10
1.225567581840309
 20
0.8669001406450647
 10
1.225567581840309
 20
0.8590895670048652
 10
1.225567581840309
 20
0.850819570214135
 10
1.263261777414655
 20
0.8163611710691824
 10
1.283028281920486
 20
0.7837405595466436
 10
1.292007238186426
 20
0.7689226111257349
 10
1.298197900822096
 20
0.7689226111257349
 10
1.303714094485599
 20
0.7630655200596764
 10
1.313827173753338
 20
0.7630655200596764
 10
1.329916150043914
 20
0.7855783471690643
 10
1.329916150043914
 20
0.7943078146204741
 10
1.284866996698426
 20
0.8425495734234118
 10
1.256826177032486
 20
0.8590895670048652
 10
1.231083824833504
 20
0.8669001406450647
  0
LWPOLYLINE
  5
26D
330
1F
100
AcDbEntity
  8
Cut
100
AcDbPolyline
 90
       11
 70
     0
 43
0.0
 10
1.288544475583996
 20
0.8691973989281649
 10
1.288544475583996
 20
0.8577112500431312
 10
1.297278494103437
 20
0.8443873610458254
 10
1.325319313769377
 20
0.8186583818421269
 10
1.343706708197217
 20
0.7938483439597946
 10
1.359938076921369
 20
0.7876119549130156
 10
1.359938076921369
 20
0.7938483439597946
 10
1.359938076921369
 20
0.8103883850514037
 10
1.338190514533707
 20
0.8374956812168363
 10
1.308310930760143
 20
0.8641435067215894
 10
1.288544475583996
 20
0.8691973989281649
  0
LWPOLYLINE
  5
26E
330
1F
100
AcDbEntity
  8
Cut
100
AcDbPolyline
 90
        8
 70
     0
 43
0.0
 10
1.226486988558967
 20
0.8944668599610281
 10
1.220970745565772
 20
0.8866562863208287
 10
1.228325703336906
 20
0.8797646064918396
 10
1.246713097764754
 20
0.8724135035123197
 10
1.263119676453136
 20
0.8658543115640991
 10
1.271536141904455
 20
0.8710351865505785
 10
1.263261777414655
 20
0.8816023941142532
 10
1.226486988558967
 20
0.8944668599610281
  0
LWPOLYLINE
  5
26F
330
1F
100
AcDbEntity
  8
Cut
100
AcDbPolyline
 90
       11
 70
     0
 43
0.0
 10
1.167647227730491
 20
0.9004396459788139
 10
1.197067108144729
 20
0.9004396459788139
 10
1.208559248160767
 20
0.8889535446039289
 10
1.202583351137924
 20
0.8829807585861431
 10
1.186034671488023
 20
0.8829807585861431
 10
1.167647227730491
 20
0.8829807585861431
 10
1.151558251439915
 20
0.8774673957188952
 10
1.136388632538313
 20
0.8825212879254635
 10
1.136388632538313
 20
0.8907913322263425
 10
1.158453555181417
 20
0.8999802228282831
 10
1.167647227730491
 20
0.9004396459788139
  0
LWPOLYLINE
  5
270
330
1F
100
AcDbEntity
  8
Cut
100
AcDbPolyline
 90
       12
 70
     0
 43
0.0
 10
1.184663503489751
 20
0.8774870649209915
 10
1.164437344954279
 20
0.8724331727144232
 10
1.14842940483516
 20
0.8684332829840354
 10
1.129960924906171
 20
0.8577309192452275
 10
1.129960924906171
 20
0.8480825579826145
 10
1.141912768281535
 20
0.8407314550030946
 10
1.158921101961084
 20
0.8503798162657076
 10
1.170920894847812
 20
0.8571869696899675
 10
1.198454061643055
 20
0.8637037052630134
 10
1.20854552999051
 20
0.8660922220381886
 10
1.201212183139652
 20
0.8724331727144232
 10
1.184663503489751
 20
0.8774870649209915
  0
LWPOLYLINE
  5
271
330
1F
100
AcDbEntity
  8
Cut
100
AcDbPolyline
 90
        8
 70
     0
 43
0.0
 10
1.104678276066515
 20
0.8816220633163567
 10
1.082153650064086
 20
0.8715142789032128
 10
1.069282498629441
 20
0.8490014517938178
 10
1.069282498629441
 20
0.8365964566077295
 10
1.082153650064086
 20
0.8310830937404745
 10
1.093645790080124
 20
0.8361369859470499
 10
1.110654197754204
 20
0.8563525785284227
 10
1.123525349188849
 20
0.8572714723396259
  0
LWPOLYLINE
  5
272
330
1F
100
AcDbEntity
  8
Cut
100
AcDbPolyline
 90
        4
 70
     0
 43
0.0
 10
1.123525349188849
 20
0.8572714723396259
 10
1.13133998565447
 20
0.8687575974695818
 10
1.118009130860492
 20
0.8797842756939431
 10
1.104678276066515
 20
0.8816220633163567
  0
LWPOLYLINE
  5
275
330
1F
100
AcDbEntity
  8
Cut
100
AcDbPolyline
 90
        8
 70
     0
 43
0.0
 10
1.100398559876733
 20
0.769981397287201
 10
1.091347371942852
 20
0.762625766111249
 10
1.091347371942852
 20
0.7456262543589603
 10
1.10283951195889
 20
0.7364373637570197
 10
1.120306984404268
 20
0.7385091850037378
 10
1.125902160395597
 20
0.7470046188308502
 10
1.115710712723227
 20
0.7644635062235139
 10
1.100398559876733
 20
0.769981397287201
  0
LWPOLYLINE
  5
278
330
1F
100
AcDbEntity
  8
Cut
100
AcDbPolyline
 90
        8
 70
     0
 43
0.0
 10
1.08455066362395
 20
0.7185935814827223
 10
1.098242675684353
 20
0.72035679332609
 10
1.110654173089358
 20
0.709330067591587
 10
1.108753061150391
 20
0.7015569694971587
 10
1.095944208217396
 20
0.6996817538391227
 10
1.08767355497098
 20
0.7042880313824278
 10
1.081693996034445
 20
0.7157623242700453
 10
1.08455066362395
 20
0.7185935814827223
  0
LWPOLYLINE
  5
279
330
1F
100
AcDbEntity
  8
Cut
100
AcDbPolyline
 90
        8
 70
     0
 43
0.0
 10
1.129960924906171
 20
0.7244917917214551
 10
1.122605967135037
 20
0.7130056428364214
 10
1.130420628265497
 20
0.7010600708008568
 10
1.15432426568654
 20
0.6932494971606574
 10
1.173171363473713
 20
0.6992222831784432
 10
1.173171363473713
 20
0.7148434304588421
 10
1.158001744572111
 20
0.7231134272495723
 10
1.129960924906171
 20
0.7244917917214551
  0
CIRCLE
  5
27B
330
1F
100
AcDbEntity
  8
Cut
100
AcDbCircle
 10
1.209539922351503
 20
0.8429613914036337
 30
0.0
 40
0.0071601272129219
  0
CIRCLE
  5
27C
330
1F
100
AcDbEntity
  8
Cut
100
AcDbCircle
 10
1.22716670232527
 20
0.8253437725998082
 30
0.0
 40
0.0055758332558966
  0
CIRCLE
  5
27D
330
1F
100
AcDbEntity
  8
Cut
100
AcDbCircle
 10
1.234181482570285
 20
0.8140182080217854
 30
0.0
 40
0.0052160718437762
  0
CIRCLE
  5
27E
330
1F
100
AcDbEntity
  8
Cut
100
AcDbCircle
 10
1.240476739991052
 20
0.799996014839735
 30
0.0
 40
0.0053959772146754
  0
LINE
  5
283
330
1F
100
AcDbEntity
  8
Cut
100
AcDbLine
 10
0.9429760532049655
 20
0.8772120761727748
 30
0.0
 11
0.9429760532049655
 21
0.8772120761727748
 31
0.0
  0
LWPOLYLINE
  5
289
330
1F
100
AcDbEntity
  8
Cut
100
AcDbPolyline
 90
        8
 70
     0
 43
0.0
 10
0.9377955480659991
 20
0.9245521398388021
 10
0.8904307111925646
 20
0.8949646238026147
 10
0.8526868899524302
 20
0.8949646238026147
 10
0.8423258303448122
 20
0.8949646238026147
 10
0.8090224702693262
 20
0.9186346556356284
 10
0.8090224702693262
 20
0.9297299860267358
 10
0.8734090091676662
 20
0.9400856308924474
 10
0.9377955480659991
 20
0.9245521398388021
  0
LWPOLYLINE
  5
28A
330
1F
100
AcDbEntity
  8
Cut
100
AcDbPolyline
 90
       12
 70
     0
 43
0.0
 10
0.7660980945605403
 20
0.9186346556356284
 10
0.7142928458521425
 20
0.9097583818207084
 10
0.6476861257011706
 20
0.884608978936896
 10
0.6388052033718737
 20
0.8690754878832578
 10
0.6543467681184581
 20
0.8535420443397612
 10
0.6802493924726534
 20
0.8535420443397612
 10
0.6913505453842746
 20
0.8535420443397612
 10
0.7283542733204058
 20
0.8860883499876948
 10
0.7455907150143187
 20
0.9012485117049449
 10
0.7601774961175707
 20
0.9012485117049449
 10
0.7660980945605403
 20
0.9097583818207084
 10
0.7660980945605403
 20
0.9186346556356284
  0
LWPOLYLINE
  5
28B
330
1F
100
AcDbEntity
  8
Cut
100
AcDbPolyline
 90
       15
 70
     0
 43
0.0
 10
0.793480905522749
 20
0.8964439948534064
 10
0.7646179572822192
 20
0.8823899223607085
 10
0.7224336748774363
 20
0.8557611009159558
 10
0.6829772529884776
 20
0.8308542409805882
 10
0.6587872292831066
 20
0.7921479081810361
 10
0.642247197298619
 20
0.7656822878780405
 10
0.642247197298619
 20
0.7470269010911963
 10
0.6595273225871097
 20
0.7470269010911963
 10
0.7017116049918926
 20
0.7884494330439012
 10
0.7286018791300432
 20
0.8148541311022054
 10
0.7705385557251887
 20
0.8424467139486537
 10
0.7957340989052561
 20
0.8590243297494669
 10
0.8097625635733294
 20
0.8809105037997611
 10
0.8097625635733294
 20
0.8927455197162714
 10
0.793480905522749
 20
0.8964439948534064
  0
ARC
  5
28C
330
1F
100
AcDbEntity
  8
Cut
100
AcDbCircle
 10
0.6350222445539085
 20
0.8238206103407659
 30
0.0
 40
0.0187122200666797
100
AcDbArc
 50
345.25173937391
 51
138.2924237563113
  0
LWPOLYLINE
  5
28D
330
1F
100
AcDbEntity
  8
Cut
100
AcDbPolyline
 90
       12
 70
     0
 43
0.0
 10
0.621052632694564
 20
0.8362703944482561
 10
0.5372283223289785
 20
0.7580830831187058
 10
0.4937363099042571
 20
0.727944354322176
 10
0.4655849424082632
 20
0.6838014386904519
 10
0.4429690564836548
 20
0.6412015102003821
 10
0.4380399354330251
 20
0.6238137930124168
 10
0.4447087172487727
 20
0.6238137930124168
 10
0.5221245585603996
 20
0.6716300509119293
 10
0.5690959911747271
 20
0.6959728739791303
 10
0.5977366291999009
 20
0.7108158103166923
 10
0.6311446481856678
 20
0.7762462609750145
 10
0.6531179655987743
 20
0.8190569920006538
  0
ARC
  5
28E
330
1F
100
AcDbEntity
  8
Cut
100
AcDbCircle
 10
0.4894728547081538
 20
0.7696006007616775
 30
0.0
 40
0.0153101209756467
100
AcDbArc
 50
152.2641206424172
 51
300.9044012462022
  0
LWPOLYLINE
  5
28F
330
1F
100
AcDbEntity
  8
Cut
100
AcDbPolyline
 90
       12
 70
     0
 43
0.0
 10
0.4759218304689269
 20
0.7767258759392988
 10
0.5361677833739194
 20
0.8269522287281603
 10
0.5658624794781204
 20
0.8446455787110949
 10
0.5889900622528544
 20
0.8634804550681494
 10
0.6098334831700499
 20
0.8669049866803675
 10
0.6138308157504256
 20
0.8634804550681494
 10
0.6006966384211623
 20
0.8446455787110949
 10
0.5767124456201671
 20
0.8212446918778439
 10
0.5601519268452222
 20
0.8095442247061441
 10
0.5375953845348747
 20
0.783574939163735
 10
0.5110415096441514
 20
0.7621716640975152
 10
0.4973362425208167
 20
0.7564641272471988
  0
ARC
  5
290
330
1F
100
AcDbEntity
  8
Cut
100
AcDbCircle
 10
0.4463930847126989
 20
0.7333215409377154
 30
0.0
 40
0.0188511050538236
100
AcDbArc
 50
326.7505808046514
 51
157.0267078846214
  0
LWPOLYLINE
  5
291
330
1F
100
AcDbEntity
  8
Cut
100
AcDbPolyline
 90
       12
 70
     0
 43
0.0
 10
0.4290371194455106
 20
0.7406791649695919
 10
0.4084792187605047
 20
0.7221296345734558
 10
0.3979147728506547
 20
0.7012971464493703
 10
0.3665069060236092
 20
0.6624859148712901
 10
0.3236780325901378
 20
0.6145425673205267
 10
0.3236780325901378
 20
0.6079788975671577
 10
0.3325293571068357
 20
0.6079788975671577
 10
0.3784990024241068
 20
0.6176817054616777
 10
0.4173305432772026
 20
0.6476463095584393
 10
0.4361752732393711
 20
0.6667665318764123
 10
0.4398870855875501
 20
0.6810353977572774
 10
0.4621581076657079
 20
0.7229857674765086
  0
ARC
  5
292
330
1F
100
AcDbEntity
  8
Cut
100
AcDbCircle
 10
0.8162356278724828
 20
0.8248004826519448
 30
0.0
 40
0.0153581320603536
100
AcDbArc
 50
107.2030345989964
 51
318.3611265268592
  0
ARC
  5
293
330
1F
100
AcDbEntity
  8
Cut
100
AcDbCircle
 10
0.8689060828725661
 20
0.854401603660124
 30
0.0
 40
0.0150169880533075
100
AcDbArc
 50
313.3103031564985
 51
123.5254104595633
  0
LWPOLYLINE
  5
294
330
1F
100
AcDbEntity
  8
Cut
100
AcDbPolyline
 90
        4
 70
     0
 43
0.0
 10
0.8606120989129522
 20
0.8669203799689668
 10
0.8360096571364792
 20
0.8589144445919529
 10
0.8185591321367269
 20
0.8440463331891052
 10
0.8116933275484541
 20
0.8394715333351641
  0
LWPOLYLINE
  5
295
330
1F
100
AcDbEntity
  8
Cut
100
AcDbPolyline
 90
        4
 70
     0
 43
0.0
 10
0.8277134889247365
 20
0.8145960264661198
 10
0.8494552034542692
 20
0.8257470862631848
 10
0.8700525678894024
 20
0.8323233937164573
 10
0.8792069740071042
 20
0.843474501023671
  0
ARC
  5
296
330
1F
100
AcDbEntity
  8
Cut
100
AcDbCircle
 10
0.9044856906472613
 20
0.8444546500209366
 30
0.0
 40
0.0094297804433899
100
AcDbArc
 50
112.0301055207363
 51
323.9074889638092
  0
ARC
  5
297
330
1F
100
AcDbEntity
  8
Cut
100
AcDbCircle
 10
0.9444199883559457
 20
0.8566428565746406
 30
0.0
 40
0.0087903136175988
100
AcDbArc
 50
289.075237918972
 51
103.0877670384835
  0
LWPOLYLINE
  5
298
330
1F
100
AcDbEntity
  8
Cut
100
AcDbPolyline
 90
        5
 70
     0
 43
0.0
 10
0.942429480265666
 20
0.8652048359625085
 10
0.9338472491951677
 20
0.8652048359625085
 10
0.9258371438421804
 20
0.8700655518991666
 10
0.9109612832306055
 20
0.8629174122804599
 10
0.900948639206952
 20
0.8531959328969875
  0
LWPOLYLINE
  5
299
330
1F
100
AcDbEntity
  8
Cut
100
AcDbPolyline
 90
        3
 70
     0
 43
0.0
 10
0.91210558399532
 20
0.838899653659574
 10
0.9329890112892087
 20
0.8437604171063881
 10
0.9472927461832725
 20
0.8483352169603293
  0
ARC
  5
29A
330
1F
100
AcDbEntity
  8
Cut
100
AcDbCircle
 10
0.7414310989289869
 20
0.7452823548553246
 30
0.0
 40
0.0216083204833481
100
AcDbArc
 50
129.742556225887
 51
338.4115089656043
  0
LWPOLYLINE
  5
29B
330
1F
100
AcDbEntity
  8
Cut
100
AcDbPolyline
 90
        9
 70
     0
 43
0.0
 10
0.7276160545445336
 20
0.7618975305319964
 10
0.7432242636991476
 20
0.7776769341220558
 10
0.7647132696373676
 20
0.7994016364302716
 10
0.7834109897317135
 20
0.8081598739553612
 10
0.7889725667078764
 20
0.8054701818332361
 10
0.7934576712398567
 20
0.7936356410182271
 10
0.7877167315193532
 20
0.7726562040001852
 10
0.7739025444456616
 20
0.7500629422068457
 10
0.7615236046345117
 20
0.7373318373511282
  0
ARC
  5
29C
330
1F
100
AcDbEntity
  8
Cut
100
AcDbCircle
 10
0.6998075521038406
 20
0.7224927655815831
 30
0.0
 40
0.0174116382071229
100
AcDbArc
 50
317.6883888357016
 51
151.2644775269509
  0
ARC
  5
29D
330
1F
100
AcDbEntity
  8
Cut
100
AcDbCircle
 10
0.6601877877289447
 20
0.678790050901357
 30
0.0
 40
0.0130360034137776
100
AcDbArc
 50
122.216501616596
 51
328.7302639290294
  0
LWPOLYLINE
  5
29E
330
1F
100
AcDbEntity
  8
Cut
100
AcDbPolyline
 90
        4
 70
     0
 43
0.0
 10
0.6845401873649309
 20
0.7308637105094178
 10
0.6727659801948392
 20
0.7165124145182987
 10
0.6555489576150744
 20
0.6955270026295369
 10
0.6532380340585461
 20
0.6898190267796878
  0
LWPOLYLINE
  5
29F
330
1F
100
AcDbEntity
  8
Cut
100
AcDbPolyline
 90
        3
 70
     0
 43
0.0
 10
0.6713300916463539
 20
0.6720234824640983
 10
0.7026322449527385
 20
0.691254165880828
 10
0.7126833661327723
 20
0.7107719056238793
  0
ARC
  5
2A0
330
1F
100
AcDbEntity
  8
Cut
100
AcDbCircle
 10
0.6181286658564208
 20
0.6675064708630432
 30
0.0
 40
0.0115063150215375
100
AcDbArc
 50
334.2692839273568
 51
174.8535232526805
  0
ARC
  5
2A2
330
1F
100
AcDbEntity
  8
Cut
100
AcDbCircle
 10
0.5624320043193965
 20
0.6308627037574095
 30
0.0
 40
0.0124632491153307
100
AcDbArc
 50
103.2663656199639
 51
306.871751137916
  0
LWPOLYLINE
  5
2A3
330
1F
100
AcDbEntity
  8
Cut
100
AcDbPolyline
 90
        4
 70
     0
 43
0.0
 10
0.606668737058051
 20
0.6685386129613775
 10
0.5897253705771562
 20
0.6587797430898519
 10
0.5730692015378338
 20
0.6530392341954397
 10
0.5595719577073695
 20
0.6429933555077412
  0
LWPOLYLINE
  5
2A4
330
1F
100
AcDbEntity
  8
Cut
100
AcDbPolyline
 90
        4
 70
     0
 43
0.0
 10
0.5699102763289759
 20
0.6208923463785823
 10
0.5986278006502701
 20
0.6303642074339351
 10
0.6221762149904535
 20
0.6447155034250543
 10
0.6284940654081695
 20
0.6625110952507924
  0
ARC
  5
2A5
330
1F
100
AcDbEntity
  8
Cut
100
AcDbCircle
 10
0.5286017785759006
 20
0.6315213010822875
 30
0.0
 40
0.0067560519005764
100
AcDbArc
 50
306.0475477024458
 51
140.5106715374849
  0
ARC
  5
2A6
330
1F
100
AcDbEntity
  8
Cut
100
AcDbCircle
 10
0.4743716830443469
 20
0.6029154757674497
 30
0.0
 40
0.0069765232651194
100
AcDbArc
 50
76.47005121170384
 51
285.9687360523219
  0
LWPOLYLINE
  5
2A7
330
1F
100
AcDbEntity
  8
Cut
100
AcDbPolyline
 90
        5
 70
     0
 43
0.0
 10
0.5233878425317542
 20
0.6358177075121816
 10
0.5098905493716046
 20
0.6283550507004563
 10
0.4955318118758001
 20
0.6157259026266502
 10
0.4803114820552779
 20
0.6094113285897436
 10
0.4760038657395071
 20
0.6096983849160651
  0
LWPOLYLINE
  5
2A8
330
1F
100
AcDbEntity
  8
Cut
100
AcDbPolyline
 90
        4
 70
     0
 43
0.0
 10
0.4762910138513945
 20
0.5962081628835989
 10
0.5001266256331505
 20
0.6019486717780183
 10
0.5233878425317542
 20
0.6151518374841629
 10
0.5325774207167626
 20
0.626058837640663
  0
ARC
  5
2A9
330
1F
100
AcDbEntity
  8
Cut
100
AcDbCircle
 10
0.4511631615716248
 20
0.6036708434504057
 30
0.0
 40
0.0049572660937089
100
AcDbArc
 50
292.1198557123199
 51
112.1198557123199
  0
ARC
  5
2AA
330
1F
100
AcDbEntity
  8
Cut
100
AcDbCircle
 10
0.4074799971575362
 20
0.5925436075176437
 30
0.0
 40
0.0034856130896826
100
AcDbArc
 50
62.45424240913521
 51
292.3383843243291
  0
LWPOLYLINE
  5
2AB
330
1F
100
AcDbEntity
  8
Cut
100
AcDbPolyline
 90
        3
 70
     0
 43
0.0
 10
0.4090919428109672
 20
0.5956340977411117
 10
0.432353159709578
 20
0.6010875978193653
 10
0.4492965261904658
 20
0.6082632458149249
  0
LWPOLYLINE
  5
2AC
330
1F
100
AcDbEntity
  8
Cut
100
AcDbPolyline
 90
        4
 70
     0
 43
0.0
 10
0.4530297969527837
 20
0.5990784410858865
 10
0.4421171327777245
 20
0.5924768107226655
 10
0.4318449415169178
 20
0.5901806451730139
 10
0.4088047946990799
 20
0.5893195712143608
  0
ARC
  5
2AD
330
1F
100
AcDbEntity
  8
Cut
100
AcDbCircle
 10
0.3589941243306471
 20
0.5940919556098533
 30
0.0
 40
0.0040687631854888
100
AcDbArc
 50
66.96115576901061
 51
290.3094525100394
  0
ARC
  5
2AE
330
1F
100
AcDbEntity
  8
Cut
100
AcDbCircle
 10
0.3894017266671064
 20
0.5960361998956678
 30
0.0
 40
0.0034389557667493
100
AcDbArc
 50
276.0119271787258
 51
96.01192717872583
  0
LWPOLYLINE
  5
2AF
330
1F
100
AcDbEntity
  8
Cut
100
AcDbPolyline
 90
        4
 70
     0
 43
0.0
 10
0.3605864555697025
 20
0.5978361931937571
 10
0.3683305752468158
 20
0.5978361931937571
 10
0.3809372702258997
 20
0.5978361931937571
 10
0.3890415459526366
 20
0.5994562417987126
  0
LWPOLYLINE
  5
2B0
330
1F
100
AcDbEntity
  8
Cut
100
AcDbPolyline
 90
        4
 70
     0
 43
0.0
 10
0.3897619073815761
 20
0.5926161579926231
 10
0.3811173235858689
 20
0.5879361231564247
 10
0.3740936146673874
 20
0.5879361231564247
 10
0.360406352880048
 20
0.5902761405745239
  0
LWPOLYLINE
  5
2B1
330
1F
100
AcDbEntity
  8
Cut
100
AcDbPolyline
 90
       12
 70
     0
 43
0.0
 10
0.3377406933005886
 20
0.5963193841447563
 10
0.3205767737861578
 20
0.5963193841447563
 10
0.3131691812382868
 20
0.5963193841447563
 10
0.3131691812382868
 20
0.5898185228096935
 10
0.3110010921358182
 20
0.5865681158972365
 10
0.3158792556191017
 20
0.5840400057952735
 10
0.3200347391781193
 20
0.5840400057952735
 10
0.3229255082048397
 20
0.5894573981595173
 10
0.3288876915745078
 20
0.592527218991819
 10
0.3344885843117353
 20
0.592527218991819
 10
0.3388247131869804
 20
0.592527218991819
 10
0.3377406933005886
 20
0.5963193841447563
  0
ARC
  5
2BD
330
1F
100
AcDbEntity
  8
Cut
100
AcDbCircle
 10
0.2313865947061732
 20
0.5815748620783352
 30
0.0
 40
0.003897737141942
100
AcDbArc
 50
79.10875306081592
 51
259.1087530608167
  0
ARC
  5
2BE
330
1F
100
AcDbEntity
  8
Cut
100
AcDbCircle
 10
0.2552478792841546
 20
0.5792194582183581
 30
0.0
 40
0.0054629337002171
100
AcDbArc
 50
255.9565051595492
 51
75.95650515954925
  0
ARC
  5
2BF
330
1F
100
AcDbEntity
  8
Cut
100
AcDbCircle
 10
0.1902921646385978
 20
0.5821637120763849
 30
0.0
 40
0.0035818919468027
100
AcDbArc
 50
80.53268696420241
 51
260.5326869642031
  0
ARC
  5
2C0
330
1F
100
AcDbEntity
  8
Cut
100
AcDbCircle
 10
0.206494270840166
 20
0.5808387979691986
 30
0.0
 40
0.004620590510999
100
AcDbArc
 50
247.5096893139765
 51
67.50968931397759
  0
ARC
  5
2C1
330
1F
100
AcDbEntity
  8
Cut
100
AcDbCircle
 10
0.2335959735345487
 20
0.549924133749178
 30
0.0
 40
0.003398681854827
100
AcDbArc
 50
85.02757918594909
 51
265.02757918595
  0
ARC
  5
2C2
330
1F
100
AcDbEntity
  8
Cut
100
AcDbCircle
 10
0.2505345367423155
 20
0.5505129850364872
 30
0.0
 40
0.0041899717031292
100
AcDbArc
 50
251.5558058819058
 51
71.55580588190574
  0
ARC
  5
2C3
330
1F
100
AcDbEntity
  8
Cut
100
AcDbCircle
 10
0.2839697936399981
 20
0.5803971595037167
 30
0.0
 40
0.0041638482386673
100
AcDbArc
 50
81.86558720812875
 51
261.8655872081272
  0
ARC
  5
2C4
330
1F
100
AcDbEntity
  8
Cut
100
AcDbCircle
 10
0.3093039922303768
 20
0.5668535927882017
 30
0.0
 40
0.0070723468457196
100
AcDbArc
 50
87.61276483831361
 51
267.6127648383145
  0
ARC
  5
2C5
330
1F
100
AcDbEntity
  8
Cut
100
AcDbCircle
 10
0.2645272667187681
 20
0.5622899991793346
 30
0.0
 40
0.0037271787396786
100
AcDbArc
 50
80.90488245127254
 51
260.9048824512731
  0
ARC
  5
2C6
330
1F
100
AcDbEntity
  8
Cut
100
AcDbCircle
 10
0.2880939638084024
 20
0.5583152568577765
 30
0.0
 40
0.0048559416213291
100
AcDbArc
 50
255.9565138320957
 51
75.95651383209577
  0
ARC
  5
2C7
330
1F
100
AcDbEntity
  8
Cut
100
AcDbCircle
 10
0.335521945476017
 20
0.5672952312536836
 30
0.0
 40
0.0025710325176115
100
AcDbArc
 50
256.7526212154962
 51
76.75262121549862
  0
ARC
  5
2C8
330
1F
100
AcDbEntity
  8
Cut
100
AcDbCircle
 10
0.2163628254416947
 20
0.5646454030393116
 30
0.0
 40
0.0049662257741128
100
AcDbArc
 50
78.01762687655806
 51
258.0176268765581
  0
ARC
  5
2C9
330
1F
100
AcDbEntity
  8
Cut
100
AcDbCircle
 10
0.1879354959709385
 20
0.5491880696400415
 30
0.0
 40
0.0047200080453576
100
AcDbArc
 50
86.42176498159576
 51
266.4217649815963
  0
ARC
  5
2CA
330
1F
100
AcDbEntity
  8
Cut
100
AcDbCircle
 10
0.2098819866056311
 20
0.5475687298892009
 30
0.0
 40
0.0031779771850994
100
AcDbArc
 50
256.6005549044357
 51
76.60055490443472
  0
ARC
  5
2CB
330
1F
100
AcDbEntity
  8
Cut
100
AcDbCircle
 10
0.1676945613161897
 20
0.5720060376843782
 30
0.0
 40
0.0052358246001583
100
AcDbArc
 50
355.1613882962106
 51
234.6246237201587
  0
LWPOLYLINE
  5
2CC
330
1F
100
AcDbEntity
  8
Cut
100
AcDbPolyline
 90
        3
 70
     0
 43
0.0
 10
0.1908813318055129
 20
0.5856968172217208
 10
0.198835092463753
 20
0.5856968172217208
 10
0.2082617723409106
 20
0.5851079659344114
  0
LWPOLYLINE
  5
2CD
330
1F
100
AcDbEntity
  8
Cut
100
AcDbPolyline
 90
        4
 70
     0
 43
0.0
 10
0.2047267693394214
 20
0.5765696300039858
 10
0.1994242622339275
 20
0.5765696300039858
 10
0.1929434207946041
 20
0.578630606931049
 10
0.1897029974716826
 20
0.578630606931049
  0
LWPOLYLINE
  5
2CE
330
1F
100
AcDbEntity
  8
Cut
100
AcDbPolyline
 90
       13
 70
     0
 43
0.0
 10
0.1646633811631322
 20
0.5677368684299058
 10
0.1705550580387998
 20
0.5621427863575073
 10
0.1785088186970407
 20
0.5589041068558261
 10
0.1861679944701935
 20
0.5589041068558261
 10
0.1861679944701935
 20
0.5636149145757803
 10
0.1861679944701935
 20
0.5636149145757803
 10
0.1861679944701935
 20
0.5636149145757803
 10
0.1861679944701935
 20
0.5636149145757803
 10
0.1826329914687044
 20
0.5636149145757803
 10
0.1826329914687044
 20
0.5665591684338068
 10
0.1779196489268662
 20
0.5665591684338068
 10
0.1779196489268662
 20
0.5665591684338068
 10
0.1729117267064595
 20
0.5715643992188966
  0
LWPOLYLINE
  5
2CF
330
1F
100
AcDbEntity
  8
Cut
100
AcDbPolyline
 90
        3
 70
     0
 43
0.0
 10
0.1876409136891111
 20
0.5444772632093469
 10
0.196183838911006
 20
0.5444772632093469
 10
0.2091455269961723
 20
0.5444772632093469
  0
LWPOLYLINE
  5
2D0
330
1F
100
AcDbEntity
  8
Cut
100
AcDbPolyline
 90
        3
 70
     0
 43
0.0
 10
0.1882300782527659
 20
0.5538988760707362
 10
0.1991296773488402
 20
0.5538988760707362
 10
0.21061844621509
 20
0.550660196569055
  0
LWPOLYLINE
  5
2D1
330
1F
100
AcDbEntity
  8
Cut
100
AcDbPolyline
 90
        9
 70
     0
 43
0.0
 10
0.2153317835504085
 20
0.5597873837867895
 10
0.225347627991221
 20
0.5597873837867895
 10
0.2321230543156316
 20
0.5597873837867895
 10
0.2321230543156316
 20
0.5633204889321255
 10
0.2321230543156316
 20
0.5633204889321255
 10
0.2285880513141425
 20
0.5633204889321255
 10
0.2285880513141425
 20
0.5668535940774615
 10
0.2224017947599064
 20
0.5668535940774615
 10
0.2173938673329809
 20
0.5695034222918336
  0
LWPOLYLINE
  5
2D2
330
1F
100
AcDbEntity
  8
Cut
100
AcDbPolyline
 90
        5
 70
     0
 43
0.0
 10
0.2306501350967149
 20
0.5777473325786043
 10
0.2422139194989192
 20
0.5742910157369541
 10
0.2446908029462434
 20
0.5735506963331991
 10
0.2501961598199633
 20
0.5735506963331991
 10
0.2539222525077811
 20
0.5739198017896139
  0
LWPOLYLINE
  5
2D3
330
1F
100
AcDbEntity
  8
Cut
100
AcDbPolyline
 90
        5
 70
     0
 43
0.0
 10
0.2321230543156316
 20
0.5854023915780662
 10
0.2382227941318771
 20
0.5880711126030862
 10
0.2456970759771542
 20
0.5871282641415636
 10
0.2533164895592961
 20
0.5842271901671339
 10
0.2565735060605281
 20
0.5845191146471023
  0
LWPOLYLINE
  5
2D4
330
1F
100
AcDbEntity
  8
Cut
100
AcDbPolyline
 90
        4
 70
     0
 43
0.0
 10
0.2338905584196365
 20
0.5533100247834271
 10
0.2402546384479844
 20
0.5524604387851682
 10
0.2469306983437649
 20
0.5524604387851682
 10
0.251860163518689
 20
0.5544877273580453
  0
LWPOLYLINE
  5
2D5
330
1F
100
AcDbEntity
  8
Cut
100
AcDbPolyline
 90
        4
 70
     0
 43
0.0
 10
0.233301388649461
 20
0.5465382427149291
 10
0.2389484528162011
 20
0.5445550133007182
 10
0.2448262855559653
 20
0.5445550133007182
 10
0.249208909965942
 20
0.5465382427149291
  0
LWPOLYLINE
  5
2D7
330
1F
100
AcDbEntity
  8
Cut
100
AcDbPolyline
 90
        5
 70
     0
 43
0.0
 10
0.2651164364889427
 20
0.5659703171464978
 10
0.2698615023553632
 20
0.5670383320901396
 10
0.2758118983603
 20
0.5660229550387555
 10
0.282052563045486
 20
0.5641372581157098
 10
0.2892722981422322
 20
0.5630260632884712
  0
LWPOLYLINE
  5
2D9
330
1F
100
AcDbEntity
  8
Cut
100
AcDbPolyline
 90
        5
 70
     0
 43
0.0
 10
0.2639380969485936
 20
0.5586096812121713
 10
0.2690632751993469
 20
0.5567395224462111
 10
0.2763198620425866
 20
0.5567395224462111
 10
0.2821976947823508
 20
0.5543461357082138
 10
0.2869156294745725
 20
0.5536044504270819
  0
LWPOLYLINE
  5
2DA
330
1F
100
AcDbEntity
  8
Cut
100
AcDbPolyline
 90
        8
 70
     0
 43
0.0
 10
0.2845589608069128
 20
0.5845191146471023
 10
0.2893453456137376
 20
0.5862571681356035
 10
0.2966744957221499
 20
0.5853143196740809
 10
0.3008833160912285
 20
0.5825583003008541
 10
0.2999399571983474
 20
0.5799473355288312
 10
0.2963842322484202
 20
0.5782066906284693
 10
0.2891276506117002
 20
0.5768286809418562
 10
0.2833806264730834
 20
0.5762752043603312
  0
LWPOLYLINE
  5
2DC
330
1F
100
AcDbEntity
  8
Cut
100
AcDbPolyline
 90
        6
 70
     0
 43
0.0
 10
0.3095985771154641
 20
0.5739198017896139
 10
0.3148749474920223
 20
0.5739198017896139
 10
0.3213702057844179
 20
0.5739198017896139
 10
0.3256760496482585
 20
0.570873036319723
 10
0.3302738178656153
 20
0.5692683283764466
 10
0.3361111126429321
 20
0.569797847935488
  0
LWPOLYLINE
  5
2DD
330
1F
100
AcDbEntity
  8
Cut
100
AcDbPolyline
 90
        5
 70
     0
 43
0.0
 10
0.3090094073452896
 20
0.5597873837867895
 10
0.3193997359226302
 20
0.5597873837867895
 10
0.3250192263609959
 20
0.5618283256191705
 10
0.3310026255803149
 20
0.5640014354234281
 10
0.3349327783091018
 20
0.5647926145718794
  0
ARC
  5
2DE
330
1F
100
AcDbEntity
  8
Cut
100
AcDbCircle
 10
0.9261633488592831
 20
0.7592019116853916
 30
0.0
 40
0.010586387441428
100
AcDbArc
 50
346.7663479957224
 51
166.7663479957238
  0
ARC
  5
2DF
330
1F
100
AcDbEntity
  8
Cut
100
AcDbCircle
 10
0.9254056076005172
 20
0.7331496708287961
 30
0.0
 40
0.0072374666083857
100
AcDbArc
 50
199.5634123417841
 51
19.56341234178646
  0
ARC
  5
2E0
330
1F
100
AcDbEntity
  8
Cut
100
AcDbCircle
 10
0.8556935367505529
 20
0.7010983901887884
 30
0.0
 40
0.0167085532650038
100
AcDbArc
 50
52.57692831534858
 51
310.0889350712377
  0
ARC
  5
2E1
330
1F
100
AcDbEntity
  8
Cut
100
AcDbCircle
 10
0.8847398821922578
 20
0.6828606446183009
 30
0.0
 40
0.0118927188263093
100
AcDbArc
 50
151.043148464749
 51
343.7389909221307
  0
ARC
  5
2E2
330
1F
100
AcDbEntity
  8
Cut
100
AcDbCircle
 10
0.8955330063415479
 20
0.7241316243552881
 30
0.0
 40
0.0148638385071308
100
AcDbArc
 50
11.48431319540403
 51
229.357253393765
  0
ARC
  5
2E3
330
1F
100
AcDbEntity
  8
Cut
100
AcDbCircle
 10
0.878274186692219
 20
0.7111058388796429
 30
0.0
 40
0.0372903902997469
100
AcDbArc
 50
85.80495470184372
 51
147.7052824586253
  0
ARC
  5
2E4
330
1F
100
AcDbEntity
  8
Cut
100
AcDbCircle
 10
0.8316426355397329
 20
0.7294741149191296
 30
0.0
 40
0.0068669153893161
100
AcDbArc
 50
292.9956133004914
 51
122.4286734743083
  0
ARC
  5
2E6
330
1F
100
AcDbEntity
  8
Cut
100
AcDbCircle
 10
0.9127805488489638
 20
0.7843430433820462
 30
0.0
 40
0.008244220224712
100
AcDbArc
 50
291.9290085358923
 51
156.4879082100876
  0
LWPOLYLINE
  5
2E7
330
1F
100
AcDbEntity
  8
Cut
100
AcDbPolyline
 90
       11
 70
     0
 43
0.0
 10
0.8467522060373298
 20
0.7310291404208092
 10
0.8467522060373298
 20
0.7220118187518803
 10
0.8529395715802641
 20
0.7220118187518803
 10
0.8611465096723529
 20
0.7265687765414213
 10
0.8695589894142665
 20
0.7312398627198613
 10
0.8739128543445886
 20
0.7378092717346841
 10
0.8822425882039945
 20
0.739068303385412
 10
0.8830874501570367
 20
0.7413200675313468
 10
0.8830874501570367
 20
0.7441347740030247
 10
0.8818201520209534
 20
0.7455421272388634
 10
0.8810020515792116
 20
0.748296321020451
  0
LWPOLYLINE
  5
2E8
330
1F
100
AcDbEntity
  8
Cut
100
AcDbPolyline
 90
        8
 70
     0
 43
0.0
 10
0.885851586263576
 20
0.7128531581280076
 10
0.8906769991421326
 20
0.7109513170958493
 10
0.8975133781927668
 20
0.713086537328084
 10
0.9027413101646953
 20
0.7147193879989625
 10
0.9074356302353052
 20
0.7174044302825711
 10
0.9095245223878549
 20
0.7227662083974265
 10
0.910514430843316
 20
0.725307110035514
 10
0.9100992596853981
 20
0.7270910092050227
  0
LWPOLYLINE
  5
2E9
330
1F
100
AcDbEntity
  8
Cut
100
AcDbPolyline
 90
        9
 70
     0
 43
0.0
 10
0.9158580870041932
 20
0.7616253755613452
 10
0.9133619721191905
 20
0.7574363544211598
 10
0.9126355064243121
 20
0.7541448126960444
 10
0.9119021644090096
 20
0.7508221150667337
 10
0.9129745237485886
 20
0.7479973778110458
 10
0.9138462825824431
 20
0.74344730466794
 10
0.9152507829258755
 20
0.7390908551148963
 10
0.9159288175744286
 20
0.736428580388036
 10
0.9185859492879258
 20
0.7307262056635829
  0
LWPOLYLINE
  5
2EA
330
1F
100
AcDbEntity
  8
Cut
100
AcDbPolyline
 90
        5
 70
     0
 43
0.0
 10
0.9364686107143731
 20
0.7567784478094377
 10
0.9353012361045287
 20
0.751143702488244
 10
0.9366088743553104
 20
0.7479005673052744
 10
0.932250080186038
 20
0.7399137405461751
 10
0.9322252659131084
 20
0.7355731359940095
  0
LWPOLYLINE
  5
2EB
330
1F
100
AcDbEntity
  8
Cut
100
AcDbPolyline
 90
       29
 70
     0
 43
0.0
 10
0.9052207975775354
 20
0.7876320140154949
 10
0.9015067215372036
 20
0.7858933829386788
 10
0.8962011321720426
 20
0.7843713036452212
 10
0.8920254408878669
 20
0.7843713036452212
 10
0.8896674029055242
 20
0.7805906503364524
 10
0.8851478314076643
 20
0.7794122670327482
 10
0.8815616483174437
 20
0.7759262095499056
 10
0.8793509912884793
 20
0.7749442217444727
 10
0.8760510951195078
 20
0.7734783870380177
 10
0.8739471548964257
 20
0.770132483044963
 10
0.8732593944690574
 20
0.7674811180331092
 10
0.8732593944690574
 20
0.7636513645605132
 10
0.8746840388372412
 20
0.7609018017995242
 10
0.8765016921390742
 20
0.7591342216869293
 10
0.8785649786276987
 20
0.7584468322859417
 10
0.8815125262821281
 20
0.7574648489173058
 10
0.8828094269216101
 20
0.757032783007589
 10
0.8855360320377409
 20
0.7561244072353246
 10
0.8885866387510255
 20
0.7561244072353246
 10
0.8918289416275619
 20
0.7570229507416198
 10
0.8958081284449121
 20
0.7582995343729789
 10
0.8988539268546231
 20
0.7599689115793993
 10
0.9025874856917024
 20
0.7626693793335995
 10
0.9062833510263935
 20
0.7653425835325206
 10
0.9090229627248094
 20
0.7665482303915039
 10
0.9117740096408022
 20
0.7692486955671849
 10
0.9142302998565572
 20
0.7735694403639784
 10
0.9153562605099233
 20
0.775550064885959
 10
0.9158594146667187
 20
0.7766953148048926
  0
LWPOLYLINE
  5
2EC
330
1F
100
AcDbEntity
  8
Cut
100
AcDbPolyline
 90
       25
 70
     0
 43
0.0
 10
0.8279602571829727
 20
0.7352702012367831
 10
0.8248733480936456
 20
0.7336410154101323
 10
0.8213059345069737
 20
0.7336410154101323
 10
0.8183330898514133
 20
0.7315611430939022
 10
0.8154868046033282
 20
0.7295698147274792
 10
0.8144188439543817
 20
0.7270547526456497
 10
0.8118919272987854
 20
0.7238359019571097
 10
0.8105262674911871
 20
0.7220962897691638
 10
0.8105262674911871
 20
0.7201218440653752
 10
0.8105262674911871
 20
0.7155659331546556
 10
0.8105262674911871
 20
0.7118518752629211
 10
0.8123378552987494
 20
0.708533983649446
 10
0.8132792565402207
 20
0.7054141738858406
 10
0.8143311140972997
 20
0.7008272201817003
 10
0.8160749493627106
 20
0.6975790852498776
 10
0.8176280486702008
 20
0.6946862224816388
 10
0.8211479322533898
 20
0.695598516867547
 10
0.8232934416651545
 20
0.6961545966767242
 10
0.8258245896573654
 20
0.7005103278996972
 10
0.8258245896573654
 20
0.7040753525350039
 10
0.8280440248785572
 20
0.7081157143040549
 10
0.8291537372826329
 20
0.7119976312213643
 10
0.8307091445684442
 20
0.7174386462392376
 10
0.8315675766232663
 20
0.7204415521306523
 10
0.8343252691783487
 20
0.7231528805677554
  0
LWPOLYLINE
  5
2ED
330
1F
100
AcDbEntity
  8
Cut
100
AcDbPolyline
 90
       19
 70
     0
 43
0.0
 10
0.8743339368325058
 20
0.6886185142114325
 10
0.8763374837139989
 20
0.6900351114388333
 10
0.8770936057451352
 20
0.6916724969567439
 10
0.8778221181917485
 20
0.6932500938003507
 10
0.8802756223299708
 20
0.695010245747072
 10
0.882291951217347
 20
0.697214418162949
 10
0.8843712894062321
 20
0.6985684089426166
 10
0.8860725613730293
 20
0.6991981735950899
 10
0.888662436692299
 20
0.700156875062122
 10
0.8913024114959959
 20
0.700156875062122
 10
0.8940748624145085
 20
0.6994185905788255
 10
0.8961226959526396
 20
0.6994185905788255
 10
0.8974459121103883
 20
0.6987258507503649
 10
0.8979499917289723
 20
0.6956714966982794
 10
0.8979499917289723
 20
0.6923022616092172
 10
0.8979499917289723
 20
0.6872641521249907
 10
0.8974459121103883
 20
0.6834225941912031
 10
0.8964692523174537
 20
0.6806831211760947
 10
0.8961568455154058
 20
0.6798068385543071
  0
LWPOLYLINE
  5
2EE
330
1F
100
AcDbEntity
  8
Cut
100
AcDbPolyline
 90
        8
 70
     0
 43
0.0
 10
0.865847252436497
 20
0.7143678216000616
 10
0.8682312761587036
 20
0.7104499420745754
 10
0.8682312761587036
 20
0.7050290823478212
 10
0.8662543866581158
 20
0.7008241156445063
 10
0.8668626591490999
 20
0.6971257712491675
 10
0.8681298948069464
 20
0.6930221274603361
 10
0.8681298948069464
 20
0.6897290824584901
 10
0.8664534423195975
 20
0.6883155820327255
  0
LWPOLYLINE
  5
2EF
330
1F
100
AcDbEntity
  8
Cut
100
AcDbPolyline
 90
       39
 70
     0
 43
0.0
 10
0.9223104383676741
 20
0.6943036566916439
 10
0.9308650366067547
 20
0.6943036566916439
 10
0.936293916358605
 20
0.6943036566916439
 10
0.941064749291061
 20
0.6952079846538797
 10
0.9455888192219488
 20
0.6952079846538797
 10
0.9518402561964114
 20
0.6934815422376249
 10
0.9547192064755547
 20
0.6908507718591342
 10
0.9579782690629345
 20
0.6878726567528612
 10
0.960857219342078
 20
0.6852418863743704
 10
0.9649622734507753
 20
0.6814907084434769
 10
0.9696074994939678
 20
0.6730108660316608
 10
0.9729549670498712
 20
0.6669000767850689
 10
0.9729549670498712
 20
0.6610079826260935
 10
0.9729549670498712
 20
0.6549243274150931
 10
0.9729549670498712
 20
0.6507315390582625
 10
0.9696897572988367
 20
0.6454699983012806
 10
0.9689364746480885
 20
0.6442561628448652
 10
0.9656592237841241
 20
0.6430036523607048
 10
0.9615464324645417
 20
0.6430036523607048
 10
0.9598190654209677
 20
0.6430036523607048
 10
0.9561998105175613
 20
0.6453055764418845
 10
0.9531563446286792
 20
0.6484296149770828
 10
0.9505258759828862
 20
0.6511297225896268
 10
0.9464936290429104
 20
0.6545132701880836
 10
0.9436365094912122
 20
0.656910742401854
 10
0.9426276111379365
 20
0.6605969228205653
 10
0.9405712128748859
 20
0.6633921150584521
 10
0.936293916358605
 20
0.6648719246856128
 10
0.9324374798798132
 20
0.6662061300197829
 10
0.9252716464516863
 20
0.667584905993802
 10
0.9212411129369737
 20
0.6697224056370663
 10
0.917886605400711
 20
0.6715013906364257
 10
0.9159767435883425
 20
0.6752305791831424
 10
0.9159767435883425
 20
0.6783546177183406
 10
0.9169638112141731
 20
0.6826296170048689
 10
0.9180950500849331
 20
0.6875290233260146
 10
0.91911399702071
 20
0.6919420922074818
 10
0.9217346441466292
 20
0.6940171290524951
 10
0.9223104383676741
 20
0.6943036566916439
  0
LWPOLYLINE
  5
2F0
330
1F
100
AcDbEntity
  8
Cut
100
AcDbPolyline
 90
       30
 70
     0
 43
0.0
 10
0.8211017348040199
 20
0.6810224053193874
 10
0.815278695477664
 20
0.6810224053193874
 10
0.815278695477664
 20
0.6810224053193874
 10
0.8125781570093595
 20
0.6766363878859419
 10
0.8101180216228422
 20
0.6726408155878456
 10
0.8031262723702949
 20
0.6686234716689281
 10
0.8015228257022943
 20
0.6646591865322456
 10
0.7981471526169149
 20
0.660694901395563
 10
0.7954466089420907
 20
0.6548749926060125
 10
0.7938502032985259
 20
0.6514345982427273
 10
0.7938502032985259
 20
0.6466933845017016
 10
0.7938502032985259
 20
0.6433195235490792
 10
0.7967124909048131
 20
0.6393552384123966
 10
0.7999193790342938
 20
0.6377526551689941
 10
0.8016745999881644
 20
0.6368755158440255
 10
0.8054892409268017
 20
0.6333666377355485
 10
0.8089493064901311
 20
0.6321014408452599
 10
0.8131688991484864
 20
0.6321014408452599
 10
0.820932949848121
 20
0.6360657259819425
 10
0.8256588973741729
 20
0.639608278821862
 10
0.8275999087474517
 20
0.6430664831396138
 10
0.8304384510896422
 20
0.6481237741575963
 10
0.8325790285008318
 20
0.6542845684219523
 10
0.8350573927016514
 20
0.661417546595775
 10
0.8363766639759599
 20
0.6671895803128228
 10
0.8363766639759599
 20
0.6712382139716735
 10
0.8329165932061108
 20
0.6778172388325819
 10
0.8282750433645276
 20
0.6799259028949152
 10
0.8260240326226272
 20
0.6809485409398301
 10
0.8211017348040199
 20
0.6810224053193874
  0
LWPOLYLINE
  5
2F1
330
1F
100
AcDbEntity
  8
Cut
100
AcDbPolyline
 90
       31
 70
     0
 43
0.0
 10
0.8617808772401138
 20
0.6667757150783347
 10
0.858537241494532
 20
0.6667757150783347
 10
0.8558057502665628
 20
0.6667757150783347
 10
0.8538424966410911
 20
0.6639603820264757
 10
0.8527328310956923
 20
0.6619128701270101
 10
0.851967212427313
 20
0.6605001802039431
 10
0.8505001573484252
 20
0.6577932269749728
 10
0.8467422913277173
 20
0.6508593580935778
 10
0.8467422913277173
 20
0.6441677480891666
 10
0.8442822903594988
 20
0.6427174264083102
 10
0.840526499683265
 20
0.6379398943453585
 10
0.8338685012043525
 20
0.6313707864695397
 10
0.8338685012043525
 20
0.6299204647886834
 10
0.8349781667497513
 20
0.6271904472037165
 10
0.8366421680790022
 20
0.6230966435264737
 10
0.8384262056686578
 20
0.6187075246498926
 10
0.8455626776861278
 20
0.6187075246498926
 10
0.8515378046596779
 20
0.6177206959661854
 10
0.8547814456117794
 20
0.6186591377382858
 10
0.8600737010799681
 20
0.6214744707901448
 10
0.8636587751814905
 20
0.6261666899647241
 10
0.8636587751814905
 20
0.6318826663782957
 10
0.8669877770242067
 20
0.6355511283138822
 10
0.8686949531843524
 20
0.639304903137842
 10
0.8686949531843524
 20
0.6426321135199374
 10
0.8686949531843524
 20
0.6509074817417307
 10
0.8706582120163446
 20
0.658415033968169
 10
0.8696339021550407
 20
0.6609744257763906
 10
0.8668170604494962
 20
0.6636191304729846
 10
0.8652711382411384
 20
0.6650705814781885
 10
0.8617808772401138
 20
0.6667757150783347
  0
LWPOLYLINE
  5
2F2
330
1F
100
AcDbEntity
  8
Cut
100
AcDbPolyline
 90
       34
 70
     0
 43
0.0
 10
0.8938176291018073
 20
0.6531145343636254
 10
0.9008370329397425
 20
0.6556812285384029
 10
0.9040548445247535
 20
0.657203295384591
 10
0.9134205923245843
 20
0.6556812285384029
 10
0.9155606541528253
 20
0.6543978814510143
 10
0.9240352958687489
 20
0.6531145343636254
 10
0.9294282506346123
 20
0.6495211640660484
 10
0.9354204237536878
 20
0.6472111382773412
 10
0.9402997657633811
 20
0.643018873359921
 10
0.9445798894198631
 20
0.6383988243610253
 10
0.9491003489592186
 20
0.6335193521201429
 10
0.9523697123920529
 20
0.6259075848779494
 10
0.9539961614641248
 20
0.618464173318206
 10
0.9528833251482229
 20
0.6095663015541875
 10
0.9513424816731932
 20
0.6080262860807291
 10
0.9477474554466311
 20
0.6044331917099414
 10
0.9449222961884702
 20
0.6002406508657319
 10
0.9420974156164962
 20
0.598443964427684
 10
0.9403853661539027
 20
0.598443964427684
 10
0.9376460911789701
 20
0.5998128667842564
 10
0.9340164278445131
 20
0.6016267243697749
 10
0.9290174939290867
 20
0.6041248497787967
 10
0.9268601816472425
 20
0.6067429389933401
 10
0.9212960208938154
 20
0.6099085277879604
 10
0.9146190290310078
 20
0.6111063196061659
 10
0.9061443821085646
 20
0.6140152374361967
 10
0.8986969711115015
 20
0.6152130266758827
 10
0.8921055796392147
 20
0.6164961315575834
 10
0.8903079297861005
 20
0.6183786154705034
 10
0.8885018326753122
 20
0.6218008752297131
 10
0.8885018326753122
 20
0.6272764872345218
 10
0.8885018326753122
 20
0.6389977189808685
 10
0.8909927485298334
 20
0.6473822513942276
 10
0.8938176291018073
 20
0.6531145343636254
  0
LWPOLYLINE
  5
2F4
330
1F
100
AcDbEntity
  8
Cut
100
AcDbPolyline
 90
       28
 70
     0
 43
0.0
 10
0.8343059529902312
 20
0.6052625079430367
 10
0.8361460932506838
 20
0.6068852913063548
 10
0.838310964145335
 20
0.6074803104117437
 10
0.841883006328028
 20
0.6074803104117437
 10
0.844264364312143
 20
0.606398456555211
 10
0.8459931542802497
 20
0.6056130651497158
 10
0.8507589769960945
 20
0.6015842063779382
 10
0.8507589769960945
 20
0.5983386422298214
 10
0.8507589769960945
 20
0.5947685250189685
 10
0.8507589769960945
 20
0.5912524974067189
 10
0.8507589769960945
 20
0.5859514124783023
 10
0.8481611319225139
 20
0.5809748857696611
 10
0.84734930533702
 20
0.5765392834107664
 10
0.8455632868489333
 20
0.5732937218411692
 10
0.8432458481635014
 20
0.5690824608785836
 10
0.841071179742534
 20
0.5682090056212439
 10
0.8361537925251028
 20
0.5662339377552518
 10
0.8314913084360036
 20
0.568688055822729
 10
0.8277027791638449
 20
0.5693912592823636
 10
0.8255379082691947
 20
0.5714467826411829
 10
0.8234271591469104
 20
0.5753414580718111
 10
0.8234271591469104
 20
0.5795065969665725
 10
0.8234271591469104
 20
0.5835094567514459
 10
0.8248884470007995
 20
0.5909201572158045
 10
0.8278110227085777
 20
0.5958966865029654
 10
0.8299889463067607
 20
0.5996052304913077
 10
0.8322740242268087
 20
0.6034962356626361
 10
0.8343059529902312
 20
0.6052625079430367
  0
LWPOLYLINE
  5
2F5
330
1F
100
AcDbEntity
  8
Cut
100
AcDbPolyline
 90
       27
 70
     0
 43
0.0
 10
0.812678195079032
 20
0.6139695512318753
 10
0.8095844498293285
 20
0.6139695512318753
 10
0.8041568300552484
 20
0.6139695512318753
 10
0.800845983346754
 20
0.6126133764463906
 10
0.7981864514276716
 20
0.6096840393223069
 10
0.7938443545671028
 20
0.6067004527314253
 10
0.7899364710371551
 20
0.6029031628163644
 10
0.7880368046368789
 20
0.5986718952165551
 10
0.7866902591362059
 20
0.5956726347422748
 10
0.7866902591362059
 20
0.5905890908134066
 10
0.7866902591362059
 20
0.5879309855521968
 10
0.789773642339803
 20
0.5852186359812275
 10
0.7926513456202418
 20
0.5826872161924159
 10
0.7965581644541438
 20
0.58093312149314
 10
0.7985537884343616
 20
0.5800371205280909
 10
0.8003936344407684
 20
0.579211061203477
 10
0.8032884138070466
 20
0.579211061203477
 10
0.8089874130078751
 20
0.5813128497110905
 10
0.8118640515922681
 20
0.585706857975735
 10
0.8137781191270084
 20
0.5886305580930758
 10
0.8151206203328049
 20
0.5920537593754487
 10
0.8167784432436969
 20
0.5962809894814696
 10
0.818261922475588
 20
0.600063666165153
 10
0.818261922475588
 20
0.6058324999404481
 10
0.8168574580357281
 20
0.6110944609960698
 10
0.8162419354789841
 20
0.6134005754340879
 10
0.812678195079032
 20
0.6139695512318753
  0
LWPOLYLINE
  5
2F6
330
1F
100
AcDbEntity
  8
Cut
100
AcDbPolyline
 90
       23
 70
     0
 43
0.0
 10
0.7783273066091745
 20
0.6358497517868989
 10
0.7760571650925448
 20
0.6343002447840287
 10
0.7750051461333545
 20
0.632086660772838
 10
0.7735101773034741
 20
0.6289876441885789
 10
0.772371409447055
 20
0.6266270194035484
 10
0.7688037854654457
 20
0.6210740886328887
 10
0.7657245563243338
 20
0.6162813340332633
 10
0.7657245563243338
 20
0.613603246785214
 10
0.7649832985753191
 20
0.6084566667311036
 10
0.7662567924698545
 20
0.6068518195477868
 10
0.7703541256324229
 20
0.6068518195477868
 10
0.7743407161207987
 20
0.6068518195477868
 10
0.7780504603367327
 20
0.6100615139144204
 10
0.7802652357227862
 20
0.6130498501377862
 10
0.7838642424710481
 20
0.6155954700746183
 10
0.7867575803359084
 20
0.6176419620842087
 10
0.7876293528175582
 20
0.6221255391687781
 10
0.7876293528175582
 20
0.6289876441885789
 10
0.7867988140002336
 20
0.6300944374834337
 10
0.7840857174063931
 20
0.632086660772838
 10
0.7815940957478987
 20
0.6355177132827384
 10
0.7797669093084796
 20
0.6355177132827384
 10
0.7783273066091745
 20
0.6358497517868989
  0
LWPOLYLINE
  5
2F7
330
1F
100
AcDbEntity
  8
Cut
100
AcDbPolyline
 90
       42
 70
     0
 43
0.0
 10
0.7189670777428692
 20
0.6463507972752316
 10
0.7238394117770355
 20
0.6479180625402737
 10
0.7282637143772757
 20
0.6479180625402737
 10
0.7326320156515358
 20
0.6490375369928696
 10
0.7366642933503505
 20
0.6498771415430569
 10
0.7437207728151272
 20
0.6498771415430569
 10
0.7491531461417012
 20
0.6487576670904609
 10
0.7518535353312343
 20
0.6482011853230977
 10
0.7573297093978129
 20
0.6466306645991211
 10
0.7613619818901079
 20
0.6444476901901144
 10
0.7613619818901079
 20
0.6378987618060572
 10
0.7613619818901079
 20
0.6360516292171257
 10
0.7594578535024415
 20
0.6344843639520837
 10
0.7573593303963424
 20
0.632757094723086
 10
0.7550373086696643
 20
0.6308458664569314
 10
0.7535214474159604
 20
0.6265920682877262
 10
0.7520033314960124
 20
0.6223319430914808
 10
0.7520033314960124
 20
0.6211626169347842
 10
0.7520033314960124
 20
0.6189236654510726
 10
0.7520033314960124
 20
0.6161809538157686
 10
0.7520033314960124
 20
0.6151734257770243
 10
0.7494331683911648
 20
0.6122068187354972
 10
0.7457929155937757
 20
0.6109194233728635
 10
0.7434967570981641
 20
0.6109194233728635
 10
0.7385684217380169
 20
0.6078408673389651
 10
0.7347601597561644
 20
0.6078408673389651
 10
0.727647673758888
 20
0.608512550979115
 10
0.7223833096167756
 20
0.608512550979115
 10
0.7159428707703875
 20
0.608512550979115
 10
0.7115745694961282
 20
0.608512550979115
 10
0.7082143389482028
 20
0.6074490510227047
 10
0.7049024157777692
 20
0.6064008401642072
 10
0.7026139564371654
 20
0.6068333393002208
 10
0.7015208876681021
 20
0.607169181120296
 10
0.7008778372339624
 20
0.6122068187354972
 10
0.7008778372339624
 20
0.6173004282683645
 10
0.70294998001261
 20
0.6238493540739026
 10
0.7060781766255482
 20
0.6337358965141093
 10
0.7098944568254249
 20
0.6398578433873597
 10
0.7133666952318328
 20
0.6428244504288872
 10
0.7170629493552028
 20
0.6450634019125983
 10
0.7189670777428692
 20
0.6463507972752316
  0
LWPOLYLINE
  5
2F8
330
1F
100
AcDbEntity
  8
Cut
100
AcDbPolyline
 90
       33
 70
     0
 43
0.0
 10
0.8715781571900977
 20
0.5968307422137973
 10
0.876924794756638
 20
0.5993667674804475
 10
0.8823620570052179
 20
0.6003630634892772
 10
0.8883430465199593
 20
0.6003630634892772
 10
0.8951396217274245
 20
0.5991856239236238
 10
0.9011206112421668
 20
0.5991856239236238
 10
0.9090952604574766
 20
0.5975553215981316
 10
0.917332749980569
 20
0.5958712853523826
 10
0.9227137270395974
 20
0.5947712219921143
 10
0.9278538146944255
 20
0.5913964045668494
 10
0.9309349289273169
 20
0.5855997746492152
 10
0.9309349289273169
 20
0.5774482656002742
 10
0.9309349289273169
 20
0.5702024820710108
 10
0.9309349289273169
 20
0.563952991972057
 10
0.9263132575779797
 20
0.5585186517465899
 10
0.9237758706112506
 20
0.5510011490143114
 10
0.9216915862286425
 20
0.5482839801908375
 10
0.9161636992980231
 20
0.5442987987340385
 10
0.9139521835636145
 20
0.542704465925354
 10
0.9091858799329965
 20
0.542704465925354
 10
0.9045642085836593
 20
0.5451139486075252
 10
0.9020268216169302
 20
0.5490991300643238
 10
0.8957739684691077
 20
0.5542617536652954
 10
0.8919799813606188
 20
0.5573942320595606
 10
0.8861681426618313
 20
0.558880941438757
 10
0.8772872778652391
 20
0.558880941438757
 10
0.8702188390246927
 20
0.558880941438757
 10
0.8675002079004023
 20
0.5606018142534013
 10
0.8653253040422743
 20
0.5653115750945346
 10
0.8663221338925586
 20
0.5743688070846336
 10
0.8667105830953033
 20
0.5778982705578876
 10
0.8667105830953033
 20
0.5862337809658778
 10
0.8715781571900977
 20
0.5968307422137973
  0
LWPOLYLINE
  5
2F9
330
1F
100
AcDbEntity
  8
Cut
100
AcDbPolyline
 90
       38
 70
     0
 43
0.0
 10
0.8635042456765518
 20
0.543682421753585
 10
0.8591420256173121
 20
0.5424107914577326
 10
0.856479447498344
 20
0.5416346235993546
 10
0.853416613742004
 20
0.5395042097661547
 10
0.8499631916978218
 20
0.5371426110136453
 10
0.8484182402787423
 20
0.5338727082221948
 10
0.8471743676502617
 20
0.531240041246491
 10
0.8443286596240193
 20
0.5281503731801176
 10
0.8432381072124686
 20
0.5215197340990994
 10
0.8467824090581572
 20
0.5187039833271197
 10
0.8513263835138893
 20
0.514889092439562
 10
0.8565065217866818
 20
0.5134358028830324
 10
0.8622319284554702
 20
0.507804301339073
 10
0.8723195603900188
 20
0.503807748612319
 10
0.8758021239262028
 20
0.5024280146086464
 10
0.8783176064633249
 20
0.496813785852909
 10
0.8822254275150367
 20
0.4920905909264098
 10
0.886860286978794
 20
0.4880940407781753
 10
0.8897843433263393
 20
0.4855726832439051
 10
0.8944941642726851
 20
0.4855726832439051
 10
0.8977658319203758
 20
0.4888206855564401
 10
0.8977658319203758
 20
0.4918180981676157
 10
0.8977658319203758
 20
0.4963596338334382
 10
0.8977658319203758
 20
0.5011736596795351
 10
0.8977658319203758
 20
0.5047160578082988
 10
0.8964935146992942
 20
0.5093484218152003
 10
0.8964935146992942
 20
0.5137082956418264
 10
0.8989472641334312
 20
0.5182498287291298
 10
0.9012983409706311
 20
0.5226013297823297
 10
0.9012983409706311
 20
0.527242066562657
 10
0.9012983409706311
 20
0.5304211410130289
 10
0.8975840723173638
 20
0.5333277227046067
 10
0.893040092655112
 20
0.5355076596179198
 10
0.8864336326102851
 20
0.5386770545511071
 10
0.8774088136547861
 20
0.5386770545511071
 10
0.8736827522060872
 20
0.5409574993226838
 10
0.8687752585443311
 20
0.5425016223773303
 10
0.8635042456765518
 20
0.543682421753585
  0
LWPOLYLINE
  5
2FA
330
1F
100
AcDbEntity
  8
Cut
100
AcDbPolyline
 90
       29
 70
     0
 43
0.0
 10
0.8469502464274691
 20
0.4975808102428494
 10
0.8445873767948368
 20
0.5005782228540255
 10
0.8421038461890447
 20
0.5037286996536067
 10
0.8369534995009457
 20
0.5047564348414558
 10
0.8330456784492348
 20
0.5034848071241225
 10
0.8278655453829619
 20
0.4961275206863203
 10
0.8242741581667612
 20
0.4910267126335917
 10
0.8200499032795391
 20
0.4814129503892351
 10
0.8200499032795391
 20
0.4788696897975298
 10
0.8200499032795391
 20
0.4732381882535704
 10
0.8244121233387797
 20
0.4698774519640026
 10
0.8285925785884886
 20
0.4645184406003176
 10
0.8334348621933118
 20
0.4583110178881046
 10
0.839589003331576
 20
0.4528012829144079
 10
0.8423715632168802
 20
0.4503100876083494
 10
0.8484951978465486
 20
0.4456256583158016
 10
0.8519486198907308
 20
0.4456256583158016
 10
0.8567652389575002
 20
0.4467156267724582
 10
0.8594007427881296
 20
0.4542545750494567
 10
0.8594007427881296
 20
0.4608852141304749
 10
0.8621271316267851
 20
0.4676066841310913
 10
0.8635783574669828
 20
0.4711844463382672
 10
0.8635783574669828
 20
0.4776888904212755
 10
0.8635783574669828
 20
0.4826845781065683
 10
0.8617636124207619
 20
0.4876802657918616
 10
0.8594916225896351
 20
0.489224388846508
 10
0.8543114895233623
 20
0.4915859850204978
 10
0.8493161224459894
 20
0.4938633473250315
 10
0.8469502464274691
 20
0.4975808102428494
  0
LWPOLYLINE
  5
2FB
330
1F
100
AcDbEntity
  8
Cut
100
AcDbPolyline
 90
       57
 70
     0
 43
0.0
 10
0.8890363206516989
 20
0.4458432698705779
 10
0.8899701412004743
 20
0.4482124597838007
 10
0.8910921393401423
 20
0.4510590738132758
 10
0.8927715976402819
 20
0.4524841791938253
 10
0.8942800721822861
 20
0.453525186726695
 10
0.8961477132798378
 20
0.4539559489979208
 10
0.8977280221742551
 20
0.4539559489979208
 10
0.8993442456416191
 20
0.4517662446536348
 10
0.8993442456416191
 20
0.4488586031906397
 10
0.8993442456416191
 20
0.4464176195655459
 10
0.8973688608252272
 20
0.4417869315961665
 10
0.8948547313820345
 20
0.4374434158957517
 10
0.8933211630195611
 20
0.4347939587335127
 10
0.8852264186161393
 20
0.422234437736444
 10
0.8789184203655807
 20
0.4124471692905283
 10
0.8697836937270446
 20
0.4030332800190548
 10
0.8640845956023417
 20
0.4014701919552209
 10
0.8584774133765655
 20
0.4040438687601658
 10
0.853696452915604
 20
0.4074122428739341
 10
0.8498368450840638
 20
0.4063406564309711
 10
0.8473549752369819
 20
0.4063406564309711
 10
0.8444135050691832
 20
0.4110261069924821
 10
0.8444135050691832
 20
0.4131391545375647
 10
0.8474468963424302
 20
0.417365244470691
 10
0.8474468963424302
 20
0.4208563661653689
 10
0.8509398931429137
 20
0.4248068433313917
 10
0.8545538868038009
 20
0.4288941644058083
 10
0.8583660138709568
 20
0.4332055685647506
 10
0.8620623312824973
 20
0.4393225504872702
 10
0.8639461629757519
 20
0.4424400761566651
 10
0.8661068547156656
 20
0.4435486429989162
 10
0.8673476081540973
 20
0.444185225300707
 10
0.8704271414651767
 20
0.444185225300707
 10
0.8726332479959157
 20
0.4414355980323528
 10
0.8740334901543816
 20
0.4396903767714707
 10
0.8726332479959157
 20
0.4359233040124924
 10
0.8711645505394457
 20
0.4319720659027137
 10
0.8682210401409573
 20
0.4276548616934428
 10
0.8659971355210817
 20
0.4243930928915139
 10
0.8640317884344293
 20
0.4215105466910551
 10
0.8640317884344293
 20
0.4194782920157736
 10
0.862889621231524
 20
0.417365244470691
 10
0.8616825747385018
 20
0.4151321680678726
 10
0.8616825747385018
 20
0.4106586215839978
 10
0.8627977001260767
 20
0.4095561627800258
 10
0.8645066111112191
 20
0.4078666631221694
 10
0.8663826180320084
 20
0.4078666631221694
 10
0.8663826180320084
 20
0.4078666631221694
 10
0.8696917726215973
 20
0.4090049320887799
 10
0.8696917726215973
 20
0.4125879238463189
 10
0.8725413268904684
 20
0.41543594220837
 10
0.8753908759528199
 20
0.4211319789324724
 10
0.8779831419837712
 20
0.4263137260046768
 10
0.881457658499313
 20
0.4295841639557639
 10
0.8837556861354993
 20
0.4339021291087906
 10
0.8853183397215866
 20
0.4395981658328929
 10
0.8890363206516989
 20
0.4458432698705779
  0
LWPOLYLINE
  5
2FC
330
1F
100
AcDbEntity
  8
Cut
100
AcDbPolyline
 90
       35
 70
     0
 43
0.0
 10
0.8085822624702654
 20
0.4613753519647959
 10
0.8076603075799049
 20
0.4613753519647959
 10
0.8020133423370392
 20
0.4613753519647959
 10
0.8013218748676385
 20
0.4602235299880313
 10
0.7984407690893356
 20
0.4587837492939269
 10
0.7966544850687445
 20
0.4539460938972933
 10
0.7944072209997124
 20
0.4496267595505375
 10
0.7944072209997124
 20
0.4460561085861965
 10
0.7944072209997124
 20
0.442197504061554
 10
0.796769726175965
 20
0.4386844443249776
 10
0.7975019717278251
 20
0.4375955906829266
 10
0.8013794954212487
 20
0.4365535714762219
 10
0.8037996263576312
 20
0.4341347450671651
 10
0.8061334623570246
 20
0.4318021670793896
 10
0.8118954607579262
 20
0.4260432745783597
 10
0.8127310516671091
 20
0.4241138869073127
 10
0.8141494208269065
 20
0.4208388584934891
 10
0.8202219266906967
 20
0.417087770012679
 10
0.8239673615992302
 20
0.4138626664149232
 10
0.826906093137663
 20
0.4138626664149232
 10
0.8299024400231855
 20
0.4138626664149232
 10
0.8334173875107593
 20
0.4190458665996224
 10
0.83474269668943
 20
0.4224437438806708
 10
0.8362408727354511
 20
0.4262447597560684
 10
0.8362408727354511
 20
0.433846788928344
 10
0.8341664755337694
 20
0.4381085320473357
 10
0.8323953788678585
 20
0.4417471597040334
 10
0.8309396360207665
 20
0.4433493260383186
 10
0.8263874925356118
 20
0.4473807068247729
 10
0.8226420524205586
 20
0.4492812121839523
 10
0.8195304592212959
 20
0.4519304060825853
 10
0.8160094810925919
 20
0.4549281481325402
 10
0.8131267532131621
 20
0.4573824873152503
 10
0.8103109259372471
 20
0.4606266660038614
 10
0.8085822624702654
 20
0.4613753519647959
  0
LWPOLYLINE
  5
2FD
330
1F
100
AcDbEntity
  8
Cut
100
AcDbPolyline
 90
       27
 70
     0
 43
0.0
 10
0.8181091886778837
 20
0.5497992857141885
 10
0.8155133116687531
 20
0.5513745082896793
 10
0.810377088469802
 20
0.554491256389566
 10
0.8051298036322291
 20
0.5509112076838596
 10
0.8020703797604422
 20
0.5460002243563929
 10
0.7993641510803719
 20
0.5416561895037211
 10
0.7945284876144365
 20
0.5338939886274564
 10
0.7900180936466202
 20
0.5288581148336573
 10
0.7876240434723638
 20
0.52618514776701
 10
0.7823231699091507
 20
0.5186655066626602
 10
0.7842700802692591
 20
0.5162563471223245
 10
0.7895826363054946
 20
0.5096824465871441
 10
0.7933556498012173
 20
0.506434380467391
 10
0.8003088891867005
 20
0.5046738397123876
 10
0.8044808369832061
 20
0.5028206372891085
 10
0.8110632367959569
 20
0.5028206372891085
 10
0.8169966699596846
 20
0.5068050194049354
 10
0.8210759052597476
 20
0.514032505761501
 10
0.8223738437643133
 20
0.5206113681756959
 10
0.8257113999189096
 20
0.5263562910465263
 10
0.8297621043290495
 20
0.5333287533305659
 10
0.8340552903054021
 20
0.5366415583072795
 10
0.8340552903054021
 20
0.54099658193917
 10
0.8340552903054021
 20
0.5447029842072091
 10
0.8275655977825744
 20
0.5479460858694285
 10
0.8213540375425569
 20
0.5479460858694285
 10
0.8181091886778837
 20
0.5497992857141885
  0
LWPOLYLINE
  5
2FE
330
1F
100
AcDbEntity
  8
Cut
100
AcDbPolyline
 90
       26
 70
     0
 43
0.0
 10
0.7652399852034506
 20
0.5821482125970881
 10
0.7705286013143624
 20
0.5830194942564351
 10
0.7730276162308432
 20
0.5823224689289575
 10
0.7768051961920551
 20
0.5787792585666254
 10
0.7796243735154861
 20
0.5761349893762447
 10
0.7825421050846457
 20
0.5733982804682926
 10
0.7862200937151132
 20
0.5686143127502943
 10
0.7891259252555099
 20
0.5659423840473093
 10
0.7891259252555099
 20
0.5623991736849776
 10
0.7891259252555099
 20
0.5564163772549931
 10
0.785348345294298
 20
0.5503754945215454
 10
0.7836048484526677
 20
0.5481101622072431
 10
0.7829265464014807
 20
0.5472288416801725
 10
0.7782794739184617
 20
0.5411908820972666
 10
0.7761077984967067
 20
0.5385260716899829
 10
0.7739574850311604
 20
0.5385260716899829
 10
0.7687850992662133
 20
0.5385260716899829
 10
0.7662279691767502
 20
0.5406752313973593
 10
0.7641938860571687
 20
0.5434633301287511
 10
0.7627409702869699
 20
0.5540929612157468
 10
0.7586146888748245
 20
0.5595529886501232
 10
0.7569874223791589
 20
0.5636189680080635
 10
0.7604163060959568
 20
0.5776175505470027
 10
0.7625666195615031
 20
0.5802894792499873
 10
0.7633915943351035
 20
0.5813145734105084
 10
0.7652399852034506
 20
0.5821482125970881
  0
LWPOLYLINE
  5
2FF
330
1F
100
AcDbEntity
  8
Cut
100
AcDbPolyline
 90
       31
 70
     0
 43
0.0
 10
0.7352985555461454
 20
0.5734212141476647
 10
0.7408929297334393
 20
0.5772419840591448
 10
0.7430374431360303
 20
0.5806899929117258
 10
0.7430374431360303
 20
0.5846039505094112
 10
0.7430374431360303
 20
0.5878655814110623
 10
0.7412658883596928
 20
0.5901021297148193
 10
0.7357647525273335
 20
0.5920591072244026
 10
0.7275596679562604
 20
0.5920591072244026
 10
0.721592335142713
 20
0.5920591072244026
 10
0.7130142919453864
 20
0.5920591072244026
 10
0.7061145651694627
 20
0.5932705703517458
 10
0.6980027189533243
 20
0.5905680758814041
 10
0.6950190499432907
 20
0.5880519619405118
 10
0.6865786856210188
 20
0.5809342426941538
 10
0.681312834746378
 20
0.5741667311084236
 10
0.6771170515026475
 20
0.5708119099420475
 10
0.6715226773153545
 20
0.5644750260896752
 10
0.6715226773153545
 20
0.5567402985805097
 10
0.6715226773153545
 20
0.5524535850809645
 10
0.6715226773153545
 20
0.5498442782968281
 10
0.6748792997451228
 20
0.5477009202577956
 10
0.6780494454650237
 20
0.5477009202577956
 10
0.6807533942037365
 20
0.5493783321302433
 10
0.6891449606911957
 20
0.5511489316888963
 10
0.6946751704904445
 20
0.5523157921367568
 10
0.7006134293371034
 20
0.5504966049928619
 10
0.707233441048226
 20
0.5521740168653096
 10
0.7087252703467231
 20
0.557392625276544
 10
0.7207531795352713
 20
0.563636321442711
 10
0.7296360464341575
 20
0.568247423932074
 10
0.7352985555461454
 20
0.5734212141476647
  0
LWPOLYLINE
  5
300
330
1F
100
AcDbEntity
  8
Cut
100
AcDbPolyline
 90
       29
 70
     0
 43
0.0
 10
0.7199682446240701
 20
0.5499302022942665
 10
0.7231244733167906
 20
0.5519748082025214
 10
0.7246504626872997
 20
0.5529633445814197
 10
0.7263266214785979
 20
0.5540491607568337
 10
0.7299045230307027
 20
0.5540491607568337
 10
0.7310735012486163
 20
0.5527926500501193
 10
0.733170883957547
 20
0.5505382164007459
 10
0.7321255774795237
 20
0.5458409930562756
 10
0.7315033930021988
 20
0.5430451245594265
 10
0.7293200391282646
 20
0.5392398419215616
 10
0.7274773640036225
 20
0.5360283150395765
 10
0.7265729491672497
 20
0.5309445881592039
 10
0.7240596527672106
 20
0.5255701985066273
 10
0.7210365407537703
 20
0.5191056279436963
 10
0.7198896089219799
 20
0.5166530487059717
 10
0.7152339041882483
 20
0.5147045839150981
 10
0.7131297465199147
 20
0.5147045839150981
 10
0.711726979947545
 20
0.5147045839150981
 10
0.7098566210467059
 20
0.517099693103964
 10
0.7069616486772272
 20
0.520806882628146
 10
0.7062328000255152
 20
0.5274979665499866
 10
0.7062328000255152
 20
0.5341575366171481
 10
0.7062328000255152
 20
0.5387725033545743
 10
0.7075186750239171
 20
0.5406418550440049
 10
0.7105580069361502
 20
0.541401280537674
 10
0.7142711878703766
 20
0.542329077943646
 10
0.7164613255898864
 20
0.5451399864950539
 10
0.7179225405524994
 20
0.5480608506048359
 10
0.7199682446240701
 20
0.5499302022942665
  0
LWPOLYLINE
  5
301
330
1F
100
AcDbEntity
  8
Cut
100
AcDbPolyline
 90
       24
 70
     0
 43
0.0
 10
0.7407886587632433
 20
0.5335817790506625
 10
0.7431533975364504
 20
0.5350589482740969
 10
0.7454590214848916
 20
0.5350589482740969
 10
0.7485331798074526
 20
0.5329909113612885
 10
0.7515482233052478
 20
0.5273776734692768
 10
0.754031202141027
 20
0.5251323788281757
 10
0.756573295801573
 20
0.5213508281947031
 10
0.7556865213648801
 20
0.5129014279722166
 10
0.7548646408496604
 20
0.5050703526493284
 10
0.7541857666488756
 20
0.4986018759028149
 10
0.7507205636933217
 20
0.4950572392242454
 10
0.7489684557655237
 20
0.4932649672836566
 10
0.7456106212976009
 20
0.4898301603276925
 10
0.7422666230997584
 20
0.4887349601049849
 10
0.7383056799274641
 20
0.4887349601049849
 10
0.737478020315538
 20
0.4899757796741504
 10
0.7341082670430659
 20
0.4919847298180211
 10
0.7300173782677309
 20
0.4944236002424244
 10
0.7286102499160112
 20
0.5007295638851948
 10
0.7294379043214177
 20
0.5065200620840185
 10
0.7312705784326097
 20
0.5129014279722166
 10
0.7339904895949041
 20
0.5223721506740862
 10
0.7368277207974696
 20
0.5296229706888967
 10
0.7407886587632433
 20
0.5335817790506625
  0
LWPOLYLINE
  5
302
330
1F
100
AcDbEntity
  8
Cut
100
AcDbPolyline
 90
       27
 70
     0
 43
0.0
 10
0.7704250280178089
 20
0.5025312681217309
 10
0.7756274554014722
 20
0.5035948299626032
 10
0.7814210726849567
 20
0.5020585739702317
 10
0.7863828424517942
 20
0.5007428935992136
 10
0.789520303503843
 20
0.5007428935992136
 10
0.7938950712755802
 20
0.4983361126842159
 10
0.795338139498591
 20
0.4975422079012878
 10
0.7989201437719054
 20
0.4952045165090544
 10
0.8015213574637369
 20
0.4901230569589595
 10
0.8015213574637369
 20
0.4819100038122222
 10
0.7990383838344775
 20
0.4777739325651256
 10
0.7952548007560419
 20
0.4729879094382366
 10
0.7952548007560419
 20
0.4670792377015381
 10
0.7909391478090715
 20
0.4630613399923158
 10
0.7878649842799908
 20
0.4592797893588432
 10
0.7789380938491775
 20
0.4592797893588432
 10
0.7744450860148682
 20
0.4592797893588432
 10
0.7681194092758874
 20
0.4641249018331886
 10
0.763161806155458
 20
0.4679221468889827
 10
0.7621484423115837
 20
0.472751562362487
 10
0.7612922328300984
 20
0.4768320230414833
 10
0.7612922328300984
 20
0.4781875399476872
 10
0.7620302022490116
 20
0.4836826043018241
 10
0.7646314159408432
 20
0.4888822373897939
 10
0.7668779198579978
 20
0.4956181213130964
 10
0.7668779198579978
 20
0.4987497174882583
 10
0.7704250280178089
 20
0.5025312681217309
  0
LWPOLYLINE
  5
303
330
1F
100
AcDbEntity
  8
Cut
100
AcDbPolyline
 90
       23
 70
     0
 43
0.0
 10
0.7425621555714326
 20
0.4576887965595327
 10
0.7459716189697181
 20
0.4596889255890009
 10
0.7483434177836497
 20
0.4603185948362612
 10
0.7517528759754164
 20
0.4595037285998936
 10
0.7550882193591369
 20
0.4566146524755999
 10
0.7587199854739141
 20
0.4534688148318855
 10
0.7660948488808517
 20
0.4514661694742728
 10
0.7684295876875007
 20
0.4498364344230188
 10
0.7706531516788209
 20
0.4437990069053855
 10
0.7662060289027002
 20
0.4401691402461441
 10
0.7639083501033337
 20
0.4401691402461441
 10
0.7635006952297445
 20
0.4401691402461441
 10
0.7602024118533067
 20
0.4401691402461441
 10
0.7553846942108784
 20
0.4386875643332871
 10
0.7513822863156295
 20
0.4386875643332871
 10
0.7460827989915666
 20
0.4396505897080516
 10
0.7450033357053555
 20
0.4398467502934403
 10
0.7430809904668694
 20
0.4427619032506818
 10
0.7406721316456553
 20
0.4444286761526453
 10
0.740190356757501
 20
0.4479474241027189
 10
0.740190356757501
 20
0.4497623561430797
 10
0.741746851030773
 20
0.4574295187119671
 10
0.7425621555714326
 20
0.4576887965595327
  0
LWPOLYLINE
  5
304
330
1F
100
AcDbEntity
  8
Cut
100
AcDbPolyline
 90
       23
 70
     0
 43
0.0
 10
0.7056263862620673
 20
0.4778584022776986
 10
0.7119108221584396
 20
0.4840802068153134
 10
0.7158830634785005
 20
0.485620843711915
 10
0.7202727937176772
 20
0.4873234040116753
 10
0.7220385876800121
 20
0.4864823192625006
 10
0.7268511855804541
 20
0.4832506327050634
 10
0.7292226720032025
 20
0.4780954249254954
 10
0.73249726581133
 20
0.470977015428122
 10
0.73249726581133
 20
0.4648814986912253
 10
0.7301119768084741
 20
0.4594300138911707
 10
0.7278336981445303
 20
0.454223097038786
 10
0.7253690039629764
 20
0.4498899154910761
 10
0.7222267860147893
 20
0.447460447533016
 10
0.7174838131692916
 20
0.447460447533016
 10
0.7146380336272094
 20
0.447460447533016
 10
0.7119108221584396
 20
0.4499491698637655
 10
0.7075555310457223
 20
0.4539235995599062
 10
0.7039663447248392
 20
0.4559339517535835
 10
0.7009427052630058
 20
0.4600818223048329
 10
0.7000533952512154
 20
0.4663628812151371
 10
0.7020098699880269
 20
0.4705107491878673
 10
0.7037291981651724
 20
0.4727031944981306
 10
0.7056263862620673
 20
0.4778584022776986
  0
LWPOLYLINE
  5
305
330
1F
100
AcDbEntity
  8
Cut
100
AcDbPolyline
 90
       32
 70
     0
 43
0.0
 10
0.6700630919934101
 20
0.5277993645097312
 10
0.676038448053828
 20
0.5323495691573195
 10
0.6778644720462723
 20
0.5337400775676997
 10
0.6847643616173862
 20
0.5337400775676997
 10
0.6898860931520927
 20
0.5337400775676997
 10
0.6924469615227063
 20
0.5305484450876179
 10
0.6946284412152251
 20
0.5279889552956645
 10
0.6976385243841099
 20
0.5244572803641431
 10
0.6988965482242211
 20
0.5191729360471662
 10
0.6988965482242211
 20
0.5156654871685085
 10
0.6988965482242211
 20
0.5078922211104216
 10
0.6988965482242211
 20
0.5041951814458306
 10
0.6977583873964593
 20
0.4985074243470855
 10
0.6963976875885773
 20
0.4917075681204738
 10
0.6944387468761786
 20
0.486468343688089
 10
0.6918778785055651
 20
0.4829608948094309
 10
0.6905202721992129
 20
0.4811014729150781
 10
0.6877046186660927
 20
0.4794534459307731
 10
0.6833416592810542
 20
0.4750928320691182
 10
0.6764178367319218
 20
0.4750928320691182
 10
0.6712012528211711
 20
0.4750928320691182
 10
0.6673125344902698
 20
0.4763251812025012
 10
0.6648465132891799
 20
0.4793586492485469
 10
0.6615650749801072
 20
0.4833951669602532
 10
0.6590608515678085
 20
0.4887434460118829
 10
0.6614320255993747
 20
0.4932936506594717
 10
0.6638808970915863
 20
0.497992954167721
 10
0.6652259019672738
 20
0.5055223221044014
 10
0.6665352250541102
 20
0.5128519425741733
 10
0.6665352250541102
 20
0.5192677301508733
 10
0.6676919179618439
 20
0.5219220166250529
 10
0.67006309199341
 20
0.5273631973549003
  0
LWPOLYLINE
  5
306
330
1F
100
AcDbEntity
  8
Cut
100
AcDbPolyline
 90
       30
 70
     0
 43
0.0
 10
0.6804484171053114
 20
0.4388291843468304
 10
0.6821801472124012
 20
0.4408484563033155
 10
0.6838165407394029
 20
0.4427565616976378
 10
0.6855078072704174
 20
0.4447286513801107
 10
0.6876639765732513
 20
0.4447286513801107
 10
0.6898767474492163
 20
0.4460408669588265
 10
0.6920895183251821
 20
0.4460408669588265
 10
0.6976695537571987
 20
0.4431561949454359
 10
0.7007683139668892
 20
0.4415542504843283
 10
0.7047889071539713
 20
0.4369060705307431
 10
0.7078064613660421
 20
0.4334174969932687
 10
0.7130627542308297
 20
0.4334174969932687
 10
0.7159489780180053
 20
0.431425190611078
 10
0.7159489780180053
 20
0.4282520493335329
 10
0.7159489780180053
 20
0.4233481053636572
 10
0.7159489780180053
 20
0.4156556449422695
 10
0.7133513724443317
 20
0.4105593872701179
 10
0.7013254365267523
 20
0.3948859971631879
 10
0.6950719533900447
 20
0.3920974807116755
 10
0.6847777527860748
 20
0.3902705198789476
 10
0.6773697759692814
 20
0.3915205447618861
 10
0.6736176819220408
 20
0.3939244389658847
 10
0.6708276642060325
 20
0.3972898913671865
 10
0.6686148933300676
 20
0.4017130575276702
 10
0.6686148933300676
 20
0.4067131570594241
 10
0.6686148933300676
 20
0.4111363232199077
 10
0.6732328524308527
 20
0.4176749143202354
 10
0.6770811525492598
 20
0.4254635328820209
 10
0.6792939234252256
 20
0.4350791096980151
 10
0.6804484171053114
 20
0.4388291843468304
  0
LWPOLYLINE
  5
307
330
1F
100
AcDbEntity
  8
Cut
100
AcDbPolyline
 90
       23
 70
     0
 43
0.0
 10
0.6714049110460758
 20
0.445944711396948
 10
0.6738100992708951
 20
0.4506563442430669
 10
0.6738100992708951
 20
0.4534448606945789
 10
0.6711162876260542
 20
0.4571949379219138
 10
0.6695045636689356
 20
0.459438632027222
 10
0.6655362521940367
 20
0.4607527014469724
 10
0.6597638046196855
 20
0.4607527014469724
 10
0.6535103162764582
 20
0.4592142072998793
 10
0.6483151155421494
 20
0.4548871992797934
 10
0.6447554388437631
 20
0.4486370722865818
 10
0.6410241239051536
 20
0.4420855806220301
 10
0.6392716094829139
 20
0.4300790101662613
 10
0.6392716094829139
 20
0.4197903418385987
 10
0.6427350801101328
 20
0.4147902423068448
 10
0.6478340747732734
 20
0.411424789905543
 10
0.6527406572940802
 20
0.411424789905543
 10
0.6547610160277113
 20
0.4145017756212095
 10
0.6547610160277113
 20
0.4207519000359019
 10
0.6581282753772433
 20
0.4287328297214441
 10
0.6634196873892391
 20
0.4344060181863472
 10
0.6685448841766157
 20
0.4399009989643675
 10
0.6705390459925305
 20
0.444790842075888
 10
0.6714049110460758
 20
0.445944711396948
  0
LWPOLYLINE
  5
308
330
1F
100
AcDbEntity
  8
Cut
100
AcDbPolyline
 90
       36
 70
     0
 43
0.0
 10
0.6202096244838931
 20
0.409649701144851
 10
0.6266555301759747
 20
0.4128228398438769
 10
0.6266555301759747
 20
0.4142651758505722
 10
0.6285796776319188
 20
0.4156113588739081
 10
0.6302328297912146
 20
0.4167679466213597
 10
0.6364686900110686
 20
0.4135920869174235
 10
0.6382966366023651
 20
0.4113805038371816
 10
0.6394511250759312
 20
0.4063804043054274
 10
0.6403559463796346
 20
0.4024616154387064
 10
0.6453197787214498
 20
0.3995533439409456
 10
0.6453197787214498
 20
0.3973417608607037
 10
0.6498415317510676
 20
0.3928224391383415
 10
0.6544594908518535
 20
0.3900339226868295
 10
0.6583077909702606
 20
0.3886877422420123
 10
0.6605448474302174
 20
0.3879051936965023
 10
0.6649461088046769
 20
0.3854184454025891
 10
0.6689974012085008
 20
0.3831294324092197
 10
0.6713920092902388
 20
0.3793606321116534
 10
0.672546497763805
 20
0.3749374659511697
 10
0.672546497763805
 20
0.3699373664194159
 10
0.6684095794318959
 20
0.3684950304127206
 10
0.6624447145086903
 20
0.3648411113257834
 10
0.655421567183085
 20
0.3631103060549337
 10
0.6474363435262483
 20
0.3631103060549337
 10
0.6363724839399012
 20
0.3631103060549337
 10
0.6274251891583518
 20
0.3631103060549337
 10
0.6168423651343611
 20
0.3646488002020267
 10
0.6129940650159531
 20
0.36676422772039
 10
0.608551497094401
 20
0.3692063268665806
 10
0.6071254061639149
 20
0.3753220907772028
 10
0.6089533527552114
 20
0.3817645263156519
 10
0.6108062262616204
 20
0.3882948145542565
 10
0.6145333829807083
 20
0.3930147528406178
 10
0.6175158180455709
 20
0.401764927021187
 10
0.6175158180455709
 20
0.4068611821148194
 10
0.6202096244838931
 20
0.409649701144851
  0
LWPOLYLINE
  5
309
330
1F
100
AcDbEntity
  8
Cut
100
AcDbPolyline
 90
       24
 70
     0
 43
0.0
 10
0.603858778427302
 20
0.350343629144064
 10
0.6089247481359346
 20
0.3511272282558346
 10
0.6127538198372836
 20
0.3517195052248363
 10
0.6203834910030271
 20
0.3517195052248363
 10
0.6293695587368422
 20
0.3510066747446792
 10
0.6333499638798053
 20
0.3520313783002416
 10
0.6410695352815728
 20
0.3504039071889013
 10
0.6463767438743631
 20
0.3488969870101974
 10
0.6517442595849321
 20
0.3457625982986729
 10
0.6517442595849321
 20
0.3432309745644066
 10
0.6517442595849321
 20
0.3365402534060151
 10
0.6490906578917972
 20
0.3305728558930761
 10
0.6425772652912585
 20
0.3246657338464547
 10
0.635882951337381
 20
0.3214107890452555
 10
0.6282951501043926
 20
0.3177214081249684
 10
0.6193582387616568
 20
0.3141173029096054
 10
0.6082613490142803
 20
0.3089335019299177
 10
0.6056077473211455
 20
0.3112240186418727
 10
0.6028335261859317
 20
0.3168900336661826
 10
0.6019288881801197
 20
0.3232793697574259
 10
0.6019288881801197
 20
0.3341291831829047
 10
0.6011448696163875
 20
0.3403979657629921
 10
0.6021701218577578
 20
0.3444967851422804
 10
0.603858778427302
 20
0.350343629144064
  0
LWPOLYLINE
  5
30A
330
1F
100
AcDbEntity
  8
Cut
100
AcDbPolyline
 90
       42
 70
     0
 43
0.0
 10
0.7060135326545263
 20
0.3853007978826444
 10
0.7143583862471648
 20
0.3969385191255839
 10
0.7167895559446294
 20
0.4003290250127493
 10
0.7215388381527115
 20
0.4045030385781243
 10
0.7256142310412299
 20
0.4103219004888539
 10
0.7289648212011394
 20
0.4151058862279687
 10
0.7352205202287596
 20
0.4233173565214328
 10
0.7426920738577101
 20
0.4273905583118319
 10
0.7515220917828325
 20
0.4305909339098446
 10
0.7574411133000077
 20
0.4305909339098446
 10
0.7640393721717898
 20
0.4305909339098446
 10
0.7683088328759098
 20
0.4305909339098446
 10
0.7735486222449986
 20
0.4285543317253855
 10
0.7804743767749722
 20
0.4258624283278974
 10
0.7871563171696039
 20
0.4232652906482011
 10
0.7922602609070118
 20
0.421281488965965
 10
0.7976128491514239
 20
0.4180803813174801
 10
0.8027556098192318
 20
0.4137162348844332
 10
0.8066369348921487
 20
0.4085762429470426
 10
0.8100270076696514
 20
0.4040868104939045
 10
0.8147726989992495
 20
0.3978021487577134
 10
0.8170279147004363
 20
0.3948155938303608
 10
0.8170279147004363
 20
0.3920894692523222
 10
0.8154669528172711
 20
0.3868524940483695
 10
0.8134744629973189
 20
0.3801677569681412
 10
0.8110034295040691
 20
0.3777362784301035
 10
0.8059577027440623
 20
0.3707536456843399
 10
0.8013001116152587
 20
0.3671653473341556
 10
0.7940226205953902
 20
0.3653227091043014
 10
0.7880920992056458
 20
0.3638211194210057
 10
0.7797587454855766
 20
0.3638211194210057
 10
0.775974454320461
 20
0.3699777976014773
 10
0.7712927812846746
 20
0.377594429876824
 10
0.7555974846713509
 20
0.3824883476153222
 10
0.7422069043187057
 20
0.3824883476153222
 10
0.7354145828378416
 20
0.3824883476153222
 10
0.7255172023399492
 20
0.3809366514495971
 10
0.7189189434681671
 20
0.3787060878890522
 10
0.7148435505796487
 20
0.3787060878890522
 10
0.7108651915989315
 20
0.3787060878890522
 10
0.7069838613194959
 20
0.3814215574683311
 10
0.7060135326545263
 20
0.3853007978826444
  0
LWPOLYLINE
  5
30B
330
1F
100
AcDbEntity
  8
Cut
100
AcDbPolyline
 90
       32
 70
     0
 43
0.0
 10
0.6866837971729938
 20
0.3514122423041752
 10
0.6813469686895841
 20
0.3553884634065314
 10
0.6813469686895841
 20
0.3586858171140674
 10
0.684452032913133
 20
0.3646986404008827
 10
0.6875570919301622
 20
0.3676080713562477
 10
0.6922146882654854
 20
0.3696446735407068
 10
0.7000743723191194
 20
0.3708084443757409
 10
0.7085318730686195
 20
0.3720607329718704
 10
0.7175403455602832
 20
0.3720607329718704
 10
0.7277288277815784
 20
0.3720607329718704
 10
0.7426719402459981
 20
0.3702265576689641
 10
0.7482998600397713
 20
0.3712933503944749
 10
0.7587794439844693
 20
0.3699356156048354
 10
0.7627820601088377
 20
0.3694170367003384
 10
0.7702293618006566
 20
0.3633409056112433
 10
0.7726035535737344
 20
0.3614038415522274
 10
0.7763424511334334
 20
0.3557763861587029
 10
0.7780890458542907
 20
0.3501514882025787
 10
0.7780890458542907
 20
0.3452054550627546
 10
0.773722556448889
 20
0.3397745184827161
 10
0.7673183653927094
 20
0.3351194299855407
 10
0.7597497778559586
 20
0.3317250955899613
 10
0.7535396546153806
 20
0.3256152916151032
 10
0.7463591975033133
 20
0.3223179353290475
 10
0.7348122509858444
 20
0.3237726508067298
 10
0.72792289559718
 20
0.3270700045142663
 10
0.7188091423365924
 20
0.3314319899843172
 10
0.710942086688501
 20
0.3378348995648195
 10
0.7035622876799494
 20
0.3438412363555731
 10
0.7015298705230935
 20
0.3468541344950422
 10
0.6907591900615122
 20
0.3520911071204757
 10
0.6866837971729938
 20
0.3514122423041752
  0
LWPOLYLINE
  5
30C
330
1F
100
AcDbEntity
  8
Cut
100
AcDbPolyline
 90
       36
 70
     0
 43
0.0
 10
0.6491649549280325
 20
0.3143453265251703
 10
0.6590905703823032
 20
0.3216396532581007
 10
0.6634695189893654
 20
0.326697052644942
 10
0.6697187967225206
 20
0.3339145599079612
 10
0.6758278859837903
 20
0.3379789408079516
 10
0.6799149050308167
 20
0.3379789408079516
 10
0.6827368959843536
 20
0.3379789408079516
 10
0.6894512810717055
 20
0.3346721806621398
 10
0.6947060235653968
 20
0.3320462243791149
 10
0.7012257889460578
 20
0.326016248782155
 10
0.705594341450882
 20
0.321975878698246
 10
0.7090105876267297
 20
0.315123389556081
 10
0.7111456697799096
 20
0.3108407276754085
 10
0.7111456697799096
 20
0.3071482589603636
 10
0.7111456697799096
 20
0.3008265110160715
 10
0.7059939769665027
 20
0.2928513829988737
 10
0.7011325088120622
 20
0.2853255400793783
 10
0.6964537672708261
 20
0.278082568865405
 10
0.6905216946650246
 20
0.2756367758285076
 10
0.6769956042239356
 20
0.2683424490955777
 10
0.668821566129882
 20
0.2664945558434635
 10
0.6526681096484675
 20
0.2617289288039539
 10
0.6478999216280226
 20
0.2617289288039539
 10
0.6313572257332263
 20
0.2598810329733201
 10
0.6244153357552764
 20
0.2591055916771401
 10
0.6175392109386202
 20
0.2591055916771401
 10
0.6099490319646393
 20
0.2632850522872556
 10
0.6068351114510673
 20
0.2670781005381269
 10
0.605570083357577
 20
0.2729135603773596
 10
0.6046333235958171
 20
0.2772347481809261
 10
0.6070297311577573
 20
0.2840009353611612
 10
0.6160795579319194
 20
0.2889610755798788
 10
0.6232514717716386
 20
0.2928919462108101
 10
0.633206118153308
 20
0.3000484505636805
 10
0.6386554751471705
 20
0.3086071258540612
 10
0.6491649549280325
 20
0.3143453265251703
  0
LWPOLYLINE
  5
30D
330
1F
100
AcDbEntity
  8
Cut
100
AcDbPolyline
 90
       19
 70
     0
 43
0.0
 10
1.201358089820195
 20
0.5659139043020374
 10
1.198969130317306
 20
0.5659139043020374
 10
1.194828270649977
 20
0.5659139043020374
 10
1.191165202883226
 20
0.5632078746817842
 10
1.191165202883226
 20
0.5595467744186964
 10
1.200561768250391
 20
0.5557264970043963
 10
1.20772864155254
 20
0.5557264970043963
 10
1.21553256898662
 20
0.5557264970043963
 10
1.217921528489509
 20
0.5557264970043963
 10
1.217921528489509
 20
0.5492001899698429
 10
1.222540180057415
 20
0.5472900512626926
 10
1.22524766402301
 20
0.5504736174936223
 10
1.227795885757252
 20
0.5566815676472308
 10
1.225566188485715
 20
0.5593875972674836
 10
1.220947542124329
 20
0.561775270006792
 10
1.216134085982361
 20
0.5642636523406545
 10
1.209448060896932
 20
0.5677200849362039
 10
1.201358089820195
 20
0.5659139043020374
 10
1.201358089820195
 20
0.5659139043020374
  0
LWPOLYLINE
  5
30E
330
1F
100
AcDbEntity
  8
Cut
100
AcDbPolyline
 90
       35
 70
     0
 43
0.0
 10
1.234109462544432
 20
0.5406495725521623
 10
1.230542153088153
 20
0.5394611072381355
 10
1.228351697355657
 20
0.5394611072381355
 10
1.226348993930356
 20
0.5394611072381355
 10
1.224221125771272
 20
0.5394611072381355
 10
1.221968087671883
 20
0.5404619208127155
 10
1.220904150989081
 20
0.5397738609967196
 10
1.220904150989081
 20
0.5371467289089101
 10
1.220904150989081
 20
0.532955828028181
 10
1.223344946602185
 20
0.5280768699099747
 10
1.228602032029745
 20
0.5270135066150852
 10
1.232920355921326
 20
0.528764927147452
 10
1.235110811653822
 20
0.5316422632735361
 10
1.238803291050404
 20
0.5348949028785133
 10
1.241369251397292
 20
0.5357080621351278
 10
1.248545763376039
 20
0.5379823167442455
 10
1.254073888397947
 20
0.5365212213917423
 10
1.257203105666422
 20
0.5348323531582042
 10
1.263308506384646
 20
0.5315372104942844
 10
1.268468301369884
 20
0.5300159421817879
 10
1.273322473122427
 20
0.5285847811198295
 10
1.27760562370774
 20
0.5293278849443106
 10
1.279357987252434
 20
0.5318924673118107
 10
1.282695622022485
 20
0.5367770925976699
 10
1.283425971263407
 20
0.5442149659157236
 10
1.28123552073743
 20
0.5525342179568727
 10
1.278043715895543
 20
0.558664193687934
 10
1.27328729981616
 20
0.5617291815534649
 10
1.266090093330191
 20
0.5631678483272471
 10
1.25845479465642
 20
0.5617291815534649
 10
1.252634447100753
 20
0.5591645991859649
 10
1.24725218652637
 20
0.5547234942669608
 10
1.244060381684484
 20
0.5488437225741741
 10
1.238114864188513
 20
0.5418380378661892
 10
1.234109462544432
 20
0.5406495725521623
  0
LWPOLYLINE
  5
30F
330
1F
100
AcDbEntity
  8
Cut
100
AcDbPolyline
 90
       24
 70
     0
 43
0.0
 10
1.305862083011454
 20
0.5299932022203975
 10
1.303671627278959
 20
0.5319322770707298
 10
1.300604992377375
 20
0.5366861357483175
 10
1.297100265287989
 20
0.5353100186948443
 10
1.295723406357687
 20
0.5319948267910389
 10
1.294409135000798
 20
0.5280541299485844
 10
1.294409135000798
 20
0.5226122140335195
 10
1.295723406357687
 20
0.5188591663519922
 10
1.297538352269272
 20
0.5099769590925032
 10
1.300229482556464
 20
0.5022832145685219
 10
1.302983200417068
 20
0.4993433287221288
 10
1.305547702652601
 20
0.4966054506217061
 10
1.308451581547364
 20
0.4935052519468553
 10
1.310294526965405
 20
0.4915377122697925
 10
1.313434794111815
 20
0.4915377122697925
 10
1.316689181320593
 20
0.492963151531312
 10
1.318441544865287
 20
0.4977170102088997
 10
1.318441544865287
 20
0.5032214758442742
 10
1.318441544865287
 20
0.5107901183491177
 10
1.315875584518399
 20
0.5161694845438741
 10
1.310868833764927
 20
0.5196097758882976
 10
1.308866130339626
 20
0.5224245597155535
 10
1.305168218629606
 20
0.5276219453815909
 10
1.305862083011454
 20
0.5299932022203975
  0
LWPOLYLINE
  5
311
330
1F
100
AcDbEntity
  8
Cut
100
AcDbPolyline
 90
       26
 70
     0
 43
0.0
 10
1.219402616737848
 20
0.5042152861605329
 10
1.221655654837237
 20
0.5084687393400907
 10
1.225160381926623
 20
0.5119090306845142
 10
1.231037486215893
 20
0.5176780821686889
 10
1.238115353601365
 20
0.5220422529783391
 10
1.243998288730444
 20
0.5262957061578968
 10
1.248566947296112
 20
0.5274841714719237
 10
1.251696169771108
 20
0.5274841714719237
 10
1.254575052365495
 20
0.5262331564375873
 10
1.257328765019578
 20
0.5252948951618355
 10
1.260583157434877
 20
0.5211665440014155
 10
1.26383926233527
 20
0.5170360204724154
 10
1.264525971505547
 20
0.512096682423961
 10
1.264525971505547
 20
0.5059041569725902
 10
1.261834841218355
 20
0.5001494872989412
 10
1.258079779454881
 20
0.4947701211041853
 10
1.254449882425191
 20
0.4935816557901585
 10
1.24881728717672
 20
0.4905166679246276
 10
1.244498963285139
 20
0.4892656528902917
 10
1.239867717146059
 20
0.4892656528902917
 10
1.237802431353866
 20
0.4918927849781012
 10
1.234169050523241
 20
0.4965146011952327
 10
1.228477356708813
 20
0.4976474572302694
 10
1.22209374702504
 20
0.4976474572302694
 10
1.219840708925651
 20
0.500086935000113
 10
1.219402616737848
 20
0.5042152861605329
  0
LWPOLYLINE
  5
312
330
1F
100
AcDbEntity
  8
Cut
100
AcDbPolyline
 90
       17
 70
     0
 43
0.0
 10
1.269056627683865
 20
0.4934477455492146
 10
1.269762803571442
 20
0.4966630404596897
 10
1.270581198345005
 20
0.5003892800502664
 10
1.276039924307625
 20
0.5042307495405601
 10
1.278393843932878
 20
0.5042307495405601
 10
1.283494004856434
 20
0.5006625559050777
 10
1.285651768851683
 20
0.4948201263282744
 10
1.287024889500834
 20
0.488546377520084
 10
1.287024889500834
 20
0.4840371223369293
 10
1.28510251746811
 20
0.4782731158450249
 10
1.282670135590855
 20
0.4745872875821942
 10
1.2794138792415
 20
0.4732149068031344
 10
1.275765301219098
 20
0.4736462260345214
 10
1.273489843845847
 20
0.4749401863072014
 10
1.271175155346593
 20
0.4803905056165481
 10
1.268962736754453
 20
0.4856000134086297
 10
1.268962736754453
 20
0.4930202500303353
  0
LWPOLYLINE
  5
313
330
1F
100
AcDbEntity
  8
Cut
100
AcDbPolyline
 90
        2
 70
     0
 43
0.0
 10
1.269056627683865
 20
0.4934477455492146
 10
1.268962736754453
 20
0.4930202500303353
  0
LWPOLYLINE
  5
314
330
1F
100
AcDbEntity
  8
Cut
100
AcDbPolyline
 90
       26
 70
     0
 43
0.0
 10
1.243039534158786
 20
0.4694700356061939
 10
1.244657236277747
 20
0.4715600879164792
 10
1.246985149337058
 20
0.4738473144378533
 10
1.250388126331381
 20
0.4771908152622976
 10
1.252074996145073
 20
0.4776330706362458
 10
1.255402994508624
 20
0.4785055891606895
 10
1.258111789138046
 20
0.4776725065098711
 10
1.262101454173162
 20
0.4764454955407744
 10
1.263398916184322
 20
0.4749120598190682
 10
1.265134988528848
 20
0.4719938722122823
 10
1.265134988528848
 20
0.4695489047749258
 10
1.265134988528848
 20
0.4650927541960153
 10
1.264030211905455
 20
0.4594535557720523
 10
1.262491425005711
 20
0.4561804556167144
 10
1.259650581244311
 20
0.4538143573480893
 10
1.258703629852831
 20
0.4522763943759647
 10
1.255981156316997
 20
0.4488061174310185
 10
1.254284538978819
 20
0.4481751589241259
 10
1.250260013787849
 20
0.4481751589241259
 10
1.248957956926195
 20
0.4481751589241259
 10
1.246314393403057
 20
0.4481751589241259
 10
1.242684428688611
 20
0.4510933439523926
 10
1.242171497986523
 20
0.4548002309820532
 10
1.242171497986523
 20
0.4616224798295883
 10
1.243039534158786
 20
0.4662363687459621
 10
1.243039534158786
 20
0.4694700356061939
  0
LWPOLYLINE
  5
315
330
1F
100
AcDbEntity
  8
Cut
100
AcDbPolyline
 90
       24
 70
     0
 43
0.0
 10
1.257702442145552
 20
0.4374771300351302
 10
1.260353544709228
 20
0.4398104295387153
 10
1.262450689195514
 20
0.441075948743912
 10
1.265299639508099
 20
0.4442001961391706
 10
1.26727807534504
 20
0.4454261685944135
 10
1.270364432543278
 20
0.4454261685944135
 10
1.273252952405645
 20
0.4454261685944135
 10
1.275231388242586
 20
0.4454261685944135
 10
1.276695430345401
 20
0.4411154954938659
 10
1.27610189751171
 20
0.4379121520201803
 10
1.274360873766942
 20
0.4318218442294782
 10
1.273169339586445
 20
0.4276537161817299
 10
1.271116238369576
 20
0.4244660172335793
 10
1.269019099089809
 20
0.4232795941068095
 10
1.266779925113664
 20
0.4220128171140799
 10
1.264666537124627
 20
0.4220128171140799
 10
1.262648531737904
 20
0.4213813165882745
 10
1.261461471277044
 20
0.4213813165882745
 10
1.259522604989885
 20
0.4221722644799475
 10
1.257900284687942
 20
0.4235168797635711
 10
1.256792363326646
 20
0.426759769987211
 10
1.256792363326646
 20
0.4311099898377125
 10
1.256792363326646
 20
0.4347483552964482
 10
1.257702442145552
 20
0.4374771300351302
  0
LWPOLYLINE
  5
316
330
1F
100
AcDbEntity
  8
Cut
100
AcDbPolyline
 90
       28
 70
     0
 43
0.0
 10
1.166219173766429
 20
0.4590433623489965
 10
1.168434724923919
 20
0.4653068512290349
 10
1.171156693427342
 20
0.4706845955351735
 10
1.176727237373931
 20
0.4768215487393639
 10
1.182107873514165
 20
0.4803012656433361
 10
1.189079022483298
 20
0.4848095847854938
 10
1.194420460755574
 20
0.4882639519947131
 10
1.199262606213695
 20
0.4882639519947131
 10
1.204959746686988
 20
0.4899812048786823
 10
1.210846800173155
 20
0.4899812048786823
 10
1.216670542379672
 20
0.4899812048786823
 10
1.222051178519905
 20
0.4856790099494748
 10
1.225152957429519
 20
0.4814400815689322
 10
1.226418990381312
 20
0.4748602547885326
 10
1.226418990381312
 20
0.4684702302326458
 10
1.226418990381312
 20
0.464610908879648
 10
1.222810799332286
 20
0.4573984062985264
 10
1.220215432562087
 20
0.4553105766718471
 10
1.214454991222182
 20
0.4532227470451673
 10
1.211053361427064
 20
0.4519898513265624
 10
1.202490986856531
 20
0.4508818460667912
 10
1.196620373511356
 20
0.4501221653951557
 10
1.189577459078665
 20
0.4501221653951557
 10
1.183690410799018
 20
0.4501221653951557
 10
1.175841014828328
 20
0.4514512553188493
 10
1.170936964747975
 20
0.4522816279451537
 10
1.166535678099488
 20
0.4546779008711246
 10
1.166219173766429
 20
0.4590433623489965
  0
LWPOLYLINE
  5
317
330
1F
100
AcDbEntity
  8
Cut
100
AcDbPolyline
 90
       21
 70
     0
 43
0.0
 10
1.220302475158567
 20
0.4386039584246673
 10
1.221254830917504
 20
0.4420940616042355
 10
1.222058853292879
 20
0.4450405666496519
 10
1.225024585479594
 20
0.4458617862174137
 10
1.227167391143722
 20
0.4458617862174137
 10
1.229587969840799
 20
0.4453065433501933
 10
1.232722815357078
 20
0.4436804723748136
 10
1.235024346981028
 20
0.439238521701491
 10
1.235540208953713
 20
0.4345586097993595
 10
1.235540208953713
 20
0.4312668076437985
 10
1.235540208953713
 20
0.426745536560873
 10
1.235540208953713
 20
0.4245642227182725
 10
1.233159314349851
 20
0.4205585368762855
 10
1.231532365451887
 20
0.4193290679489206
 10
1.230183189586875
 20
0.4193290679489206
 10
1.227048344070595
 20
0.4193290679489206
 10
1.225659489318886
 20
0.4207568379002927
 10
1.222273109285539
 20
0.4242381030574945
 10
1.221810376983404
 20
0.4290458335963967
 10
1.221186599279791
 20
0.4355268056428733
 10
1.220302475158567
 20
0.4386039584246673
  0
LWPOLYLINE
  5
318
330
1F
100
AcDbEntity
  8
Cut
100
AcDbPolyline
 90
       30
 70
     0
 43
0.0
 10
1.153548160470049
 20
0.4137924945916694
 10
1.15678575144625
 20
0.4202007467002345
 10
1.161673876854691
 20
0.4231828068077115
 10
1.167895131634405
 20
0.4287027873934979
 10
1.17132316668849
 20
0.43295380645087
 10
1.179639332357536
 20
0.4354917269291794
 10
1.189161661208252
 20
0.4363165514069447
 10
1.192465421233105
 20
0.4366027232226719
 10
1.20033451928469
 20
0.4353648328391531
 10
1.204905239632163
 20
0.4338420779736487
 10
1.208714168048538
 20
0.4302255396804835
 10
1.21163434875725
 20
0.4241345279540223
 10
1.209348988583514
 20
0.4167745521206277
 10
1.206936667426694
 20
0.4136021508781114
 10
1.202492913268823
 20
0.4117621582090223
 10
1.199064878214739
 20
0.4117621582090223
 10
1.196398624678712
 20
0.4089069947700903
 10
1.194367196884182
 20
0.4057345935275741
 10
1.192640120038539
 20
0.4030374852445272
 10
1.187955498026583
 20
0.3986284110312699
 10
1.184908351128267
 20
0.3969787620757388
 10
1.179321922090049
 20
0.3969787620757388
 10
1.175830403941162
 20
0.3969787620757388
 10
1.172719773948045
 20
0.3985649614077373
 10
1.169672632256249
 20
0.4031332234257326
 10
1.165990664822958
 20
0.4073207928595726
 10
1.160404235784739
 20
0.4083994106744285
 10
1.156507800073618
 20
0.4091517275737757
 10
1.154500391272513
 20
0.4110642278212829
 10
1.153548160470049
 20
0.4137924945916694
  0
LWPOLYLINE
  5
319
330
1F
100
AcDbEntity
  8
Cut
100
AcDbPolyline
 90
       32
 70
     0
 43
0.0
 10
1.206787292376267
 20
0.5191329870482071
 10
1.210852626268708
 20
0.5204203205263785
 10
1.213951055328532
 20
0.5214014727672474
 10
1.216809749097109
 20
0.5214014727672474
 10
1.217896521575351
 20
0.5198168825555923
 10
1.216688999492037
 20
0.5174031306724465
 10
1.214314201722753
 20
0.516156024673315
 10
1.211522976701055
 20
0.5146902352429431
 10
1.211522976701055
 20
0.5146902352429431
 10
1.183020274440861
 20
0.4940233948178916
 10
1.172477702020734
 20
0.4865086949360533
 10
1.169749990726073
 20
0.4824842400523424
 10
1.165138862579145
 20
0.4780703230404591
 10
1.16235067449207
 20
0.475401381636592
 10
1.159033989134467
 20
0.4709301582387733
 10
1.150118110492837
 20
0.4603147915203465
 10
1.14458284006813
 20
0.4537244230546324
 10
1.141223273050234
 20
0.4497244767404708
 10
1.14356989668849
 20
0.4472636343146239
 10
1.142354028554084
 20
0.4463362363405317
 10
1.141298141150751
 20
0.4461603503844871
 10
1.13981030525287
 20
0.4465600904904466
 10
1.13877042269112
 20
0.4485268173813673
 10
1.13877042269112
 20
0.4502696875438539
 10
1.139880645334128
 20
0.4553511883502566
 10
1.143679811526049
 20
0.4640583837717318
 10
1.151933170947856
 20
0.4700814076807558
 10
1.159684879189774
 20
0.4757383434436033
 10
1.164850374528636
 20
0.4847200560566285
 10
1.169920075762145
 20
0.4935352028191689
 10
1.182798159103592
 20
0.5023308552904462
 10
1.206787292376267
 20
0.5191329870482071
  0
LWPOLYLINE
  5
31A
330
1F
100
AcDbEntity
  8
Cut
100
AcDbPolyline
 90
       27
 70
     0
 43
0.0
 10
1.137811959684565
 20
0.4295450194548156
 10
1.13331068389696
 20
0.4295450194548156
 10
1.13116328608245
 20
0.4325992884157653
 10
1.131989206716793
 20
0.4366854034306389
 10
1.133806235236262
 20
0.4392031134749557
 10
1.13657307352653
 20
0.4392031134749557
 10
1.139959357499075
 20
0.4377998007788038
 10
1.143056565084385
 20
0.4368092265042214
 10
1.145349225008246
 20
0.4360759692463886
 10
1.148218574255554
 20
0.4340851498276388
 10
1.148838019937831
 20
0.4311959757196129
 10
1.146855804167582
 20
0.4272749555576634
 10
1.144419335172356
 20
0.4230650174692073
 10
1.141074349314136
 20
0.4213315124886879
 10
1.13768345992549
 20
0.4195742184692936
 10
1.13562326375573
 20
0.4170390282630292
 10
1.131782726558207
 20
0.415800810419801
 10
1.128313856770051
 20
0.4150578797138645
 10
1.124927572797506
 20
0.4157595360619402
 10
1.127570527157838
 20
0.4205885817827509
 10
1.129594035835892
 20
0.4214140612044095
 10
1.133930124372717
 20
0.4223633611211311
 10
1.137404172484242
 20
0.4231239345169345
 10
1.140124539543336
 20
0.4245508763025616
 10
1.141528607745633
 20
0.4273575016948659
 10
1.140413610724053
 20
0.429462470739094
 10
1.137811959684565
 20
0.4295450194548156
  0
LWPOLYLINE
  5
31B
330
1F
100
AcDbEntity
  8
Cut
100
AcDbPolyline
 90
       21
 70
     0
 43
0.0
 10
1.291909484888913
 20
0.4576030556369619
 10
1.294114612593947
 20
0.4632130961650863
 10
1.296179220675422
 20
0.4684656423034922
 10
1.298591693684469
 20
0.4714945857916124
 10
1.300663180441634
 20
0.4724295929760532
 10
1.303269241403314
 20
0.4724295929760532
 10
1.308214081430936
 20
0.4678213432813103
 10
1.308214081430936
 20
0.462678806345406
 10
1.309550522148743
 20
0.459072352641083
 10
1.309550522148743
 20
0.4521933737912179
 10
1.309550522148743
 20
0.4467836919454733
 10
1.310347057185854
 20
0.4400738871660077
 10
1.306070442723656
 20
0.4313248965257808
 10
1.301978852214795
 20
0.4229544232502316
 10
1.296848993440354
 20
0.4229544232502316
 10
1.29310695318267
 20
0.4265830769546369
 10
1.290901820271116
 20
0.4331281220886827
 10
1.290901820271116
 20
0.4396731698012477
 10
1.292104620041055
 20
0.4462850037412727
 10
1.292104620041055
 20
0.4520286167243173
 10
1.291909484888913
 20
0.4576030556369619
  0
LWPOLYLINE
  5
31C
330
1F
100
AcDbEntity
  8
Cut
100
AcDbPolyline
 90
       24
 70
     0
 43
0.0
 10
1.286949514715018
 20
0.4106365571946547
 10
1.282271966996174
 20
0.4078983218687929
 10
1.278295918758506
 20
0.4055707441729309
 10
1.275790219622421
 20
0.401353276734747
 10
1.273930872440717
 20
0.3982237165724023
 10
1.271900285874245
 20
0.3948059348438712
 10
1.270778559120865
 20
0.3908678416020392
 10
1.269740586589939
 20
0.3872237878278671
 10
1.269740586589939
 20
0.3836549341933933
 10
1.269740586589939
 20
0.3797145467732506
 10
1.272248645993061
 20
0.3765088104336876
 10
1.275522932520163
 20
0.3741712924725862
 10
1.280801880123978
 20
0.3727019980469843
 10
1.287083155662887
 20
0.3749727272021066
 10
1.289689221831087
 20
0.3771098864808282
 10
1.297191073164341
 20
0.3832619371770422
 10
1.298576563538197
 20
0.3887974711292972
 10
1.299953102013452
 20
0.3942972390166468
 10
1.299177958216646
 20
0.3996168348207858
 10
1.298612749275255
 20
0.4034957062321024
 10
1.298097769636222
 20
0.4070298679428772
 10
1.294366769549933
 20
0.4103694122848145
 10
1.291226129177218
 20
0.4117051368340153
 10
1.286949514715018
 20
0.4106365571946547
  0
LWPOLYLINE
  5
31D
330
1F
100
AcDbEntity
  8
Cut
100
AcDbPolyline
 90
       23
 70
     0
 43
0.0
 10
1.254717299690441
 20
0.408045209797193
 10
1.248903772675592
 20
0.4105830838621554
 10
1.244627158213393
 20
0.411651663501516
 10
1.239949610494548
 20
0.4104495114072351
 10
1.235472529404026
 20
0.408045209797193
 10
1.231062268787439
 20
0.4042383948319701
 10
1.229926294697954
 20
0.401834093221928
 10
1.22832256167137
 20
0.3982944231665457
 10
1.22832256167137
 20
0.3958901215565031
 10
1.229191248658596
 20
0.3870075558828368
 10
1.230861802159116
 20
0.3842693231354941
 10
1.234202909160154
 20
0.3812639428997922
 10
1.238412703148418
 20
0.3793271448819704
 10
1.244493512059005
 20
0.3793271448819704
 10
1.24810191136882
 20
0.3828668123588334
 10
1.25117572606108
 20
0.3894786462988584
 10
1.253514499920503
 20
0.3925508101835011
 10
1.256254207036572
 20
0.393752962277782
 10
1.25946166788322
 20
0.3968919149684038
 10
1.260731288127093
 20
0.4005651549001872
 10
1.260731288127093
 20
0.4040380361495904
 10
1.257991581011025
 20
0.406909843930372
 10
1.254717299690441
 20
0.408045209797193
  0
LWPOLYLINE
  5
31E
330
1F
100
AcDbEntity
  8
Cut
100
AcDbPolyline
 90
       20
 70
     0
 43
0.0
 10
1.212776721659455
 20
0.3936100658972026
 10
1.207498773707425
 20
0.3948660445811223
 10
1.201969491429523
 20
0.3948660445811223
 10
1.195225444799394
 20
0.3931914046168834
 10
1.193382352442267
 20
0.3931914046168834
 10
1.18944483340214
 20
0.3910562411120724
 10
1.186135642366913
 20
0.3882093547199785
 10
1.18521409358509
 20
0.3837715606197096
 10
1.184229332802868
 20
0.3790293639224562
 10
1.184229332802868
 20
0.3738074582473798
 10
1.187350406719141
 20
0.3690347377013747
 10
1.206451560365926
 20
0.3669414390353363
 10
1.209844529509776
 20
0.3683648822313832
 10
1.213823935000955
 20
0.3713373657183134
 10
1.215792697124278
 20
0.3759007569134187
 10
1.215792697124278
 20
0.3791663045858322
 10
1.215792697124278
 20
0.3828923757988178
 10
1.214829261891402
 20
0.3863253854048398
 10
1.214159042228931
 20
0.3912655704629726
 10
1.212776721659455
 20
0.3936100658972026
  0
LWPOLYLINE
  5
31F
330
1F
100
AcDbEntity
  8
Cut
100
AcDbPolyline
 90
       25
 70
     0
 43
0.0
 10
1.248878895924427
 20
0.363817258681578
 10
1.245560265468969
 20
0.3633554200961813
 10
1.241107420727688
 20
0.3647409384308915
 10
1.237663922452546
 20
0.365812395055355
 10
1.233209916514894
 20
0.365812395055355
 10
1.227496833678255
 20
0.365812395055355
 10
1.224430250841869
 20
0.365812395055355
 10
1.221867763243627
 20
0.3640271862489475
 10
1.220817561359814
 20
0.3623477708670317
 10
1.220817561359814
 20
0.3565957699608209
 10
1.22157370942355
 20
0.3535308362441949
 10
1.224010168005737
 20
0.3495842062289136
 10
1.226488643201968
 20
0.3474849382907785
 10
1.227580851286786
 20
0.341858892893582
 10
1.229765262249901
 20
0.3398016084061051
 10
1.233209916514894
 20
0.3391298422533389
 10
1.238586939330451
 20
0.3391298422533389
 10
1.241023403119158
 20
0.3404733745588713
 10
1.244174003564074
 20
0.3438741913518806
 10
1.24644243213572
 20
0.3481567044435452
 10
1.249803073998703
 20
0.3514735491781988
 10
1.252024434483876
 20
0.3536659600715375
 10
1.253793829702845
 20
0.3578553327865173
 10
1.251735442549266
 20
0.3628515954816063
 10
1.248878895924427
 20
0.363817258681578
  0
LWPOLYLINE
  5
320
330
1F
100
AcDbEntity
  8
Cut
100
AcDbPolyline
 90
       26
 70
     0
 43
0.0
 10
1.212301257073187
 20
0.3451136314132399
 10
1.209843883901332
 20
0.3488824003267203
 10
1.206242560251801
 20
0.3509149954922432
 10
1.201454920673727
 20
0.3509149954922432
 10
1.199294126484008
 20
0.3483742515353398
 10
1.195480959960591
 20
0.3463840033916918
 10
1.192692742909306
 20
0.3449287184529592
 10
1.188871470625799
 20
0.3408790555732151
 10
1.186624217580675
 20
0.3384974882409134
 10
1.185439619192767
 20
0.3359246035679941
 10
1.183194088894798
 20
0.3327910193544796
 10
1.183194088894798
 20
0.3303773138846813
 10
1.183194088894798
 20
0.327794222905903
 10
1.183194088894798
 20
0.3261427380446564
 10
1.185609091409268
 20
0.3242795258095938
 10
1.188701993202779
 20
0.3235173026225229
 10
1.193193059005237
 20
0.3235173026225229
 10
1.196328326249613
 20
0.325888663648966
 10
1.198743333970602
 20
0.3267355783012671
 10
1.202471764385768
 20
0.3274978014883381
 10
1.205776509053165
 20
0.3293610163019198
 10
1.205776509053165
 20
0.3318170687935931
 10
1.208784669531905
 20
0.3361363335203289
 10
1.211420362586318
 20
0.3399207912049777
 10
1.213107667050317
 20
0.3423435059192083
 10
1.212301257073187
 20
0.3451136314132399
  0
LWPOLYLINE
  5
321
330
1F
100
AcDbEntity
  8
Cut
100
AcDbPolyline
 90
       24
 70
     0
 43
0.0
 10
1.17482356195348
 20
0.3645474592379081
 10
1.162148576082562
 20
0.3663088096479607
 10
1.158556197233889
 20
0.3645474592379081
 10
1.154557142337332
 20
0.3618376907647223
 10
1.150490298554174
 20
0.357095592713498
 10
1.148117973881753
 20
0.3546568008297788
 10
1.143305546063348
 20
0.3482210978051281
 10
1.139916513048397
 20
0.3404982546912509
 10
1.139916513048397
 20
0.3358239020766529
 10
1.139916513048397
 20
0.3310140611673216
 10
1.138899804705867
 20
0.3285075264254953
 10
1.138899804705867
 20
0.3243073815532043
 10
1.142085497093617
 20
0.3220040779642184
 10
1.146897924912021
 20
0.3209879144644585
 10
1.153608212468363
 20
0.3209879144644585
 10
1.159234008002095
 20
0.3225460311431516
 10
1.165063144163029
 20
0.3252558021948566
 10
1.168791079958824
 20
0.3316915052195073
 10
1.170824501850402
 20
0.3372465304606127
 10
1.173264604996385
 20
0.3415144181910108
 10
1.177348141560219
 20
0.3486567701961316
 10
1.178890400530117
 20
0.3544535670984188
 10
1.178890400530117
 20
0.358789197686924
 10
1.17482356195348
 20
0.3645474592379081
  0
LWPOLYLINE
  5
322
330
1F
100
AcDbEntity
  8
Cut
100
AcDbPolyline
 90
       33
 70
     0
 43
0.0
 10
1.150121406219812
 20
0.3785392448000668
 10
1.152424635169188
 20
0.3814989439884857
 10
1.154497498934045
 20
0.3841626189150333
 10
1.154497498934045
 20
0.3881856684420182
 10
1.154497498934045
 20
0.3920223117180881
 10
1.150779473865285
 20
0.3955301035398078
 10
1.146282701717227
 20
0.3978320895054499
 10
1.140908506041871
 20
0.3978320895054499
 10
1.136302058556161
 20
0.3978320895054499
 10
1.125663352956142
 20
0.3934473510175596
 10
1.121714962702865
 20
0.3877471938196732
 10
1.118646988307514
 20
0.3833180631586211
 10
1.113598836727526
 20
0.3793065760338004
 10
1.105594538992153
 20
0.372946002901256
 10
1.100766582722305
 20
0.3636311385825746
 10
1.097366584776848
 20
0.3514634929530689
 10
1.092654124321542
 20
0.3345989095671165
 10
1.086618203839177
 20
0.3228530837956427
 10
1.08471734686206
 20
0.3191540398909168
 10
1.08471734686206
 20
0.3122702218910591
 10
1.089611780856215
 20
0.3093841497417085
 10
1.098549667456651
 20
0.3082846923341598
 10
1.102399836715634
 20
0.3097964446579646
 10
1.106573481815556
 20
0.3114352083730463
 10
1.113744077801305
 20
0.3104148896108678
 10
1.117594247060288
 20
0.3116517769381559
 10
1.120069353638268
 20
0.3157747389933139
 10
1.125853167045143
 20
0.3339431688031906
 10
1.1330034784081
 20
0.3458310425140199
 10
1.133966018119585
 20
0.3528400767185289
 10
1.138778727090054
 20
0.3653463953822618
 10
1.146616569793512
 20
0.372767724503027
 10
1.150121406219812
 20
0.3785392448000668
  0
LWPOLYLINE
  5
323
330
1F
100
AcDbEntity
  8
Cut
100
AcDbPolyline
 90
      279
 70
     0
 43
0.0
 10
0.9604793770764343
 20
0.7700707068804329
 10
0.9648065103993621
 20
0.7700707068804329
 10
0.9660743343939355
 20
0.7705665458208469
 10
0.9675075226609592
 20
0.7721366990274646
 10
0.9675075226609592
 20
0.7737068522340827
 10
0.9656057892723586
 20
0.774367969102288
 10
0.9637201036065253
 20
0.7750235071547238
 10
0.961940128658794
 20
0.7758830270877893
 10
0.9592783382227633
 20
0.7771683608731481
 10
0.9536750077089664
 20
0.7783262514461238
 10
0.9483140834523471
 20
0.7806527694440444
 10
0.9453039244451783
 20
0.7819591093159675
 10
0.9424593936926859
 20
0.785235300987647
 10
0.9415423954090869
 20
0.7889718306747682
 10
0.9424593936926859
 20
0.7918623507698497
 10
0.9461273920335999
 20
0.7929198582474904
 10
0.9536044697799601
 20
0.7929198582474904
 10
0.9643968510156843
 20
0.7940478675988505
 10
0.9747659994708532
 20
0.7961628825541319
 10
0.9854173048485659
 20
0.7961628825541319
 10
0.9871807634867568
 20
0.79256735661445
 10
0.9914130704662396
 20
0.785517303325487
 10
0.9933881480979689
 20
0.7779032479393635
 10
1.002940929882457
 20
0.7590455180457245
 10
1.010635290557228
 20
0.7438564162131401
 10
1.010635290557228
 20
0.7275820366284896
 10
1.010039509265594
 20
0.7233757342521954
 10
1.01222479492402
 20
0.7213699195877501
 10
1.012715368830481
 20
0.7198544155184159
 10
1.012715368830481
 20
0.717982322863008
 10
1.011243647111097
 20
0.7149067398618208
 10
1.010331921000359
 20
0.713001427674746
 10
1.005789109630125
 20
0.683878375834849
 10
0.997609729646852
 20
0.6651927002176277
 10
1.001699419638488
 20
0.6470909509159211
 10
1.013968489613399
 20
0.6362882934507446
 10
1.038514267527632
 20
0.6290975664648082
 10
1.059980357795373
 20
0.6266882315851623
 10
1.083742283754503
 20
0.625426198538011
 10
1.106700671907515
 20
0.6269176914359576
 10
1.136546572341215
 20
0.6305890593627548
 10
1.159723561430694
 20
0.6348289417954254
 10
1.169710462828449
 20
0.6348289417954254
 10
1.183255905903293
 20
0.6348289417954254
 10
1.187962375839117
 20
0.631387033719423
 10
1.191613049362722
 20
0.6287172445026471
 10
1.195194268159381
 20
0.6287172445026471
 10
1.200130319581736
 20
0.6287172445026471
 10
1.204492414684503
 20
0.6287172445026471
 10
1.210920763992129
 20
0.6287172445026471
 10
1.216201190247541
 20
0.6287172445026471
 10
1.220563285350308
 20
0.6259947130438839
 10
1.229746638528905
 20
0.6259947130438839
 10
1.237782073861807
 20
0.6259947130438839
 10
1.249490849424844
 20
0.6259947130438839
 10
1.261888374653994
 20
0.6259947130438839
 10
1.272219650884806
 20
0.6259947130438839
 10
1.288672414564683
 20
0.6269196640031947
 10
1.294045063903685
 20
0.6262131162040743
 10
1.298852170658948
 20
0.6242913071187349
 10
1.302810963538602
 20
0.621012928734463
 10
1.306815079172316
 20
0.6154878787798035
 10
1.308144100599538
 20
0.6116442606091242
 10
1.312498776411722
 20
0.6036461425141671
 10
1.316802277341694
 20
0.5966996554514479
 10
1.320308639278269
 20
0.5904255121298104
 10
1.326303384418079
 20
0.5807882061319769
 10
1.325744761299032
 20
0.5757643094459346
 10
1.324868170814889
 20
0.5745490481597147
 10
1.322719112120592
 20
0.5745490481597147
 10
1.318788595849473
 20
0.5750294984971603
 10
1.316780925404371
 20
0.5771491418945205
 10
1.316780925404371
 20
0.5800601173829243
 10
1.315923770858297
 20
0.5851929951856652
 10
1.313887823804661
 20
0.588471373569937
 10
1.31171119185064
 20
0.5919762894447539
 10
1.308175849956719
 20
0.5940672296635894
 10
1.304923982703479
 20
0.5932476344228915
 10
1.302916307051857
 20
0.5914106122079948
 10
1.302322487859583
 20
0.5871148042710051
 10
1.302322487859583
 20
0.5842886130745244
 10
1.303425296418526
 20
0.5803036868911327
 10
1.306585643468336
 20
0.5694510448300214
 10
1.306585643468336
 20
0.5650862950234666
 10
1.305848343005945
 20
0.5617985643498238
 10
1.305283825289452
 20
0.5592812972287503
 10
1.303296143490646
 20
0.55746215762702
 10
1.301821542565863
 20
0.55564823894473
 10
1.299467846820957
 20
0.55423111312088
 10
1.296717143535265
 20
0.5538343176839207
 10
1.293370928938393
 20
0.5538343176839207
 10
1.291669464330367
 20
0.5547412783143253
 10
1.287347074146894
 20
0.5592746013962913
 10
1.284454581709989
 20
0.5615136585992926
 10
1.282356109561177
 20
0.5660484617513162
 10
1.279548691656304
 20
0.5692795088359755
 10
1.275578600628883
 20
0.571858677886953
 10
1.268533455757511
 20
0.574283984114921
 10
1.264336506253367
 20
0.574283984114921
 10
1.2573604987572
 20
0.574283984114921
 10
1.254609795471507
 20
0.574283984114921
 10
1.249306892670515
 20
0.5755310565933019
 10
1.245903963454463
 20
0.5777701137963028
 10
1.244202493639917
 20
0.5805476818550197
 10
1.242274170555168
 20
0.584373920805859
 10
1.241646421242194
 20
0.5856195206182858
 10
1.241224931877502
 20
0.5875199412177837
 10
1.240732791246422
 20
0.5897389158147714
 10
1.238802786017992
 20
0.591023349556755
 10
1.23406703982185
 20
0.591023349556755
 10
1.230011879468917
 20
0.5890960585394596
 10
1.225729860639261
 20
0.5866586023287193
 10
1.220223743028051
 20
0.5835243516160503
 10
1.217380982406888
 20
0.5807444435030265
 10
1.214403420644472
 20
0.5786187560565108
 10
1.211476825294576
 20
0.576529453636379
 10
1.209073351834409
 20
0.5748136090057827
 10
1.205045357490549
 20
0.5732336784415848
 10
1.201046911756797
 20
0.5732336784415848
 10
1.191814934890646
 20
0.5711827448470559
 10
1.187419481616108
 20
0.5711827448470559
 10
1.181124059963152
 20
0.5707859494100962
 10
1.177239048674282
 20
0.5685468896285762
 10
1.173580895862135
 20
0.5667896545352691
 10
1.170915267108474
 20
0.565882693904864
 10
1.160943381313559
 20
0.563830068801698
 10
1.156689717190233
 20
0.5616760356929121
 10
1.149827138932427
 20
0.5575096874726158
 10
1.146664059720705
 20
0.5555893466110127
 10
1.142369049363442
 20
0.5521812934466728
 10
1.13700943194327
 20
0.5509909071357946
 10
1.133861721116792
 20
0.5509909071357946
 10
1.12518760201129
 20
0.5499029550812025
 10
1.120054848274361
 20
0.5508099157116071
 10
1.112993766246162
 20
0.5513200809050525
 10
1.104770011095417
 20
0.5499879817539366
 10
1.09717013237522
 20
0.5482590897443811
 10
1.092179167789502
 20
0.5449996995759703
 10
1.088549374890207
 20
0.5418253360802941
 10
1.086346932053883
 20
0.5398992333149559
 10
1.083653543832598
 20
0.5382096435414474
 10
1.080278969322876
 20
0.5357155011632045
 10
1.07662081651073
 20
0.5324561109947941
 10
1.071743281163374
 20
0.5297352291035798
 10
1.068000059025717
 20
0.5280630206830073
 10
1.06300909444
 20
0.5275528554895619
 10
1.060513609543882
 20
0.5280063370940238
 10
1.057280824185372
 20
0.5280063370940238
 10
1.051864492146019
 20
0.5280063370940238
 10
1.046735112233861
 20
0.5261770994287854
 10
1.044636634878528
 20
0.5247883141101677
 10
1.03882329529839
 20
0.5226909697474036
 10
1.035420366082337
 20
0.520423566882132
 10
1.031138342046161
 20
0.5195732924192296
 10
1.026949205826401
 20
0.5187414625371015
 10
1.023021637896753
 20
0.5179615718396927
 10
1.01921923319315
 20
0.5172065345980098
 10
1.016392306765735
 20
0.5172065345980098
 10
1.012252071880771
 20
0.5162855591670677
 10
1.00828198605987
 20
0.5153219149476796
 10
1.003943247404513
 20
0.5147267205029809
 10
1.000937325729247
 20
0.5147267205029809
 10
0.9962107325947515
 20
0.5131640450022288
 10
0.9888882196363763
 20
0.5107431233619716
 10
0.9843571845447094
 20
0.5099613410013207
 10
0.9823154270150782
 20
0.5086292418502052
 10
0.9783169812813268
 20
0.5067869800841636
 10
0.9726170709395489
 20
0.5048313459831171
 10
0.9687604195635293
 20
0.5039810689416955
 10
0.9594910598858739
 20
0.503571161734278
 10
0.9550388919921548
 20
0.5041096700114745
 10
0.9498812430394361
 20
0.5047335091653912
 10
0.9468916339901538
 20
0.5050951148498694
 10
0.9441495080877482
 20
0.5050951148498694
 10
0.9309347935578049
 20
0.5030043129518496
 10
0.9263691912192051
 20
0.5022674056669137
 10
0.9233632695439384
 20
0.5003401146496187
 10
0.9188827417373692
 20
0.4965705618662817
 10
0.9174483611773327
 20
0.4937786443478603
 10
0.9162856932613046
 20
0.4919363800032995
 10
0.9142491701972701
 20
0.4887094793758503
 10
0.9131379824348258
 20
0.4857860545982056
 10
0.9125991805363078
 20
0.4832919122199626
 10
0.9111510026990439
 20
0.4751068798420688
 10
0.9111510026990439
 20
0.4731795888247739
 10
0.9104420569429834
 20
0.4701469381693344
 10
0.9098790744702066
 20
0.4677386732908552
 10
0.9087405923349569
 20
0.4646768313031547
 10
0.9079023923069598
 20
0.4624225701598731
 10
0.9072092767909936
 20
0.4616158401424833
 10
0.9059615343429339
 20
0.4608222492685643
 10
0.9026720343652439
 20
0.4602554004861359
 10
0.9017929447516399
 20
0.4609072785198181
 10
0.9003183386203374
 20
0.4638265568402522
 10
0.9013392173851535
 20
0.4688715251857212
 10
0.9025585999203622
 20
0.4725277107910917
 10
0.905255540683548
 20
0.4833230633111927
 10
0.9089136882891741
 20
0.4898135005642628
 10
0.9111539547957185
 20
0.4951135515064547
 10
0.9123733373309272
 20
0.4989964766247961
 10
0.9139959755552409
 20
0.5041635038186782
 10
0.9155500705042086
 20
0.5091122661138523
 10
0.91623385194457
 20
0.5140379825364181
 10
0.9166244713336332
 20
0.5168518646135106
 10
0.9184743110923436
 20
0.5230464263635204
 10
0.921451878061279
 20
0.5279213413635207
 10
0.9245428742685772
 20
0.5327112271122672
 10
0.9282296792682295
 20
0.5384243932056276
 10
0.9333407627605803
 20
0.5512966937353268
 10
0.9346595104079144
 20
0.5546179691683584
 10
0.9361481806654534
 20
0.5594026532414671
 10
0.9400074405078475
 20
0.5679533299650906
 10
0.9415439196675839
 20
0.5713575932497676
 10
0.9431551513343254
 20
0.5760026033037282
 10
0.9437918338513664
 20
0.5778380914919774
 10
0.9465065307987474
 20
0.5823997007379567
 10
0.9487321326832256
 20
0.5861394648187688
 10
0.9514407807652833
 20
0.5929147759496054
 10
0.9527342514467493
 20
0.5961502151945924
 10
0.9534825883736646
 20
0.5980220772294321
 10
0.9602367272254364
 20
0.6067991300851437
 10
0.962760572034405
 20
0.6112489065644331
 10
0.9659572839171028
 20
0.6168850111680703
 10
0.9684604823761819
 20
0.620233483617227
 10
0.9733751089699378
 20
0.6294111685562301
 10
0.9753885117932385
 20
0.6338892855407515
 10
0.9763810358517241
 20
0.6382256922635552
 10
0.9763810358517241
 20
0.6415417660209491
 10
0.9797592861643602
 20
0.6493022348879283
 10
0.9819711927580536
 20
0.6530717902497841
 10
0.9832756498252939
 20
0.657833332914779
 10
0.9832756498252939
 20
0.660979350748185
 10
0.9841571760901208
 20
0.6705813258750611
 10
0.9844691143053951
 20
0.6758246932282695
 10
0.9833915209213985
 20
0.6786306017922179
 10
0.9819169147900961
 20
0.683505514213699
 10
0.9789639069746236
 20
0.6891650726257717
 10
0.9757027669097837
 20
0.6920560078624547
 10
0.9723849070192427
 20
0.6944084374004609
 10
0.9690670471287017
 20
0.6976678275688713
 10
0.966202914604648
 20
0.7011539572502535
 10
0.9589595627345062
 20
0.705504741796474
 10
0.9558685665272088
 20
0.7068935245365724
 10
0.9520686245638501
 20
0.7094443505037989
 10
0.948750764673309
 20
0.7111449020081225
 10
0.9429374250931701
 20
0.7134689884623771
 10
0.940158367101147
 20
0.7153962794796725
 10
0.9423884913072999
 20
0.7200348731891158
 10
0.9435795191361782
 20
0.7230391781822845
 10
0.9463018625090198
 20
0.7267520499551572
 10
0.9501868790044092
 20
0.7291895061658975
 10
0.9543838233020345
 20
0.7296429851918403
 10
0.963330170496996
 20
0.7290528678515727
 10
0.9680751837940546
 20
0.7287398781401996
 10
0.9731703157237374
 20
0.7267854649863011
 10
0.9782850674647804
 20
0.7248235259787194
 10
0.9874182432636855
 20
0.7216785554510694
 10
0.9915584729421293
 20
0.7210266774173873
 10
0.9944226106727027
 20
0.72148015644333
 10
0.9944226106727027
 20
0.7247962302007239
 10
0.9925509970006141
 20
0.7276304818484239
 10
0.9913643069679574
 20
0.7294275290866035
 10
0.9890012803744294
 20
0.7343367772631706
 10
0.9854849167134958
 20
0.7371143453218876
 10
0.9810043889069266
 20
0.7388999234989458
 10
0.9746748303244105
 20
0.7414223766926926
 10
0.9701304274599555
 20
0.7432334103326656
 10
0.964698678169686
 20
0.7436331256587088
 10
0.9579495291502428
 20
0.7455604166760042
 10
0.9545182400213398
 20
0.7473459948530623
 10
0.9527433270397906
 20
0.7494088308925147
 10
0.9514388699725504
 20
0.7518746301870061
 10
0.9499642638412479
 20
0.7553891029521398
 10
0.949198603466006
 20
0.7591869988192275
 10
0.9495672563004617
 20
0.7631266101050716
 10
0.9514105100597003
 20
0.7660742315092573
 10
0.9546432954182098
 20
0.769843786871113
 10
0.9589253194543854
 20
0.769843786871113
 10
0.9604793770764343
 20
0.7700707068804329
  0
LWPOLYLINE
  5
324
330
1F
100
AcDbEntity
  8
Cut
100
AcDbPolyline
 90
      249
 70
     0
 43
0.0
 10
1.014196363361466
 20
0.874710396478771
 10
1.016333051364936
 20
0.8765611983006156
 10
1.020036646681095
 20
0.877842523828901
 10
1.024594918239946
 20
0.8787441959162954
 10
1.028630887361233
 20
0.8804051723069532
 10
1.030591410964852
 20
0.8812120128255692
 10
1.034993467911906
 20
0.8831576462161914
 10
1.041593465761271
 20
0.883916947940936
 10
1.045724396595516
 20
0.8832051012847283
 10
1.049475470164893
 20
0.8805000850225464
 10
1.051517196455407
 20
0.874710396478771
 10
1.052514317870794
 20
0.8698698376694462
 10
1.05384381309131
 20
0.8667377128978355
 10
1.055497148326297
 20
0.8628426614787946
 10
1.057267393052837
 20
0.8586721858920871
 10
1.058115216367592
 20
0.8566748200007957
 10
1.058115216367592
 20
0.8525007771951592
 10
1.058115216367592
 20
0.8485144354046916
 10
1.056977622510168
 20
0.847944956532614
 10
1.05384381309131
 20
0.847944956532614
 10
1.04957043708437
 20
0.847944956532614
 10
1.047623677713334
 20
0.8470907420922756
 10
1.04453421222283
 20
0.8444996112904323
 10
1.042445007679098
 20
0.8403234440687782
 10
1.040545726561281
 20
0.8390895761875487
 10
1.038171631672158
 20
0.8369065785718689
 10
1.035227745679214
 20
0.8334422580064231
 10
1.03267029998199
 20
0.8304326945433205
 10
1.028390340944198
 20
0.8297406543627342
 10
1.025209048065601
 20
0.8297406543627342
 10
1.020935672058661
 20
0.8305474137345356
 10
1.017327043661979
 20
0.8319236519784141
 10
1.013623448345819
 20
0.8319236519784141
 10
1.011011941364525
 20
0.8297406543627342
 10
1.007593236393757
 20
0.8282695034032627
 10
1.00170546961439
 20
0.8267034423067167
 10
0.9987203278031154
 20
0.8259094376130029
 10
0.9949155483391116
 20
0.82366622767218
 10
0.993253679313466
 20
0.8204866452535132
 10
0.9923902162403187
 20
0.818834618550939
 10
0.9903572819867809
 20
0.818834618550939
 10
0.9876292530944175
 20
0.8123863172334457
 10
0.9793673862194074
 20
0.8090643670306487
 10
0.9727673935765626
 20
0.8090643670306487
 10
0.964790422253464
 20
0.8090643670306487
 10
0.9573832316211454
 20
0.8090643670306487
 10
0.9452926046961929
 20
0.8071991951209458
 10
0.9396199505650953
 20
0.8063240978075924
 10
0.9326840584739365
 20
0.8052541259047739
 10
0.9231660049252354
 20
0.8033552236931274
 10
0.9142393956464873
 20
0.802216268527491
 10
0.9070696171063419
 20
0.7986095775993954
 10
0.9007070313491496
 20
0.7967587757775512
 10
0.8954365287203023
 20
0.7954299951807285
 10
0.8878394146620705
 20
0.7922978704091177
 10
0.8822840216878322
 20
0.7901623304404946
 10
0.8738794965386624
 20
0.7869315600059671
 10
0.8677355810974894
 20
0.7845697870316143
 10
0.8596969469008461
 20
0.7803635343596685
 10
0.8560408350444257
 20
0.777516145156318
 10
0.8489660182172373
 20
0.7736721737284995
 10
0.841874451651441
 20
0.7698191016386844
 10
0.834715876235073
 20
0.7659296215239974
 10
0.8285487709316639
 20
0.7631842967380487
 10
0.8213021806062643
 20
0.7557504824270063
 10
0.8160316831839358
 20
0.7522387067930234
 10
0.8140374351466412
 20
0.7491540370899497
 10
0.8114094342186374
 20
0.7450890889537786
 10
0.8055856448457179
 20
0.7399000279807284
 10
0.8028316926917273
 20
0.7362458819840958
 10
0.8013122688387772
 20
0.7325917334089445
 10
0.8013122688387772
 20
0.7270670573395779
 10
0.8000049221530991
 20
0.725068199520107
 10
0.7982430775360179
 20
0.7207373443492791
 10
0.7954336499145365
 20
0.7124087735395093
 10
0.7919099606803739
 20
0.7049368564493013
 10
0.7919099606803739
 20
0.7019861614501526
 10
0.7919099606803739
 20
0.6935304980043738
 10
0.7933431801865157
 20
0.6902466608948199
 10
0.7933431801865157
 20
0.6853447023847777
 10
0.7933431801865157
 20
0.6802999686845617
 10
0.7913908706654702
 20
0.676207072164023
 10
0.7900198427181522
 20
0.6733327966177284
 10
0.787343384722588
 20
0.6705912351245931
 10
0.7842958733678929
 20
0.667117033673327
 10
0.781438826917162
 20
0.6652133593139716
 10
0.7789151018581464
 20
0.6638331965637727
 10
0.7757247340156992
 20
0.6628813593840955
 10
0.7716772532793366
 20
0.6628813593840955
 10
0.7689630633163578
 20
0.6628813593840955
 10
0.7648679637507439
 20
0.6623578503534584
 10
0.7613442745165804
 20
0.6623578503534584
 10
0.7572015561217161
 20
0.6632620932245588
 10
0.7478326217546414
 20
0.6663994523902757
 10
0.7448803376454088
 20
0.6719676951211287
 10
0.7448803376454088
 20
0.6740617364007151
 10
0.7464993309812576
 20
0.6758226329913773
 10
0.7464993309812576
 20
0.6773931652403271
 10
0.7473088302524423
 20
0.6795823874015104
 10
0.7473088302524423
 20
0.6817716121412128
 10
0.7457850693685755
 20
0.6817716121412128
 10
0.7444517838017113
 20
0.6817716121412128
 10
0.7423566177929138
 20
0.6793444287512207
 10
0.7404995355173299
 20
0.6775359404305008
 10
0.7373839769931024
 20
0.6745019061942886
 10
0.7336426271594867
 20
0.6725863901904008
 10
0.7297379977043566
 20
0.6710634522500283
 10
0.7264047785806769
 20
0.6692549613507888
 10
0.7229763217984955
 20
0.6665898193105071
 10
0.7178148853444944
 20
0.6601341250260018
 10
0.7162364703143636
 20
0.6581599139746009
 10
0.7145769038793155
 20
0.6546610657552648
 10
0.7090532810883366
 20
0.6502350245458018
 10
0.7043999855286955
 20
0.646506370601434
 10
0.7003869092841608
 20
0.6443812288560818
 10
0.6969591988779829
 20
0.6425660701022286
 10
0.693588359989013
 20
0.6407810279043479
 10
0.6911187598926534
 20
0.6394732405762981
 10
0.6881968482458217
 20
0.6370044952259897
 10
0.6867683250204557
 20
0.634910456524922
 10
0.6850932678803892
 20
0.6261218520932399
 10
0.6843909293189628
 20
0.622436857924475
 10
0.6825695428213745
 20
0.6181740151239335
 10
0.6794412713511634
 20
0.6108524886205871
 10
0.6781411218640443
 20
0.6051814470329302
 10
0.675998342232516
 20
0.5997559769137318
 10
0.6726523254833934
 20
0.5932513217054392
 10
0.6704143081933625
 20
0.589063241724785
 10
0.6679306664084343
 20
0.5844155160414725
 10
0.6629859895040689
 20
0.5775936115741543
 10
0.6599860917721055
 20
0.5737386737039057
 10
0.6576052179943224
 20
0.5696457746048478
 10
0.6524977627366555
 20
0.5625203486192758
 10
0.6511644771697914
 20
0.5591413280496061
 10
0.6481049378601639
 20
0.5513873655693406
 10
0.6463551159914953
 20
0.5444354525194793
 10
0.6463551159914953
 20
0.540342555998941
 10
0.6463551159914953
 20
0.5338776280369509
 10
0.6476448073688426
 20
0.5295943620176616
 10
0.6476448073688426
 20
0.5226459565366098
 10
0.6466448431936947
 20
0.5162686518162527
 10
0.645549641360045
 20
0.5151740394464013
 10
0.6416926307341662
 20
0.5133655485471622
 10
0.6376927636205343
 20
0.5127468560564093
 10
0.6330262589299905
 20
0.5121757527171953
 10
0.6284828415718664
 20
0.5093033492984631
 10
0.6260403189851944
 20
0.5077591569702497
 10
0.6175784524776607
 20
0.5046869411687687
 10
0.6019599398636597
 20
0.5021645743186607
 10
0.5966267871831637
 20
0.5021645743186607
 10
0.5925793064468011
 20
0.5033543701486276
 10
0.5841510183758399
 20
0.5033543701486276
 10
0.5783416930223951
 20
0.5033543701486276
 10
0.5754370329489325
 20
0.5033543701486276
 10
0.5706276717706365
 20
0.5049248998190579
 10
0.5646278763067088
 20
0.5054484114282145
 10
0.5590090210637478
 20
0.5054484114282145
 10
0.5505963733779895
 20
0.5054484114282145
 10
0.5443584941808473
 20
0.5054484114282145
 10
0.5349302419347373
 20
0.5073521837713014
 10
0.5281685660288762
 20
0.5099697340815253
 10
0.5188355514412688
 20
0.51144508029184
 10
0.5128357559773403
 20
0.5127776538905003
 10
0.5037200748572066
 20
0.5148022755742771
 10
0.4940747026109316
 20
0.5165648179604108
 10
0.4893285954405693
 20
0.5192200146518906
 10
0.4848511342741091
 20
0.522561388840304
 10
0.4782244946633983
 20
0.5256044231928203
 10
0.473299288421595
 20
0.5272452768191412
 10
0.4689113793941147
 20
0.5301391438322276
 10
0.4619180185677596
 20
0.5360710841267658
 10
0.4568561724227367
 20
0.538457462449403
 10
0.4521763546612983
 20
0.5407006607543421
 10
0.4480695716654602
 20
0.54528250899034
 10
0.4453534959299209
 20
0.5483127754617677
 10
0.4406678166397171
 20
0.5526325601030871
 10
0.4359402446795162
 20
0.554637119028651
 10
0.4272491471132467
 20
0.554637119028651
 10
0.4216620151948672
 20
0.556307584370201
 10
0.4180327689801411
 20
0.5545893906370721
 10
0.4102640167932102
 20
0.5545893906370721
 10
0.4057274564215421
 20
0.5561756931098412
 10
0.400892437409333
 20
0.5578663578396336
 10
0.3958425299187906
 20
0.5601848109609691
 10
0.3910530567161174
 20
0.5623836966073076
 10
0.3807524998812468
 20
0.5638121094150233
 10
0.3717480647354854
 20
0.5650607846754624
 10
0.3663787672055907
 20
0.5650607846754624
 10
0.3605528694999149
 20
0.5640984746074583
 10
0.3574162433538959
 20
0.5640984746074583
 10
0.3555006658293909
 20
0.5653967590569438
 10
0.3549259910100844
 20
0.5679814023043189
 10
0.3537287570097138
 20
0.5699438153325107
 10
0.3518131742786901
 20
0.5716190457776609
 10
0.3495623697762564
 20
0.5733421412759112
 10
0.3467847800227908
 20
0.5744908716080777
 10
0.3437677424279482
 20
0.5744908716080777
 10
0.3423988286467203
 20
0.5753398078194821
 10
0.3423988286467203
 20
0.5761673835773023
 10
0.3423988286467203
 20
0.5772206648618688
 10
0.3434526750943281
 20
0.5781422843742901
 10
0.3460120127481474
 20
0.5784996465161432
 10
0.3494181960390179
 20
0.5777473042148924
 10
0.3522145450230066
 20
0.5771296593467043
 10
0.3586885866075757
 20
0.5750947144063887
 10
0.3653880393964046
 20
0.5738909662086833
 10
0.370412627686397
 20
0.5741354768764229
 10
0.3773495654586743
 20
0.5741354768764229
 10
0.3813562062544466
 20
0.5741354768764229
 10
0.3850790500739665
 20
0.5741354768764229
 10
0.3917824702308135
 20
0.5713625914086898
 10
0.3960202648820683
 20
0.5713625914086898
 10
0.4014138183976988
 20
0.5700534307649479
 10
0.4072696796242941
 20
0.5700534307649479
 10
0.4123550332058006
 20
0.5713625914086898
 10
0.4190301443001161
 20
0.5730810152305971
 10
0.4252995658085279
 20
0.5730810152305971
 10
0.4473052493657832
 20
0.576681408814086
 10
0.4637941202598368
 20
0.5777595418673199
 10
0.4778679727104613
 20
0.5786797677342605
 10
0.4914553546109559
 20
0.5841513198163062
 10
0.5055556512845794
 20
0.587847768999986
 10
0.51873133774279
 20
0.5921602934773654
 10
0.5498273131453786
 20
0.6000886316839962
 10
0.567947266914044
 20
0.6000886316839962
 10
0.5845880432271029
 20
0.6030454016745313
 10
0.5938329166425707
 20
0.6064949653742287
 10
0.605419828405319
 20
0.6136404909174647
 10
0.6173785575499647
 20
0.6210153122950151
 10
0.630442622448693
 20
0.6316275090045145
 10
0.6597796897113151
 20
0.6466577545225097
 10
0.6716131301822444
 20
0.6507233110032909
 10
0.6931073148303302
 20
0.6643415000663096
 10
0.7061734040486849
 20
0.679125347440464
 10
0.7262655978958384
 20
0.696865964805153
 10
0.7503022718999679
 20
0.7114034166139858
 10
0.7700379169903089
 20
0.7233395933648862
 10
0.7844977665826161
 20
0.737847928895492
 10
0.8029875134135533
 20
0.7675388252942406
 10
0.8177793140022142
 20
0.7870042270872975
 10
0.8435678569316653
 20
0.8028437976037618
 10
0.8695767710142829
 20
0.8108517166504416
 10
0.916910532898
 20
0.8214468084718946
 10
0.9488361672160827
 20
0.8330274877116732
 10
0.9630736556840151
 20
0.8446674032745065
 10
0.9751536248631254
 20
0.8562480850928047
 10
0.9917944011761843
 20
0.8614224306423508
 10
1.011404557512083
 20
0.8675200863798979
 10
1.014196363361466
 20
0.874710396478771
  0
LWPOLYLINE
  5
326
330
1F
100
AcDbEntity
  8
Cut
100
AcDbPolyline
 90
       93
 70
     0
 43
0.0
 10
1.059874290575878
 20
0.6865012894651419
 10
1.057850833963021
 20
0.693073991796815
 10
1.057850833963021
 20
0.6961075449339967
 10
1.063035944462135
 20
0.6983827117207722
 10
1.066450531075815
 20
0.6983827117207722
 10
1.073406160253844
 20
0.6956019540337258
 10
1.077326612322367
 20
0.6923156028678897
 10
1.082202582140438
 20
0.6882282810957764
 10
1.089214419272089
 20
0.6851109106216189
 10
1.098067049112304
 20
0.6851109106216189
 10
1.106034409200022
 20
0.6822037564987645
 10
1.114499397729274
 20
0.6791150262252744
 10
1.121512209844755
 20
0.6765561704148344
 10
1.131833490125362
 20
0.6742406753235684
 10
1.14220370591707
 20
0.6742406753235684
 10
1.152194527824166
 20
0.6724711020155825
 10
1.156428704374728
 20
0.6717211451176566
 10
1.170362004940026
 20
0.6692532804112521
 10
1.180946522847623
 20
0.6641056506447778
 10
1.192855798318104
 20
0.6583137438764036
 10
1.206492671045541
 20
0.6583137438764036
 10
1.220151007087218
 20
0.6583137438764036
 10
1.23330347767405
 20
0.6555105821335033
 10
1.250123462395464
 20
0.6555105821335033
 10
1.262137740915417
 20
0.6555105821335033
 10
1.271749163731378
 20
0.6574065518772972
 10
1.285220132748317
 20
0.6574065518772972
 10
1.288381781428054
 20
0.652973187673124
 10
1.295590348540026
 20
0.652973187673124
 10
1.303810646561686
 20
0.652973187673124
 10
1.308616352763147
 20
0.6514564098152733
 10
1.313801463262262
 20
0.6481700586494373
 10
1.317684273053692
 20
0.6457091127376837
 10
1.320797137737347
 20
0.6437361622125281
 10
1.324926532671983
 20
0.6411189292991785
 10
1.330874385917617
 20
0.6411189292991785
 10
1.335680092119078
 20
0.6411189292991785
 10
1.342762192867338
 20
0.6411189292991785
 10
1.350654834190724
 20
0.6466098456345826
 10
1.35202555984081
 20
0.6482289210871986
 10
1.353801269419875
 20
0.6486959631244705
 10
1.355545828391526
 20
0.6481043760282219
 10
1.356355801456003
 20
0.6463918911367439
 10
1.355857355291743
 20
0.6441812311663986
 10
1.353022446962811
 20
0.6426555625741255
 10
1.351285560315805
 20
0.6417208186253946
 10
1.349315264354573
 20
0.6394485447104885
 10
1.347601855990336
 20
0.6383587825353727
 10
1.344673490632643
 20
0.6371756109213953
 10
1.340810539367776
 20
0.636210391226737
 10
1.337103351553019
 20
0.6346847252129831
 10
1.330810481094719
 20
0.6346847252129831
 10
1.327695196472983
 20
0.6353385809709407
 10
1.324471619442027
 20
0.6360151658287748
 10
1.320597859706498
 20
0.6368282151695468
 10
1.317040928585557
 20
0.6389815026732162
 10
1.314018929177431
 20
0.6399778915087393
 10
1.308016582518846
 20
0.6406042963506114
 10
1.303250195954221
 20
0.6402617993723157
 10
1.29951185753205
 20
0.6394522603567481
 10
1.293032067809708
 20
0.640137254313339
 10
1.28742456277971
 20
0.6420054198839078
 10
1.282253192286106
 20
0.6427215494606138
 10
1.276334155149371
 20
0.6427215494606138
 10
1.262415899230824
 20
0.6427215494606138
 10
1.254658840887158
 20
0.6427215494606138
 10
1.240359691606322
 20
0.6427215494606138
 10
1.229425052632611
 20
0.6427215494606138
 10
1.21989604381711
 20
0.6435291623222908
 10
1.213883544445094
 20
0.647016403345476
 10
1.204724615050448
 20
0.647016403345476
 10
1.191360051676784
 20
0.6476391260618386
 10
1.186250982398007
 20
0.6500054667112747
 10
1.184385203046752
 20
0.6508696298848089
 10
1.171747305403476
 20
0.6521596003823116
 10
1.166776505730815
 20
0.6526669778835165
 10
1.160220758030224
 20
0.6526669778835165
 10
1.154800167057749
 20
0.6545882148504952
 10
1.148258070914059
 20
0.655771386464473
 10
1.133680440513593
 20
0.6571186679370156
 10
1.128945214969421
 20
0.6583329751711076
 10
1.124552661726361
 20
0.6602011381631572
 10
1.119914774580419
 20
0.6621736422280855
 10
1.111312711195393
 20
0.6637506530050899
 10
1.10118804007964
 20
0.6637506530050899
 10
1.097262782393427
 20
0.6651517765383868
 10
1.088197310027542
 20
0.6671756227880464
 10
1.080880030784064
 20
0.6713602372388095
 10
1.076799014854261
 20
0.673197264610745
 10
1.071721101389418
 20
0.6770581408108587
 10
1.068486911032078
 20
0.6795171840111314
 10
1.065521687959879
 20
0.6810746951115445
 10
1.059874290575878
 20
0.6865012894651419
  0
LWPOLYLINE
  5
327
330
1F
100
AcDbEntity
  8
Cut
100
AcDbPolyline
 90
       28
 70
     0
 43
0.0
 10
1.011220535370113
 20
0.8133749730896958
 10
1.00825487050523
 20
0.8125061925940348
 10
1.007308386726396
 20
0.8122289236901046
 10
1.005953922011487
 20
0.8100531672839776
 10
1.00493127823649
 20
0.8085711323946917
 10
1.003950716276482
 20
0.8071500832753699
 10
1.002769943556058
 20
0.8054388848984071
 10
1.002769943556058
 20
0.8033073483259499
 10
1.002769943556058
 20
0.8017231009330348
 10
1.002769943556058
 20
0.7998322263433067
 10
1.003397312573995
 20
0.7979924580053935
 10
1.003762439852465
 20
0.7969217172020852
 10
1.004185424079441
 20
0.7956813100956162
 10
1.005544861377576
 20
0.7944662323494543
 10
1.00631761913279
 20
0.7937755342548657
 10
1.007282146366629
 20
0.7929134308102921
 10
1.009430908763868
 20
0.7929134308102921
 10
1.010606947022506
 20
0.7929134308102921
 10
1.012447706858805
 20
0.7945173386012692
 10
1.012447706858805
 20
0.7969192602380311
 10
1.013419217403748
 20
0.7992189719496819
 10
1.014748655352548
 20
0.8007010068389677
 10
1.015362243700153
 20
0.802234147980068
 10
1.015362243700153
 20
0.8041250225697961
 10
1.015362243700153
 20
0.8061692107579304
 10
1.015362243700153
 20
0.8079578754225478
 10
1.01439073315521
 20
0.8115863084250785
 10
1.011220535370113
 20
0.8133749730896958
  0
LWPOLYLINE
  5
328
330
1F
100
AcDbEntity
  8
Cut
100
AcDbPolyline
 90
       36
 70
     0
 43
0.0
 10
1.052801827095597
 20
0.8202289970301226
 10
1.055307303303036
 20
0.8221198716198507
 10
1.057863912740528
 20
0.8221198716198507
 10
1.061545427206604
 20
0.8221198716198507
 10
1.062925998385458
 20
0.8221198716198507
 10
1.064766758221757
 20
0.8187980658141329
 10
1.066001297796896
 20
0.8165702354110472
 10
1.067483603112412
 20
0.8138952909094163
 10
1.067483603112412
 20
0.8110301501835191
 10
1.069522049692883
 20
0.807657240704505
 10
1.071362809529182
 20
0.8031600246277946
 10
1.07294790842173
 20
0.7974362997638345
 10
1.073817152506566
 20
0.7918147822464654
 10
1.073817152506566
 20
0.7875730922717908
 10
1.073817152506566
 20
0.783571124654582
 10
1.073817152506566
 20
0.7791250174082057
 10
1.073100282427509
 20
0.7762631523977062
 10
1.072231033136154
 20
0.7747300112566058
 10
1.071127131072222
 20
0.7727830005580742
 10
1.068958574097468
 20
0.7702839014317098
 10
1.066401964659976
 20
0.7697217507113808
 10
1.061288745784993
 20
0.7707438448054478
 10
1.059027142939717
 20
0.7711959222478179
 10
1.055766466276098
 20
0.7744233840597934
 10
1.054232500613602
 20
0.777796293538807
 10
1.051624763152577
 20
0.7813736228680419
 10
1.049068153715085
 20
0.7849509521972769
 10
1.046642949268109
 20
0.7883444134238254
 10
1.044977578615098
 20
0.7930766012765181
 10
1.043584641697148
 20
0.7970346625950411
 10
1.044363990267491
 20
0.802377655469713
 10
1.047074665829668
 20
0.8078651441342522
 10
1.048573289703662
 20
0.8108989566774061
 10
1.049768458342988
 20
0.8133184547730195
 10
1.051489367070661
 20
0.8168022605325818
 10
1.052801827095597
 20
0.8202289970301226
  0
LWPOLYLINE
  5
329
330
1F
100
AcDbEntity
  8
Cut
100
AcDbPolyline
 90
       27
 70
     0
 43
0.0
 10
1.08820713993675
 20
0.8160895969146558
 10
1.089749868171915
 20
0.818351051135985
 10
1.091601145178024
 20
0.8198415538825344
 10
1.094943725624139
 20
0.8204583150623584
 10
1.097309245375302
 20
0.8204583150623584
 10
1.099211947176568
 20
0.8184024461819575
 10
1.09977761471678
 20
0.8152158527694117
 10
1.09977761471678
 20
0.8133141741839668
 10
1.100548976231102
 20
0.8107957369972176
 10
1.100548976231102
 20
0.806427018849515
 10
1.100548976231102
 20
0.801595729816945
 10
1.100548976231102
 20
0.7984605314503713
 10
1.099520490740993
 20
0.79563371367371
 10
1.098543430046041
 20
0.7925499103531087
 10
1.097768135956135
 20
0.7901029236907161
 10
1.095766517140138
 20
0.788746555760739
 10
1.094120934108139
 20
0.7880783995349421
 10
1.092033892577162
 20
0.7872309978752853
 10
1.089955567352545
 20
0.7872309978752853
 10
1.088721382681805
 20
0.789311919316071
 10
1.087269211755244
 20
0.7917603807889862
 10
1.087269211755244
 20
0.795479523378754
 10
1.086458712520957
 20
0.7994884658905717
 10
1.086458712520957
 20
0.8037543913678097
 10
1.085893044980744
 20
0.8079175215960642
 10
1.086715831290224
 20
0.8126974155826619
 10
1.08820713993675
 20
0.8160895969146558
  0
LWPOLYLINE
  5
32A
330
1F
100
AcDbEntity
  8
Cut
100
AcDbPolyline
 90
       69
 70
     0
 43
0.0
 10
1.129420419229704
 20
0.8054997420658285
 10
1.129420419229704
 20
0.8067275478482681
 10
1.129420419229704
 20
0.8075676268459996
 10
1.130454918250077
 20
0.8088600580567559
 10
1.130950193782682
 20
0.8094788209010483
 10
1.132620903339945
 20
0.8094788209010483
 10
1.134140321986375
 20
0.8094788209010483
 10
1.134948524834152
 20
0.8094788209010483
 10
1.135756727681929
 20
0.8067921706980655
 10
1.13620932002712
 20
0.805241255823677
 10
1.136979095102269
 20
0.8026034391953849
 10
1.13809573591177
 20
0.7987770049677458
 10
1.139539118467351
 20
0.7959357639988283
 10
1.140573617487723
 20
0.7930924204922034
 10
1.141648686302738
 20
0.7901375700050105
 10
1.14468983202009
 20
0.7817789135366644
 10
1.145653941571191
 20
0.7770476978260468
 10
1.147302674547614
 20
0.7736550704102206
 10
1.150571103740045
 20
0.7697951482622339
 10
1.151734917090409
 20
0.7649485376681962
 10
1.15293105772164
 20
0.7629129617344042
 10
1.155129370092376
 20
0.7605219678622839
 10
1.161635780749986
 20
0.754367841719795
 10
1.166452670555781
 20
0.7507813509116144
 10
1.168618650439129
 20
0.7484226684643929
 10
1.1711926944086
 20
0.745619617348433
 10
1.175245914832204
 20
0.7433175716282041
 10
1.17822009756333
 20
0.7423482495093965
 10
1.184728335709358
 20
0.7381975632151106
 10
1.188394514607961
 20
0.7358594252789447
 10
1.191549568994161
 20
0.7352249765874097
 10
1.194394442601814
 20
0.7341587227724254
 10
1.195900210203972
 20
0.7335943636227036
 10
1.197416413634132
 20
0.7330260931423032
 10
1.198661753013295
 20
0.7308307182063963
 10
1.199760906595403
 20
0.7296998415416143
 10
1.200827738103163
 20
0.7296998415416143
 10
1.202314829468726
 20
0.7287305194228067
 10
1.202314829468726
 20
0.7278904404250746
 10
1.202670439971313
 20
0.7278904404250746
 10
1.202670439971313
 20
0.7262102824296109
 10
1.20134498501009
 20
0.7258225530663843
 10
1.198920376466758
 20
0.725467135128056
 10
1.195719892356517
 20
0.725467135128056
 10
1.192034488620219
 20
0.7272442248196965
 10
1.188543053775648
 20
0.7297321529665131
 10
1.18531024238454
 20
0.7300875709048414
 10
1.180364043455274
 20
0.7307014750853207
 10
1.176226047373784
 20
0.7317031060505075
 10
1.171118206833659
 20
0.7342879658935009
 10
1.165474511285171
 20
0.7359411499989426
 10
1.162532655834913
 20
0.7373305103273565
 10
1.159083497190136
 20
0.7389594565038377
 10
1.153708557946516
 20
0.741497897796752
 10
1.149569082989613
 20
0.7448589098820455
 10
1.146213544061258
 20
0.7475834116626552
 10
1.142909491315669
 20
0.7540351585858183
 10
1.14183619851695
 20
0.7583193245083311
 10
1.141217262742639
 20
0.7607898745350306
 10
1.138765028736702
 20
0.7642968091886316
 10
1.137245610090271
 20
0.7699188759306037
 10
1.13569604793421
 20
0.7756524779781218
 10
1.13569604793421
 20
0.7803460416849806
 10
1.134559405170723
 20
0.7825754835896457
 10
1.132878344913434
 20
0.7886822113910217
 10
1.13159295593651
 20
0.7933515982062342
 10
1.130168627745768
 20
0.7985257045614179
 10
1.129374412297223
 20
0.8014108227711178
 10
1.129420419229704
 20
0.8054997420658285
  0
LWPOLYLINE
  5
32B
330
1F
100
AcDbEntity
  8
Cut
100
AcDbPolyline
 90
       28
 70
     0
 43
0.0
 10
1.029028170847564
 20
0.7622781663908467
 10
1.030126694440788
 20
0.7650491489113631
 10
1.030126694440788
 20
0.767924698123597
 10
1.031591397771606
 20
0.7697023086761292
 10
1.03295483938062
 20
0.7713570247820803
 10
1.033512083982196
 20
0.7720333145557575
 10
1.036508617212176
 20
0.7720333145557575
 10
1.038810289412158
 20
0.7702251369776807
 10
1.043152089501103
 20
0.7666699132940971
 10
1.045976871149203
 20
0.7624350151391642
 10
1.04864472308678
 20
0.7598731634235647
 10
1.051364884927864
 20
0.7581478323491125
 10
1.053735661523202
 20
0.7566441076556984
 10
1.057276008154643
 20
0.7513510824785801
 10
1.05968230536816
 20
0.7458091174375481
 10
1.061408563423036
 20
0.7400057369564803
 10
1.064704581963401
 20
0.7343427645849019
 10
1.063762988080702
 20
0.7313626512594693
 10
1.062036730025825
 20
0.7283302532989176
 10
1.059787367729351
 20
0.7271277505260168
 10
1.056596406343657
 20
0.7271277505260168
 10
1.053562379875006
 20
0.7288007969653503
 10
1.049429824606612
 20
0.7329311310070846
 10
1.044617230179577
 20
0.7357543955842001
 10
1.036030771476224
 20
0.7407915631800943
 10
1.03138259550523
 20
0.749347897903784
 10
1.029656337450354
 20
0.756928888937384
 10
1.029028170847564
 20
0.7622781663908467
  0
LWPOLYLINE
  5
32C
330
1F
100
AcDbEntity
  8
Cut
100
AcDbPolyline
 90
       31
 70
     0
 43
0.0
 10
0.9464065916529493
 20
0.8874176849339496
 10
0.9425018007957088
 20
0.8851269748330498
 10
0.9403609742154504
 20
0.8838710783584463
 10
0.9403609742154504
 20
0.8808000776892921
 10
0.9429760532049655
 20
0.8772120761727748
 10
0.9455577258862515
 20
0.875794452390755
 10
0.9491229683542057
 20
0.875794452390755
 10
0.9530277592114471
 20
0.875794452390755
 10
0.9579511900300294
 20
0.875794452390755
 10
0.96423280919924
 20
0.875794452390755
 10
0.9735703482524744
 20
0.8735885858877221
 10
0.9784088919737348
 20
0.8754550883133656
 10
0.9853279619528342
 20
0.8781241684422564
 10
0.9947920340720752
 20
0.8794426213797329
 10
1.002177180299948
 20
0.8824969006547602
 10
1.005185949357575
 20
0.8837412390459714
 10
1.006251740145313
 20
0.8869934798372124
 10
1.007095502135375
 20
0.8895682038766276
 10
1.007095502135375
 20
0.8920839461550968
 10
1.007095502135375
 20
0.8943746562559965
 10
1.001922519007983
 20
0.8970895714536339
 10
0.9975539865041715
 20
0.8993822901797344
 10
0.9906325819228687
 20
0.9011619429608298
 10
0.9842173907349781
 20
0.902811436601128
 10
0.9795973061297198
 20
0.902811436601128
 10
0.9769658165257846
 20
0.9014164660188722
 10
0.9711935199405044
 20
0.9003983737867029
 10
0.9667794117058532
 20
0.895816953584903
 10
0.9611768841086965
 20
0.8922536281937919
 10
0.9540463991727881
 20
0.8900477591122392
 10
0.9464065916529493
 20
0.8874176849339496
  0
LWPOLYLINE
  5
32D
330
1F
100
AcDbEntity
  8
Cut
100
AcDbPolyline
 90
        5
 70
     0
 43
0.0
 10
0.0464999015957446
 20
1.092837009656232
 10
1.409226122541454
 20
1.092837009656232
 10
1.409226122541454
 20
0.0710253062422854
 10
0.0472056305272517
 20
0.0710253062422856
 10
0.0464999015957446
 20
1.092837009656232
  0
ENDSEC
  0
SECTION
  2
OBJECTS
  0
DICTIONARY
  5
C
330
0
100
AcDbDictionary
281
     1
  3
ACAD_CIP_PREVIOUS_PRODUCT_INFO
350
1A5
  3
ACAD_COLOR
350
73
  3
ACAD_DETAILVIEWSTYLE
350
1AB
  3
ACAD_GROUP
350
D
  3
ACAD_IMAGE_DICT
350
210
  3
ACAD_IMAGE_VARS
350
212
  3
ACAD_LAYOUT
350
1A
  3
ACAD_MATERIAL
350
72
  3
ACAD_MLEADERSTYLE
350
D7
  3
ACAD_MLINESTYLE
350
17
  3
ACAD_PLOTSETTINGS
350
19
  3
ACAD_PLOTSTYLENAME
350
E
  3
ACAD_SCALELIST
350
B6
  3
ACAD_SECTIONVIEWSTYLE
350
1A8
  3
ACAD_TABLESTYLE
350
86
  3
ACAD_VISUALSTYLE
350
99
  3
ACDB_RECOMPOSE_DATA
350
33A
  3
AcDbVariableDictionary
350
66
  0
DICTIONARY
  5
18E
330
2
100
AcDbDictionary
280
     1
281
     1
  3
ACAD_LAYERSTATES
360
18F
  0
DICTIONARY
  5
E6
330
10
100
AcDbDictionary
280
     1
281
     1
  0
DICTIONARY
  5
15D
330
1F
100
AcDbDictionary
280
     1
281
     1
  0
XRECORD
  5
1A5
102
{ACAD_REACTORS
330
C
102
}
330
C
100
AcDbXrecord
280
     1
300
ACD
300
2018
300
86905BDSADV_2018_0F
  0
DICTIONARY
  5
73
102
{ACAD_REACTORS
330
C
102
}
330
C
100
AcDbDictionary
281
     1
  0
DICTIONARY
  5
1AB
102
{ACAD_REACTORS
330
C
102
}
330
C
100
AcDbDictionary
281
     1
  3
Imperial24
350
1AC
  0
DICTIONARY
  5
D
102
{ACAD_REACTORS
330
C
102
}
330
C
100
AcDbDictionary
281
     1
  0
DICTIONARY
  5
210
102
{ACAD_REACTORS
330
C
102
}
330
C
100
AcDbDictionary
281
     1
  0
RASTERVARIABLES
  5
212
102
{ACAD_REACTORS
330
C
102
}
330
C
100
AcDbRasterVariables
 90
        0
 70
     1
 71
     1
 72
     5
  0
DICTIONARY
  5
1A
102
{ACAD_REACTORS
330
C
102
}
330
C
100
AcDbDictionary
281
     1
  3
Layout1
350
59
  3
Layout2
350
5E
  3
Model
350
22
  0
DICTIONARY
  5
72
102
{ACAD_REACTORS
330
C
102
}
330
C
100
AcDbDictionary
281
     1
  3
ByBlock
350
97
  3
ByLayer
350
96
  3
Global
350
98
  0
DICTIONARY
  5
D7
102
{ACAD_REACTORS
330
C
102
}
330
C
100
AcDbDictionary
281
     1
  3
Annotative
350
E5
  3
Standard
350
D8
  0
DICTIONARY
  5
17
102
{ACAD_REACTORS
330
C
102
}
330
C
100
AcDbDictionary
281
     1
  3
Standard
350
18
  0
DICTIONARY
  5
19
102
{ACAD_REACTORS
330
C
102
}
330
C
100
AcDbDictionary
281
     1
  0
ACDBDICTIONARYWDFLT
  5
E
102
{ACAD_REACTORS
330
C
102
}
330
C
100
AcDbDictionary
281
     1
  3
Normal
350
F
100
AcDbDictionaryWithDefault
340
F
  0
DICTIONARY
  5
B6
102
{ACAD_REACTORS
330
C
102
}
330
C
100
AcDbDictionary
281
     1
  3
A0
350
B7
  3
A1
350
124
  3
A2
350
125
  3
A3
350
126
  3
A4
350
127
  3
A5
350
128
  3
A6
350
129
  3
A7
350
12A
  3
A8
350
12B
  3
A9
350
12C
  3
B0
350
12D
  3
B1
350
12E
  3
B2
350
12F
  3
B3
350
130
  3
B4
350
131
  3
B5
350
132
  3
B6
350
133
  3
B7
350
134
  3
B8
350
135
  3
B9
350
136
  3
C0
350
137
  3
C1
350
138
  3
C2
350
139
  3
C3
350
13A
  3
C4
350
13B
  3
C5
350
13C
  3
C6
350
13D
  3
C7
350
13E
  3
C8
350
13F
  3
C9
350
140
  3
D0
350
141
  3
D1
350
142
  3
D2
350
143
  0
DICTIONARY
  5
1A8
102
{ACAD_REACTORS
330
C
102
}
330
C
100
AcDbDictionary
281
     1
  3
Imperial24
350
1AA
  0
DICTIONARY
  5
86
102
{ACAD_REACTORS
330
C
102
}
330
C
100
AcDbDictionary
281
     1
  3
Standard
350
87
  0
DICTIONARY
  5
99
102
{ACAD_REACTORS
330
C
102
}
330
C
100
AcDbDictionary
281
     1
  3
2dWireframe
350
9F
  3
Basic
350
9E
  3
Brighten
350
A5
  3
ColorChange
350
A9
  3
Conceptual
350
A2
  3
Dim
350
A4
  3
EdgeColorOff
350
175
  3
Facepattern
350
A8
  3
Flat
350
9A
  3
FlatWithEdges
350
9B
  3
Gouraud
350
9C
  3
GouraudWithEdges
350
9D
  3
Hidden
350
A1
  3
JitterOff
350
173
  3
Linepattern
350
A7
  3
OverhangOff
350
174
  3
Realistic
350
A3
  3
Shaded
350
182
  3
Shaded with edges
350
181
  3
Shades of Gray
350
17E
  3
Sketchy
350
17F
  3
Thicken
350
A6
  3
Wireframe
350
A0
  3
X-Ray
350
180
  0
XRECORD
  5
33A
102
{ACAD_REACTORS
330
C
102
}
330
C
100
AcDbXrecord
280
     1
 90
        1
330
87
  0
DICTIONARY
  5
66
102
{ACAD_REACTORS
330
C
102
}
330
C
100
AcDbDictionary
281
     1
  3
CANNOSCALE
350
F0
  3
CMLEADERSTYLE
350
EF
  3
CTABLESTYLE
350
89
  3
CVIEWDETAILSTYLE
350
1B7
  3
CVIEWSECTIONSTYLE
350
1B8
  3
DIMASSOC
350
67
  3
HIDETEXT
350
6B
  3
LAYEREVAL
350
14D
  3
LAYERNOTIFY
350
14E
  0
DICTIONARY
  5
18F
102
{ACAD_REACTORS
330
18E
102
}
330
18E
100
AcDbDictionary
281
     1
  0
ACDBDETAILVIEWSTYLE
  5
1AC
102
{ACAD_REACTORS
330
1AB
102
}
330
1AB
100
AcDbModelDocViewStyle
 70
     0
  3
Imperial24
290
     0
300
Imperial24
 90
        0
100
AcDbDetailViewStyle
 70
     0
 71
     0
 90
        3
 71
     1
340
11
 62
   256
 40
0.24
340
0
 62
   256
 40
0.24
300

 40
0.36
280
     3
 71
     2
340
16
 90
       25
 62
   256
 71
     3
340
11
 62
   256
 40
0.24
 90
        1
 40
0.75
 90
        1
300
%<\AcVar ViewType \f "%tc1">% %<\AcVar ViewDetailId>%\PSCALE %<\AcVar ViewScale \f "%sn">%
 71
     4
340
16
 90
       25
 62
   256
340
16
 90
       25
 62
   256
280
     0
  0
LAYOUT
  5
59
102
{ACAD_REACTORS
330
1A
102
}
330
1A
100
AcDbPlotSettings
  1

  2
None
  4

  6

 40
0.0
 41
0.0
 42
0.0
 43
0.0
 44
0.0
 45
0.0
 46
0.0
 47
0.0
 48
0.0
 49
0.0
140
0.0
141
0.0
142
1.0
143
1.0
 70
   688
 72
     0
 73
     0
 74
     5
  7

 75
    16
147
1.0
 76
     0
 77
     2
 78
   300
148
0.0
149
0.0
100
AcDbLayout
  1
Layout1
 70
     1
 71
     1
 10
0.0
 20
0.0
 11
12.0
 21
9.0
 12
0.0
 22
0.0
 32
0.0
 14
0.0
 24
0.0
 34
0.0
 15
0.0
 25
0.0
 35
0.0
146
0.0
 13
0.0
 23
0.0
 33
0.0
 16
1.0
 26
0.0
 36
0.0
 17
0.0
 27
1.0
 37
0.0
 76
     0
330
58
  0
LAYOUT
  5
5E
102
{ACAD_REACTORS
330
1A
102
}
330
1A
100
AcDbPlotSettings
  1

  2
None
  4

  6

 40
0.0
 41
0.0
 42
0.0
 43
0.0
 44
0.0
 45
0.0
 46
0.0
 47
0.0
 48
0.0
 49
0.0
140
0.0
141
0.0
142
1.0
143
1.0
 70
   688
 72
     0
 73
     0
 74
     5
  7

 75
    16
147
1.0
 76
     0
 77
     2
 78
   300
148
0.0
149
0.0
100
AcDbLayout
  1
Layout2
 70
     1
 71
     2
 10
0.0
 20
0.0
 11
12.0
 21
9.0
 12
0.0
 22
0.0
 32
0.0
 14
0.0
 24
0.0
 34
0.0
 15
0.0
 25
0.0
 35
0.0
146
0.0
 13
0.0
 23
0.0
 33
0.0
 16
1.0
 26
0.0
 36
0.0
 17
0.0
 27
1.0
 37
0.0
 76
     0
330
5D
  0
LAYOUT
  5
22
102
{ACAD_XDICTIONARY
360
194
102
}
102
{ACAD_REACTORS
330
1A
102
}
330
1A
100
AcDbPlotSettings
  1

  2
none_device
  4
ANSI_A_(8.50_x_11.00_Inches)
  6

 40
6.349999904632568
 41
19.04999923706055
 42
6.350006103515625
 43
19.04998779296875
 44
215.8999938964844
 45
279.3999938964844
 46
0.0
 47
0.0
 48
0.0
 49
0.0
140
0.0
141
0.0
142
1.0
143
2.584895464708373
 70
 11952
 72
     0
 73
     1
 74
     0
  7

 75
     0
147
0.3868628397755418
 76
     0
 77
     2
 78
   300
148
0.0
149
0.0
100
AcDbLayout
  1
Model
 70
     1
 71
     0
 10
0.0
 20
0.0
 11
12.0
 21
9.0
 12
0.0
 22
0.0
 32
0.0
 14
0.0
 24
0.0
 34
0.0
 15
0.0
 25
0.0
 35
0.0
146
0.0
 13
0.0
 23
0.0
 33
0.0
 16
1.0
 26
0.0
 36
0.0
 17
0.0
 27
1.0
 37
0.0
 76
     0
330
1F
331
94
  0
MATERIAL
  5
97
102
{ACAD_XDICTIONARY
360
188
102
}
102
{ACAD_REACTORS
330
72
102
}
330
72
100
AcDbMaterial
  1
ByBlock
 94
       63
  0
MATERIAL
  5
96
102
{ACAD_XDICTIONARY
360
186
102
}
102
{ACAD_REACTORS
330
72
102
}
330
72
100
AcDbMaterial
  1
ByLayer
 94
       63
  0
MATERIAL
  5
98
102
{ACAD_XDICTIONARY
360
110
102
}
102
{ACAD_REACTORS
330
72
102
}
330
72
100
AcDbMaterial
  1
Global
 43
0.0208000000566244
 43
0.0
 43
0.0
 43
0.0
 43
0.0
 43
0.0208000000566244
 43
0.0
 43
0.0
 43
0.0
 43
0.0
 43
1.0
 43
0.0
 43
0.0
 43
0.0
 43
0.0
 43
1.0
 49
0.0208000000566244
 49
0.0
 49
0.0
 49
0.0
 49
0.0
 49
0.0208000000566244
 49
0.0
 49
0.0
 49
0.0
 49
0.0
 49
1.0
 49
0.0
 49
0.0
 49
0.0
 49
0.0
 49
1.0
142
0.0208000000566244
142
0.0
142
0.0
142
0.0
142
0.0
142
0.0208000000566244
142
0.0
142
0.0
142
0.0
142
0.0
142
1.0
142
0.0
142
0.0
142
0.0
142
0.0
142
1.0
144
0.0208000000566244
144
0.0
144
0.0
144
0.0
144
0.0
144
0.0208000000566244
144
0.0
144
0.0
144
0.0
144
0.0
144
1.0
144
0.0
144
0.0
144
0.0
144
0.0
144
1.0
 94
       63
1001
ACAD
1070
    -1
1070
     3
1070
     0
1000

1071
        0
1070
     0
  0
MLEADERSTYLE
  5
E5
102
{ACAD_REACTORS
330
D7
102
}
330
D7
100
AcDbMLeaderStyle
179
     2
170
     2
171
     1
172
     0
 90
        2
 40
0.0
 41
0.0
173
     1
 91
-1056964608
340
14
 92
       -2
290
     1
 42
0.09
291
     1
 43
0.36
  3
Standard
 44
0.18
300

342
11
174
     1
178
     1
175
     1
176
     0
 93
-1056964608
 45
0.18
292
     0
297
     0
 46
0.18
 94
-1056964608
 47
1.0
 49
1.0
140
1.0
293
     1
141
0.0
294
     1
177
     0
142
1.0
295
     0
296
     1
143
0.125
271
     0
272
     9
273
     9
298
     0
  0
MLEADERSTYLE
  5
D8
102
{ACAD_REACTORS
330
D7
102
}
330
D7
100
AcDbMLeaderStyle
179
     2
170
     2
171
     1
172
     0
 90
        2
 40
0.0
 41
0.0
173
     1
 91
-1056964608
340
14
 92
       -2
290
     1
 42
0.09
291
     1
 43
0.36
  3
Standard
 44
0.18
300

342
11
174
     1
178
     1
175
     1
176
     0
 93
-1056964608
 45
0.18
292
     0
297
     0
 46
0.18
 94
-1056964608
 47
1.0
 49
1.0
140
1.0
293
     1
141
0.0
294
     1
177
     0
142
1.0
295
     0
296
     0
143
0.125
271
     0
272
     9
273
     9
298
     0
  0
MLINESTYLE
  5
18
102
{ACAD_REACTORS
330
17
102
}
330
17
100
AcDbMlineStyle
  2
STANDARD
 70
     0
  3

 62
   256
 51
90.0
 52
90.0
 71
     2
 49
0.5
 62
   256
  6
BYLAYER
 49
-0.5
 62
   256
  6
BYLAYER
  0
ACDBPLACEHOLDER
  5
F
102
{ACAD_REACTORS
330
E
102
}
330
E
  0
SCALE
  5
B7
102
{ACAD_REACTORS
330
B6
102
}
330
B6
100
AcDbScale
 70
     0
300
1:1
140
1.0
141
1.0
290
     1
  0
SCALE
  5
124
102
{ACAD_REACTORS
330
B6
102
}
330
B6
100
AcDbScale
 70
     0
300
1:2
140
1.0
141
2.0
290
     0
  0
SCALE
  5
125
102
{ACAD_REACTORS
330
B6
102
}
330
B6
100
AcDbScale
 70
     0
300
1:4
140
1.0
141
4.0
290
     0
  0
SCALE
  5
126
102
{ACAD_REACTORS
330
B6
102
}
330
B6
100
AcDbScale
 70
     0
300
1:5
140
1.0
141
5.0
290
     0
  0
SCALE
  5
127
102
{ACAD_REACTORS
330
B6
102
}
330
B6
100
AcDbScale
 70
     0
300
1:8
140
1.0
141
8.0
290
     0
  0
SCALE
  5
128
102
{ACAD_REACTORS
330
B6
102
}
330
B6
100
AcDbScale
 70
     0
300
1:10
140
1.0
141
10.0
290
     0
  0
SCALE
  5
129
102
{ACAD_REACTORS
330
B6
102
}
330
B6
100
AcDbScale
 70
     0
300
1:16
140
1.0
141
16.0
290
     0
  0
SCALE
  5
12A
102
{ACAD_REACTORS
330
B6
102
}
330
B6
100
AcDbScale
 70
     0
300
1:20
140
1.0
141
20.0
290
     0
  0
SCALE
  5
12B
102
{ACAD_REACTORS
330
B6
102
}
330
B6
100
AcDbScale
 70
     0
300
1:30
140
1.0
141
30.0
290
     0
  0
SCALE
  5
12C
102
{ACAD_REACTORS
330
B6
102
}
330
B6
100
AcDbScale
 70
     0
300
1:40
140
1.0
141
40.0
290
     0
  0
SCALE
  5
12D
102
{ACAD_REACTORS
330
B6
102
}
330
B6
100
AcDbScale
 70
     0
300
1:50
140
1.0
141
50.0
290
     0
  0
SCALE
  5
12E
102
{ACAD_REACTORS
330
B6
102
}
330
B6
100
AcDbScale
 70
     0
300
1:100
140
1.0
141
100.0
290
     0
  0
SCALE
  5
12F
102
{ACAD_REACTORS
330
B6
102
}
330
B6
100
AcDbScale
 70
     0
300
2:1
140
2.0
141
1.0
290
     0
  0
SCALE
  5
130
102
{ACAD_REACTORS
330
B6
102
}
330
B6
100
AcDbScale
 70
     0
300
4:1
140
4.0
141
1.0
290
     0
  0
SCALE
  5
131
102
{ACAD_REACTORS
330
B6
102
}
330
B6
100
AcDbScale
 70
     0
300
8:1
140
8.0
141
1.0
290
     0
  0
SCALE
  5
132
102
{ACAD_REACTORS
330
B6
102
}
330
B6
100
AcDbScale
 70
     0
300
10:1
140
10.0
141
1.0
290
     0
  0
SCALE
  5
133
102
{ACAD_REACTORS
330
B6
102
}
330
B6
100
AcDbScale
 70
     0
300
100:1
140
100.0
141
1.0
290
     0
  0
SCALE
  5
134
102
{ACAD_REACTORS
330
B6
102
}
330
B6
100
AcDbScale
 70
     0
300
1/128" = 1'-0"
140
0.0078125
141
12.0
290
     0
  0
SCALE
  5
135
102
{ACAD_REACTORS
330
B6
102
}
330
B6
100
AcDbScale
 70
     0
300
1/64" = 1'-0"
140
0.015625
141
12.0
290
     0
  0
SCALE
  5
136
102
{ACAD_REACTORS
330
B6
102
}
330
B6
100
AcDbScale
 70
     0
300
1/32" = 1'-0"
140
0.03125
141
12.0
290
     0
  0
SCALE
  5
137
102
{ACAD_REACTORS
330
B6
102
}
330
B6
100
AcDbScale
 70
     0
300
1/16" = 1'-0"
140
0.0625
141
12.0
290
     0
  0
SCALE
  5
138
102
{ACAD_REACTORS
330
B6
102
}
330
B6
100
AcDbScale
 70
     0
300
3/32" = 1'-0"
140
0.09375
141
12.0
290
     0
  0
SCALE
  5
139
102
{ACAD_REACTORS
330
B6
102
}
330
B6
100
AcDbScale
 70
     0
300
1/8" = 1'-0"
140
0.125
141
12.0
290
     0
  0
SCALE
  5
13A
102
{ACAD_REACTORS
330
B6
102
}
330
B6
100
AcDbScale
 70
     0
300
3/16" = 1'-0"
140
0.1875
141
12.0
290
     0
  0
SCALE
  5
13B
102
{ACAD_REACTORS
330
B6
102
}
330
B6
100
AcDbScale
 70
     0
300
1/4" = 1'-0"
140
0.25
141
12.0
290
     0
  0
SCALE
  5
13C
102
{ACAD_REACTORS
330
B6
102
}
330
B6
100
AcDbScale
 70
     0
300
3/8" = 1'-0"
140
0.375
141
12.0
290
     0
  0
SCALE
  5
13D
102
{ACAD_REACTORS
330
B6
102
}
330
B6
100
AcDbScale
 70
     0
300
1/2" = 1'-0"
140
0.5
141
12.0
290
     0
  0
SCALE
  5
13E
102
{ACAD_REACTORS
330
B6
102
}
330
B6
100
AcDbScale
 70
     0
300
3/4" = 1'-0"
140
0.75
141
12.0
290
     0
  0
SCALE
  5
13F
102
{ACAD_REACTORS
330
B6
102
}
330
B6
100
AcDbScale
 70
     0
300
1" = 1'-0"
140
1.0
141
12.0
290
     0
  0
SCALE
  5
140
102
{ACAD_REACTORS
330
B6
102
}
330
B6
100
AcDbScale
 70
     0
300
1-1/2" = 1'-0"
140
1.5
141
12.0
290
     0
  0
SCALE
  5
141
102
{ACAD_REACTORS
330
B6
102
}
330
B6
100
AcDbScale
 70
     0
300
3" = 1'-0"
140
3.0
141
12.0
290
     0
  0
SCALE
  5
142
102
{ACAD_REACTORS
330
B6
102
}
330
B6
100
AcDbScale
 70
     0
300
6" = 1'-0"
140
6.0
141
12.0
290
     0
  0
SCALE
  5
143
102
{ACAD_REACTORS
330
B6
102
}
330
B6
100
AcDbScale
 70
     0
300
1'-0" = 1'-0"
140
12.0
141
12.0
290
     0
  0
ACDBSECTIONVIEWSTYLE
  5
1AA
102
{ACAD_REACTORS
330
1A8
102
}
330
1A8
100
AcDbModelDocViewStyle
 70
     0
  3
Imperial24
290
     0
300
Imperial24
 90
        0
100
AcDbSectionViewStyle
 70
     0
 71
     0
 90
       78
 71
     1
340
11
 62
   256
 40
0.24
340
0
340
0
 62
   256
 40
0.24
300
I, O, Q, S, X, Z
 40
0.48
 90
        3
 40
0.18
 90
        1
 71
     2
340
16
 90
       25
 62
   256
340
16
 90
       50
 62
   256
 40
0.24
 40
0.0
 40
0.24
 71
     3
340
11
 62
   256
 40
0.24
 90
        1
 40
0.75
 90
        1
300
%<\AcVar ViewType \f "%tc1">% %<\AcVar ViewSectionStartId>%-%<\AcVar ViewSectionEndId>%\PSCALE %<\AcVar ViewScale \f "%sn">%
 71
     4
 62
   256
 62
   257
300
ANSI31
 40
1.0
 90
        0
290
     0
290
     0
 90
        6
 40
0.0
 40
1.570796326794896
 40
0.2617993877991494
 40
1.308996938995747
 40
-0.2617993877991494
 40
1.832595714594046
  0
TABLESTYLE
  5
87
102
{ACAD_XDICTIONARY
360
104
102
}
102
{ACAD_REACTORS
330
86
102
}
330
86
100
AcDbTableStyle
280
     0
  3
Standard
 70
     0
 71
     0
 40
0.06
 41
0.06
280
     0
281
     0
  7
Standard
140
0.18
170
     2
 62
     0
 63
     7
283
     0
 90
      512
 91
        0
  1

274
    -2
284
     1
 64
     0
275
    -2
285
     1
 65
     0
276
    -2
286
     1
 66
     0
277
    -2
287
     1
 67
     0
278
    -2
288
     1
 68
     0
279
    -2
289
     1
 69
     0
  7
Standard
140
0.25
170
     5
 62
     0
 63
     7
283
     0
 90
      512
 91
        0
  1

274
    -2
284
     1
 64
     0
275
    -2
285
     1
 65
     0
276
    -2
286
     1
 66
     0
277
    -2
287
     1
 67
     0
278
    -2
288
     1
 68
     0
279
    -2
289
     1
 69
     0
  7
Standard
140
0.18
170
     5
 62
     0
 63
     7
283
     0
 90
      512
 91
        0
  1

274
    -2
284
     1
 64
     0
275
    -2
285
     1
 65
     0
276
    -2
286
     1
 66
     0
277
    -2
287
     1
 67
     0
278
    -2
288
     1
 68
     0
279
    -2
289
     1
 69
     0
  0
VISUALSTYLE
  5
9F
102
{ACAD_REACTORS
330
99
102
}
330
99
100
AcDbVisualStyle
  2
2dWireframe
 70
     4
177
     3
291
     0
 70
    58
 90
        0
176
     1
 90
        2
176
     1
 90
        1
176
     1
 90
        0
176
     1
 40
0.6
176
     1
 40
30.0
176
     1
 62
     7
420
 16777215
176
     1
 90
        1
176
     1
 90
        4
176
     1
 62
     7
176
     1
 62
   257
176
     1
 90
        1
176
     1
 90
        1
176
     1
 40
1.0
176
     1
 90
        0
176
     1
 62
   257
176
     1
 40
1.0
176
     1
 90
        1
176
     1
 90
        6
176
     1
 90
        2
176
     1
 62
     7
176
     1
 90
        5
176
     1
 90
        0
176
     1
 90
        0
176
     1
290
     0
176
     1
 90
        1
176
     1
 40
0.0
176
     1
 90
        0
176
     1
290
     1
176
     1
290
     1
176
     1
290
     0
176
     1
290
     0
176
     1
290
     0
176
     1
290
     0
176
     1
290
     0
176
     1
290
     0
176
     1
290
     0
176
     1
 90
       50
176
     1
 40
0.0
176
     1
 40
1.0
176
     1
 90
        0
176
     1
 62
    18
420
        0
176
     1
 90
       50
176
     1
 90
        3
176
     1
 62
     5
420
      255
176
     1
290
     0
176
     1
 90
       50
176
     1
 90
       50
176
     1
 90
       50
176
     1
290
     0
176
     1
 90
       50
176
     1
 62
   256
176
     0
 40
1.0
176
     0
 90
        2
176
     1
  1
strokes_ogs.tif
176
     1
290
     0
176
     1
 40
1.0
176
     1
 40
1.0
176
     1
  0
VISUALSTYLE
  5
9E
102
{ACAD_REACTORS
330
99
102
}
330
99
100
AcDbVisualStyle
  2
Basic
 70
     7
177
     3
291
     1
 70
    58
 90
        1
176
     1
 90
        0
176
     1
 90
        1
176
     1
 90
        0
176
     1
 40
0.6
176
     1
 40
30.0
176
     1
 62
     7
420
 16777215
176
     1
 90
        0
176
     1
 90
        4
176
     1
 62
     7
176
     1
 62
   257
176
     1
 90
        1
176
     1
 90
        1
176
     1
 40
1.0
176
     1
 90
        8
176
     1
 62
     7
176
     1
 40
1.0
176
     1
 90
        1
176
     1
 90
        6
176
     1
 90
        2
176
     1
 62
     7
176
     1
 90
        5
176
     1
 90
        0
176
     1
 90
        0
176
     1
290
     0
176
     1
 90
        1
176
     1
 40
0.0
176
     1
 90
        0
176
     1
290
     0
176
     1
290
     1
176
     1
290
     1
176
     1
290
     0
176
     1
290
     0
176
     1
290
     0
176
     1
290
     0
176
     1
290
     0
176
     1
290
     0
176
     1
 90
       50
176
     1
 40
0.0
176
     1
 40
1.0
176
     1
 90
        0
176
     1
 62
    18
420
        0
176
     1
 90
       50
176
     1
 90
        3
176
     1
 62
     5
420
      255
176
     1
290
     0
176
     1
 90
       50
176
     1
 90
       50
176
     1
 90
       50
176
     1
290
     0
176
     1
 90
       50
176
     1
 62
   256
176
     0
 40
1.0
176
     0
 90
        2
176
     1
  1
strokes_ogs.tif
176
     1
290
     0
176
     1
 40
1.0
176
     1
 40
1.0
176
     1
  0
VISUALSTYLE
  5
A5
102
{ACAD_REACTORS
330
99
102
}
330
99
100
AcDbVisualStyle
  2
Brighten
 70
    12
177
     3
291
     1
 70
    58
 90
        2
176
     1
 90
        2
176
     1
 90
        1
176
     1
 90
        0
176
     1
 40
0.6
176
     1
 40
30.0
176
     1
 62
     7
420
 16777215
176
     1
 90
        1
176
     1
 90
        4
176
     1
 62
     7
176
     1
 62
   257
176
     1
 90
        1
176
     1
 90
        1
176
     1
 40
1.0
176
     1
 90
        8
176
     1
 62
     7
176
     1
 40
1.0
176
     1
 90
        1
176
     1
 90
        6
176
     1
 90
        2
176
     1
 62
     7
176
     1
 90
        5
176
     1
 90
        0
176
     1
 90
        0
176
     1
290
     0
176
     1
 90
        1
176
     1
 40
50.0
176
     1
 90
        0
176
     1
290
     0
176
     1
290
     1
176
     1
290
     1
176
     1
290
     0
176
     1
290
     0
176
     1
290
     0
176
     1
290
     0
176
     1
290
     0
176
     1
290
     0
176
     1
 90
       50
176
     1
 40
0.0
176
     1
 40
1.0
176
     1
 90
        0
176
     1
 62
    18
420
        0
176
     1
 90
       50
176
     1
 90
        3
176
     1
 62
     5
420
      255
176
     1
290
     0
176
     1
 90
       50
176
     1
 90
       50
176
     1
 90
       50
176
     1
290
     0
176
     1
 90
       50
176
     1
 62
   256
176
     0
 40
1.0
176
     0
 90
        2
176
     1
  1
strokes_ogs.tif
176
     1
290
     0
176
     1
 40
1.0
176
     1
 40
1.0
176
     1
  0
VISUALSTYLE
  5
A9
102
{ACAD_REACTORS
330
99
102
}
330
99
100
AcDbVisualStyle
  2
ColorChange
 70
    16
177
     3
291
     1
 70
    58
 90
        2
176
     1
 90
        2
176
     1
 90
        3
176
     1
 90
        0
176
     1
 40
0.6
176
     1
 40
30.0
176
     1
 62
     8
420
  8421504
176
     1
 90
        1
176
     1
 90
        4
176
     1
 62
     7
176
     1
 62
   257
176
     1
 90
        1
176
     1
 90
        1
176
     1
 40
1.0
176
     1
 90
        8
176
     1
 62
     8
420
  8421504
176
     1
 40
1.0
176
     1
 90
        1
176
     1
 90
        6
176
     1
 90
        2
176
     1
 62
     7
176
     1
 90
        5
176
     1
 90
        0
176
     1
 90
        0
176
     1
290
     0
176
     1
 90
        1
176
     1
 40
0.0
176
     1
 90
        0
176
     1
290
     0
176
     1
290
     1
176
     1
290
     1
176
     1
290
     0
176
     1
290
     0
176
     1
290
     0
176
     1
290
     0
176
     1
290
     0
176
     1
290
     0
176
     1
 90
       50
176
     1
 40
0.0
176
     1
 40
1.0
176
     1
 90
        0
176
     1
 62
    18
420
        0
176
     1
 90
       50
176
     1
 90
        3
176
     1
 62
     5
420
      255
176
     1
290
     0
176
     1
 90
       50
176
     1
 90
       50
176
     1
 90
       50
176
     1
290
     0
176
     1
 90
       50
176
     1
 62
   256
176
     0
 40
1.0
176
     0
 90
        2
176
     1
  1
strokes_ogs.tif
176
     1
290
     0
176
     1
 40
1.0
176
     1
 40
1.0
176
     1
  0
VISUALSTYLE
  5
A2
102
{ACAD_REACTORS
330
99
102
}
330
99
100
AcDbVisualStyle
  2
Conceptual
 70
     9
177
     3
291
     0
 70
    58
 90
        3
176
     1
 90
        2
176
     1
 90
        1
176
     1
 90
        0
176
     1
 40
0.6
176
     1
 40
30.0
176
     1
 62
     7
420
 16777215
176
     1
 90
        2
176
     1
 90
        2
176
     1
 62
     7
176
     1
 62
   257
176
     1
 90
        1
176
     1
 90
        1
176
     1
 40
40.0
176
     1
 90
        8
176
     1
 62
     7
176
     1
 40
1.0
176
     1
 90
        1
176
     1
 90
        6
176
     1
 90
        2
176
     1
 62
     7
176
     1
 90
        3
176
     1
 90
        0
176
     1
 90
        0
176
     1
290
     0
176
     1
 90
        1
176
     1
 40
0.0
176
     1
 90
        0
176
     1
290
     0
176
     1
290
     1
176
     1
290
     1
176
     1
290
     0
176
     1
290
     0
176
     1
290
     0
176
     1
290
     0
176
     1
290
     0
176
     1
290
     0
176
     1
 90
       50
176
     1
 40
0.0
176
     1
 40
1.0
176
     1
 90
        0
176
     1
 62
    18
420
        0
176
     1
 90
       50
176
     1
 90
        3
176
     1
 62
     5
420
      255
176
     1
290
     0
176
     1
 90
       50
176
     1
 90
       50
176
     1
 90
       50
176
     1
290
     0
176
     1
 90
       50
176
     1
 62
   256
176
     0
 40
1.0
176
     0
 90
        2
176
     1
  1
strokes_ogs.tif
176
     1
290
     0
176
     1
 40
1.0
176
     1
 40
1.0
176
     1
  0
VISUALSTYLE
  5
A4
102
{ACAD_REACTORS
330
99
102
}
330
99
100
AcDbVisualStyle
  2
Dim
 70
    11
177
     3
291
     1
 70
    58
 90
        2
176
     1
 90
        2
176
     1
 90
        1
176
     1
 90
        0
176
     1
 40
0.6
176
     1
 40
30.0
176
     1
 62
     7
420
 16777215
176
     1
 90
        1
176
     1
 90
        4
176
     1
 62
     7
176
     1
 62
   257
176
     1
 90
        1
176
     1
 90
        1
176
     1
 40
1.0
176
     1
 90
        8
176
     1
 62
     7
176
     1
 40
1.0
176
     1
 90
        1
176
     1
 90
        6
176
     1
 90
        2
176
     1
 62
     7
176
     1
 90
        5
176
     1
 90
        0
176
     1
 90
        0
176
     1
290
     0
176
     1
 90
        1
176
     1
 40
-50.0
176
     1
 90
        0
176
     1
290
     0
176
     1
290
     1
176
     1
290
     1
176
     1
290
     0
176
     1
290
     0
176
     1
290
     0
176
     1
290
     0
176
     1
290
     0
176
     1
290
     0
176
     1
 90
       50
176
     1
 40
0.0
176
     1
 40
1.0
176
     1
 90
        0
176
     1
 62
    18
420
        0
176
     1
 90
       50
176
     1
 90
        3
176
     1
 62
     5
420
      255
176
     1
290
     0
176
     1
 90
       50
176
     1
 90
       50
176
     1
 90
       50
176
     1
290
     0
176
     1
 90
       50
176
     1
 62
   256
176
     0
 40
1.0
176
     0
 90
        2
176
     1
  1
strokes_ogs.tif
176
     1
290
     0
176
     1
 40
1.0
176
     1
 40
1.0
176
     1
  0
VISUALSTYLE
  5
175
102
{ACAD_REACTORS
330
99
102
}
330
99
100
AcDbVisualStyle
  2
EdgeColorOff
 70
    22
177
     3
291
     1
 70
    58
 90
        2
176
     0
 90
        2
176
     0
 90
        0
176
     0
 90
        0
176
     0
 40
0.6
176
     0
 40
30.0
176
     0
 62
     7
420
 16777215
176
     0
 90
        1
176
     0
 90
        4
176
     0
 62
     7
176
     0
 62
   257
176
     0
 90
        1
176
     0
 90
        1
176
     0
 40
1.0
176
     0
 90
        8
176
     2
 62
     7
176
     0
 40
1.0
176
     0
 90
        1
176
     0
 90
        6
176
     0
 90
        2
176
     0
 62
     7
176
     0
 90
        5
176
     0
 90
        0
176
     0
 90
        0
176
     0
290
     0
176
     0
 90
        1
176
     0
 40
0.0
176
     0
 90
        0
176
     0
290
     0
176
     1
290
     1
176
     1
290
     1
176
     1
290
     0
176
     1
290
     0
176
     1
290
     0
176
     1
290
     0
176
     1
290
     0
176
     1
290
     0
176
     1
 90
       50
176
     1
 40
0.0
176
     1
 40
1.0
176
     1
 90
        0
176
     1
 62
    18
420
        0
176
     1
 90
       50
176
     1
 90
        3
176
     1
 62
     5
420
      255
176
     1
290
     0
176
     1
 90
       50
176
     1
 90
       50
176
     1
 90
       50
176
     1
290
     0
176
     1
 90
       50
176
     1
 62
   256
176
     0
 40
1.0
176
     0
 90
        2
176
     1
  1
strokes_ogs.tif
176
     1
290
     0
176
     1
 40
1.0
176
     1
 40
1.0
176
     1
  0
VISUALSTYLE
  5
A8
102
{ACAD_REACTORS
330
99
102
}
330
99
100
AcDbVisualStyle
  2
Facepattern
 70
    15
177
     3
291
     1
 70
    58
 90
        2
176
     1
 90
        2
176
     1
 90
        1
176
     1
 90
        0
176
     1
 40
0.6
176
     1
 40
30.0
176
     1
 62
     7
420
 16777215
176
     1
 90
        1
176
     1
 90
        4
176
     1
 62
     7
176
     1
 62
   257
176
     1
 90
        1
176
     1
 90
        1
176
     1
 40
1.0
176
     1
 90
        8
176
     1
 62
     7
176
     1
 40
1.0
176
     1
 90
        1
176
     1
 90
        6
176
     1
 90
        2
176
     1
 62
     7
176
     1
 90
        5
176
     1
 90
        0
176
     1
 90
        0
176
     1
290
     0
176
     1
 90
        1
176
     1
 40
0.0
176
     1
 90
        0
176
     1
290
     0
176
     1
290
     1
176
     1
290
     1
176
     1
290
     0
176
     1
290
     0
176
     1
290
     0
176
     1
290
     0
176
     1
290
     0
176
     1
290
     0
176
     1
 90
       50
176
     1
 40
0.0
176
     1
 40
1.0
176
     1
 90
        0
176
     1
 62
    18
420
        0
176
     1
 90
       50
176
     1
 90
        3
176
     1
 62
     5
420
      255
176
     1
290
     0
176
     1
 90
       50
176
     1
 90
       50
176
     1
 90
       50
176
     1
290
     0
176
     1
 90
       50
176
     1
 62
   256
176
     0
 40
1.0
176
     0
 90
        2
176
     1
  1
strokes_ogs.tif
176
     1
290
     0
176
     1
 40
1.0
176
     1
 40
1.0
176
     1
  0
VISUALSTYLE
  5
9A
102
{ACAD_REACTORS
330
99
102
}
330
99
100
AcDbVisualStyle
  2
Flat
 70
     0
177
     3
291
     1
 70
    58
 90
        2
176
     1
 90
        1
176
     1
 90
        1
176
     1
 90
        2
176
     1
 40
0.6
176
     1
 40
30.0
176
     1
 62
     7
420
 16777215
176
     1
 90
        0
176
     1
 90
        0
176
     1
 62
     7
176
     1
 62
   257
176
     1
 90
        1
176
     1
 90
        1
176
     1
 40
1.0
176
     1
 90
        8
176
     1
 62
     7
176
     1
 40
1.0
176
     1
 90
        1
176
     1
 90
        6
176
     1
 90
        2
176
     1
 62
     7
176
     1
 90
        5
176
     1
 90
        0
176
     1
 90
        0
176
     1
290
     0
176
     1
 90
       13
176
     1
 40
0.0
176
     1
 90
        0
176
     1
290
     0
176
     1
290
     1
176
     1
290
     1
176
     1
290
     0
176
     1
290
     0
176
     1
290
     0
176
     1
290
     0
176
     1
290
     0
176
     1
290
     0
176
     1
 90
       50
176
     1
 40
0.0
176
     1
 40
1.0
176
     1
 90
        0
176
     1
 62
    18
420
        0
176
     1
 90
       50
176
     1
 90
        3
176
     1
 62
     5
420
      255
176
     1
290
     0
176
     1
 90
       50
176
     1
 90
       50
176
     1
 90
       50
176
     1
290
     0
176
     1
 90
       50
176
     1
 62
   256
176
     0
 40
1.0
176
     0
 90
        2
176
     1
  1
strokes_ogs.tif
176
     1
290
     0
176
     1
 40
1.0
176
     1
 40
1.0
176
     1
  0
VISUALSTYLE
  5
9B
102
{ACAD_REACTORS
330
99
102
}
330
99
100
AcDbVisualStyle
  2
FlatWithEdges
 70
     1
177
     3
291
     1
 70
    58
 90
        2
176
     1
 90
        1
176
     1
 90
        1
176
     1
 90
        2
176
     1
 40
0.6
176
     1
 40
30.0
176
     1
 62
     7
420
 16777215
176
     1
 90
        1
176
     1
 90
        0
176
     1
 62
     7
176
     1
 62
   257
176
     1
 90
        1
176
     1
 90
        1
176
     1
 40
1.0
176
     1
 90
        0
176
     1
 62
   257
176
     1
 40
1.0
176
     1
 90
        1
176
     1
 90
        6
176
     1
 90
        2
176
     1
 62
     7
176
     1
 90
        5
176
     1
 90
        0
176
     1
 90
        0
176
     1
290
     0
176
     1
 90
       13
176
     1
 40
0.0
176
     1
 90
        0
176
     1
290
     0
176
     1
290
     1
176
     1
290
     1
176
     1
290
     0
176
     1
290
     0
176
     1
290
     0
176
     1
290
     0
176
     1
290
     0
176
     1
290
     0
176
     1
 90
       50
176
     1
 40
0.0
176
     1
 40
1.0
176
     1
 90
        0
176
     1
 62
    18
420
        0
176
     1
 90
       50
176
     1
 90
        3
176
     1
 62
     5
420
      255
176
     1
290
     0
176
     1
 90
       50
176
     1
 90
       50
176
     1
 90
       50
176
     1
290
     0
176
     1
 90
       50
176
     1
 62
   256
176
     0
 40
1.0
176
     0
 90
        2
176
     1
  1
strokes_ogs.tif
176
     1
290
     0
176
     1
 40
1.0
176
     1
 40
1.0
176
     1
  0
VISUALSTYLE
  5
9C
102
{ACAD_REACTORS
330
99
102
}
330
99
100
AcDbVisualStyle
  2
Gouraud
 70
     2
177
     3
291
     1
 70
    58
 90
        2
176
     1
 90
        2
176
     1
 90
        1
176
     1
 90
        2
176
     1
 40
0.6
176
     1
 40
30.0
176
     1
 62
     7
420
 16777215
176
     1
 90
        0
176
     1
 90
        0
176
     1
 62
     7
176
     1
 62
   257
176
     1
 90
        1
176
     1
 90
        1
176
     1
 40
1.0
176
     1
 90
        0
176
     1
 62
     7
176
     1
 40
1.0
176
     1
 90
        1
176
     1
 90
        6
176
     1
 90
        2
176
     1
 62
     7
176
     1
 90
        5
176
     1
 90
        0
176
     1
 90
        0
176
     1
290
     0
176
     1
 90
       13
176
     1
 40
0.0
176
     1
 90
        0
176
     1
290
     0
176
     1
290
     1
176
     1
290
     1
176
     1
290
     0
176
     1
290
     0
176
     1
290
     0
176
     1
290
     0
176
     1
290
     0
176
     1
290
     0
176
     1
 90
       50
176
     1
 40
0.0
176
     1
 40
1.0
176
     1
 90
        0
176
     1
 62
    18
420
        0
176
     1
 90
       50
176
     1
 90
        3
176
     1
 62
     5
420
      255
176
     1
290
     0
176
     1
 90
       50
176
     1
 90
       50
176
     1
 90
       50
176
     1
290
     0
176
     1
 90
       50
176
     1
 62
   256
176
     0
 40
1.0
176
     0
 90
        2
176
     1
  1
strokes_ogs.tif
176
     1
290
     0
176
     1
 40
1.0
176
     1
 40
1.0
176
     1
  0
VISUALSTYLE
  5
9D
102
{ACAD_REACTORS
330
99
102
}
330
99
100
AcDbVisualStyle
  2
GouraudWithEdges
 70
     3
177
     3
291
     1
 70
    58
 90
        2
176
     1
 90
        2
176
     1
 90
        1
176
     1
 90
        2
176
     1
 40
0.6
176
     1
 40
30.0
176
     1
 62
     7
420
 16777215
176
     1
 90
        1
176
     1
 90
        0
176
     1
 62
     7
176
     1
 62
   257
176
     1
 90
        1
176
     1
 90
        1
176
     1
 40
1.0
176
     1
 90
        0
176
     1
 62
   257
176
     1
 40
1.0
176
     1
 90
        1
176
     1
 90
        6
176
     1
 90
        2
176
     1
 62
     7
176
     1
 90
        5
176
     1
 90
        0
176
     1
 90
        0
176
     1
290
     0
176
     1
 90
       13
176
     1
 40
0.0
176
     1
 90
        0
176
     1
290
     0
176
     1
290
     1
176
     1
290
     1
176
     1
290
     0
176
     1
290
     0
176
     1
290
     0
176
     1
290
     0
176
     1
290
     0
176
     1
290
     0
176
     1
 90
       50
176
     1
 40
0.0
176
     1
 40
1.0
176
     1
 90
        0
176
     1
 62
    18
420
        0
176
     1
 90
       50
176
     1
 90
        3
176
     1
 62
     5
420
      255
176
     1
290
     0
176
     1
 90
       50
176
     1
 90
       50
176
     1
 90
       50
176
     1
290
     0
176
     1
 90
       50
176
     1
 62
   256
176
     0
 40
1.0
176
     0
 90
        2
176
     1
  1
strokes_ogs.tif
176
     1
290
     0
176
     1
 40
1.0
176
     1
 40
1.0
176
     1
  0
VISUALSTYLE
  5
A1
102
{ACAD_REACTORS
330
99
102
}
330
99
100
AcDbVisualStyle
  2
Hidden
 70
     6
177
     3
291
     0
 70
    58
 90
        1
176
     1
 90
        2
176
     1
 90
        2
176
     1
 90
        0
176
     1
 40
0.6
176
     1
 40
30.0
176
     1
 62
     7
420
 16777215
176
     1
 90
        2
176
     1
 90
        2
176
     1
 62
     7
176
     1
 62
   257
176
     1
 90
        2
176
     1
 90
        1
176
     1
 40
40.0
176
     1
 90
        0
176
     1
 62
   257
176
     1
 40
1.0
176
     1
 90
        1
176
     1
 90
        6
176
     1
 90
        2
176
     1
 62
     7
176
     1
 90
        3
176
     1
 90
        0
176
     1
 90
        0
176
     1
290
     0
176
     1
 90
        1
176
     1
 40
0.0
176
     1
 90
        0
176
     1
290
     0
176
     1
290
     1
176
     1
290
     1
176
     1
290
     0
176
     1
290
     0
176
     1
290
     0
176
     1
290
     0
176
     1
290
     0
176
     1
290
     0
176
     1
 90
       50
176
     1
 40
0.0
176
     1
 40
1.0
176
     1
 90
        0
176
     1
 62
    18
420
        0
176
     1
 90
       50
176
     1
 90
        3
176
     1
 62
     5
420
      255
176
     1
290
     0
176
     1
 90
       50
176
     1
 90
       50
176
     1
 90
       50
176
     1
290
     0
176
     1
 90
       50
176
     1
 62
   256
176
     0
 40
1.0
176
     0
 90
        2
176
     1
  1
strokes_ogs.tif
176
     1
290
     0
176
     1
 40
1.0
176
     1
 40
1.0
176
     1
  0
VISUALSTYLE
  5
173
102
{ACAD_REACTORS
330
99
102
}
330
99
100
AcDbVisualStyle
  2
JitterOff
 70
    20
177
     3
291
     1
 70
    58
 90
        2
176
     0
 90
        2
176
     0
 90
        0
176
     0
 90
        0
176
     0
 40
0.6
176
     0
 40
30.0
176
     0
 62
     7
420
 16777215
176
     0
 90
        1
176
     0
 90
        4
176
     0
 62
     7
176
     0
 62
   257
176
     0
 90
        1
176
     0
 90
        1
176
     0
 40
1.0
176
     0
 90
       10
176
     2
 62
     7
176
     0
 40
1.0
176
     0
 90
        1
176
     0
 90
        6
176
     0
 90
        2
176
     0
 62
     7
176
     0
 90
        5
176
     0
 90
        0
176
     0
 90
        0
176
     0
290
     0
176
     0
 90
        1
176
     0
 40
0.0
176
     0
 90
        0
176
     0
290
     0
176
     1
290
     1
176
     1
290
     1
176
     1
290
     0
176
     1
290
     0
176
     1
290
     0
176
     1
290
     0
176
     1
290
     0
176
     1
290
     0
176
     1
 90
       50
176
     1
 40
0.0
176
     1
 40
1.0
176
     1
 90
        0
176
     1
 62
    18
420
        0
176
     1
 90
       50
176
     1
 90
        3
176
     1
 62
     5
420
      255
176
     1
290
     0
176
     1
 90
       50
176
     1
 90
       50
176
     1
 90
       50
176
     1
290
     0
176
     1
 90
       50
176
     1
 62
   256
176
     0
 40
1.0
176
     0
 90
        2
176
     1
  1
strokes_ogs.tif
176
     1
290
     0
176
     1
 40
1.0
176
     1
 40
1.0
176
     1
  0
VISUALSTYLE
  5
A7
102
{ACAD_REACTORS
330
99
102
}
330
99
100
AcDbVisualStyle
  2
Linepattern
 70
    14
177
     3
291
     1
 70
    58
 90
        2
176
     1
 90
        2
176
     1
 90
        1
176
     1
 90
        0
176
     1
 40
0.6
176
     1
 40
30.0
176
     1
 62
     7
420
 16777215
176
     1
 90
        1
176
     1
 90
        4
176
     1
 62
     7
176
     1
 62
   257
176
     1
 90
        7
176
     1
 90
        7
176
     1
 40
1.0
176
     1
 90
        8
176
     1
 62
     7
176
     1
 40
1.0
176
     1
 90
        1
176
     1
 90
        6
176
     1
 90
        2
176
     1
 62
     7
176
     1
 90
        5
176
     1
 90
        0
176
     1
 90
        0
176
     1
290
     0
176
     1
 90
        1
176
     1
 40
0.0
176
     1
 90
        0
176
     1
290
     0
176
     1
290
     1
176
     1
290
     1
176
     1
290
     0
176
     1
290
     0
176
     1
290
     0
176
     1
290
     0
176
     1
290
     0
176
     1
290
     0
176
     1
 90
       50
176
     1
 40
0.0
176
     1
 40
1.0
176
     1
 90
        0
176
     1
 62
    18
420
        0
176
     1
 90
       50
176
     1
 90
        3
176
     1
 62
     5
420
      255
176
     1
290
     0
176
     1
 90
       50
176
     1
 90
       50
176
     1
 90
       50
176
     1
290
     0
176
     1
 90
       50
176
     1
 62
   256
176
     0
 40
1.0
176
     0
 90
        2
176
     1
  1
strokes_ogs.tif
176
     1
290
     0
176
     1
 40
1.0
176
     1
 40
1.0
176
     1
  0
VISUALSTYLE
  5
174
102
{ACAD_REACTORS
330
99
102
}
330
99
100
AcDbVisualStyle
  2
OverhangOff
 70
    21
177
     3
291
     1
 70
    58
 90
        2
176
     0
 90
        2
176
     0
 90
        0
176
     0
 90
        0
176
     0
 40
0.6
176
     0
 40
30.0
176
     0
 62
     7
420
 16777215
176
     0
 90
        1
176
     0
 90
        4
176
     0
 62
     7
176
     0
 62
   257
176
     0
 90
        1
176
     0
 90
        1
176
     0
 40
1.0
176
     0
 90
        9
176
     2
 62
     7
176
     0
 40
1.0
176
     0
 90
        1
176
     0
 90
        6
176
     0
 90
        2
176
     0
 62
     7
176
     0
 90
        5
176
     0
 90
        0
176
     0
 90
        0
176
     0
290
     0
176
     0
 90
        1
176
     0
 40
0.0
176
     0
 90
        0
176
     0
290
     0
176
     1
290
     1
176
     1
290
     1
176
     1
290
     0
176
     1
290
     0
176
     1
290
     0
176
     1
290
     0
176
     1
290
     0
176
     1
290
     0
176
     1
 90
       50
176
     1
 40
0.0
176
     1
 40
1.0
176
     1
 90
        0
176
     1
 62
    18
420
        0
176
     1
 90
       50
176
     1
 90
        3
176
     1
 62
     5
420
      255
176
     1
290
     0
176
     1
 90
       50
176
     1
 90
       50
176
     1
 90
       50
176
     1
290
     0
176
     1
 90
       50
176
     1
 62
   256
176
     0
 40
1.0
176
     0
 90
        2
176
     1
  1
strokes_ogs.tif
176
     1
290
     0
176
     1
 40
1.0
176
     1
 40
1.0
176
     1
  0
VISUALSTYLE
  5
A3
102
{ACAD_REACTORS
330
99
102
}
330
99
100
AcDbVisualStyle
  2
Realistic
 70
     8
177
     3
291
     0
 70
    58
 90
        2
176
     1
 90
        3
176
     1
 90
        0
176
     1
 90
        2
176
     1
 40
0.6
176
     1
 40
30.0
176
     1
 62
     7
420
 16777215
176
     1
 90
        0
176
     1
 90
        0
176
     1
 62
     7
176
     1
 62
   257
176
     1
 90
        1
176
     1
 90
        1
176
     1
 40
1.0
176
     1
 90
        8
176
     1
 62
   257
176
     1
 40
1.0
176
     1
 90
        1
176
     1
 90
        6
176
     1
 90
        2
176
     1
 62
     7
176
     1
 90
        3
176
     1
 90
        0
176
     1
 90
        0
176
     1
290
     0
176
     1
 90
       13
176
     1
 40
0.0
176
     1
 90
        0
176
     1
290
     0
176
     1
290
     1
176
     1
290
     1
176
     1
290
     0
176
     1
290
     0
176
     1
290
     0
176
     1
290
     0
176
     1
290
     0
176
     1
290
     0
176
     1
 90
       50
176
     1
 40
0.0
176
     1
 40
1.0
176
     1
 90
        0
176
     1
 62
    18
420
        0
176
     1
 90
       50
176
     1
 90
        3
176
     1
 62
     5
420
      255
176
     1
290
     0
176
     1
 90
       50
176
     1
 90
       50
176
     1
 90
       50
176
     1
290
     0
176
     1
 90
       50
176
     1
 62
   256
176
     0
 40
1.0
176
     0
 90
        2
176
     1
  1
strokes_ogs.tif
176
     1
290
     0
176
     1
 40
1.0
176
     1
 40
1.0
176
     1
  0
VISUALSTYLE
  5
182
102
{ACAD_REACTORS
330
99
102
}
330
99
100
AcDbVisualStyle
  2
Shaded
 70
    27
177
     3
291
     0
 70
    58
 90
        2
176
     1
 90
        2
176
     1
 90
        1
176
     1
 90
        2
176
     1
 40
0.6
176
     1
 40
30.0
176
     1
 62
     7
420
 16777215
176
     1
 90
        0
176
     1
 90
        4
176
     1
 62
     7
176
     1
 62
   257
176
     1
 90
        1
176
     1
 90
        1
176
     1
 40
1.0
176
     1
 90
        8
176
     1
 62
   257
176
     1
 40
1.0
176
     1
 90
        1
176
     1
 90
        6
176
     1
 90
        2
176
     1
 62
     8
420
  7895160
176
     1
 90
        3
176
     1
 90
        0
176
     1
 90
        0
176
     1
290
     0
176
     1
 90
        5
176
     1
 40
0.0
176
     1
 90
        0
176
     1
290
     0
176
     1
290
     1
176
     1
290
     1
176
     1
290
     0
176
     1
290
     0
176
     1
290
     0
176
     1
290
     0
176
     1
290
     0
176
     1
290
     0
176
     1
 90
       50
176
     1
 40
0.0
176
     1
 40
1.0
176
     1
 90
        0
176
     1
 62
    18
420
        0
176
     1
 90
       50
176
     1
 90
        3
176
     1
 62
     5
420
      255
176
     1
290
     0
176
     1
 90
       50
176
     1
 90
       50
176
     1
 90
       50
176
     1
290
     0
176
     1
 90
       50
176
     1
 62
   256
176
     0
 40
1.0
176
     0
 90
        2
176
     1
  1
strokes_ogs.tif
176
     1
290
     0
176
     1
 40
1.0
176
     1
 40
1.0
176
     1
  0
VISUALSTYLE
  5
181
102
{ACAD_REACTORS
330
99
102
}
330
99
100
AcDbVisualStyle
  2
Shaded with edges
 70
    26
177
     3
291
     0
 70
    58
 90
        2
176
     1
 90
        2
176
     1
 90
        1
176
     1
 90
        2
176
     1
 40
0.6
176
     1
 40
30.0
176
     1
 62
     7
420
 16777215
176
     1
 90
        1
176
     1
 90
        2
176
     1
 62
     7
176
     1
 62
   257
176
     1
 90
        2
176
     1
 90
        1
176
     1
 40
1.0
176
     1
 90
        8
176
     1
 62
   257
176
     1
 40
1.0
176
     1
 90
        1
176
     1
 90
        6
176
     1
 90
        2
176
     1
 62
     7
176
     1
 90
        3
176
     1
 90
        0
176
     1
 90
        0
176
     1
290
     0
176
     1
 90
        5
176
     1
 40
0.0
176
     1
 90
        0
176
     1
290
     0
176
     1
290
     1
176
     1
290
     1
176
     1
290
     0
176
     1
290
     0
176
     1
290
     0
176
     1
290
     0
176
     1
290
     0
176
     1
290
     0
176
     1
 90
       50
176
     1
 40
0.0
176
     1
 40
1.0
176
     1
 90
        0
176
     1
 62
    18
420
        0
176
     1
 90
       50
176
     1
 90
        3
176
     1
 62
     5
420
      255
176
     1
290
     0
176
     1
 90
       50
176
     1
 90
       50
176
     1
 90
       50
176
     1
290
     0
176
     1
 90
       50
176
     1
 62
   256
176
     0
 40
1.0
176
     0
 90
        2
176
     1
  1
strokes_ogs.tif
176
     1
290
     0
176
     1
 40
1.0
176
     1
 40
1.0
176
     1
  0
VISUALSTYLE
  5
17E
102
{ACAD_REACTORS
330
99
102
}
330
99
100
AcDbVisualStyle
  2
Shades of Gray
 70
    23
177
     3
291
     0
 70
    58
 90
        2
176
     1
 90
        2
176
     1
 90
        3
176
     1
 90
        0
176
     1
 40
0.6
176
     1
 40
30.0
176
     1
 62
     7
420
 16777215
176
     1
 90
        2
176
     1
 90
        2
176
     1
 62
     7
176
     1
 62
     7
176
     1
 90
        1
176
     1
 90
        1
176
     1
 40
40.0
176
     1
 90
        8
176
     1
 62
     7
176
     1
 40
1.0
176
     1
 90
        1
176
     1
 90
        6
176
     1
 90
        2
176
     1
 62
     7
176
     1
 90
        3
176
     1
 90
        0
176
     1
 90
        0
176
     1
290
     0
176
     1
 90
        1
176
     1
 40
0.0
176
     1
 90
        0
176
     1
290
     0
176
     1
290
     1
176
     1
290
     1
176
     1
290
     0
176
     1
290
     0
176
     1
290
     0
176
     1
290
     0
176
     1
290
     0
176
     1
290
     0
176
     1
 90
       50
176
     1
 40
0.0
176
     1
 40
1.0
176
     1
 90
        0
176
     1
 62
    18
420
        0
176
     1
 90
       50
176
     1
 90
        3
176
     1
 62
     5
420
      255
176
     1
290
     0
176
     1
 90
       50
176
     1
 90
       50
176
     1
 90
       50
176
     1
290
     0
176
     1
 90
       50
176
     1
 62
   256
176
     0
 40
1.0
176
     0
 90
        2
176
     1
  1
strokes_ogs.tif
176
     1
290
     0
176
     1
 40
1.0
176
     1
 40
1.0
176
     1
  0
VISUALSTYLE
  5
17F
102
{ACAD_REACTORS
330
99
102
}
330
99
100
AcDbVisualStyle
  2
Sketchy
 70
    24
177
     3
291
     0
 70
    58
 90
        1
176
     1
 90
        2
176
     1
 90
        2
176
     1
 90
        0
176
     1
 40
0.6
176
     1
 40
30.0
176
     1
 62
     7
420
 16777215
176
     1
 90
        2
176
     1
 90
        2
176
     1
 62
     7
176
     1
 62
     7
176
     1
 90
        1
176
     1
 90
        1
176
     1
 40
40.0
176
     1
 90
       11
176
     1
 62
     7
176
     1
 40
1.0
176
     1
 90
        1
176
     1
 90
        6
176
     1
 90
        2
176
     1
 62
     7
176
     1
 90
        6
176
     1
 90
        0
176
     1
 90
        0
176
     1
290
     0
176
     1
 90
        1
176
     1
 40
0.0
176
     1
 90
        0
176
     1
290
     0
176
     1
290
     1
176
     1
290
     1
176
     1
290
     0
176
     1
290
     0
176
     1
290
     0
176
     1
290
     0
176
     1
290
     0
176
     1
290
     0
176
     1
 90
       50
176
     1
 40
0.0
176
     1
 40
1.0
176
     1
 90
        0
176
     1
 62
    18
420
        0
176
     1
 90
       50
176
     1
 90
        3
176
     1
 62
     5
420
      255
176
     1
290
     0
176
     1
 90
       50
176
     1
 90
       50
176
     1
 90
       50
176
     1
290
     0
176
     1
 90
       50
176
     1
 62
   256
176
     0
 40
1.0
176
     0
 90
        2
176
     1
  1
strokes_ogs.tif
176
     1
290
     0
176
     1
 40
1.0
176
     1
 40
1.0
176
     1
  0
VISUALSTYLE
  5
A6
102
{ACAD_REACTORS
330
99
102
}
330
99
100
AcDbVisualStyle
  2
Thicken
 70
    13
177
     3
291
     1
 70
    58
 90
        2
176
     1
 90
        2
176
     1
 90
        1
176
     1
 90
        0
176
     1
 40
0.6
176
     1
 40
30.0
176
     1
 62
     7
420
 16777215
176
     1
 90
        1
176
     1
 90
        4
176
     1
 62
     7
176
     1
 62
   257
176
     1
 90
        1
176
     1
 90
        1
176
     1
 40
1.0
176
     1
 90
       12
176
     1
 62
     7
176
     1
 40
1.0
176
     1
 90
        1
176
     1
 90
        6
176
     1
 90
        2
176
     1
 62
     7
176
     1
 90
        5
176
     1
 90
        0
176
     1
 90
        0
176
     1
290
     0
176
     1
 90
        1
176
     1
 40
0.0
176
     1
 90
        0
176
     1
290
     0
176
     1
290
     1
176
     1
290
     1
176
     1
290
     0
176
     1
290
     0
176
     1
290
     0
176
     1
290
     0
176
     1
290
     0
176
     1
290
     0
176
     1
 90
       50
176
     1
 40
0.0
176
     1
 40
1.0
176
     1
 90
        0
176
     1
 62
    18
420
        0
176
     1
 90
       50
176
     1
 90
        3
176
     1
 62
     5
420
      255
176
     1
290
     0
176
     1
 90
       50
176
     1
 90
       50
176
     1
 90
       50
176
     1
290
     0
176
     1
 90
       50
176
     1
 62
   256
176
     0
 40
1.0
176
     0
 90
        2
176
     1
  1
strokes_ogs.tif
176
     1
290
     0
176
     1
 40
1.0
176
     1
 40
1.0
176
     1
  0
VISUALSTYLE
  5
A0
102
{ACAD_REACTORS
330
99
102
}
330
99
100
AcDbVisualStyle
  2
Wireframe
 70
     5
177
     3
291
     0
 70
    58
 90
        0
176
     1
 90
        2
176
     1
 90
        0
176
     1
 90
        0
176
     1
 40
0.6
176
     1
 40
30.0
176
     1
 62
     7
420
 16777215
176
     1
 90
        1
176
     1
 90
        4
176
     1
 62
     7
176
     1
 62
   257
176
     1
 90
        1
176
     1
 90
        1
176
     1
 40
1.0
176
     1
 90
        0
176
     1
 62
   257
176
     1
 40
1.0
176
     1
 90
        1
176
     1
 90
        6
176
     1
 90
        2
176
     1
 62
     7
176
     1
 90
        3
176
     1
 90
        0
176
     1
 90
        0
176
     1
290
     0
176
     1
 90
        1
176
     1
 40
0.0
176
     1
 90
        0
176
     1
290
     0
176
     1
290
     1
176
     1
290
     1
176
     1
290
     0
176
     1
290
     0
176
     1
290
     0
176
     1
290
     0
176
     1
290
     0
176
     1
290
     0
176
     1
 90
       50
176
     1
 40
0.0
176
     1
 40
1.0
176
     1
 90
        0
176
     1
 62
    18
420
        0
176
     1
 90
       50
176
     1
 90
        3
176
     1
 62
     5
420
      255
176
     1
290
     0
176
     1
 90
       50
176
     1
 90
       50
176
     1
 90
       50
176
     1
290
     0
176
     1
 90
       50
176
     1
 62
   256
176
     0
 40
1.0
176
     0
 90
        2
176
     1
  1
strokes_ogs.tif
176
     1
290
     0
176
     1
 40
1.0
176
     1
 40
1.0
176
     1
  0
VISUALSTYLE
  5
180
102
{ACAD_REACTORS
330
99
102
}
330
99
100
AcDbVisualStyle
  2
X-Ray
 70
    25
177
     3
291
     0
 70
    58
 90
        2
176
     1
 90
        2
176
     1
 90
        1
176
     1
 90
        1
176
     1
 40
0.5
176
     1
 40
30.0
176
     1
 62
     7
420
 16777215
176
     1
 90
        1
176
     1
 90
        0
176
     1
 62
     7
176
     1
 62
   257
176
     1
 90
        1
176
     1
 90
        1
176
     1
 40
1.0
176
     1
 90
        8
176
     1
 62
     7
176
     1
 40
1.0
176
     1
 90
        1
176
     1
 90
        6
176
     1
 90
        2
176
     1
 62
     7
176
     1
 90
        3
176
     1
 90
        0
176
     1
 90
        0
176
     1
290
     0
176
     1
 90
       13
176
     1
 40
0.0
176
     1
 90
        0
176
     1
290
     0
176
     1
290
     1
176
     1
290
     1
176
     1
290
     0
176
     1
290
     0
176
     1
290
     0
176
     1
290
     0
176
     1
290
     0
176
     1
290
     0
176
     1
 90
       50
176
     1
 40
0.0
176
     1
 40
1.0
176
     1
 90
        0
176
     1
 62
    18
420
        0
176
     1
 90
       50
176
     1
 90
        3
176
     1
 62
     5
420
      255
176
     1
290
     0
176
     1
 90
       50
176
     1
 90
       50
176
     1
 90
       50
176
     1
290
     0
176
     1
 90
       50
176
     1
 62
   256
176
     0
 40
1.0
176
     0
 90
        2
176
     1
  1
strokes_ogs.tif
176
     1
290
     0
176
     1
 40
1.0
176
     1
 40
1.0
176
     1
  0
DICTIONARYVAR
  5
F0
102
{ACAD_REACTORS
330
66
102
}
330
66
100
DictionaryVariables
280
     0
  1
1:1
  0
DICTIONARYVAR
  5
EF
102
{ACAD_REACTORS
330
66
102
}
330
66
100
DictionaryVariables
280
     0
  1
STANDARD
  0
DICTIONARYVAR
  5
89
102
{ACAD_REACTORS
330
66
102
}
330
66
100
DictionaryVariables
280
     0
  1
STANDARD
  0
DICTIONARYVAR
  5
1B7
102
{ACAD_REACTORS
330
66
102
}
330
66
100
DictionaryVariables
280
     0
  1
Imperial24
  0
DICTIONARYVAR
  5
1B8
102
{ACAD_REACTORS
330
66
102
}
330
66
100
DictionaryVariables
280
     0
  1
Imperial24
  0
DICTIONARYVAR
  5
67
102
{ACAD_REACTORS
330
66
102
}
330
66
100
DictionaryVariables
280
     0
  1
2
  0
DICTIONARYVAR
  5
6B
102
{ACAD_REACTORS
330
66
102
}
330
66
100
DictionaryVariables
280
     0
  1
1
  0
DICTIONARYVAR
  5
14D
102
{ACAD_REACTORS
330
66
102
}
330
66
100
DictionaryVariables
280
     0
  1
0
  0
DICTIONARYVAR
  5
14E
102
{ACAD_REACTORS
330
66
102
}
330
66
100
DictionaryVariables
280
     0
  1
0
  0
DICTIONARY
  5
194
330
22
100
AcDbDictionary
280
     1
281
     1
  0
DICTIONARY
  5
188
330
97
100
AcDbDictionary
280
     1
281
     1
  3
FBXASSET
360
189
  0
DICTIONARY
  5
186
330
96
100
AcDbDictionary
280
     1
281
     1
  3
FBXASSET
360
187
  0
DICTIONARY
  5
110
330
98
100
AcDbDictionary
280
     1
281
     1
  3
BUMPTILE
360
112
  3
DIFFUSETILE
360
111
  3
FBXASSET
360
18A
  3
OPACITYTILE
360
113
  3
REFLECTIONTILE
360
114
  0
DICTIONARY
  5
104
330
87
100
AcDbDictionary
280
     1
281
     1
  3
ACAD_ROUNDTRIP_2008_TABLESTYLE_CELLSTYLEMAP
360
339
  0
XRECORD
  5
189
102
{ACAD_REACTORS
330
188
102
}
330
188
100
AcDbXrecord
280
     1
 70
     1
 90
429727718
  1
508B35C9-AEE7-456F-BE74-D52651303AC6
310
504B03040A0000080000B670623B3DEE336E79000000790000001B0000006175746F6465736B2D64657369676E2D7061636B6167652E786D6C3C3F786D6C2076657273696F6E3D22312E302220656E636F64696E673D227574662D3822203F3E3C666F726D6174733E3C666F726D61743E687474703A2F2F736368656D612E
310
6175746F6465736B2E636F6D2F64657369676E2D7061636B6167652F323030393C2F666F726D61743E3C2F666F726D6174733E504B0304140006080800B670623BD486FD9CA0000000F4000000130000005B436F6E74656E745F54797065735D2E786D6C7D8EC10E82300C865F65E91D8A1E8C310C0EEA1BF002731658846E
310
D98AC1B77784ABF1D8FE5FBFBF75BBCE937A534CCEB38643598122B6FEE978D0B0485F9C41B54DDD7D022595594E1A469170414C76A4D9A4D207E29CF43ECE46F218070CC6BECC4078ACAA135ACF422C856C0E68EA1BF5669944DDD7BCDE7B1F8E415D77AECB980613C2E4AC91FC167A2B244592486606FC29C8FD7F045B9A
310
EF7053A7E60B504B0304140006080800B670623B28ED286BEB0000007C01000008000000636F72652E786D6C8D90416EC3201045AF82665B6183218D6D61A254764FD00B204C5C94182C03558F5F9C3852BBEB6A467FFE9B197D71FA9E6FE8CBACC17AD7012D0820E3B41FAD9B3A48F1826B40272956EFE32F1B20A766D3C1
310
268314D3EAD3B24BDABB685CCCAAF3A3D94515828980F42D371D04FD696655A814B3235C8B45E9AB9A4C419F5D8653B2237A1CB163DE672FD6AC209BF3C08E0D1B30EB19C3FC9D72FCC6EB231EFA33EDE96BDD341517E5064B11EDFCBCAF57A3A2194156843498524CAA0FCA5B7268F9E185D42D21A2DCEC7FA0B48CFF8492
310
759155FBBB0F2C80A4F991FB408A72CB22977B50B96EB9C91F504B0304140006080800B670623B55019EA25F0000007C00000007000000636E782E786D6C4DCB3B0E80201045D1AD90E915ED2CF8AC45050C11660C8261F98AB1B07AC9C97D42D718D865D3E909258CFD00CCE24AC6E326A164D74DC0B4128928FF32603847
310
2BA13128B1252AC747C6BAB984FC68F0B87FE8960A5C09FE86CFB69FBA01504B0304140006080800B670623B7BC41AC871010000D40300000C0000006662782F636F72652E786D6CC553ED6E8320147D15C2DF4501B56B6D90A64BBB27D80B50A5CE54C120983EFEAE1F4DD7A56BBA5FF3879273EEE59E7310BE393735EA95
310
ED2AA333CC428A91D2B9292A5D66D8BB63B0C26823B835C67D2BC348CB46657880B1E0A535BE9DA1DC68A7B403549B42CDA0EC3AE530CA6B5864B8CB3F552343E91D5474A7B095F949962A6421D0502778E72C0840D390E18DC5F170E664C205F7BE2A66B62A605A75AC94C522DDEEE3651AEF837817C741F2CE92E02D592D
310
83FD6ECB76EC7595A651C2C9D02CB8AB9A8BBADC2AE954814544691A3016D0E883256BBA58278B17BA5A53CAC9507ED3E4DBE2C9265F691747B3DCA9ADC382819091F8E1162272A8933DE82182932144F88C09DF060D8140C84E1EEA8B8F1340BDCA9DB1093085F157AA97B557309586747CD0EF0B4EA64E983A6E0EAEEFCE
310
889E9EF17847386AA94B30211D2C0FDE0D3AF9A4610EAD5536E8DD1969631B593F67E381C33F5157F17725E5A636F6BF1491F980C8FC7B90E13E8A2F504B0304140006080800B670623B70102A487D0000009D0000000B0000006662782F636E782E786D6C4DCCD10A83201886E15B91FFDC95A5C30335ACCDFB886521330D
310
A76397BF1A1DECE883878F57749FD5A3B74D2F17830472A901D9F088930B8B849267CC01754AA418F3DF0D5018572BE160506249B16C274D761E8BCFBB7A179E27F65CB39A0F14D396184C9921B81F34C3ACA1B4B99ABB6E6F062A25AA5F69DF23ACBE504B0304140006080800B670623B3610CA3329010000120200003100
310
00006662782F42384135303843342D343331462D343546312D424341352D3532343432364645413344462F636F72652E786D6C8D515B6EC32010BC0AE22B55850D0E446E848992B43E412FE000495162B07854397EA176A4F62F3F2C9A9D991D58BEBB8F37F0AD7D30CE76905418026DA553C65E3A98E219B510EC04F7CEC5
310
3F3408EC30EA0E16180A7EF12E4D0B249D8DDAC68C5AA7F4020E21E80881BCE54B0783FCD2E3500D296646B856D320AFC34557A4CAEDCC133C449F0380794839A138B47B86DB2345744D7A44594FD0E1B867883594369BFE63BF7EEF793D0B054FC9A8456E548E63CE46FB674D8A58F068C6477CE9F510B582A2C1F80D1182
310
70F349E816B32D65AFB8DD62CCEB42FF274A937A52948C8DEB66893BCB021484D7734370E5D2E9F608A3EF93F3119479ABA0E50B14B8C298119A43CCC4FCFCECB8A18B6388CEE7EF5D5D4F994BD86CBBA182D76543B9FCAE2FD7B24DF103504B0304140006080800B670623B1B8617914E0100003303000030000000666278
310
2F42384135303843342D343331462D343546312D424341352D3532343432364645413344462F636E782E786D6CD593C16EC32010447F0571AD6CE3D489D20813A9877E410FBD62D82434182CC055F3F75D1292E692438FBD206B7698593D61BEFD1E2DF982108D773D6D6B460938E5B571FB9ECE6957AD29D90A1EBC4F7736
310
4A9C1CA1A759A682EF839FA72269D8C9D92654AD71C72206887E0E0A22CAF926B15E498B01E0AA19451807D01A34B919F16B070157417138917400F2F6FA41FCF0092A45DEE414C19BDC21783E4BD39D891265658C3D8DEA00A3ACE59CBC8678ACB54CB26EEB6BD7839D7E9348BE70AD9C8321B9BCA7F9A4A26C542347DEE0
310
50F09802D22BA6749A800A394DD62899107273365E3C82CFC6A55557BC06C10774B7ABE7AEC3B0F34CF06446280E154026D0542C187BA9DAB6628BF7B6DBB0E5A65B3EB1F58631DE64BBE083F7B65CC218087E22CABB042E51D1F2268F1FE12B3EA24D40D63E9CFE00120194D60B9D5BC67FE6D39CDF37E20AF817881F504B
310
0304140006080800B670623BBFEF2E3B690500003C100000340000006662782F42384135303843342D343331462D343546312D424341352D3532343432364645413344462F6F626A656374732E786D6CAD575D739B3814FD2B0CFB0C98D84E931D4227B6938EA793B6534F3BFB90198F0099B001899144EAECAFDF231018B0
310
D37A3FFC609090EEE7B94757C1FB7D915B2F54C88CB31BDB7727B64559CC938CA53776A576CE956DBD0F03C1B9EA2DB32D460A7A63EB693B0C52C1ABD24C257447AA5C8D66EF177F5832A68CDA569C13296F6C193FD182B8A4523CA1F2D94D88226EBADBBBBEDB2C1C8A4D05299F46424B222853B014F30C52ACC6287F389C
310
D85E1878FA7B18E87FB36AFAF62AAFF667A83F635211161F291B8999FAB3D5DDC5FCDA99CF6653677679E13B8BFBC5CAF1DF4D27CBCBE5F2FAF6EE1A8AA51290642C117467871F101B91C581D77CEA2C36869F3229E68CD1B8F61F1ED6361B89092D294B90C78C4A68EB793D190E7D1D9BDEE7A91E1B95FDE9F3BCEAEFE809
310
6A6D6F9F7D4B79F4275C90E7A04248AA51D5C4C738DAE06F72885AC4796EBE65D22A88A22223B995679120E2D50EB1542F098381188D4EA111AE3DB043FF20AF6F2B4AE3D7D83D65E5AECA730D4D3BAC91BD05FEA992B565D95F549CD6069B90AB2A63EACA38A45E4B6A87D781574F86817E4C2FCCC72690D62E2729520E37
310
9BAF234797BAF6D62B3BFC781FED37BA1E4F2B2F052FA9501A3E80569BB8F6A9A364D4FA67654E6F803383981F82F21591FF84F23D9882BC896C3FDBCF8C162508933B2E0AE4C69DD43F6BD2BE38DDDBF10BF86CB4FA784D37F3AF16075E67EC9030DECA1FC0A55373F5DFF3378C591FA9BDF485C10B0A8C8BA909E5262639
310
A8E72163488806A595734C81CB77D1DE0ED7604A303B76913CEC0272F412782FF88EFF4636D8AA56DF7B322474C4B767303F625997056C7B032C473C592B36CEBD15F3F9FF5233B7ABCDC74D257624A60F8658567497B14CE1EC3C80B76FD02011038F9EE9EB0F2E12387A9C844D3F09855125116D1D731DF8B43D2CF4E0A0
310
79A020C6BE946BCE0B7EA1E1219331CD73C228AF5A2DDD31A4B1DA918CE91350854D40A71723140BFA92E94E62B0626016CEFA5864A50E5977E8753CEDBEE1CBB7F52780D20E17AF0BA0F5F9B02A3AD07DCC732EB6D1EBB661421BE0C39E21BABF0FE16D22EA6929407C8DE596724C88B749B6DB5512BC7B228ADFD7CB7EA6
310
3A22397E690BA8D5D8D4E40CEC8CDA23C2C0B7D5898640101CEC9C6D331CE328CB93CAFBBAC70A642DF70DF95155945B52F08AA973C23469FD69ADEF84F7BB18F983A8F8C90E37F5D35980B2139A1C523540813E824EF83448CF7C72B598CE97D7CEEDDDDD3B6736BFBC771677EF66CE6A7E7139F7A793E9EDF2B2B3A8B624
310
0CDA13AA5F8388264EC4A0129909F3B7F5A16CEDF08128E97D680ACA4B9BE7B7B58BB638F0B00700EF36AE8B32A705658A68F83EE897FC2B41573190D1CCAF0B92D233A47CFEB019D9809933F67DD1A5467F8CF69AD9A5AE859342D45355448C64F968A371DC2D596ADC6E43D93D1B466F877A64E2893E54F23C4B40388995
310
525E5005DA3983ED45412510D3EFCA13737B3863F74BD30F2A12E5B4B5E489A025CE25500DB855B11ACE5BBFA185D35DD48D8DC3CE7DC69F2944DB42AA6F6CF09BCA622ADD08C7A36E7C6AE18000BAB08E040135C2D21C9D75B3A91B77BB746C403F38018DFE6EC939DD92F16B40BC05294B9CDA035AAD6D330AE27FE4786B
310
8E45145EA34A75BE1C263A676A35A8ACC6297337400BF16C54EF515F3F77CB77EB3583889C754FFA29081AA98E2222ADEF05DA3E63D2EDEA8B8756C05A7FB6CABC4A91CBF325398202CC952E70A008A830324BA200D5E5EF8F5F04C75DB4B0EE3340E071C98B823333B83577596BF3849B69F2085AA0FAFA212F26BEFF5877
310
FDE622B28D88A42E49E43326DA82D31E8CB006401E1DA726059ECEC168F97A6599036306A135688F9AD2E61A6EA178F4CD51974A9F2CCB9F36FE5EBD14601068D9C3BF01504B0304140006080000B670623B000000000000000000000000350000006662782F42384135303843342D343331462D343546312D424341352D35
310
32343432364645413344462F76657274696365732E62696E504B0304140006080800B670623BF270F1330600000004000000360000006662782F42384135303843342D343331462D343546312D424341352D3532343432364645413344462F747269616E676C65732E62696E636660600000504B0304140006080000B67062
310
3B000000000000000000000000370000006662782F42384135303843342D343331462D343546312D424341352D3532343432364645413344462F617474726962757465732E62696E504B0304140006080800B670623B08DA0BD19000000041010000360000006662782F42384135303843342D343331462D343546312D4243
310
41352D3532343432364645413344462F6469726563746F72792E786D6C858F410AC3201045AF22B36F53E9A60B35CBEEBAE80D244E44489C6234F4F835464A48035D0DF398FF9F8AF63D0E6CC63039F212F8F9020C7D47C6792B21C5FE7403D62A1188E2E60C98D7234A5830286103A55745067B9D86B8A3CF9C7F90C11DE6
310
07FB144396D7B6A82D282E9A152AD114D5EF2CB866EEE831B8EEA07A7BB5A8D7D61A2BAAEB7FD5F70921FF497D00504B0304140006080800B670623B3B4606F3FE000000A00100003B0000006662782F42384135303843342D343331462D343546312D424341352D3532343432364645413344462F7265736F75726365732F
310
636F72652E786D6C8D504B6E833010BD0A9A6D65B08134808CA354A427E8052C332156828DFCA97AFC9A40A576D7CDCCE87D344F8F9FBEE647F689CE6B6B7A6039850C8DB2A336530F315C4903D94970676DF82583CCC8197B5861107C72362E3BA4AC096842428D1D7107A5F71820538F74F4E0D50D6799CB1892C2DFF345
310
AABB9C306779A2934E701F5C0A906D4FD609C2A1B7D129F4BCD858C163D4E3AED163FAA9AF1A1D88F67CA98E6D35906AA82A52BFB39ABCD5CD915C86331BD86BD3B665CD8BD52C78D0F34F46E550061C419494B6843142CB0F5677F4D0D58717DA7494F26295FF31C565FCA7296A13AA728FBBD93C0896823C09C18BB5AFB4
310
9E65A6BD762BBE01504B010214000A0000080000B670623B3DEE336E79000000790000001B00000000000000000000000000000000006175746F6465736B2D64657369676E2D7061636B6167652E786D6C504B01021400140006080800B670623BD486FD9CA0000000F40000001300000000000000000000000000B2000000
310
5B436F6E74656E745F54797065735D2E786D6C504B01021400140006080800B670623B28ED286BEB0000007C010000080000000000000000000000000083010000636F72652E786D6C504B01021400140006080800B670623B55019EA25F0000007C000000070000000000000000000000000094020000636E782E786D6C50
310
4B01021400140006080800B670623B7BC41AC871010000D40300000C00000000000000000000000000180300006662782F636F72652E786D6C504B01021400140006080800B670623B70102A487D0000009D0000000B00000000000000000000000000B30400006662782F636E782E786D6C504B01021400140006080800B6
310
70623B3610CA3329010000120200003100000000000000000000000000590500006662782F42384135303843342D343331462D343546312D424341352D3532343432364645413344462F636F72652E786D6C504B01021400140006080800B670623B1B8617914E010000330300003000000000000000000000000000D10600
310
006662782F42384135303843342D343331462D343546312D424341352D3532343432364645413344462F636E782E786D6C504B01021400140006080800B670623BBFEF2E3B690500003C10000034000000000000000000000000006D0800006662782F42384135303843342D343331462D343546312D424341352D35323434
310
32364645413344462F6F626A656374732E786D6C504B01021400140006080000B670623B0000000000000000000000003500000000000000000000000000280E00006662782F42384135303843342D343331462D343546312D424341352D3532343432364645413344462F76657274696365732E62696E504B010214001400
310
06080800B670623BF270F133060000000400000036000000000000000000000000007B0E00006662782F42384135303843342D343331462D343546312D424341352D3532343432364645413344462F747269616E676C65732E62696E504B01021400140006080000B670623B00000000000000000000000037000000000000
310
00000000000000D50E00006662782F42384135303843342D343331462D343546312D424341352D3532343432364645413344462F617474726962757465732E62696E504B01021400140006080800B670623B08DA0BD1900000004101000036000000000000000000000000002A0F00006662782F42384135303843342D3433
310
31462D343546312D424341352D3532343432364645413344462F6469726563746F72792E786D6C504B01021400140006080800B670623B3B4606F3FE000000A00100003B000000000000000000000000000E1000006662782F42384135303843342D343331462D343546312D424341352D3532343432364645413344462F72
310
65736F75726365732F636F72652E786D6C504B0506000000000E000E0080040000651100000000
  0
XRECORD
  5
187
102
{ACAD_REACTORS
330
186
102
}
330
186
100
AcDbXrecord
280
     1
 70
     1
 90
429727718
  1
887D55A9-D0DD-414E-B741-A7DCD4DA2B4C
310
504B03040A0000080000B670623B3DEE336E79000000790000001B0000006175746F6465736B2D64657369676E2D7061636B6167652E786D6C3C3F786D6C2076657273696F6E3D22312E302220656E636F64696E673D227574662D3822203F3E3C666F726D6174733E3C666F726D61743E687474703A2F2F736368656D612E
310
6175746F6465736B2E636F6D2F64657369676E2D7061636B6167652F323030393C2F666F726D61743E3C2F666F726D6174733E504B0304140006080800B670623BD486FD9CA0000000F4000000130000005B436F6E74656E745F54797065735D2E786D6C7D8EC10E82300C865F65E91D8A1E8C310C0EEA1BF002731658846E
310
D98AC1B77784ABF1D8FE5FBFBF75BBCE937A534CCEB38643598122B6FEE978D0B0485F9C41B54DDD7D022595594E1A469170414C76A4D9A4D207E29CF43ECE46F218070CC6BECC4078ACAA135ACF422C856C0E68EA1BF5669944DDD7BCDE7B1F8E415D77AECB980613C2E4AC91FC167A2B244592486606FC29C8FD7F045B9A
310
EF7053A7E60B504B0304140006080800B670623BBC1638F5EC0000007C01000008000000636F72652E786D6C8D90416EC3201045AF82665B61836BE2D8C24471DB9CA01740401C94182C03558F5F9C3852BBEB6A467FFE9B197D7EF89E6EE8CB2CC17AD7032D0820E394D7D68D3DA478C67B4007C117EFE32F1B202727D3C3
310
2A83E0E3E2D3BC49CABB685CCCAAF3DA6CA20CC14440EA969B1E82BA98491632C5EC08D76296EA2A4753D06797E194AC468F2356E77DF66CCD02825543D50CACC62D39ED70FDC68EB8FD68F6F8787A6784342D1DDA1D2F5758F068A7E77DB518198D065111D2624A31A93E69DD11D6D5EC85EC3B4278B9DAFF4069D6FF8492
310
75F1B5DADE7D600104CD8FDC0782976B16B9DC83CA75CD4DFC00504B0304140006080800B670623B55019EA25F0000007C00000007000000636E782E786D6C4DCB3B0E80201045D1AD90E915ED2CF8AC45050C11660C8261F98AB1B07AC9C97D42D718D865D3E909258CFD00CCE24AC6E326A164D74DC0B4128928FF326038
310
472BA13128B1252AC747C6BAB984FC68F0B87FE8960A5C09FE86CFB69FBA01504B0304140006080800B670623B3586FFB671010000D40300000C0000006662782F636F72652E786D6CC553ED6E8320147D15C2DF4541A76D6D90A6DDD627D80B50A4CE54C120983EFEAE1F4DD7A55BBA5FF3879273EEE59E7310B6393735EA
310
95ED2AA3731C851423A5A5292A5DE6D8BB63B0C268C39935C67D29C3488B46E578803167A535BE9D2169B453DA01AA4DA16650749D7218C91A1639EEE4876A4428BC838AEE14B6429E44A9C228041AEA38EB9C0501681A32BC313F1ECE8C4C3867DE57C5CC56054CAB8E95B298A7F12E5EEED224C8E87E11242FE936C8DE96
310
AB60BB7F4D295D66D12E5B30323473E6AAE6A24E5A259C2A308F29CD82280A68FC1E256B9AAE93F489AED694323294DF34F9B678B0C957DA3DC7B3DCA9ADC33C022123F1CD2D44E450277AD04338234388F01913BE0D1A0281909D38D4171F27807A259DB1093085F157AA17B557309586747CD0CF0B46A64E983A6E0EAEEF
310
CE881F9EF1FB8E70D44297604238581EBC1B74B249C31C5AAB6CD0BB33D2C636A27ECCC62F0EFF445DC5DF95244D6DEC7F2922F30191F9F720C37DE49F504B0304140006080800B670623B4220A0FF7D0000009D0000000B0000006662782F636E782E786D6C4DCCD10A83201886E15B91FFDCE542CB0335D0EC3E6259C84A
310
C3E9D8E5AF46073BFAE0E1E315DD675BD1DBA5978F41C2FD4600B9F088930F8B849267CC01754AA418F3DF0D50183727E164506249B1EC174D6E1ECB9A0F5D7D785E68DB8151CD286E5A5363CA6B8A39E90D36D40E96B086F55A43A544F52B1D7B86D517504B0304140006080800B670623B2FA3FEDE290100001202000031
310
0000006662782F45374635344235342D363743322D343832342D383044432D4334454645303536354442422F636F72652E786D6C8D515B6EC32010BC0AE22B55850D2E386E848994D7097A0117488A1283C5A3CAF10BB523B57FF961D1ECCCECC0F2ED7DBC816FED8371B687A4C210682B9D32F6D2C314CFA883602BB8772E
310
FEA141608751F7B0C050F08B77695A20E96CD43666D43AA5177008414708E42D5F7A18E4971E876A483133C2B59A06791D2EBA22556E679EE021FA1C00CC43CA09C5717D6274C7286AD7FB06D1AEA1A8C3873DDAD3E3E98859CB0EBB1DAF67A1E02919B5C88DCA71CCD968FFAC49110B1ECDF8882FBD1EA256503418BF2342
310
106E3E08DD60B6A1EC15771B8C795DE8FF4469524F8A92B1F1AD59E2CEB20005E1F5DC105CB9F4797B84D1F7C9F908CABC55D0F2050A5C61CC1AD2F27A26E6E767C7962E8E213A9FBF7775FDCC5CC266DB960A5E970DE5F2BBBE5CCB36C50F504B0304140006080800B670623B1B8617914E01000033030000300000006662
310
782F45374635344235342D363743322D343832342D383044432D4334454645303536354442422F636E782E786D6CD593C16EC32010447F0571AD6CE3D489D20813A9877E410FBD62D82434182CC055F3F75D1292E692438FBD206B7698593D61BEFD1E2DF982108D773D6D6B460938E5B571FB9ECE6957AD29D90A1EBC4F77
310
364A9C1CA1A759A682EF839FA72269D8C9D92654AD71C72206887E0E0A22CAF926B15E498B01E0AA19451807D01A34B919F16B070157417138917400F2F6FA41FCF0092A45DEE414C19BDC21783E4BD39D891265658C3D8DEA00A3ACE59CBC8678ACB54CB26EEB6BD7839D7E9348BE70AD9C8321B9BCA7F9A4A26C542347DE
310
E050F09802D22BA6749A800A394DD62899107273365E3C82CFC6A55557BC06C10774B7ABE7AEC3B0F34CF06446280E154026D0542C187BA9DAB6628BF7B6DBB0E5A65B3EB1F58631DE64BBE083F7B65CC218087E22CABB042E51D1F2268F1FE12B3EA24D40D63E9CFE00120194D60B9D5BC67FE6D39CDF37E20AF817881F50
310
4B0304140006080800B670623B29652116630500003C100000340000006662782F45374635344235342D363743322D343832342D383044432D4334454645303536354442422F6F626A656374732E786D6CAD575D739B3814FD2B0CFB0C989834C90EA1639B24E3E9A6EDD4D3CE3E64C623834CD8006224913AFDF57B040203
310
B65BEF871F0C12D2FD3CF7E8CA7FBFCB33E3957291B2E2D674ED8969D02262715A24B76625B7D6B569BC0F7CCE98EC2D338D82E4F4D654D366E0279C55A59E8AE99654991CCDDECFFF3444440B6A1A514684B83545F44C7362934AB2988A173B2692D8C97667BB76B3702836E1A47C1E092D09A78584A5982F20C5688C7287
310
C389E904BEA3BE07BEFAD7ABA6A75739B53F43FD69212429A20365233153D70BEF2E2E6FAC4BCF9B5ADEBB0BD79ADFCF43CBBD9A4E16EF168B9BD9DD0D140BC921495BC2E9D60C1E101B9E46BED37CEA2CD6861F3329624541A3DA7F7858DBAC25C6B4A4458C3CA654405BCFEBC970E8AAD8F43E4FD558ABEC4F9FE7557F47
310
4F506B7BFBEC5BCA367FC105710E2AB8A00A554D7CB4A30DFE26FBA86D18CBF4B75418399194A72433B274C3097F33032C554B027F2046A1932B842B0FCCC0DDCBEBDB8AD2F835768F59B9ADB24C41D30C6A64AF817F2A456D59FA83F2E3DA60137255A585BCD60EC9B7929AC18DEFD49381AF1ED30BFDB109A4B1CD488294
310
C3CDE6EBC8D185AABD6568061FEE37BB95AAC7E3CA4BCE4ACAA5820FA0D526AE7DAA2869B5EE5999531BE0CC20E6FBA07C41E43FA27CF7A6206F3CDD793B4F6B919C1462CB788EDCD893FA674CDA17AB7B3B7C019F8D561FAEE966FED562DFE98C1D12C6A9FC015C2A35D7FF3D7FC398F591DA4B5FE0BFA2C0189FEA50AE22
310
92817A1ED3020951A03432862970F976B33383259812CC8E5D240BBA801CBCF8CE2BBEE3BF910DB6AAD5F79E05123AE2DB33981FB1ACCB02B69D00CB014FD68AB573A7627EF9BFD4CC2C5C7D58557C4B22FAA88925A4DBB44825CECE3D78FB060D1231F0E885BE7D673C86A3874958F593906B5502D1563157814FDAC3420D
310
F69A070A22EC4B98E23CFF171A1E5311D12C23056555ABA53B8614563B92D17D02AAB009E8F46284624E5F53D5490C560CCCC2591FF1B45421EB0EBD8EA7ED13BE7C5D7E0428CD60FEF60779EB13E6664FF711CB185F6FDED60D139A001FF60CD1FD6D086F1D51474901E26B2CB794A343BC8ED3EDB612E0DD2351FCB65CF4
310
33D511C9E14B5B40ADC6A6263DB0336A8F700DDF56271A024E70B0B3629DE21847591E55DED73D56206AB927E46FAABC5C939C55853C274C93D69FD6FA4E78BF8B11DF898C9ECD60553FAD39283BA6F18984AA23E8884F83F45C5F5F859797B31B2B9C84A1E5B9DE9D35BFF25C6B76152E422F9C5DCC3D847F5801ED09D5AF
310
41441327A25FF15487F9EB725FB666F048A4701E9A827292E6F97569A32DF61DEC01C0BB8DCBBCCC684E0B49147C1FD54BF685A0AB18C868E6973949E819523E3DAC463660E68C7D9F55A9D1EFA3BD7A76A16AE1A810F95CE59B82A4D968A376DC2E8B44BBDD86B27B368CDE0ED548C7137DA860591A83706223A12CA712B4
310
7306DBF39C0A20A6DF95C7FAF670C6EED7A61F946493D1D6926782963813403548A78AE470DEF80D2D9CEAA26E4D1C76F60BFE74219A06527D6B82DF641A51616F703CAAC6A7160E08A00BEB4810A0274592A1B36E3675E36E978A0DE80727A0D6DF2D39A75BD27E0D8837276589537B40ABB56D5A41F48F1C6FCD3188C4EB
310
A6929D2FFB89CE995A4D00AE813BDD032DC48B56BD437DFDDC2DD7AED70C2272D63DE9A72068A45A92F0A4BE17A8A06B9366E16707AD80B1FC649459952097E74BB23805982B55E0401150A165964402AA8BDF9F3E7386BB686EDCA780C0D382E5392BF460A6EFB2C6EA1937D3F809B440D5F5435C4C5CF7A9EEFAF54564BD
310
2182DA24162F98680B4E7930C21A0079709CEAEB99A372305ABE0C0D7D6078105A83F6A0296DAEE1068A47DD1C55A9F4C9B2FC69E3EFD44B81028E963DF81B504B0304140006080000B670623B000000000000000000000000350000006662782F45374635344235342D363743322D343832342D383044432D433445464530
310
3536354442422F76657274696365732E62696E504B0304140006080800B670623BF270F1330600000004000000360000006662782F45374635344235342D363743322D343832342D383044432D4334454645303536354442422F747269616E676C65732E62696E636660600000504B0304140006080000B670623B00000000
310
0000000000000000370000006662782F45374635344235342D363743322D343832342D383044432D4334454645303536354442422F617474726962757465732E62696E504B0304140006080800B670623B08DA0BD19000000041010000360000006662782F45374635344235342D363743322D343832342D383044432D4334
310
454645303536354442422F6469726563746F72792E786D6C858F410AC3201045AF22B36F53E9A60B35CBEEBAE80D244E44489C6234F4F835464A48035D0DF398FF9F8AF63D0E6CC63039F212F8F9020C7D47C6792B21C5FE7403D62A1188E2E60C98D7234A5830286103A55745067B9D86B8A3CF9C7F90C11DE607FB144396
310
D7B6A82D282E9A152AD114D5EF2CB866EEE831B8EEA07A7BB5A8D7D61A2BAAEB7FD5F70921FF497D00504B0304140006080800B670623B6378F24DFF000000A00100003B0000006662782F45374635344235342D363743322D343832342D383044432D4334454645303536354442422F7265736F75726365732F636F72652E
310
786D6C8D504B6E833010BD0A9A6D65B0094E42641C85B639412F6099496225D8C89FAAC7AF09546A77DDCC8CDE47F3F4C4F16B7C149FE88371B603565228D06A37187BED20C50BD9437194C23B177FC9A0B06AC40E6618A4B87A97A615D2CE46B431A3D60DB8822A048C50E8473E3A08FA86A32A558A5911EEE5A4F45D5DB1
310
6465A6B34E8A107D0E502C4FE609D26370C96B0CA25A58295232C3AA3143FE692E063D485EF7F5AEE71BD2D2F39634AFFC44DAF7DD9E9CCE6F9CD25DCBFA762BAAD92C4534E34F46ED51451C40D694B6843142EB0FD61C283F34FC85EE0F948A6A96FF31A569F8A729191B37F51A77B105902C0779125254735F793DCBCC7B
310
EE567E03504B010214000A0000080000B670623B3DEE336E79000000790000001B00000000000000000000000000000000006175746F6465736B2D64657369676E2D7061636B6167652E786D6C504B01021400140006080800B670623BD486FD9CA0000000F40000001300000000000000000000000000B20000005B436F6E
310
74656E745F54797065735D2E786D6C504B01021400140006080800B670623BBC1638F5EC0000007C010000080000000000000000000000000083010000636F72652E786D6C504B01021400140006080800B670623B55019EA25F0000007C000000070000000000000000000000000095020000636E782E786D6C504B010214
310
00140006080800B670623B3586FFB671010000D40300000C00000000000000000000000000190300006662782F636F72652E786D6C504B01021400140006080800B670623B4220A0FF7D0000009D0000000B00000000000000000000000000B40400006662782F636E782E786D6C504B01021400140006080800B670623B2F
310
A3FEDE290100001202000031000000000000000000000000005A0500006662782F45374635344235342D363743322D343832342D383044432D4334454645303536354442422F636F72652E786D6C504B01021400140006080800B670623B1B8617914E010000330300003000000000000000000000000000D2060000666278
310
2F45374635344235342D363743322D343832342D383044432D4334454645303536354442422F636E782E786D6C504B01021400140006080800B670623B29652116630500003C10000034000000000000000000000000006E0800006662782F45374635344235342D363743322D343832342D383044432D4334454645303536
310
354442422F6F626A656374732E786D6C504B01021400140006080000B670623B0000000000000000000000003500000000000000000000000000230E00006662782F45374635344235342D363743322D343832342D383044432D4334454645303536354442422F76657274696365732E62696E504B01021400140006080800
310
B670623BF270F13306000000040000003600000000000000000000000000760E00006662782F45374635344235342D363743322D343832342D383044432D4334454645303536354442422F747269616E676C65732E62696E504B01021400140006080000B670623B0000000000000000000000003700000000000000000000
310
000000D00E00006662782F45374635344235342D363743322D343832342D383044432D4334454645303536354442422F617474726962757465732E62696E504B01021400140006080800B670623B08DA0BD190000000410100003600000000000000000000000000250F00006662782F45374635344235342D363743322D34
310
3832342D383044432D4334454645303536354442422F6469726563746F72792E786D6C504B01021400140006080800B670623B6378F24DFF000000A00100003B00000000000000000000000000091000006662782F45374635344235342D363743322D343832342D383044432D4334454645303536354442422F7265736F75
310
726365732F636F72652E786D6C504B0506000000000E000E0080040000611100000000
  0
XRECORD
  5
112
102
{ACAD_REACTORS
330
110
102
}
330
110
100
AcDbXrecord
280
     1
270
     1
271
     1
  0
XRECORD
  5
111
102
{ACAD_REACTORS
330
110
102
}
330
110
100
AcDbXrecord
280
     1
270
     1
271
     1
  0
XRECORD
  5
18A
102
{ACAD_REACTORS
330
110
102
}
330
110
100
AcDbXrecord
280
     1
 70
     0
 90
1778669749
  1
9BF507EE-FAF7-4A99-A33D-4EE51894BC40
310
504B03040A0000080000B670623B3DEE336E79000000790000001B0000006175746F6465736B2D64657369676E2D7061636B6167652E786D6C3C3F786D6C2076657273696F6E3D22312E302220656E636F64696E673D227574662D3822203F3E3C666F726D6174733E3C666F726D61743E687474703A2F2F736368656D612E
310
6175746F6465736B2E636F6D2F64657369676E2D7061636B6167652F323030393C2F666F726D61743E3C2F666F726D6174733E504B0304140006080800B670623BD486FD9CA0000000F4000000130000005B436F6E74656E745F54797065735D2E786D6C7D8EC10E82300C865F65E91D8A1E8C310C0EEA1BF002731658846E
310
D98AC1B77784ABF1D8FE5FBFBF75BBCE937A534CCEB38643598122B6FEE978D0B0485F9C41B54DDD7D022595594E1A469170414C76A4D9A4D207E29CF43ECE46F218070CC6BECC4078ACAA135ACF422C856C0E68EA1BF5669944DDD7BCDE7B1F8E415D77AECB980613C2E4AC91FC167A2B244592486606FC29C8FD7F045B9A
310
EF7053A7E60B504B0304140006080800B670623BCA089DFFEC0000007C01000008000000636F72652E786D6C8D90416E83301045AF62CDB632D8402020E32882F604BD80653BC44AB011B6AB1EBF262152BBEB6A467FFE9B197D76FA9EEFE84BAFDE38DB03CD08206DA553C64E3DC470C1474027CE56E7C22F1B202B66DDC3
310
260367D3EAE2B24BD2D9A06D48AA754AEFA2F05E0740F29E9A1EBCBCEA59642286E4F0B76C11F226269DD15797E0188D42CF2346A57DE662F40ABCAEC77628C6120F654571D50C04B7F5B9C1E3997CD4F550BE3745C3F20DE62C98F9755FAE5A04AD801784B498524C8A4F5A75E4D055873772EC0861F966FF03C545FD138A
310
C686B2D8DF7D621E384D8F3C069CE55B16A93C824A75CB8DFF00504B0304140006080800B670623B55019EA25F0000007C00000007000000636E782E786D6C4DCB3B0E80201045D1AD90E915ED2CF8AC45050C11660C8261F98AB1B07AC9C97D42D718D865D3E909258CFD00CCE24AC6E326A164D74DC0B4128928FF326038
310
472BA13128B1252AC747C6BAB984FC68F0B87FE8960A5C09FE86CFB69FBA01504B0304140006080800B670623B68FC0B7272010000D40300000C0000006662782F636F72652E786D6CC5535B6E833010BC8AE5DF0A6C1E8124328E22D29EA01770C0A128602363A31CBFCB234A53A555FA553EC09AD9F5CE8C31DB5DDA060D
310
D2F4B556190E7C8A9154852E6B5565D8D993B7C668C799D1DA7E29C3488956667884316795D1AE5BA0422B2B950554E9522EA0E87B69312A1A5864B82F3E642B7CE12C54F467BF13C55954D20F7CA0A18EB3DE1A1080E621E31BF3D3F1C2C88C73E65C5D2E6C5DC2B4FA544B8379921C36797888BC3C8A032F4E73EA6D927D
310
EA1DF6F42D49F2E8350D5346C666CE6CDD5ED515460A2B4BCC434A375E1078347C0FE22D5D6DE3D50B5D6F2965642CBF6B725DF96493AB958DC245EEDCD6631E809089F8E61622B2A81703E8219C913144F84C09DF070D8140C8561C9BAB8F3340832CAC363130A576376A108D933095FA747AD0CF0B46E64E983A6D0EAE1F
310
CE089F9EF1FB8E70D44255604258581E9D1D75B259C3125A278D37D80B52DAB4A279CEC62F0EFF44DDC43F9454E8469BFF5244960322CBEF41C6FBC83F01504B0304140006080800B670623B0F71DDB67E0000009D0000000B0000006662782F636E782E786D6C4DCCD10A83201886E15B91FFDCA54DB73F502386BB8F5816
310
32D3703976F9ABD1C18E3E78F87855FB990379BBFCF2296AE02706C4C5471A7C9C349475A408A4352AA7B4FEDD80C47E761A7606A3A69CCA72D0E0C6BE8475D3E0E3F3409428EA6B27A84079A782899AA2EC1A7AE3ECCC2FD858CB2D544655BFD2B67BD87C01504B0304140006080800B670623BE134B4FB28010000120200
310
00310000006662782F38353834323741342D343835462D343034322D383541392D4331303331363839454531452F636F72652E786D6C8D515B6EC32010BC0AE22B55850D0EA424C24451959EA0172086A42831583CAA1CBF503B52FB971F16CDCECC0EACD8DFC71BF836215AEF7A481A0C817183D7D65D7A98D3197108F652
310
04EFD31F1A044E8DA6871586525C82CFD3020DDE25E352419DD76601558C264130DCCAA58771F832A36A544E8511AFCDA486ABBA988634A55D7852C4144A00300FA927949C71DABD1D28A29C7D208A6987383B6CD13BC16BB2E1DBE3911C453B0BA5C8D9EA456E758963CFD684674DAA588A64C747FC2118958C86B2C3788B
310
0841B8FB247487D98EB257CC77188BB6D2FF89F2A49F1465EBD2BA5BE2CEB2082511EDDC9042FB7CBA3DC298FBE4430275DE2A9AE1054ADC60CC08E3A29D89E5F9C5714317C7987C28DFBBBA9E0A97B0D97643A568EB864AF95D5FA9759BF207504B0304140006080800B670623B1B8617914E010000330300003000000066
310
62782F38353834323741342D343835462D343034322D383541392D4331303331363839454531452F636E782E786D6CD593C16EC32010447F0571AD6CE3D489D20813A9877E410FBD62D82434182CC055F3F75D1292E692438FBD206B7698593D61BEFD1E2DF982108D773D6D6B460938E5B571FB9ECE6957AD29D90A1EBC4F
310
77364A9C1CA1A759A682EF839FA72269D8C9D92654AD71C72206887E0E0A22CAF926B15E498B01E0AA19451807D01A34B919F16B070157417138917400F2F6FA41FCF0092A45DEE414C19BDC21783E4BD39D891265658C3D8DEA00A3ACE59CBC8678ACB54CB26EEB6BD7839D7E9348BE70AD9C8321B9BCA7F9A4A26C542347
310
DEE050F09802D22BA6749A800A394DD62899107273365E3C82CFC6A55557BC06C10774B7ABE7AEC3B0F34CF06446280E154026D0542C187BA9DAB6628BF7B6DBB0E5A65B3EB1F58631DE64BBE083F7B65CC218087E22CABB042E51D1F2268F1FE12B3EA24D40D63E9CFE00120194D60B9D5BC67FE6D39CDF37E20AF817881F
310
504B0304140006080800B670623B5933D422630500003B100000340000006662782F38353834323741342D343835462D343034322D383541392D4331303331363839454531452F6F626A656374732E786D6CAD575B6FA33814FE2B887D0642934E9B156594264D158D3A534DD4D13E548A0C38942D60649B4EBABF7E3F8321
310
40924EF6928780CDF1B97EE762EFF32E4B8D37CA45C2F21BD3B547A641F39045491EDF98A5DC5AD7A6F1D9F73863B243661A39C9E88DA9B64DDF8B392B0BBD15D12D295339D85DDEFE618890E6D434C2940871638AF08566C426A5641115AF764424B1E3EDCE76ED9AB0CF36E6A47819302D08A7B984A6D8CFC1C5A89572FB
310
CB91E9F89EA3BEFB9EFAD754E3D3544E654F5F7E920B49F2F040D880CDD89D2CEE2E2EA7D6E56432B6269F2E5CEB7679BBB0DCABF168FE693E9FCEEEA6102C240727AD09A75BD3BF876F78127A4EFDA9D5582B7E4CA590E5390D2BFB6161A5B3E618D182E611E2985001691DAB47FDA5AB7CD3F93C566B2DB2BB7D9E55DD13
310
1D468DEECDB3AB290BFE8409E21C54704115AA6AFF68436BFC8DF65E0B184BF5B74418199194272435D224E084BF9B3E481589EFF5D828747285706581E9BB7B7E5D5D911ABFC6EE312DB7659A2A689A7E85EC0DF04FA5A8344BFEA2FCB834E8845895492EAFB541F2BDA0A63FF59C6AD3F7D4637CA13FD68E34B629891172
310
98597F1D183A57B9B75A98FE9765B05BAB7C3C2EBCE0ACA05C2AF8005A4DE09AA7F29216EB9E15397500C6F47CBE77CA7778FE2BD277AF0AE2C693DD6437D1522427B9D8329E2136F6A8FA19A3E6C56ADF0E5F50CF06D48734EDCEBF22F69C56D97EC138153F804B85E6FABFC7AFEFB32E523BE1F3BD372418E363EDCA7548
310
52949E8724474014288D94610BB57C1BEC4C7F854A89CA8E5324F55B871CBC78CE1BBEE3BFE68D6A5589EF3C730474506FCFA8FCF0659516D0ED04580EEA6425581B77CAE797FF4BCECC16EB2FEB926F49481F746159D06D922712BD730FDEAE42BD40F42C7AA5EF3F198F60E86110D6DD20645A9480B795CF95E3E3A659A8
310
C55E724F408873315335CFFB8584874484344D494E59D94869DB90C26A5B64F49C802CAC1D3ABE18A098D3B7444D123D8A9E5AE8F5214F0AE5B2B6E9B575DA3E61CBD3EA2B4009FA940524DD1305FB6A1FB294F14DF0BEA90BA109ECE1481FDC3FFAE8D60E75141700BE82725371B4873751B2DD960265F788137FACE6DD40
310
B575E4F0A5C99F46629D92131467A41EE11ABD8D4CCC039CA0AFB37C93A08B232B8F0AEFCA1E0A1015DF13FC83322B362463652ECF71D3A8B1A7D1BE65DE1D62C44F22C317D35F574FEB16153BA2D13E543D10A80E74C4A65E78A6B7CBCBD1D5DD9DB59C2DAFACC96C3AB566E3F1C29ADCDD5DBAD7D3C9ED7C822ED74F80A6
310
41755310DE4443F44A9E68373FADF6596BFA0F440AE7BECE2727AE9F4F2B1B53B1E7E00CF0DD1E5C65454A339A4BA2D0FBA05ED2EF0443458F47BDBFCA484CCFE0F2ED7E3DD0013B679C7B5499467F0ECEEADDB9CA85A34CE44B99053949D2C1416DB85DE4B136BB7165FBAC0B7AB3542BED4F8CA182A549847A1319316519
310
95A83A67147B9E5101C47487F2485F1ECE38FD568F839204296D3479219888530154036E6528FBFBC66F98E0D4107563A2D7D9AFF8D389681A08F58D89F22693900A3B407754734FC51C10C010D6D640809EE4718AC1BA3ED4AEDB53CA37283F68805A7E4B72CEB0A4EDEAD5DD8C14059A76AFAA56BA6901E13F32BC51C720
310
12AF41295B5BF61BAD3195181FB506E6B40F4C10AF5AF40EF9F5B159AE5DD1F43C72D635E94310D45C2D49785C5D0B94D3B54AB3C5A38349C0587D338AB48C11CBF339599C02CCA54A70A008A8D03C0B2201D5F9EFCF8F9CE12A9A19CB0410789EB32C63B95ECCF455D658BFE0621A3DA32C5075FB101723D77DAE867E7D0F
310
D90444509B44E2151B4DC2290B065803200FBAA9BE9D392A0603F2D5C2D00D6302A615680F66D2FA166E2079D4C551A54AB758161FCEFD4E450A14704CECFEDF504B0304140006080000B670623B000000000000000000000000350000006662782F38353834323741342D343835462D343034322D383541392D4331303331
310
363839454531452F76657274696365732E62696E504B0304140006080800B670623BF270F1330600000004000000360000006662782F38353834323741342D343835462D343034322D383541392D4331303331363839454531452F747269616E676C65732E62696E636660600000504B0304140006080000B670623B000000
310
000000000000000000370000006662782F38353834323741342D343835462D343034322D383541392D4331303331363839454531452F617474726962757465732E62696E504B0304140006080800B670623B08DA0BD19000000041010000360000006662782F38353834323741342D343835462D343034322D383541392D43
310
31303331363839454531452F6469726563746F72792E786D6C858F410AC3201045AF22B36F53E9A60B35CBEEBAE80D244E44489C6234F4F835464A48035D0DF398FF9F8AF63D0E6CC63039F212F8F9020C7D47C6792B21C5FE7403D62A1188E2E60C98D7234A5830286103A55745067B9D86B8A3CF9C7F90C11DE607FB1443
310
96D7B6A82D282E9A152AD114D5EF2CB866EEE831B8EEA07A7BB5A8D7D61A2BAAEB7FD5F70921FF497D00504B0304140006080800B670623BD9A3B367FE000000A00100003B0000006662782F38353834323741342D343835462D343034322D383541392D4331303331363839454531452F7265736F75726365732F636F7265
310
2E786D6C8D504B6E833010BD0A9A6D65B01D0201194711694FD00B586642AD043BF2A7EAF16B122AB5BB6E6646EFA3797AE2F8B5DC8A4FF4C1383B002B291468B59B8C9D0748F1420E501CA5F0CEC55F3228AC5A708015062966EFD27D83B4B3116DCCA875136EA00A012314FA968F0182FEC045952AC5AC08D7F2AEF455CD
310
58B232D3592745883E07289E4FD609D26370C96B0CA27AB252A464A64D63A6FCD35C0C7A904D73EE467EE664DCD58CD4ED4849D79C5A723ED1B7A61977AF2D6F45B59AA58866F9C9A83DAA8813484E6947182394BFB3BAA7FBBEDEBFD0434FA9A856F91F53BA4FFF342563E38E6F719FB60092E5200F428A6AED2BAF479979
310
AFDDCA6F504B010214000A0000080000B670623B3DEE336E79000000790000001B00000000000000000000000000000000006175746F6465736B2D64657369676E2D7061636B6167652E786D6C504B01021400140006080800B670623BD486FD9CA0000000F40000001300000000000000000000000000B20000005B436F6E
310
74656E745F54797065735D2E786D6C504B01021400140006080800B670623BCA089DFFEC0000007C010000080000000000000000000000000083010000636F72652E786D6C504B01021400140006080800B670623B55019EA25F0000007C000000070000000000000000000000000095020000636E782E786D6C504B010214
310
00140006080800B670623B68FC0B7272010000D40300000C00000000000000000000000000190300006662782F636F72652E786D6C504B01021400140006080800B670623B0F71DDB67E0000009D0000000B00000000000000000000000000B50400006662782F636E782E786D6C504B01021400140006080800B670623BE1
310
34B4FB280100001202000031000000000000000000000000005C0500006662782F38353834323741342D343835462D343034322D383541392D4331303331363839454531452F636F72652E786D6C504B01021400140006080800B670623B1B8617914E010000330300003000000000000000000000000000D3060000666278
310
2F38353834323741342D343835462D343034322D383541392D4331303331363839454531452F636E782E786D6C504B01021400140006080800B670623B5933D422630500003B10000034000000000000000000000000006F0800006662782F38353834323741342D343835462D343034322D383541392D4331303331363839
310
454531452F6F626A656374732E786D6C504B01021400140006080000B670623B0000000000000000000000003500000000000000000000000000240E00006662782F38353834323741342D343835462D343034322D383541392D4331303331363839454531452F76657274696365732E62696E504B01021400140006080800
310
B670623BF270F13306000000040000003600000000000000000000000000770E00006662782F38353834323741342D343835462D343034322D383541392D4331303331363839454531452F747269616E676C65732E62696E504B01021400140006080000B670623B0000000000000000000000003700000000000000000000
310
000000D10E00006662782F38353834323741342D343835462D343034322D383541392D4331303331363839454531452F617474726962757465732E62696E504B01021400140006080800B670623B08DA0BD190000000410100003600000000000000000000000000260F00006662782F38353834323741342D343835462D34
310
3034322D383541392D4331303331363839454531452F6469726563746F72792E786D6C504B01021400140006080800B670623BD9A3B367FE000000A00100003B000000000000000000000000000A1000006662782F38353834323741342D343835462D343034322D383541392D4331303331363839454531452F7265736F75
310
726365732F636F72652E786D6C504B0506000000000E000E0080040000611100000000
  0
XRECORD
  5
113
102
{ACAD_REACTORS
330
110
102
}
330
110
100
AcDbXrecord
280
     1
270
     1
271
     1
  0
XRECORD
  5
114
102
{ACAD_REACTORS
330
110
102
}
330
110
100
AcDbXrecord
280
     1
270
     1
271
     1
  0
CELLSTYLEMAP
  5
339
102
{ACAD_REACTORS
330
104
102
}
330
104
100
AcDbCellStyleMap
 90
        3
300
CELLSTYLE
  1
TABLEFORMAT_BEGIN
 90
        5
170
     1
 91
        0
 92
    32768
 62
   257
 93
        1
300
CONTENTFORMAT
  1
CONTENTFORMAT_BEGIN
 90
        0
 91
        0
 92
      512
 93
        0
300

 40
0.0
140
1.0
 94
        5
 62
     0
340
11
144
0.25
309
CONTENTFORMAT_END
171
     1
301
MARGIN
  1
CELLMARGIN_BEGIN
 40
0.06
 40
0.06
 40
0.06
 40
0.06
 40
0.18
 40
0.18
309
CELLMARGIN_END
 94
        6
 95
        1
302
GRIDFORMAT
  1
GRIDFORMAT_BEGIN
 90
        0
 91
        1
 62
     0
 92
       -2
340
0
 93
        0
 40
0.045
309
GRIDFORMAT_END
 95
        2
302
GRIDFORMAT
  1
GRIDFORMAT_BEGIN
 90
        0
 91
        1
 62
     0
 92
       -2
340
0
 93
        0
 40
0.045
309
GRIDFORMAT_END
 95
        4
302
GRIDFORMAT
  1
GRIDFORMAT_BEGIN
 90
        0
 91
        1
 62
     0
 92
       -2
340
0
 93
        0
 40
0.045
309
GRIDFORMAT_END
 95
        8
302
GRIDFORMAT
  1
GRIDFORMAT_BEGIN
 90
        0
 91
        1
 62
     0
 92
       -2
340
0
 93
        0
 40
0.045
309
GRIDFORMAT_END
 95
       16
302
GRIDFORMAT
  1
GRIDFORMAT_BEGIN
 90
        0
 91
        1
 62
     0
 92
       -2
340
0
 93
        0
 40
0.045
309
GRIDFORMAT_END
 95
       32
302
GRIDFORMAT
  1
GRIDFORMAT_BEGIN
 90
        0
 91
        1
 62
     0
 92
       -2
340
0
 93
        0
 40
0.045
309
GRIDFORMAT_END
309
TABLEFORMAT_END
  1
CELLSTYLE_BEGIN
 90
        1
 91
        1
300
_TITLE
309
CELLSTYLE_END
300
CELLSTYLE
  1
TABLEFORMAT_BEGIN
 90
        5
170
     1
 91
        0
 92
        0
 62
   257
 93
        1
300
CONTENTFORMAT
  1
CONTENTFORMAT_BEGIN
 90
        0
 91
        0
 92
      512
 93
        0
300

 40
0.0
140
1.0
 94
        5
 62
     0
340
11
144
0.18
309
CONTENTFORMAT_END
171
     1
301
MARGIN
  1
CELLMARGIN_BEGIN
 40
0.06
 40
0.06
 40
0.06
 40
0.06
 40
0.18
 40
0.18
309
CELLMARGIN_END
 94
        6
 95
        1
302
GRIDFORMAT
  1
GRIDFORMAT_BEGIN
 90
        0
 91
        1
 62
     0
 92
       -2
340
0
 93
        0
 40
0.045
309
GRIDFORMAT_END
 95
        2
302
GRIDFORMAT
  1
GRIDFORMAT_BEGIN
 90
        0
 91
        1
 62
     0
 92
       -2
340
0
 93
        0
 40
0.045
309
GRIDFORMAT_END
 95
        4
302
GRIDFORMAT
  1
GRIDFORMAT_BEGIN
 90
        0
 91
        1
 62
     0
 92
       -2
340
0
 93
        0
 40
0.045
309
GRIDFORMAT_END
 95
        8
302
GRIDFORMAT
  1
GRIDFORMAT_BEGIN
 90
        0
 91
        1
 62
     0
 92
       -2
340
0
 93
        0
 40
0.045
309
GRIDFORMAT_END
 95
       16
302
GRIDFORMAT
  1
GRIDFORMAT_BEGIN
 90
        0
 91
        1
 62
     0
 92
       -2
340
0
 93
        0
 40
0.045
309
GRIDFORMAT_END
 95
       32
302
GRIDFORMAT
  1
GRIDFORMAT_BEGIN
 90
        0
 91
        1
 62
     0
 92
       -2
340
0
 93
        0
 40
0.045
309
GRIDFORMAT_END
309
TABLEFORMAT_END
  1
CELLSTYLE_BEGIN
 90
        2
 91
        1
300
_HEADER
309
CELLSTYLE_END
300
CELLSTYLE
  1
TABLEFORMAT_BEGIN
 90
        5
170
     1
 91
        0
 92
        0
 62
   257
 93
        1
300
CONTENTFORMAT
  1
CONTENTFORMAT_BEGIN
 90
        0
 91
        0
 92
      512
 93
        0
300

 40
0.0
140
1.0
 94
        2
 62
     0
340
11
144
0.18
309
CONTENTFORMAT_END
171
     1
301
MARGIN
  1
CELLMARGIN_BEGIN
 40
0.06
 40
0.06
 40
0.06
 40
0.06
 40
0.18
 40
0.18
309
CELLMARGIN_END
 94
        6
 95
        1
302
GRIDFORMAT
  1
GRIDFORMAT_BEGIN
 90
        0
 91
        1
 62
     0
 92
       -2
340
0
 93
        0
 40
0.045
309
GRIDFORMAT_END
 95
        2
302
GRIDFORMAT
  1
GRIDFORMAT_BEGIN
 90
        0
 91
        1
 62
     0
 92
       -2
340
0
 93
        0
 40
0.045
309
GRIDFORMAT_END
 95
        4
302
GRIDFORMAT
  1
GRIDFORMAT_BEGIN
 90
        0
 91
        1
 62
     0
 92
       -2
340
0
 93
        0
 40
0.045
309
GRIDFORMAT_END
 95
        8
302
GRIDFORMAT
  1
GRIDFORMAT_BEGIN
 90
        0
 91
        1
 62
     0
 92
       -2
340
0
 93
        0
 40
0.045
309
GRIDFORMAT_END
 95
       16
302
GRIDFORMAT
  1
GRIDFORMAT_BEGIN
 90
        0
 91
        1
 62
     0
 92
       -2
340
0
 93
        0
 40
0.045
309
GRIDFORMAT_END
 95
       32
302
GRIDFORMAT
  1
GRIDFORMAT_BEGIN
 90
        0
 91
        1
 62
     0
 92
       -2
340
0
 93
        0
 40
0.045
309
GRIDFORMAT_END
309
TABLEFORMAT_END
  1
CELLSTYLE_BEGIN
 90
        3
 91
        2
300
_DATA
309
CELLSTYLE_END
  0
ENDSEC
  0
SECTION
  2
ACDSDATA
 70
     2
 71
     8
  0
ACDSSCHEMA
 90
        0
  1
AcDb_Thumbnail_Schema
  2
AcDbDs::ID
280
    10
 91
        8
  2
Thumbnail_Data
280
    15
 91
        0
101
ACDSRECORD
 95
        0
 90
        1
  2
AcDbDs::TreatedAsObjectData
280
     1
291
     1
101
ACDSRECORD
 95
        0
 90
        2
  2
AcDbDs::Legacy
280
     1
291
     1
101
ACDSRECORD
  1
AcDbDs::ID
 90
        3
  2
AcDs:Indexable
280
     1
291
     1
101
ACDSRECORD
  1
AcDbDs::ID
 90
        4
  2
AcDbDs::HandleAttribute
280
     7
282
     1
  0
ACDSSCHEMA
 90
        1
  1
AcDbDs::TreatedAsObjectDataSchema
  2
AcDbDs::TreatedAsObjectData
280
     1
 91
        0
  0
ACDSSCHEMA
 90
        2
  1
AcDbDs::LegacySchema
  2
AcDbDs::Legacy
280
     1
 91
        0
  0
ACDSSCHEMA
 90
        3
  1
AcDbDs::IndexedPropertySchema
  2
AcDs:Indexable
280
     1
 91
        0
  0
ACDSSCHEMA
 90
        4
  1
AcDbDs::HandleAttributeSchema
  2
AcDbDs::HandleAttribute
280
     7
 91
        1
284
     1
  0
ACDSRECORD
 90
        0
  2
AcDbDs::ID
280
    10
320
22
  2
Thumbnail_Data
280
    15
 94
      896
310
89504E470D0A1A0A0000000D49484452000001000000009108030000001BE1960600000300504C5445212830FFFFFF2128300000000000000000000000000000000000000000000000000000330000660000990000CC0000FF0033000033330033660033990033CC0033FF0066000066330066660066990066CC0066FF0099
310
000099330099660099990099CC0099FF00CC0000CC3300CC6600CC9900CCCC00CCFF00FF0000FF3300FF6600FF9900FFCC00FFFF3300003300333300663300993300CC3300FF3333003333333333663333993333CC3333FF3366003366333366663366993366CC3366FF3399003399333399663399993399CC3399FF33CC00
310
33CC3333CC6633CC9933CCCC33CCFF33FF0033FF3333FF6633FF9933FFCC33FFFF6600006600336600666600996600CC6600FF6633006633336633666633996633CC6633FF6666006666336666666666996666CC6666FF6699006699336699666699996699CC6699FF66CC0066CC3366CC6666CC9966CCCC66CCFF66FF0066
310
FF3366FF6666FF9966FFCC66FFFF9900009900339900669900999900CC9900FF9933009933339933669933999933CC9933FF9966009966339966669966999966CC9966FF9999009999339999669999999999CC9999FF99CC0099CC3399CC6699CC9999CCCC99CCFF99FF0099FF3399FF6699FF9999FFCC99FFFFCC0000CC00
310
33CC0066CC0099CC00CCCC00FFCC3300CC3333CC3366CC3399CC33CCCC33FFCC6600CC6633CC6666CC6699CC66CCCC66FFCC9900CC9933CC9966CC9999CC99CCCC99FFCCCC00CCCC33CCCC66CCCC99CCCCCCCCCCFFCCFF00CCFF33CCFF66CCFF99CCFFCCCCFFFFFF0000FF0033FF0066FF0099FF00CCFF00FFFF3300FF3333
310
FF3366FF3399FF33CCFF33FFFF6600FF6633FF6666FF6699FF66CCFF66FFFF9900FF9933FF9966FF9999FF99CCFF99FFFFCC00FFCC33FFCC66FFCC99FFCCCCFFCCFFFFFF00FFFF33FFFF66FFFF99FFFFCCFFFFFF0000000D0D0D1A1A1A2828283535354343435050505D5D5D6B6B6B787878868686939393A1A1A1AEAEAEBB
310
BBBBC9C9C9D6D6D6E4E4E4F1F1F1FFFFFF0000000000000000000000000000000000000000000000000000000000002E4550F10000003B4944415478DAEDC13101000000C2A0F54F6D0B2FA0000000000000000000000000000000000000000000000000000000000000000000000000CE06919100016C9A5B1B0000000049
310
454E44AE426082
  0
ENDSEC
  0
EOF
