  0
SECTION
  2
HEADER
  9
$ACADVER
  1
AC1009
  9
$DWGCODEPAGE
  3
ansi_1252
  9
$INSBASE
 10
0.0
 20
0.0
 30
0.0
  9
$EXTMIN
 10
0.1021704583554323
 20
0.1339840878999681
 30
0.0
  9
$EXTMAX
 10
24.375
 20
24.27255851833262
 30
0.0
  9
$LIMMIN
 10
0.0
 20
0.0
  9
$LIMMAX
 10
12.0
 20
9.0
  9
$ORTHOMODE
 70
     0
  9
$REGENMODE
 70
     1
  9
$FILLMODE
 70
     1
  9
$QTEXTMODE
 70
     0
  9
$MIRRTEXT
 70
     1
  9
$DRAGMODE
 70
     2
  9
$LTSCALE
 40
1.0
  9
$OSMODE
 70
    37
  9
$ATTMODE
 70
     1
  9
$TEXTSIZE
 40
0.2
  9
$TRACEWID
 40
0.05
  9
$TEXTSTYLE
  7
STANDARD
  9
$CLAYER
  8
0
  9
$CELTYPE
  6
BYLAYER
  9
$CECOLOR
 62
   256
  9
$DIMSCALE
 40
1.0
  9
$DIMASZ
 40
0.18
  9
$DIMEXO
 40
0.0625
  9
$DIMDLI
 40
0.38
  9
$DIMRND
 40
0.0
  9
$DIMDLE
 40
0.0
  9
$DIMEXE
 40
0.18
  9
$DIMTP
 40
0.0
  9
$DIMTM
 40
0.0
  9
$DIMTXT
 40
0.18
  9
$DIMCEN
 40
0.09
  9
$DIMTSZ
 40
0.0
  9
$DIMTOL
 70
     0
  9
$DIMLIM
 70
     0
  9
$DIMTIH
 70
     1
  9
$DIMTOH
 70
     1
  9
$DIMSE1
 70
     0
  9
$DIMSE2
 70
     0
  9
$DIMTAD
 70
     0
  9
$DIMZIN
 70
     0
  9
$DIMBLK
  1

  9
$DIMASO
 70
     1
  9
$DIMSHO
 70
     1
  9
$DIMPOST
  1

  9
$DIMAPOST
  1

  9
$DIMALT
 70
     0
  9
$DIMALTD
 70
     2
  9
$DIMALTF
 40
25.4
  9
$DIMLFAC
 40
1.0
  9
$DIMTOFL
 70
     0
  9
$DIMTVP
 40
0.0
  9
$DIMTIX
 70
     0
  9
$DIMSOXD
 70
     0
  9
$DIMSAH
 70
     0
  9
$DIMBLK1
  1

  9
$DIMBLK2
  1

  9
$DIMSTYLE
  2
STANDARD
  9
$DIMCLRD
 70
     0
  9
$DIMCLRE
 70
     0
  9
$DIMCLRT
 70
     0
  9
$DIMTFAC
 40
1.0
  9
$DIMGAP
 40
0.09
  9
$LUNITS
 70
     2
  9
$LUPREC
 70
     4
  9
$SKETCHINC
 40
0.1
  9
$FILLETRAD
 40
0.5
  9
$AUNITS
 70
     0
  9
$AUPREC
 70
     0
  9
$MENU
  1
.
  9
$ELEVATION
 40
0.0
  9
$PELEVATION
 40
0.0
  9
$THICKNESS
 40
0.0
  9
$LIMCHECK
 70
     0
  9
$CHAMFERA
 40
0.5
  9
$CHAMFERB
 40
0.5
  9
$SKPOLY
 70
     0
  9
$TDCREATE
 40
2454910.5
  9
$TDUPDATE
 40
2456048.550960972
  9
$TDINDWG
 40
0.0000000116
  9
$TDUSRTIMER
 40
0.0000000116
  9
$USRTIMER
 70
     1
  9
$ANGBASE
 50
0.0
  9
$ANGDIR
 70
     0
  9
$PDMODE
 70
     0
  9
$PDSIZE
 40
0.0
  9
$PLINEWID
 40
0.0
  9
$COORDS
 70
     1
  9
$SPLFRAME
 70
     0
  9
$SPLINETYPE
 70
     6
  9
$SPLINESEGS
 70
     8
  9
$ATTDIA
 70
     0
  9
$ATTREQ
 70
     1
  9
$HANDLING
 70
     1
  9
$HANDSEED
  5
E10
  9
$SURFTAB1
 70
     6
  9
$SURFTAB2
 70
     6
  9
$SURFTYPE
 70
     6
  9
$SURFU
 70
     6
  9
$SURFV
 70
     6
  9
$UCSNAME
  2

  9
$UCSORG
 10
0.0
 20
0.0
 30
0.0
  9
$UCSXDIR
 10
1.0
 20
0.0
 30
0.0
  9
$UCSYDIR
 10
0.0
 20
1.0
 30
0.0
  9
$PUCSNAME
  2

  9
$PUCSORG
 10
0.0
 20
0.0
 30
0.0
  9
$PUCSXDIR
 10
1.0
 20
0.0
 30
0.0
  9
$PUCSYDIR
 10
0.0
 20
1.0
 30
0.0
  9
$USERI1
 70
     0
  9
$USERI2
 70
     0
  9
$USERI3
 70
     0
  9
$USERI4
 70
     0
  9
$USERI5
 70
     0
  9
$USERR1
 40
0.0
  9
$USERR2
 40
0.0
  9
$USERR3
 40
0.0
  9
$USERR4
 40
0.0
  9
$USERR5
 40
0.0
  9
$WORLDVIEW
 70
     1
  9
$SHADEDGE
 70
     3
  9
$SHADEDIF
 70
    70
  9
$TILEMODE
 70
     1
  9
$MAXACTVP
 70
    64
  9
$PLIMCHECK
 70
     0
  9
$PEXTMIN
 10
1.000000000000000E+20
 20
1.000000000000000E+20
 30
1.000000000000000E+20
  9
$PEXTMAX
 10
-1.000000000000000E+20
 20
-1.000000000000000E+20
 30
-1.000000000000000E+20
  9
$PLIMMIN
 10
0.0
 20
0.0
  9
$PLIMMAX
 10
12.0
 20
9.0
  9
$UNITMODE
 70
     0
  9
$VISRETAIN
 70
     1
  9
$PLINEGEN
 70
     0
  9
$PSLTSCALE
 70
     1
  0
ENDSEC
  0
SECTION
  2
TABLES
  0
TABLE
  2
VPORT
 70
     1
  0
VPORT
  2
*ACTIVE
 70
     0
 10
0.0
 20
0.0
 11
1.0
 21
1.0
 12
10.42990654205607
 22
4.5
 13
0.0
 23
0.0
 14
0.5
 24
0.5
 15
0.5
 25
0.5
 16
0.0
 26
0.0
 36
1.0
 17
0.0
 27
0.0
 37
0.0
 40
9.0
 41
1.972972972850329
 42
50.0
 43
0.0
 44
0.0
 50
0.0
 51
0.0
 71
     0
 72
   100
 73
     1
 74
     3
 75
     0
 76
     0
 77
     0
 78
     0
  0
ENDTAB
  0
TABLE
  2
LTYPE
 70
     2
  0
LTYPE
  2
CONTINUOUS
 70
     0
  3
Solid line
 72
    65
 73
     0
 40
0.0
  0
LTYPE
  2
CONTINUOUS2
 70
     0
  3
Solid Line
 72
    65
 73
     0
 40
0.0
  0
ENDTAB
  0
TABLE
  2
LAYER
 70
     2
  0
LAYER
  2
0
 70
     0
 62
     7
  6
CONTINUOUS
  0
LAYER
  2
LAYER_1
 70
     0
 62
    18
  6
CONTINUOUS
  0
ENDTAB
  0
TABLE
  2
STYLE
 70
     1
  0
STYLE
  2
STANDARD
 70
     0
 40
0.0
 41
1.0
 50
0.0
 71
     0
 42
0.2
  3
txt
  4

  0
ENDTAB
  0
TABLE
  2
VIEW
 70
     0
  0
ENDTAB
  0
TABLE
  2
UCS
 70
     0
  0
ENDTAB
  0
TABLE
  2
APPID
 70
     1
  0
APPID
  2
ACAD
 70
     0
  0
ENDTAB
  0
TABLE
  2
DIMSTYLE
 70
     1
  0
DIMSTYLE
  2
STANDARD
 70
     0
  3

  4

  5

  6

  7

 40
1.0
 41
0.18
 42
0.0625
 43
0.38
 44
0.18
 45
0.0
 46
0.0
 47
0.0
 48
0.0
140
0.18
141
0.09
142
0.0
143
25.4
144
1.0
145
0.0
146
1.0
147
0.09
 71
     0
 72
     0
 73
     1
 74
     1
 75
     0
 76
     0
 77
     0
 78
     0
170
     0
171
     2
172
     0
173
     0
174
     0
175
     0
176
     0
177
     0
178
     0
  0
ENDTAB
  0
ENDSEC
  0
SECTION
  2
BLOCKS
  0
BLOCK
  8
0
  2
$MODEL_SPACE
 70
     0
 10
0.0
 20
0.0
 30
0.0
  3
$MODEL_SPACE
  1

  0
ENDBLK
  5
21
  8
0
  0
BLOCK
 67
     1
  8
0
  2
$PAPER_SPACE
 70
     0
 10
0.0
 20
0.0
 30
0.0
  3
$PAPER_SPACE
  1

  0
ENDBLK
  5
1D
 67
     1
  8
0
  0
ENDSEC
  0
SECTION
  2
ENTITIES
  0
POLYLINE
  5
41
  8
LAYER_1
 66
     1
 10
0.0
 20
0.0
 30
0.0
 70
     1
  0
VERTEX
  5
7B
  8
LAYER_1
 10
5.892221520661341
 20
7.335610595687532
 30
0.0
  0
VERTEX
  5
7C
  8
LAYER_1
 10
5.134405674836941
 20
7.335610595687532
 30
0.0
 42
-0.4142135623730529
  0
VERTEX
  5
7D
  8
LAYER_1
 10
5.03440567483694
 20
7.43561059568753
 30
0.0
  0
VERTEX
  5
7E
  8
LAYER_1
 10
5.03440567483694
 20
8.534833783354932
 30
0.0
 42
-0.4142135623733905
  0
VERTEX
  5
7F
  8
LAYER_1
 10
5.134405674836941
 20
8.63483378335493
 30
0.0
  0
VERTEX
  5
80
  8
LAYER_1
 10
5.892221520661341
 20
8.63483378335493
 30
0.0
 42
-0.4142135623730261
  0
VERTEX
  5
81
  8
LAYER_1
 10
5.992221520661339
 20
8.534833783354932
 30
0.0
  0
VERTEX
  5
82
  8
LAYER_1
 10
5.992221520661339
 20
7.43561059568753
 30
0.0
 42
-0.4142135623724489
  0
SEQEND
  5
83
  8
LAYER_1
  0
POLYLINE
  5
42
  8
LAYER_1
 66
     1
 10
0.0
 20
0.0
 30
0.0
 70
     1
  0
VERTEX
  5
84
  8
LAYER_1
 10
8.663313597749138
 20
7.333819242813606
 30
0.0
  0
VERTEX
  5
85
  8
LAYER_1
 10
7.905497751924742
 20
7.333819242813606
 30
0.0
 42
-0.4142135623730529
  0
VERTEX
  5
86
  8
LAYER_1
 10
7.80549775192474
 20
7.433819242813607
 30
0.0
  0
VERTEX
  5
87
  8
LAYER_1
 10
7.80549775192474
 20
8.533042430481006
 30
0.0
 42
-0.4142135623733905
  0
VERTEX
  5
88
  8
LAYER_1
 10
7.905497751924742
 20
8.633042430481007
 30
0.0
  0
VERTEX
  5
89
  8
LAYER_1
 10
8.663313597749138
 20
8.633042430481007
 30
0.0
 42
-0.4142135623730261
  0
VERTEX
  5
8A
  8
LAYER_1
 10
8.76331359774914
 20
8.533042430481006
 30
0.0
  0
VERTEX
  5
8B
  8
LAYER_1
 10
8.76331359774914
 20
7.433819242813607
 30
0.0
 42
-0.4142135623724489
  0
SEQEND
  5
8C
  8
LAYER_1
  0
POLYLINE
  5
43
  8
LAYER_1
 66
     1
 10
0.0
 20
0.0
 30
0.0
 70
     1
  0
VERTEX
  5
8D
  8
LAYER_1
 10
7.267221520661341
 20
7.350181404194773
 30
0.0
  0
VERTEX
  5
8E
  8
LAYER_1
 10
6.509405674836941
 20
7.350181404194773
 30
0.0
 42
-0.4142135623730529
  0
VERTEX
  5
8F
  8
LAYER_1
 10
6.40940567483694
 20
7.450181404194774
 30
0.0
  0
VERTEX
  5
90
  8
LAYER_1
 10
6.40940567483694
 20
8.549404591862173
 30
0.0
 42
-0.4142135623733905
  0
VERTEX
  5
91
  8
LAYER_1
 10
6.509405674836941
 20
8.649404591862174
 30
0.0
  0
VERTEX
  5
92
  8
LAYER_1
 10
7.267221520661341
 20
8.649404591862174
 30
0.0
 42
-0.4142135623730261
  0
VERTEX
  5
93
  8
LAYER_1
 10
7.367221520661339
 20
8.549404591862173
 30
0.0
  0
VERTEX
  5
94
  8
LAYER_1
 10
7.367221520661339
 20
7.450181404194774
 30
0.0
 42
-0.4142135623724489
  0
SEQEND
  5
95
  8
LAYER_1
  0
POLYLINE
  5
44
  8
LAYER_1
 66
     1
 10
0.0
 20
0.0
 30
0.0
 70
     1
  0
VERTEX
  5
96
  8
LAYER_1
 10
3.043030250568421
 20
7.001337728130414
 30
0.0
  0
VERTEX
  5
97
  8
LAYER_1
 10
3.428448634995299
 20
6.996520990791206
 30
0.0
  0
VERTEX
  5
98
  8
LAYER_1
 10
3.420536552148024
 20
7.002102626800993
 30
0.0
  0
VERTEX
  5
99
  8
LAYER_1
 10
3.412809548868461
 20
7.008019117205815
 30
0.0
  0
VERTEX
  5
9A
  8
LAYER_1
 10
3.405276242648602
 20
7.014255149519638
 30
0.0
  0
VERTEX
  5
9B
  8
LAYER_1
 10
3.397945250980445
 20
7.020795411256428
 30
0.0
 42
-0.0523741058588021
  0
VERTEX
  5
9C
  8
LAYER_1
 10
3.279940358788803
 20
7.155472420272838
 30
0.0
 42
-0.0145362252553588
  0
VERTEX
  5
9D
  8
LAYER_1
 10
3.174114694833001
 20
7.234959741703006
 30
0.0
 42
0.2809971857320786
  0
VERTEX
  5
9E
  8
LAYER_1
 10
3.126128402691144
 20
7.259106809473705
 30
0.0
  0
VERTEX
  5
9F
  8
LAYER_1
 10
3.123261017219897
 20
7.257780152503585
 30
0.0
  0
VERTEX
  5
A0
  8
LAYER_1
 10
3.12027562708656
 20
7.255126690703534
 30
0.0
  0
VERTEX
  5
A1
  8
LAYER_1
 10
3.117185778358745
 20
7.251235694060921
 30
0.0
  0
VERTEX
  5
A2
  8
LAYER_1
 10
3.114005017104063
 20
7.246196432563114
 30
0.0
  0
VERTEX
  5
A3
  8
LAYER_1
 10
3.110746889390126
 20
7.240098176197481
 30
0.0
  0
VERTEX
  5
A4
  8
LAYER_1
 10
3.107424941284545
 20
7.23303019495139
 30
0.0
  0
VERTEX
  5
A5
  8
LAYER_1
 10
3.100643768168901
 20
7.216342137767308
 30
0.0
  0
VERTEX
  5
A6
  8
LAYER_1
 10
3.093769866298022
 20
7.196846420909813
 30
0.0
  0
VERTEX
  5
A7
  8
LAYER_1
 10
3.086911604212803
 20
7.175257204277849
 30
0.0
  0
VERTEX
  5
A8
  8
LAYER_1
 10
3.080177350454137
 20
7.152288647770363
 30
0.0
  0
VERTEX
  5
A9
  8
LAYER_1
 10
3.073675473562917
 20
7.128654911286299
 30
0.0
  0
VERTEX
  5
AA
  8
LAYER_1
 10
3.06180232454639
 20
7.082248537984219
 30
0.0
  0
VERTEX
  5
AB
  8
LAYER_1
 10
3.052159105490367
 20
7.041751363563171
 30
0.0
  0
SEQEND
  5
AC
  8
LAYER_1
  0
POLYLINE
  5
45
  8
LAYER_1
 66
     1
 10
0.0
 20
0.0
 30
0.0
 70
     1
  0
VERTEX
  5
AD
  8
LAYER_1
 10
9.945694190438893
 20
6.991367325684807
 30
0.0
  0
VERTEX
  5
AE
  8
LAYER_1
 10
9.95565306180103
 20
7.013908891128104
 30
0.0
  0
VERTEX
  5
AF
  8
LAYER_1
 10
9.965234261197729
 20
7.036608380718487
 30
0.0
  0
VERTEX
  5
B0
  8
LAYER_1
 10
9.974436017690737
 20
7.059460887813385
 30
0.0
  0
VERTEX
  5
B1
  8
LAYER_1
 10
9.9832565603418
 20
7.08246150577023
 30
0.0
  0
VERTEX
  5
B2
  8
LAYER_1
 10
9.99169411821267
 20
7.105605327946448
 30
0.0
  0
VERTEX
  5
B3
  8
LAYER_1
 10
9.999746920365094
 20
7.128887447699475
 30
0.0
  0
VERTEX
  5
B4
  8
LAYER_1
 10
10.00741319586082
 20
7.152302958386736
 30
0.0
  0
VERTEX
  5
B5
  8
LAYER_1
 10
10.0146911737616
 20
7.175846953365664
 30
0.0
  0
VERTEX
  5
B6
  8
LAYER_1
 10
10.02157908312917
 20
7.199514525993688
 30
0.0
  0
VERTEX
  5
B7
  8
LAYER_1
 10
10.0280751530253
 20
7.223300769628242
 30
0.0
  0
VERTEX
  5
B8
  8
LAYER_1
 10
10.03417761251173
 20
7.247200777626752
 30
0.0
  0
VERTEX
  5
B9
  8
LAYER_1
 10
10.03988469065019
 20
7.27120964334665
 30
0.0
  0
VERTEX
  5
BA
  8
LAYER_1
 10
10.04519461650245
 20
7.295322460145366
 30
0.0
  0
VERTEX
  5
BB
  8
LAYER_1
 10
10.05010561913026
 20
7.319534321380329
 30
0.0
  0
VERTEX
  5
BC
  8
LAYER_1
 10
10.05461592759536
 20
7.343840320408972
 30
0.0
  0
VERTEX
  5
BD
  8
LAYER_1
 10
10.05872377095949
 20
7.368235550588723
 30
0.0
 42
0.0938046701399598
  0
VERTEX
  5
BE
  8
LAYER_1
 10
10.04301998978636
 20
7.917745817138561
 30
0.0
 42
-0.0561580244353745
  0
VERTEX
  5
BF
  8
LAYER_1
 10
10.00765702486833
 20
8.258415710727308
 30
0.0
 42
-0.0787308227976923
  0
VERTEX
  5
C0
  8
LAYER_1
 10
10.0481240947186
 20
8.500095331440962
 30
0.0
 42
0.06484352477348
  0
VERTEX
  5
C1
  8
LAYER_1
 10
10.10628454545223
 20
8.796852359470739
 30
0.0
  0
VERTEX
  5
C2
  8
LAYER_1
 10
10.10647706612083
 20
8.798569317752614
 30
0.0
  0
VERTEX
  5
C3
  8
LAYER_1
 10
10.09726622348779
 20
8.79477319011108
 30
0.0
  0
VERTEX
  5
C4
  8
LAYER_1
 10
10.08781670890376
 20
8.791442866437
 30
0.0
  0
VERTEX
  5
C5
  8
LAYER_1
 10
10.07814148891564
 20
8.788590782259918
 30
0.0
  0
VERTEX
  5
C6
  8
LAYER_1
 10
10.06825353007029
 20
8.786229373109384
 30
0.0
  0
VERTEX
  5
C7
  8
LAYER_1
 10
10.05816579891459
 20
8.784371074514944
 30
0.0
  0
VERTEX
  5
C8
  8
LAYER_1
 10
10.04789126199542
 20
8.783028322006142
 30
0.0
  0
VERTEX
  5
C9
  8
LAYER_1
 10
10.03744288585963
 20
8.78221355111253
 30
0.0
  0
VERTEX
  5
CA
  8
LAYER_1
 10
10.02683363705412
 20
8.781939197363654
 30
0.0
  0
VERTEX
  5
CB
  8
LAYER_1
 10
9.151833637054118
 20
8.781939197363654
 30
0.0
  0
VERTEX
  5
CC
  8
LAYER_1
 10
9.151833637054118
 20
7.031939197363654
 30
0.0
  0
VERTEX
  5
CD
  8
LAYER_1
 10
9.146816058611272
 20
6.981718178877975
 30
0.0
  0
SEQEND
  5
CE
  8
LAYER_1
  0
POLYLINE
  5
46
  8
LAYER_1
 66
     1
 10
0.0
 20
0.0
 30
0.0
 70
     1
  0
VERTEX
  5
CF
  8
LAYER_1
 10
11.03795153038255
 20
7.004714388381403
 30
0.0
  0
VERTEX
  5
D0
  8
LAYER_1
 10
10.86292613139395
 20
8.04595310288307
 30
0.0
 42
-0.012046752590957
  0
VERTEX
  5
D1
  8
LAYER_1
 10
10.79318202687585
 20
8.429904702409411
 30
0.0
 42
-0.0527182995612337
  0
VERTEX
  5
D2
  8
LAYER_1
 10
10.78869049250011
 20
8.519199880731195
 30
0.0
 42
-0.0832085667832405
  0
VERTEX
  5
D3
  8
LAYER_1
 10
10.80779026682497
 20
8.604166400484106
 30
0.0
 42
-0.5713799508295004
  0
VERTEX
  5
D4
  8
LAYER_1
 10
10.82432088972816
 20
8.60658748326563
 30
0.0
 42
0.0107497686846952
  0
VERTEX
  5
D5
  8
LAYER_1
 10
10.87730592225973
 20
8.543617899935649
 30
0.0
 42
0.0068916391134934
  0
VERTEX
  5
D6
  8
LAYER_1
 10
10.96336086143085
 20
8.448379162373607
 30
0.0
 42
-0.0341689912785174
  0
VERTEX
  5
D7
  8
LAYER_1
 10
11.12774388668951
 20
8.245207638064523
 30
0.0
 42
0.0395533262919014
  0
VERTEX
  5
D8
  8
LAYER_1
 10
11.29430227765709
 20
8.043815608228302
 30
0.0
 42
0.4875878747868367
  0
VERTEX
  5
D9
  8
LAYER_1
 10
11.33952824213639
 20
8.048655799857594
 30
0.0
 42
0.0820803797950368
  0
VERTEX
  5
DA
  8
LAYER_1
 10
11.4237000246514
 20
8.251663643211637
 30
0.0
 42
0.0989832403293625
  0
VERTEX
  5
DB
  8
LAYER_1
 10
11.43638080376371
 20
8.648653515461534
 30
0.0
 42
-0.4306780719739319
  0
VERTEX
  5
DC
  8
LAYER_1
 10
11.49865093356
 20
8.730915675554046
 30
0.0
 42
-0.0623478377598269
  0
VERTEX
  5
DD
  8
LAYER_1
 10
11.73251611534492
 20
8.72740120944223
 30
0.0
 42
-0.3163616346581981
  0
VERTEX
  5
DE
  8
LAYER_1
 10
11.76939374889817
 20
8.69288326913035
 30
0.0
 42
-0.1049980009403444
  0
VERTEX
  5
DF
  8
LAYER_1
 10
11.76899696312437
 20
8.582370056917563
 30
0.0
 42
0.0218719721137993
  0
VERTEX
  5
E0
  8
LAYER_1
 10
11.694812176779
 20
8.14781081213687
 30
0.0
  0
VERTEX
  5
E1
  8
LAYER_1
 10
11.55291157628351
 20
7.010976303129569
 30
0.0
  0
SEQEND
  5
E2
  8
LAYER_1
  0
POLYLINE
  5
47
  8
LAYER_1
 66
     1
 10
0.0
 20
0.0
 30
0.0
 70
     1
  0
VERTEX
  5
E3
  8
LAYER_1
 10
12.12843156960277
 20
9.636161023264984
 30
0.0
  0
VERTEX
  5
E4
  8
LAYER_1
 10
12.13426642332913
 20
9.672801793978312
 30
0.0
  0
VERTEX
  5
E5
  8
LAYER_1
 10
12.14081082793387
 20
9.708420670847795
 30
0.0
  0
VERTEX
  5
E6
  8
LAYER_1
 10
12.14803608042553
 20
9.743014341690177
 30
0.0
  0
VERTEX
  5
E7
  8
LAYER_1
 10
12.15591347781267
 20
9.776579494322203
 30
0.0
  0
VERTEX
  5
E8
  8
LAYER_1
 10
12.16441431710384
 20
9.809112816560615
 30
0.0
  0
VERTEX
  5
E9
  8
LAYER_1
 10
12.17350989530759
 20
9.840610996222157
 30
0.0
  0
VERTEX
  5
EA
  8
LAYER_1
 10
12.18317150943247
 20
9.871070721123571
 30
0.0
  0
VERTEX
  5
EB
  8
LAYER_1
 10
12.19337045648702
 20
9.900488679081604
 30
0.0
  0
VERTEX
  5
EC
  8
LAYER_1
 10
12.2040780334798
 20
9.928861557912999
 30
0.0
  0
VERTEX
  5
ED
  8
LAYER_1
 10
12.21526553741935
 20
9.9561860454345
 30
0.0
  0
VERTEX
  5
EE
  8
LAYER_1
 10
12.22690426531424
 20
9.98245882946285
 30
0.0
  0
VERTEX
  5
EF
  8
LAYER_1
 10
12.238965514173
 20
10.00767659781479
 30
0.0
  0
VERTEX
  5
F0
  8
LAYER_1
 10
12.25142058100419
 20
10.03183603830707
 30
0.0
  0
VERTEX
  5
F1
  8
LAYER_1
 10
12.26424076281636
 20
10.05493383875643
 30
0.0
  0
VERTEX
  5
F2
  8
LAYER_1
 10
12.27739735661806
 20
10.07696668697962
 30
0.0
  0
VERTEX
  5
F3
  8
LAYER_1
 10
12.29086165941784
 20
10.09793127079337
 30
0.0
  0
VERTEX
  5
F4
  8
LAYER_1
 10
12.30460496822424
 20
10.11782427801443
 30
0.0
  0
VERTEX
  5
F5
  8
LAYER_1
 10
12.31859858004583
 20
10.13664239645955
 30
0.0
  0
VERTEX
  5
F6
  8
LAYER_1
 10
12.33281379189114
 20
10.15438231394547
 30
0.0
  0
VERTEX
  5
F7
  8
LAYER_1
 10
12.34722190076873
 20
10.17104071828893
 30
0.0
  0
VERTEX
  5
F8
  8
LAYER_1
 10
12.36179420368714
 20
10.18661429730668
 30
0.0
  0
VERTEX
  5
F9
  8
LAYER_1
 10
12.37650199765494
 20
10.20109973881546
 30
0.0
  0
VERTEX
  5
FA
  8
LAYER_1
 10
12.39131657968067
 20
10.21449373063201
 30
0.0
  0
VERTEX
  5
FB
  8
LAYER_1
 10
12.40620924677287
 20
10.22679296057308
 30
0.0
  0
VERTEX
  5
FC
  8
LAYER_1
 10
12.42115129594011
 20
10.23799411645542
 30
0.0
  0
VERTEX
  5
FD
  8
LAYER_1
 10
12.43611402419092
 20
10.24809388609576
 30
0.0
  0
VERTEX
  5
FE
  8
LAYER_1
 10
12.45106872853387
 20
10.25708895731085
 30
0.0
  0
VERTEX
  5
FF
  8
LAYER_1
 10
12.46598670597749
 20
10.26497601791743
 30
0.0
  0
VERTEX
  5
100
  8
LAYER_1
 10
12.48083925353034
 20
10.27175175573225
 30
0.0
  0
VERTEX
  5
101
  8
LAYER_1
 10
12.49559766820097
 20
10.27741285857205
 30
0.0
  0
VERTEX
  5
102
  8
LAYER_1
 10
12.51023324699793
 20
10.28195601425358
 30
0.0
  0
VERTEX
  5
103
  8
LAYER_1
 10
12.52471728692977
 20
10.28537791059357
 30
0.0
  0
VERTEX
  5
104
  8
LAYER_1
 10
12.53902108500504
 20
10.28767523540877
 30
0.0
  0
VERTEX
  5
105
  8
LAYER_1
 10
12.5531159382323
 20
10.28884467651594
 30
0.0
  0
VERTEX
  5
106
  8
LAYER_1
 10
12.56697314362007
 20
10.2888829217318
 30
0.0
  0
VERTEX
  5
107
  8
LAYER_1
 10
12.58056399817694
 20
10.2877866588731
 30
0.0
  0
VERTEX
  5
108
  8
LAYER_1
 10
12.59385979891143
 20
10.2855525757566
 30
0.0
  0
VERTEX
  5
109
  8
LAYER_1
 10
12.6068318428321
 20
10.28217736019902
 30
0.0
  0
VERTEX
  5
10A
  8
LAYER_1
 10
12.61318748630242
 20
10.28006079269756
 30
0.0
  0
VERTEX
  5
10B
  8
LAYER_1
 10
12.6194514269475
 20
10.27765770001712
 30
0.0
  0
VERTEX
  5
10C
  8
LAYER_1
 10
12.6256200768934
 20
10.27496766813478
 30
0.0
  0
VERTEX
  5
10D
  8
LAYER_1
 10
12.63168984826618
 20
10.27199028302764
 30
0.0
  0
VERTEX
  5
10E
  8
LAYER_1
 10
12.63765715319192
 20
10.26872513067278
 30
0.0
  0
VERTEX
  5
10F
  8
LAYER_1
 10
12.64351840379669
 20
10.26517179704732
 30
0.0
  0
VERTEX
  5
110
  8
LAYER_1
 10
12.64927001220656
 20
10.26132986812832
 30
0.0
  0
VERTEX
  5
111
  8
LAYER_1
 10
12.65490839054759
 20
10.2571989298929
 30
0.0
  0
VERTEX
  5
112
  8
LAYER_1
 10
12.66042995094585
 20
10.25277856831814
 30
0.0
  0
VERTEX
  5
113
  8
LAYER_1
 10
12.66583110552741
 20
10.24806836938114
 30
0.0
  0
VERTEX
  5
114
  8
LAYER_1
 10
12.67625784574471
 20
10.23777680332877
 30
0.0
  0
VERTEX
  5
115
  8
LAYER_1
 10
12.68615990820805
 20
10.22632091955253
 30
0.0
  0
VERTEX
  5
116
  8
LAYER_1
 10
12.69550858992597
 20
10.21369740586918
 30
0.0
  0
VERTEX
  5
117
  8
LAYER_1
 10
12.70427518790701
 20
10.19990295009545
 30
0.0
  0
VERTEX
  5
118
  8
LAYER_1
 10
12.71243099915974
 20
10.1849342400481
 30
0.0
  0
VERTEX
  5
119
  8
LAYER_1
 10
12.7199473206927
 20
10.16878796354385
 30
0.0
  0
VERTEX
  5
11A
  8
LAYER_1
 10
12.72679544951444
 20
10.15146080839946
 30
0.0
  0
VERTEX
  5
11B
  8
LAYER_1
 10
12.73294668263352
 20
10.13294946243168
 30
0.0
  0
VERTEX
  5
11C
  8
LAYER_1
 10
12.73837231705847
 20
10.11325061345723
 30
0.0
  0
VERTEX
  5
11D
  8
LAYER_1
 10
12.74304364979786
 20
10.09236094929287
 30
0.0
  0
VERTEX
  5
11E
  8
LAYER_1
 10
12.74693197786022
 20
10.07027715775535
 30
0.0
  0
VERTEX
  5
11F
  8
LAYER_1
 10
12.75000859825412
 20
10.0469959266614
 30
0.0
  0
VERTEX
  5
120
  8
LAYER_1
 10
12.7522448079881
 20
10.02251394382777
 30
0.0
  0
VERTEX
  5
121
  8
LAYER_1
 10
12.75361190407071
 20
9.9968278970712
 30
0.0
  0
VERTEX
  5
122
  8
LAYER_1
 10
12.75408118351051
 20
9.969934474208436
 30
0.0
  0
VERTEX
  5
123
  8
LAYER_1
 10
12.75362394331604
 20
9.941830363056226
 30
0.0
  0
VERTEX
  5
124
  8
LAYER_1
 10
12.75221148049584
 20
9.912512251431309
 30
0.0
  0
VERTEX
  5
125
  8
LAYER_1
 10
12.74981509205849
 20
9.881976827150432
 30
0.0
  0
VERTEX
  5
126
  8
LAYER_1
 10
12.74640607501251
 20
9.850220778030334
 30
0.0
  0
VERTEX
  5
127
  8
LAYER_1
 10
12.74195572636647
 20
9.817240791887762
 30
0.0
  0
VERTEX
  5
128
  8
LAYER_1
 10
12.73643534312891
 20
9.78303355653946
 30
0.0
  0
VERTEX
  5
129
  8
LAYER_1
 10
12.72432247561273
 20
9.777298658241216
 30
0.0
  0
VERTEX
  5
12A
  8
LAYER_1
 10
12.71271267864202
 20
9.770730531297957
 30
0.0
  0
VERTEX
  5
12B
  8
LAYER_1
 10
12.7016443671194
 20
9.763367918776652
 30
0.0
  0
VERTEX
  5
12C
  8
LAYER_1
 10
12.69115595594748
 20
9.755249563744272
 30
0.0
  0
VERTEX
  5
12D
  8
LAYER_1
 10
12.68128586002891
 20
9.746414209267787
 30
0.0
  0
VERTEX
  5
12E
  8
LAYER_1
 10
12.6720724942663
 20
9.736900598414167
 30
0.0
  0
VERTEX
  5
12F
  8
LAYER_1
 10
12.66355427356227
 20
9.72674747425038
 30
0.0
  0
VERTEX
  5
130
  8
LAYER_1
 10
12.65576961281946
 20
9.715993579843401
 30
0.0
  0
VERTEX
  5
131
  8
LAYER_1
 10
12.64875692694048
 20
9.704677658260197
 30
0.0
  0
VERTEX
  5
132
  8
LAYER_1
 10
12.64255463082796
 20
9.692838452567736
 30
0.0
  0
VERTEX
  5
133
  8
LAYER_1
 10
12.63720113938452
 20
9.68051470583299
 30
0.0
  0
VERTEX
  5
134
  8
LAYER_1
 10
12.63273486751279
 20
9.667745161122934
 30
0.0
  0
VERTEX
  5
135
  8
LAYER_1
 10
12.6291942301154
 20
9.65456856150453
 30
0.0
  0
VERTEX
  5
136
  8
LAYER_1
 10
12.62661764209497
 20
9.641023650044751
 30
0.0
  0
VERTEX
  5
137
  8
LAYER_1
 10
12.62504351835411
 20
9.62714916981057
 30
0.0
  0
VERTEX
  5
138
  8
LAYER_1
 10
12.62451027379547
 20
9.612983863868957
 30
0.0
 42
0.4142135623730951
  0
VERTEX
  5
139
  8
LAYER_1
 10
12.80985636624899
 20
9.427637771415432
 30
0.0
 42
0.4142135623730951
  0
VERTEX
  5
13A
  8
LAYER_1
 10
12.99520245870252
 20
9.612983863868957
 30
0.0
  0
VERTEX
  5
13B
  8
LAYER_1
 10
12.99477434059073
 20
9.625618890236902
 30
0.0
  0
VERTEX
  5
13C
  8
LAYER_1
 10
12.99350559872099
 20
9.638063557222555
 30
0.0
  0
VERTEX
  5
13D
  8
LAYER_1
 10
12.99141965179183
 20
9.650285070305292
 30
0.0
  0
VERTEX
  5
13E
  8
LAYER_1
 10
12.98853991850176
 20
9.662250634964495
 30
0.0
  0
VERTEX
  5
13F
  8
LAYER_1
 10
12.98488981754931
 20
9.673927456679545
 30
0.0
  0
VERTEX
  5
140
  8
LAYER_1
 10
12.98049276763298
 20
9.685282740929818
 30
0.0
  0
VERTEX
  5
141
  8
LAYER_1
 10
12.97537218745132
 20
9.696283693194697
 30
0.0
  0
VERTEX
  5
142
  8
LAYER_1
 10
12.96955149570282
 20
9.706897518953559
 30
0.0
  0
VERTEX
  5
143
  8
LAYER_1
 10
12.97705081696853
 20
9.738475067441248
 30
0.0
  0
VERTEX
  5
144
  8
LAYER_1
 10
12.98346125660909
 20
9.769918439744696
 30
0.0
  0
VERTEX
  5
145
  8
LAYER_1
 10
12.98879250954564
 20
9.801188405803135
 30
0.0
  0
VERTEX
  5
146
  8
LAYER_1
 10
12.99305427069934
 20
9.832245735555803
 30
0.0
  0
VERTEX
  5
147
  8
LAYER_1
 10
12.99625623499132
 20
9.863051198941932
 30
0.0
  0
VERTEX
  5
148
  8
LAYER_1
 10
12.99840809734273
 20
9.893565565900754
 30
0.0
  0
VERTEX
  5
149
  8
LAYER_1
 10
12.99951955267471
 20
9.923749606371505
 30
0.0
  0
VERTEX
  5
14A
  8
LAYER_1
 10
12.99960029590839
 20
9.953564090293423
 30
0.0
  0
VERTEX
  5
14B
  8
LAYER_1
 10
12.99866002196493
 20
9.982969787605736
 30
0.0
  0
VERTEX
  5
14C
  8
LAYER_1
 10
12.99670842576547
 20
10.01192746824768
 30
0.0
  0
VERTEX
  5
14D
  8
LAYER_1
 10
12.99375520223114
 20
10.04039790215849
 30
0.0
  0
VERTEX
  5
14E
  8
LAYER_1
 10
12.98981004628309
 20
10.06834185927741
 30
0.0
  0
VERTEX
  5
14F
  8
LAYER_1
 10
12.98488265284247
 20
10.09572010954365
 30
0.0
  0
VERTEX
  5
150
  8
LAYER_1
 10
12.97898271683041
 20
10.12249342289647
 30
0.0
  0
VERTEX
  5
151
  8
LAYER_1
 10
12.97211993316806
 20
10.14862256927509
 30
0.0
  0
VERTEX
  5
152
  8
LAYER_1
 10
12.96430399677656
 20
10.17406831861875
 30
0.0
  0
VERTEX
  5
153
  8
LAYER_1
 10
12.95554460257706
 20
10.19879144086668
 30
0.0
  0
VERTEX
  5
154
  8
LAYER_1
 10
12.94585144549069
 20
10.22275270595811
 30
0.0
  0
VERTEX
  5
155
  8
LAYER_1
 10
12.93523422043859
 20
10.24591288383229
 30
0.0
  0
VERTEX
  5
156
  8
LAYER_1
 10
12.92958211208826
 20
10.25718030566891
 30
0.0
  0
VERTEX
  5
157
  8
LAYER_1
 10
12.92370262234192
 20
10.26823274442844
 30
0.0
  0
VERTEX
  5
158
  8
LAYER_1
 10
12.91759696306472
 20
10.27906529635326
 30
0.0
  0
VERTEX
  5
159
  8
LAYER_1
 10
12.91126634612181
 20
10.2896730576858
 30
0.0
  0
VERTEX
  5
15A
  8
LAYER_1
 10
12.90471198337833
 20
10.30005112466844
 30
0.0
  0
VERTEX
  5
15B
  8
LAYER_1
 10
12.89793508669941
 20
10.3101945935436
 30
0.0
  0
VERTEX
  5
15C
  8
LAYER_1
 10
12.89093686795021
 20
10.32009856055367
 30
0.0
  0
VERTEX
  5
15D
  8
LAYER_1
 10
12.88371853899586
 20
10.32975812194107
 30
0.0
  0
VERTEX
  5
15E
  8
LAYER_1
 10
12.8762813117015
 20
10.3391683739482
 30
0.0
  0
VERTEX
  5
15F
  8
LAYER_1
 10
12.86862639793229
 20
10.34832441281746
 30
0.0
  0
VERTEX
  5
160
  8
LAYER_1
 10
12.86075500955337
 20
10.35722133479126
 30
0.0
  0
VERTEX
  5
161
  8
LAYER_1
 10
12.85266835842986
 20
10.365854236112
 30
0.0
  0
VERTEX
  5
162
  8
LAYER_1
 10
12.84436765642693
 20
10.37421821302208
 30
0.0
  0
VERTEX
  5
163
  8
LAYER_1
 10
12.83585411540971
 20
10.38230836176391
 30
0.0
  0
VERTEX
  5
164
  8
LAYER_1
 10
12.82712894724334
 20
10.3901197785799
 30
0.0
  0
VERTEX
  5
165
  8
LAYER_1
 10
12.81819336379297
 20
10.39764755971244
 30
0.0
  0
VERTEX
  5
166
  8
LAYER_1
 10
12.80904857692374
 20
10.40488680140394
 30
0.0
  0
VERTEX
  5
167
  8
LAYER_1
 10
12.79969579850079
 20
10.41183259989681
 30
0.0
  0
VERTEX
  5
168
  8
LAYER_1
 10
12.79013624038927
 20
10.41848005143346
 30
0.0
  0
VERTEX
  5
169
  8
LAYER_1
 10
12.78037111445432
 20
10.42482425225627
 30
0.0
  0
VERTEX
  5
16A
  8
LAYER_1
 10
12.77040163256108
 20
10.43086029860767
 30
0.0
  0
VERTEX
  5
16B
  8
LAYER_1
 10
12.7602290065747
 20
10.43658328673005
 30
0.0
  0
VERTEX
  5
16C
  8
LAYER_1
 10
12.74985444836031
 20
10.44198831286581
 30
0.0
  0
VERTEX
  5
16D
  8
LAYER_1
 10
12.73927916978306
 20
10.44707047325737
 30
0.0
  0
VERTEX
  5
16E
  8
LAYER_1
 10
12.72850438270809
 20
10.45182486414713
 30
0.0
  0
VERTEX
  5
16F
  8
LAYER_1
 10
12.71753129900055
 20
10.45624658177748
 30
0.0
  0
VERTEX
  5
170
  8
LAYER_1
 10
12.7051308213549
 20
10.46075462305675
 30
0.0
  0
VERTEX
  5
171
  8
LAYER_1
 10
12.69263703168387
 20
10.46479028848835
 30
0.0
  0
VERTEX
  5
172
  8
LAYER_1
 10
12.68005573955973
 20
10.4683575061342
 30
0.0
  0
VERTEX
  5
173
  8
LAYER_1
 10
12.66739275455476
 20
10.47146020405624
 30
0.0
  0
VERTEX
  5
174
  8
LAYER_1
 10
12.65465388624124
 20
10.47410231031638
 30
0.0
  0
VERTEX
  5
175
  8
LAYER_1
 10
12.64184494419144
 20
10.47628775297656
 30
0.0
  0
VERTEX
  5
176
  8
LAYER_1
 10
12.62897173797764
 20
10.47802046009871
 30
0.0
  0
VERTEX
  5
177
  8
LAYER_1
 10
12.61604007717211
 20
10.47930435974474
 30
0.0
  0
VERTEX
  5
178
  8
LAYER_1
 10
12.60305577134713
 20
10.48014337997658
 30
0.0
  0
VERTEX
  5
179
  8
LAYER_1
 10
12.59002463007498
 20
10.48054144885617
 30
0.0
  0
VERTEX
  5
17A
  8
LAYER_1
 10
12.57695246292792
 20
10.48050249444542
 30
0.0
  0
VERTEX
  5
17B
  8
LAYER_1
 10
12.56384507947824
 20
10.48003044480627
 30
0.0
  0
VERTEX
  5
17C
  8
LAYER_1
 10
12.55070828929821
 20
10.47912922800064
 30
0.0
  0
VERTEX
  5
17D
  8
LAYER_1
 10
12.5375479019601
 20
10.47780277209046
 30
0.0
  0
VERTEX
  5
17E
  8
LAYER_1
 10
12.5243697270362
 20
10.47605500513765
 30
0.0
  0
VERTEX
  5
17F
  8
LAYER_1
 10
12.51117957409877
 20
10.47388985520414
 30
0.0
  0
VERTEX
  5
180
  8
LAYER_1
 10
12.4979832527201
 20
10.47131125035186
 30
0.0
  0
VERTEX
  5
181
  8
LAYER_1
 10
12.48478657247245
 20
10.46832311864273
 30
0.0
  0
VERTEX
  5
182
  8
LAYER_1
 10
12.47159534292811
 20
10.46492938813869
 30
0.0
  0
VERTEX
  5
183
  8
LAYER_1
 10
12.45841537365935
 20
10.46113398690165
 30
0.0
  0
VERTEX
  5
184
  8
LAYER_1
 10
12.44525247423844
 20
10.45694084299354
 30
0.0
  0
VERTEX
  5
185
  8
LAYER_1
 10
12.43211245423766
 20
10.45235388447629
 30
0.0
  0
VERTEX
  5
186
  8
LAYER_1
 10
12.41900112322929
 20
10.44737703941183
 30
0.0
  0
VERTEX
  5
187
  8
LAYER_1
 10
12.40592429078561
 20
10.44201423586208
 30
0.0
  0
VERTEX
  5
188
  8
LAYER_1
 10
12.39288776647888
 20
10.43626940188897
 30
0.0
  0
VERTEX
  5
189
  8
LAYER_1
 10
12.37989735988138
 20
10.43014646555443
 30
0.0
  0
VERTEX
  5
18A
  8
LAYER_1
 10
12.36695888056539
 20
10.42364935492038
 30
0.0
  0
VERTEX
  5
18B
  8
LAYER_1
 10
12.35407813810318
 20
10.41678199804875
 30
0.0
  0
VERTEX
  5
18C
  8
LAYER_1
 10
12.34126094206703
 20
10.40954832300146
 30
0.0
  0
VERTEX
  5
18D
  8
LAYER_1
 10
12.32851310202922
 20
10.40195225784045
 30
0.0
  0
VERTEX
  5
18E
  8
LAYER_1
 10
12.31584042756202
 20
10.39399773062763
 30
0.0
  0
VERTEX
  5
18F
  8
LAYER_1
 10
12.3032487282377
 20
10.38568866942494
 30
0.0
  0
VERTEX
  5
190
  8
LAYER_1
 10
12.29074381362855
 20
10.3770290022943
 30
0.0
  0
VERTEX
  5
191
  8
LAYER_1
 10
12.27833149330684
 20
10.36802265729763
 30
0.0
  0
VERTEX
  5
192
  8
LAYER_1
 10
12.26601757684483
 20
10.35867356249688
 30
0.0
  0
VERTEX
  5
193
  8
LAYER_1
 10
12.25380787381482
 20
10.34898564595395
 30
0.0
  0
VERTEX
  5
194
  8
LAYER_1
 10
12.24170819378907
 20
10.33896283573078
 30
0.0
  0
VERTEX
  5
195
  8
LAYER_1
 10
12.22972434633985
 20
10.3286090598893
 30
0.0
  0
VERTEX
  5
196
  8
LAYER_1
 10
12.21786214103946
 20
10.31792824649142
 30
0.0
  0
VERTEX
  5
197
  8
LAYER_1
 10
12.20612738746015
 20
10.30692432359909
 30
0.0
  0
VERTEX
  5
198
  8
LAYER_1
 10
12.19452589517421
 20
10.29560121927421
 30
0.0
  0
VERTEX
  5
199
  8
LAYER_1
 10
12.18306347375391
 20
10.28396286157873
 30
0.0
  0
VERTEX
  5
19A
  8
LAYER_1
 10
12.17174593277153
 20
10.27201317857457
 30
0.0
  0
VERTEX
  5
19B
  8
LAYER_1
 10
12.16057908179935
 20
10.25975609832364
 30
0.0
  0
VERTEX
  5
19C
  8
LAYER_1
 10
12.14956873040963
 20
10.24719554888789
 30
0.0
  0
VERTEX
  5
19D
  8
LAYER_1
 10
12.13872068817465
 20
10.23433545832924
 30
0.0
  0
VERTEX
  5
19E
  8
LAYER_1
 10
12.12804076466669
 20
10.2211797547096
 30
0.0
  0
VERTEX
  5
19F
  8
LAYER_1
 10
12.11753476945803
 20
10.20773236609092
 30
0.0
  0
VERTEX
  5
1A0
  8
LAYER_1
 10
12.10720851212094
 20
10.19399722053511
 30
0.0
  0
VERTEX
  5
1A1
  8
LAYER_1
 10
12.0970678022277
 20
10.17997824610411
 30
0.0
  0
VERTEX
  5
1A2
  8
LAYER_1
 10
12.08711844935058
 20
10.16567937085983
 30
0.0
  0
VERTEX
  5
1A3
  8
LAYER_1
 10
12.07736626306185
 20
10.15110452286421
 30
0.0
  0
VERTEX
  5
1A4
  8
LAYER_1
 10
12.0678170529338
 20
10.13625763017917
 30
0.0
  0
VERTEX
  5
1A5
  8
LAYER_1
 10
12.0584766285387
 20
10.12114262086664
 30
0.0
  0
VERTEX
  5
1A6
  8
LAYER_1
 10
12.04935079944882
 20
10.10576342298854
 30
0.0
  0
VERTEX
  5
1A7
  8
LAYER_1
 10
12.04044537523644
 20
10.09012396460681
 30
0.0
  0
VERTEX
  5
1A8
  8
LAYER_1
 10
12.03176616547383
 20
10.07422817378336
 30
0.0
  0
VERTEX
  5
1A9
  8
LAYER_1
 10
12.02331897973328
 20
10.05807997858013
 30
0.0
  0
VERTEX
  5
1AA
  8
LAYER_1
 10
12.01510962758705
 20
10.04168330705904
 30
0.0
  0
VERTEX
  5
1AB
  8
LAYER_1
 10
12.00714391860743
 20
10.02504208728202
 30
0.0
  0
VERTEX
  5
1AC
  8
LAYER_1
 10
11.99942766236667
 20
10.00816024731099
 30
0.0
  0
VERTEX
  5
1AD
  8
LAYER_1
 10
11.99196666843708
 20
9.991041715207887
 30
0.0
  0
VERTEX
  5
1AE
  8
LAYER_1
 10
11.98476674639091
 20
9.973690419034627
 30
0.0
  0
VERTEX
  5
1AF
  8
LAYER_1
 10
11.97783370580045
 20
9.956110286853141
 30
0.0
  0
VERTEX
  5
1B0
  8
LAYER_1
 10
11.97147722361441
 20
9.939137260318246
 30
0.0
  0
VERTEX
  5
1B1
  8
LAYER_1
 10
11.96544400015789
 20
9.922155989199966
 30
0.0
  0
VERTEX
  5
1B2
  8
LAYER_1
 10
11.95973256008167
 20
9.905172510689237
 30
0.0
  0
VERTEX
  5
1B3
  8
LAYER_1
 10
11.95434142803656
 20
9.888192861976991
 30
0.0
  0
VERTEX
  5
1B4
  8
LAYER_1
 10
11.94451418664283
 20
9.854269202711674
 30
0.0
  0
VERTEX
  5
1B5
  8
LAYER_1
 10
11.93595047318309
 20
9.820433308931467
 30
0.0
  0
VERTEX
  5
1B6
  8
LAYER_1
 10
11.92863848486373
 20
9.786733478163828
 30
0.0
  0
VERTEX
  5
1B7
  8
LAYER_1
 10
11.92256641889112
 20
9.753218007936216
 30
0.0
  0
VERTEX
  5
1B8
  8
LAYER_1
 10
11.91772247247165
 20
9.719935195776083
 30
0.0
  0
VERTEX
  5
1B9
  8
LAYER_1
 10
11.91409484281169
 20
9.686933339210887
 30
0.0
  0
VERTEX
  5
1BA
  8
LAYER_1
 10
11.91389174911268
 20
9.687021681169183
 30
0.0
  0
VERTEX
  5
1BB
  8
LAYER_1
 10
11.89842236733246
 20
9.595529230551616
 30
0.0
  0
VERTEX
  5
1BC
  8
LAYER_1
 10
11.88339730181077
 20
9.503964433975852
 30
0.0
  0
VERTEX
  5
1BD
  8
LAYER_1
 10
11.86881677955768
 20
9.41232881919376
 30
0.0
  0
VERTEX
  5
1BE
  8
LAYER_1
 10
11.85468102758325
 20
9.32062391395721
 30
0.0
  0
VERTEX
  5
1BF
  8
LAYER_1
 10
11.84099027289755
 20
9.228851246018063
 30
0.0
  0
VERTEX
  5
1C0
  8
LAYER_1
 10
11.82774474251062
 20
9.137012343128195
 30
0.0
  0
VERTEX
  5
1C1
  8
LAYER_1
 10
11.81494466343253
 20
9.045108733039465
 30
0.0
  0
VERTEX
  5
1C2
  8
LAYER_1
 10
11.80259026267334
 20
8.953141943503747
 30
0.0
 42
-0.1533695166979418
  0
VERTEX
  5
1C3
  8
LAYER_1
 10
11.80055259081635
 20
8.94873706362352
 30
0.0
 42
-0.1202394426448948
  0
VERTEX
  5
1C4
  8
LAYER_1
 10
11.79546719017822
 20
8.94530388803385
 30
0.0
 42
-0.1506843792525334
  0
VERTEX
  5
1C5
  8
LAYER_1
 10
11.21436265938348
 20
8.913093484240045
 30
0.0
 42
-0.1883365643415922
  0
VERTEX
  5
1C6
  8
LAYER_1
 10
10.97505603596983
 20
9.082516274269304
 30
0.0
  0
VERTEX
  5
1C7
  8
LAYER_1
 10
10.97292839789983
 20
9.086190804315212
 30
0.0
  0
VERTEX
  5
1C8
  8
LAYER_1
 10
10.97157219177878
 20
9.089646978605481
 30
0.0
  0
VERTEX
  5
1C9
  8
LAYER_1
 10
10.7705439947261
 20
9.34831781339931
 30
0.0
  0
VERTEX
  5
1CA
  8
LAYER_1
 10
10.76842574234495
 20
9.350463863498499
 30
0.0
 42
-0.0708488846904589
  0
VERTEX
  5
1CB
  8
LAYER_1
 10
10.69572569472067
 20
9.463454517389204
 30
0.0
 42
-0.345596729426244
  0
VERTEX
  5
1CC
  8
LAYER_1
 10
10.70287589995656
 20
9.493289542869919
 30
0.0
 42
-0.3893903733715633
  0
VERTEX
  5
1CD
  8
LAYER_1
 10
10.74312703616548
 20
9.490363282036343
 30
0.0
 42
0.1629216195274407
  0
VERTEX
  5
1CE
  8
LAYER_1
 10
10.88289916056847
 20
9.415411306409803
 30
0.0
 42
0.6705108226665211
  0
VERTEX
  5
1CF
  8
LAYER_1
 10
10.96804340271221
 20
9.551613601354243
 30
0.0
 42
-0.0105054991690683
  0
VERTEX
  5
1D0
  8
LAYER_1
 10
10.86014655283865
 20
9.70878075754616
 30
0.0
 42
-0.080291174698171
  0
VERTEX
  5
1D1
  8
LAYER_1
 10
10.78016709204697
 20
9.887701049793515
 30
0.0
 42
-0.4151068606602507
  0
VERTEX
  5
1D2
  8
LAYER_1
 10
10.8023666375704
 20
9.925869517455249
 30
0.0
 42
0.4647926292558265
  0
VERTEX
  5
1D3
  8
LAYER_1
 10
10.82736054049911
 20
9.978475341916814
 30
0.0
 42
0.0953608085040867
  0
VERTEX
  5
1D4
  8
LAYER_1
 10
10.77749426532788
 20
10.04880312158484
 30
0.0
 42
-0.1368181861627043
  0
VERTEX
  5
1D5
  8
LAYER_1
 10
10.67720247679609
 20
10.21803736672214
 30
0.0
 42
0.1425353564566585
  0
VERTEX
  5
1D6
  8
LAYER_1
 10
10.57501898863249
 20
10.38613616898087
 30
0.0
  0
VERTEX
  5
1D7
  8
LAYER_1
 10
10.56758260841938
 20
10.39264191134952
 30
0.0
  0
VERTEX
  5
1D8
  8
LAYER_1
 10
10.56004430383566
 20
10.39864171144254
 30
0.0
  0
VERTEX
  5
1D9
  8
LAYER_1
 10
10.55240800501072
 20
10.40414510693484
 30
0.0
  0
VERTEX
  5
1DA
  8
LAYER_1
 10
10.54467764207393
 20
10.40916163550133
 30
0.0
  0
VERTEX
  5
1DB
  8
LAYER_1
 10
10.53685714515469
 20
10.41370083481692
 30
0.0
  0
VERTEX
  5
1DC
  8
LAYER_1
 10
10.52895044438239
 20
10.41777224255653
 30
0.0
  0
VERTEX
  5
1DD
  8
LAYER_1
 10
10.52096146988641
 20
10.42138539639505
 30
0.0
  0
VERTEX
  5
1DE
  8
LAYER_1
 10
10.51289415179615
 20
10.4245498340074
 30
0.0
  0
VERTEX
  5
1DF
  8
LAYER_1
 10
10.50475242024099
 20
10.4272750930685
 30
0.0
  0
VERTEX
  5
1E0
  8
LAYER_1
 10
10.49654020535032
 20
10.42957071125324
 30
0.0
  0
VERTEX
  5
1E1
  8
LAYER_1
 10
10.48826143725353
 20
10.43144622623654
 30
0.0
  0
VERTEX
  5
1E2
  8
LAYER_1
 10
10.47992004608
 20
10.43291117569331
 30
0.0
  0
VERTEX
  5
1E3
  8
LAYER_1
 10
10.47151996195914
 20
10.43397509729845
 30
0.0
  0
VERTEX
  5
1E4
  8
LAYER_1
 10
10.46306511502031
 20
10.43464752872688
 30
0.0
  0
VERTEX
  5
1E5
  8
LAYER_1
 10
10.45455943539292
 20
10.43493800765351
 30
0.0
  0
VERTEX
  5
1E6
  8
LAYER_1
 10
10.44600685320635
 20
10.43485607175324
 30
0.0
  0
VERTEX
  5
1E7
  8
LAYER_1
 10
10.43741129858999
 20
10.43441125870099
 30
0.0
  0
VERTEX
  5
1E8
  8
LAYER_1
 10
10.42877670167323
 20
10.43361310617167
 30
0.0
  0
VERTEX
  5
1E9
  8
LAYER_1
 10
10.42010699258546
 20
10.43247115184017
 30
0.0
  0
VERTEX
  5
1EA
  8
LAYER_1
 10
10.41140610145606
 20
10.43099493338143
 30
0.0
  0
VERTEX
  5
1EB
  8
LAYER_1
 10
10.39392649358994
 20
10.42707785478181
 30
0.0
  0
VERTEX
  5
1EC
  8
LAYER_1
 10
10.37636931910998
 20
10.42193817177207
 30
0.0
  0
VERTEX
  5
1ED
  8
LAYER_1
 10
10.35876601905129
 20
10.41565218575151
 30
0.0
  0
VERTEX
  5
1EE
  8
LAYER_1
 10
10.34114803444898
 20
10.40829619811939
 30
0.0
  0
VERTEX
  5
1EF
  8
LAYER_1
 10
10.32354680633815
 20
10.39994651027499
 30
0.0
  0
VERTEX
  5
1F0
  8
LAYER_1
 10
10.30599377575391
 20
10.39067942361758
 30
0.0
 42
0.1072467034524431
  0
VERTEX
  5
1F1
  8
LAYER_1
 10
10.20749975074959
 20
10.3508181588022
 30
0.0
 42
0.1666944172457172
  0
VERTEX
  5
1F2
  8
LAYER_1
 10
10.13340761233235
 20
10.1174261652749
 30
0.0
  0
VERTEX
  5
1F3
  8
LAYER_1
 10
10.13569167801479
 20
9.997223936089037
 30
0.0
  0
VERTEX
  5
1F4
  8
LAYER_1
 10
10.13702489805876
 20
9.877015636370805
 30
0.0
  0
VERTEX
  5
1F5
  8
LAYER_1
 10
10.13740800293065
 20
9.756808064806645
 30
0.0
  0
VERTEX
  5
1F6
  8
LAYER_1
 10
10.13684172309685
 20
9.636608020082997
 30
0.0
  0
VERTEX
  5
1F7
  8
LAYER_1
 10
10.13532678902374
 20
9.516422300886306
 30
0.0
  0
VERTEX
  5
1F8
  8
LAYER_1
 10
10.13286393117773
 20
9.396257705903015
 30
0.0
  0
VERTEX
  5
1F9
  8
LAYER_1
 10
10.12945388002519
 20
9.276121033819562
 30
0.0
  0
VERTEX
  5
1FA
  8
LAYER_1
 10
10.12509736603252
 20
9.15601908332239
 30
0.0
  0
VERTEX
  5
1FB
  8
LAYER_1
 10
10.11396566291084
 20
9.161898006448226
 30
0.0
  0
VERTEX
  5
1FC
  8
LAYER_1
 10
10.10244403209894
 20
9.167070980983071
 30
0.0
  0
VERTEX
  5
1FD
  8
LAYER_1
 10
10.09056297129898
 20
9.171513994240897
 30
0.0
  0
VERTEX
  5
1FE
  8
LAYER_1
 10
10.07835297821314
 20
9.17520303353567
 30
0.0
  0
VERTEX
  5
1FF
  8
LAYER_1
 10
10.06584455054357
 20
9.178114086181361
 30
0.0
  0
VERTEX
  5
200
  8
LAYER_1
 10
10.05306818599243
 20
9.180223139491943
 30
0.0
  0
VERTEX
  5
201
  8
LAYER_1
 10
10.04005438226189
 20
9.181506180781385
 30
0.0
  0
VERTEX
  5
202
  8
LAYER_1
 10
10.02683363705412
 20
9.181939197363656
 30
0.0
  0
VERTEX
  5
203
  8
LAYER_1
 10
8.833839613215126
 20
10.50000511677946
 30
0.0
  0
VERTEX
  5
204
  8
LAYER_1
 10
7.657142826668675
 20
10.49998708147834
 30
0.0
  0
VERTEX
  5
205
  8
LAYER_1
 10
7.647337757604848
 20
10.54022311057366
 30
0.0
  0
VERTEX
  5
206
  8
LAYER_1
 10
7.637426392563262
 20
10.58276930772678
 30
0.0
  0
VERTEX
  5
207
  8
LAYER_1
 10
7.627359316823482
 20
10.62781748529755
 30
0.0
  0
VERTEX
  5
208
  8
LAYER_1
 10
7.617087115665077
 20
10.67555945564583
 30
0.0
  0
VERTEX
  5
209
  8
LAYER_1
 10
7.606560374367614
 20
10.72618703113147
 30
0.0
  0
VERTEX
  5
20A
  8
LAYER_1
 10
7.595729678210661
 20
10.77989202411434
 30
0.0
  0
VERTEX
  5
20B
  8
LAYER_1
 10
7.572958762436553
 20
10.89730151201117
 30
0.0
  0
VERTEX
  5
20C
  8
LAYER_1
 10
7.532560135685827
 20
11.1030429031417
 30
0.0
  0
VERTEX
  5
20D
  8
LAYER_1
 10
7.490919818497019
 20
11.28895379874159
 30
0.0
  0
VERTEX
  5
20E
  8
LAYER_1
 10
7.45943547036245
 20
11.40772397892212
 30
0.0
  0
VERTEX
  5
20F
  8
LAYER_1
 10
7.452661814276425
 20
11.43058470923875
 30
0.0
  0
VERTEX
  5
210
  8
LAYER_1
 10
7.450838783378208
 20
11.43773547101057
 30
0.0
  0
VERTEX
  5
211
  8
LAYER_1
 10
7.450451339629424
 20
11.44059505430984
 30
0.0
  0
VERTEX
  5
212
  8
LAYER_1
 10
7.478757334634565
 20
11.45786484830394
 30
0.0
  0
VERTEX
  5
213
  8
LAYER_1
 10
7.490068450302699
 20
11.46488168892771
 30
0.0
  0
VERTEX
  5
214
  8
LAYER_1
 10
7.501270840132179
 20
11.4722402998924
 30
0.0
  0
VERTEX
  5
215
  8
LAYER_1
 10
7.512309574760446
 20
11.47989054340874
 30
0.0
  0
VERTEX
  5
216
  8
LAYER_1
 10
7.523129724824937
 20
11.48778228168745
 30
0.0
  0
VERTEX
  5
217
  8
LAYER_1
 10
7.533676360963096
 20
11.49586537693927
 30
0.0
  0
VERTEX
  5
218
  8
LAYER_1
 10
7.543894553812359
 20
11.5040896913749
 30
0.0
  0
VERTEX
  5
219
  8
LAYER_1
 10
7.553729374010169
 20
11.51240508720509
 30
0.0
  0
VERTEX
  5
21A
  8
LAYER_1
 10
7.563125892193963
 20
11.52076142664056
 30
0.0
  0
VERTEX
  5
21B
  8
LAYER_1
 10
7.572029179001181
 20
11.52910857189203
 30
0.0
  0
VERTEX
  5
21C
  8
LAYER_1
 10
7.580384305069265
 20
11.53739638517024
 30
0.0
  0
VERTEX
  5
21D
  8
LAYER_1
 10
7.588136341035653
 20
11.5455747286859
 30
0.0
  0
VERTEX
  5
21E
  8
LAYER_1
 10
7.595230357537785
 20
11.55359346464974
 30
0.0
  0
VERTEX
  5
21F
  8
LAYER_1
 10
7.6016114252131
 20
11.56140245527249
 30
0.0
  0
VERTEX
  5
220
  8
LAYER_1
 10
7.60722461469904
 20
11.56895156276488
 30
0.0
  0
VERTEX
  5
221
  8
LAYER_1
 10
7.612014996633041
 20
11.57619064933763
 30
0.0
  0
VERTEX
  5
222
  8
LAYER_1
 10
7.615927641652547
 20
11.58306957720147
 30
0.0
  0
VERTEX
  5
223
  8
LAYER_1
 10
7.618253780719622
 20
11.58838019539781
 30
0.0
  0
VERTEX
  5
224
  8
LAYER_1
 10
7.619640483847324
 20
11.59343847857133
 30
0.0
  0
VERTEX
  5
225
  8
LAYER_1
 10
7.620131977525194
 20
11.59823936819541
 30
0.0
  0
VERTEX
  5
226
  8
LAYER_1
 10
7.619772488242777
 20
11.60277780574341
 30
0.0
  0
VERTEX
  5
227
  8
LAYER_1
 10
7.618606242489615
 20
11.60704873268868
 30
0.0
  0
VERTEX
  5
228
  8
LAYER_1
 10
7.616677466755251
 20
11.61104709050459
 30
0.0
  0
VERTEX
  5
229
  8
LAYER_1
 10
7.61403038752923
 20
11.6147678206645
 30
0.0
  0
VERTEX
  5
22A
  8
LAYER_1
 10
7.610709231301092
 20
11.61820586464178
 30
0.0
  0
VERTEX
  5
22B
  8
LAYER_1
 10
7.606758224560381
 20
11.62135616390978
 30
0.0
  0
VERTEX
  5
22C
  8
LAYER_1
 10
7.60222159379664
 20
11.62421365994187
 30
0.0
  0
VERTEX
  5
22D
  8
LAYER_1
 10
7.597143565499413
 20
11.6267732942114
 30
0.0
  0
VERTEX
  5
22E
  8
LAYER_1
 10
7.59156836615824
 20
11.62903000819175
 30
0.0
  0
VERTEX
  5
22F
  8
LAYER_1
 10
7.585540222262669
 20
11.63097874335627
 30
0.0
  0
VERTEX
  5
230
  8
LAYER_1
 10
7.579103360302238
 20
11.63261444117832
 30
0.0
  0
VERTEX
  5
231
  8
LAYER_1
 10
7.572302006766493
 20
11.63393204313126
 30
0.0
  0
VERTEX
  5
232
  8
LAYER_1
 10
7.565180388144975
 20
11.63492649068847
 30
0.0
  0
VERTEX
  5
233
  8
LAYER_1
 10
7.557782730927229
 20
11.63559272532329
 30
0.0
  0
VERTEX
  5
234
  8
LAYER_1
 10
7.550153261602796
 20
11.6359256885091
 30
0.0
  0
VERTEX
  5
235
  8
LAYER_1
 10
7.54233620666122
 20
11.63592032171924
 30
0.0
  0
VERTEX
  5
236
  8
LAYER_1
 10
7.534375792592044
 20
11.6355715664271
 30
0.0
  0
VERTEX
  5
237
  8
LAYER_1
 10
7.526316245884811
 20
11.63487436410601
 30
0.0
  0
VERTEX
  5
238
  8
LAYER_1
 10
7.518201793029063
 20
11.63382365622936
 30
0.0
  0
VERTEX
  5
239
  8
LAYER_1
 10
7.510076660514345
 20
11.6324143842705
 30
0.0
  0
VERTEX
  5
23A
  8
LAYER_1
 10
7.501985074830198
 20
11.63064148970279
 30
0.0
  0
VERTEX
  5
23B
  8
LAYER_1
 10
7.493971262466166
 20
11.62849991399959
 30
0.0
  0
VERTEX
  5
23C
  8
LAYER_1
 10
7.486079449911792
 20
11.62598459863427
 30
0.0
  0
VERTEX
  5
23D
  8
LAYER_1
 10
7.478353863656618
 20
11.62309048508019
 30
0.0
  0
VERTEX
  5
23E
  8
LAYER_1
 10
7.470838730190188
 20
11.61981251481071
 30
0.0
  0
VERTEX
  5
23F
  8
LAYER_1
 10
7.463578276002044
 20
11.61614562929919
 30
0.0
  0
VERTEX
  5
240
  8
LAYER_1
 10
7.456616727581732
 20
11.61208477001899
 30
0.0
  0
VERTEX
  5
241
  8
LAYER_1
 10
7.44999831141879
 20
11.60762487844347
 30
0.0
  0
VERTEX
  5
242
  8
LAYER_1
 10
7.443767254002765
 20
11.60276089604601
 30
0.0
  0
VERTEX
  5
243
  8
LAYER_1
 10
7.437816950497933
 20
11.59800500253342
 30
0.0
  0
VERTEX
  5
244
  8
LAYER_1
 10
7.432707761085586
 20
11.59438920127059
 30
0.0
  0
VERTEX
  5
245
  8
LAYER_1
 10
7.42898367073638
 20
11.59226686716304
 30
0.0
  0
VERTEX
  5
246
  8
LAYER_1
 10
7.427811033013782
 20
11.59187617995045
 30
0.0
  0
VERTEX
  5
247
  8
LAYER_1
 10
7.427188664420964
 20
11.59199137511625
 30
0.0
  0
VERTEX
  5
248
  8
LAYER_1
 10
7.406943970663196
 20
11.62111459888005
 30
0.0
  0
VERTEX
  5
249
  8
LAYER_1
 10
7.397752980392355
 20
11.63420907460682
 30
0.0
  0
VERTEX
  5
24A
  8
LAYER_1
 10
7.389301760297519
 20
11.64553524059079
 30
0.0
  0
VERTEX
  5
24B
  8
LAYER_1
 10
7.381474102734341
 20
11.65521464852149
 30
0.0
  0
VERTEX
  5
24C
  8
LAYER_1
 10
7.374153800058473
 20
11.66336885008847
 30
0.0
  0
VERTEX
  5
24D
  8
LAYER_1
 10
7.367224644625565
 20
11.67011939698127
 30
0.0
  0
VERTEX
  5
24E
  8
LAYER_1
 10
7.360570428791271
 20
11.67558784088941
 30
0.0
  0
VERTEX
  5
24F
  8
LAYER_1
 10
7.354074944911241
 20
11.67989573350245
 30
0.0
  0
VERTEX
  5
250
  8
LAYER_1
 10
7.347621985341128
 20
11.6831646265099
 30
0.0
  0
VERTEX
  5
251
  8
LAYER_1
 10
7.342806052772611
 20
11.68533268679773
 30
0.0
  0
VERTEX
  5
252
  8
LAYER_1
 10
7.339178397359545
 20
11.68750973436741
 30
0.0
  0
VERTEX
  5
253
  8
LAYER_1
 10
7.337755810634071
 20
11.68878363598086
 30
0.0
  0
VERTEX
  5
254
  8
LAYER_1
 10
7.336565057654777
 20
11.69027819353224
 30
0.0
  0
VERTEX
  5
255
  8
LAYER_1
 10
7.335584393240769
 20
11.69206621006074
 30
0.0
  0
VERTEX
  5
256
  8
LAYER_1
 10
7.334792072211153
 20
11.6942204886055
 30
0.0
  0
VERTEX
  5
257
  8
LAYER_1
 10
7.333685479581517
 20
11.69991904390047
 30
0.0
  0
VERTEX
  5
258
  8
LAYER_1
 10
7.333071318318716
 20
11.70795628373043
 30
0.0
  0
VERTEX
  5
259
  8
LAYER_1
 10
7.332624444104994
 20
11.73337651424843
 30
0.0
  0
VERTEX
  5
25A
  8
LAYER_1
 10
7.331979837665832
 20
11.75378017811248
 30
0.0
  0
VERTEX
  5
25B
  8
LAYER_1
 10
7.331308378601033
 20
11.76253540952912
 30
0.0
  0
VERTEX
  5
25C
  8
LAYER_1
 10
7.330398980619906
 20
11.77036325121503
 30
0.0
  0
VERTEX
  5
25D
  8
LAYER_1
 10
7.329247767457819
 20
11.77729146112987
 30
0.0
  0
VERTEX
  5
25E
  8
LAYER_1
 10
7.327850862850134
 20
11.7833477972333
 30
0.0
  0
VERTEX
  5
25F
  8
LAYER_1
 10
7.326204390532218
 20
11.78856001748497
 30
0.0
  0
VERTEX
  5
260
  8
LAYER_1
 10
7.324304474239433
 20
11.79295587984453
 30
0.0
  0
VERTEX
  5
261
  8
LAYER_1
 10
7.322216998486557
 20
11.79761047629893
 30
0.0
  0
VERTEX
  5
262
  8
LAYER_1
 10
7.320569933706393
 20
11.80260209475028
 30
0.0
  0
VERTEX
  5
263
  8
LAYER_1
 10
7.319341856981756
 20
11.80815962982435
 30
0.0
  0
VERTEX
  5
264
  8
LAYER_1
 10
7.318511345395468
 20
11.81451197614686
 30
0.0
  0
VERTEX
  5
265
  8
LAYER_1
 10
7.318056976030346
 20
11.82188802834359
 30
0.0
  0
VERTEX
  5
266
  8
LAYER_1
 10
7.317957325969209
 20
11.83051668104026
 30
0.0
  0
VERTEX
  5
267
  8
LAYER_1
 10
7.318736492090167
 20
11.85244736643648
 30
0.0
  0
VERTEX
  5
268
  8
LAYER_1
 10
7.31970515771838
 20
11.87665163605962
 30
0.0
  0
VERTEX
  5
269
  8
LAYER_1
 10
7.31956907755104
 20
11.88517863276231
 30
0.0
  0
VERTEX
  5
26A
  8
LAYER_1
 10
7.318912006991715
 20
11.89202510425247
 30
0.0
  0
VERTEX
  5
26B
  8
LAYER_1
 10
7.317653409737138
 20
11.89771822567515
 30
0.0
  0
VERTEX
  5
26C
  8
LAYER_1
 10
7.315712749484046
 20
11.9027851721754
 30
0.0
  0
VERTEX
  5
26D
  8
LAYER_1
 10
7.313009489929172
 20
11.90775311889827
 30
0.0
  0
VERTEX
  5
26E
  8
LAYER_1
 10
7.309463094769249
 20
11.91314924098881
 30
0.0
  0
VERTEX
  5
26F
  8
LAYER_1
 10
7.303807677266597
 20
11.92093326092809
 30
0.0
  0
VERTEX
  5
270
  8
LAYER_1
 10
7.298618631218353
 20
11.92707241205473
 30
0.0
  0
VERTEX
  5
271
  8
LAYER_1
 10
7.293649433729829
 20
11.93169090072487
 30
0.0
  0
VERTEX
  5
272
  8
LAYER_1
 10
7.291170239790873
 20
11.93346871112503
 30
0.0
  0
VERTEX
  5
273
  8
LAYER_1
 10
7.288653561906339
 20
11.9349129332946
 30
0.0
  0
VERTEX
  5
274
  8
LAYER_1
 10
7.286068584714393
 20
11.9360390930281
 30
0.0
  0
VERTEX
  5
275
  8
LAYER_1
 10
7.283384492853195
 20
11.93686271612004
 30
0.0
  0
VERTEX
  5
276
  8
LAYER_1
 10
7.27759570367571
 20
11.93766445555731
 30
0.0
  0
VERTEX
  5
277
  8
LAYER_1
 10
7.271040671479197
 20
11.93744235796252
 30
0.0
  0
VERTEX
  5
278
  8
LAYER_1
 10
7.263472873368968
 20
11.93632062969178
 30
0.0
  0
VERTEX
  5
279
  8
LAYER_1
 10
7.258769446176565
 20
11.93516944437697
 30
0.0
  0
VERTEX
  5
27A
  8
LAYER_1
 10
7.253991370486456
 20
11.93346558626327
 30
0.0
  0
VERTEX
  5
27B
  8
LAYER_1
 10
7.249135069810967
 20
11.93120683257732
 30
0.0
  0
VERTEX
  5
27C
  8
LAYER_1
 10
7.24419696766242
 20
11.92839096054573
 30
0.0
  0
VERTEX
  5
27D
  8
LAYER_1
 10
7.239173487553141
 20
11.92501574739511
 30
0.0
  0
VERTEX
  5
27E
  8
LAYER_1
 10
7.234061052995454
 20
11.92107897035211
 30
0.0
  0
VERTEX
  5
27F
  8
LAYER_1
 10
7.228856087501683
 20
11.91657840664333
 30
0.0
  0
VERTEX
  5
280
  8
LAYER_1
 10
7.22355501458415
 20
11.9115118334954
 30
0.0
  0
VERTEX
  5
281
  8
LAYER_1
 10
7.216668050329844
 20
11.90453026894742
 30
0.0
  0
VERTEX
  5
282
  8
LAYER_1
 10
7.211455770410836
 20
11.89880215205761
 30
0.0
  0
VERTEX
  5
283
  8
LAYER_1
 10
7.20769066062127
 20
11.89375191448542
 30
0.0
  0
VERTEX
  5
284
  8
LAYER_1
 10
7.205145206755287
 20
11.88880398789033
 30
0.0
  0
VERTEX
  5
285
  8
LAYER_1
 10
7.203591894607031
 20
11.8833828039318
 30
0.0
  0
VERTEX
  5
286
  8
LAYER_1
 10
7.202803209970642
 20
11.8769127942693
 30
0.0
  0
VERTEX
  5
287
  8
LAYER_1
 10
7.202609666410041
 20
11.85852402447023
 30
0.0
  0
VERTEX
  5
288
  8
LAYER_1
 10
7.202503049225736
 20
11.84972427913761
 30
0.0
  0
VERTEX
  5
289
  8
LAYER_1
 10
7.201938104024778
 20
11.84105467117768
 30
0.0
  0
VERTEX
  5
28A
  8
LAYER_1
 10
7.200864530005839
 20
11.83226985822444
 30
0.0
  0
VERTEX
  5
28B
  8
LAYER_1
 10
7.199232026367589
 20
11.82312449791191
 30
0.0
  0
VERTEX
  5
28C
  8
LAYER_1
 10
7.196990292308699
 20
11.81337324787409
 30
0.0
  0
VERTEX
  5
28D
  8
LAYER_1
 10
7.194089027027841
 20
11.80277076574498
 30
0.0
  0
VERTEX
  5
28E
  8
LAYER_1
 10
7.190477929723685
 20
11.7910717091586
 30
0.0
  0
VERTEX
  5
28F
  8
LAYER_1
 10
7.186106699594902
 20
11.77803073574896
 30
0.0
  0
VERTEX
  5
290
  8
LAYER_1
 10
7.169229306388338
 20
11.72920548148733
 30
0.0
  0
VERTEX
  5
291
  8
LAYER_1
 10
7.155970010136684
 20
11.74404521063399
 30
0.0
  0
VERTEX
  5
292
  8
LAYER_1
 10
7.152452648860171
 20
11.74834299147637
 30
0.0
  0
VERTEX
  5
293
  8
LAYER_1
 10
7.149389465807243
 20
11.75291901312918
 30
0.0
  0
VERTEX
  5
294
  8
LAYER_1
 10
7.146720834732721
 20
11.75793633053478
 30
0.0
  0
VERTEX
  5
295
  8
LAYER_1
 10
7.144387129391433
 20
11.76355799863551
 30
0.0
  0
VERTEX
  5
296
  8
LAYER_1
 10
7.142328723538199
 20
11.76994707237374
 30
0.0
  0
VERTEX
  5
297
  8
LAYER_1
 10
7.140485990927845
 20
11.77726660669182
 30
0.0
  0
VERTEX
  5
298
  8
LAYER_1
 10
7.138799305315194
 20
11.78567965653211
 30
0.0
  0
VERTEX
  5
299
  8
LAYER_1
 10
7.137209040455069
 20
11.79534927683695
 30
0.0
  0
VERTEX
  5
29A
  8
LAYER_1
 10
7.128958302200855
 20
11.84824802270778
 30
0.0
  0
VERTEX
  5
29B
  8
LAYER_1
 10
7.125828330568859
 20
11.86555032115106
 30
0.0
  0
VERTEX
  5
29C
  8
LAYER_1
 10
7.12297876764755
 20
11.87821856085637
 30
0.0
  0
VERTEX
  5
29D
  8
LAYER_1
 10
7.12012222122239
 20
11.88735073501631
 30
0.0
  0
VERTEX
  5
29E
  8
LAYER_1
 10
7.116971299078841
 20
11.89404483682346
 30
0.0
  0
VERTEX
  5
29F
  8
LAYER_1
 10
7.113238609002362
 20
11.89939885947042
 30
0.0
  0
VERTEX
  5
2A0
  8
LAYER_1
 10
7.108636758778417
 20
11.90451079614977
 30
0.0
  0
VERTEX
  5
2A1
  8
LAYER_1
 10
7.104536804310733
 20
11.90857113030829
 30
0.0
  0
VERTEX
  5
2A2
  8
LAYER_1
 10
7.100708147052377
 20
11.91178627466507
 30
0.0
  0
VERTEX
  5
2A3
  8
LAYER_1
 10
7.096883126930283
 20
11.91424986987851
 30
0.0
  0
VERTEX
  5
2A4
  8
LAYER_1
 10
7.092794083871391
 20
11.91605555660702
 30
0.0
  0
VERTEX
  5
2A5
  8
LAYER_1
 10
7.088173357802637
 20
11.917296975509
 30
0.0
  0
VERTEX
  5
2A6
  8
LAYER_1
 10
7.082753288650955
 20
11.91806776724286
 30
0.0
  0
VERTEX
  5
2A7
  8
LAYER_1
 10
7.076266216343285
 20
11.91846157246701
 30
0.0
  0
VERTEX
  5
2A8
  8
LAYER_1
 10
7.068444480806562
 20
11.91857203183986
 30
0.0
  0
VERTEX
  5
2A9
  8
LAYER_1
 10
7.060651346837474
 20
11.91845862512593
 30
0.0
  0
VERTEX
  5
2AA
  8
LAYER_1
 10
7.054157331749282
 20
11.91805740984952
 30
0.0
  0
VERTEX
  5
2AB
  8
LAYER_1
 10
7.048697426597492
 20
11.91727689330876
 30
0.0
  0
VERTEX
  5
2AC
  8
LAYER_1
 10
7.044006622437609
 20
11.91602558280175
 30
0.0
  0
VERTEX
  5
2AD
  8
LAYER_1
 10
7.039819910325138
 20
11.91421198562661
 30
0.0
  0
VERTEX
  5
2AE
  8
LAYER_1
 10
7.035872281315583
 20
11.91174460908145
 30
0.0
  0
VERTEX
  5
2AF
  8
LAYER_1
 10
7.031898726464449
 20
11.90853196046437
 30
0.0
  0
VERTEX
  5
2B0
  8
LAYER_1
 10
7.027634236827243
 20
11.9044825470735
 30
0.0
  0
VERTEX
  5
2B1
  8
LAYER_1
 10
7.021658072406583
 20
11.89775361413643
 30
0.0
  0
VERTEX
  5
2B2
  8
LAYER_1
 10
7.019040108466299
 20
11.89411958834929
 30
0.0
  0
VERTEX
  5
2B3
  8
LAYER_1
 10
7.016643850670837
 20
11.89021406035778
 30
0.0
  0
VERTEX
  5
2B4
  8
LAYER_1
 10
7.01445051949379
 20
11.88596818316794
 30
0.0
  0
VERTEX
  5
2B5
  8
LAYER_1
 10
7.01244133540875
 20
11.8813131097858
 30
0.0
  0
VERTEX
  5
2B6
  8
LAYER_1
 10
7.01059751888931
 20
11.87617999321739
 30
0.0
  0
VERTEX
  5
2B7
  8
LAYER_1
 10
7.008900290409064
 20
11.87049998646874
 30
0.0
  0
VERTEX
  5
2B8
  8
LAYER_1
 10
7.005870479460529
 20
11.85722391445484
 30
0.0
  0
VERTEX
  5
2B9
  8
LAYER_1
 10
7.003201666351885
 20
11.84093411779235
 30
0.0
  0
VERTEX
  5
2BA
  8
LAYER_1
 10
7.00074361487188
 20
11.82107982052953
 30
0.0
  0
VERTEX
  5
2BB
  8
LAYER_1
 10
6.998346088809257
 20
11.79711024671461
 30
0.0
  0
VERTEX
  5
2BC
  8
LAYER_1
 10
6.993316597865892
 20
11.74257638400531
 30
0.0
  0
VERTEX
  5
2BD
  8
LAYER_1
 10
6.986094879645641
 20
11.71880413973276
 30
0.0
  0
VERTEX
  5
2BE
  8
LAYER_1
 10
6.982279876636031
 20
11.70824840548443
 30
0.0
  0
VERTEX
  5
2BF
  8
LAYER_1
 10
6.977231022269466
 20
11.69708076459045
 30
0.0
  0
VERTEX
  5
2C0
  8
LAYER_1
 10
6.971605672241781
 20
11.68663240754008
 30
0.0
  0
VERTEX
  5
2C1
  8
LAYER_1
 10
6.966061182248808
 20
11.67823452482254
 30
0.0
  0
VERTEX
  5
2C2
  8
LAYER_1
 10
6.962262747123537
 20
11.67298640992803
 30
0.0
  0
VERTEX
  5
2C3
  8
LAYER_1
 10
6.959286856044469
 20
11.66807923494608
 30
0.0
  0
VERTEX
  5
2C4
  8
LAYER_1
 10
6.957036085235385
 20
11.66308339348105
 30
0.0
  0
VERTEX
  5
2C5
  8
LAYER_1
 10
6.955413010920074
 20
11.65756927913732
 30
0.0
  0
VERTEX
  5
2C6
  8
LAYER_1
 10
6.954320209322317
 20
11.65110728551924
 30
0.0
  0
VERTEX
  5
2C7
  8
LAYER_1
 10
6.9536602566659
 20
11.64326780623118
 30
0.0
  0
VERTEX
  5
2C8
  8
LAYER_1
 10
6.953249203072225
 20
11.62173796506261
 30
0.0
  0
VERTEX
  5
2C9
  8
LAYER_1
 10
6.952857186872133
 20
11.60458059887416
 30
0.0
  0
VERTEX
  5
2CA
  8
LAYER_1
 10
6.951711142296896
 20
11.59141594017462
 30
0.0
  0
VERTEX
  5
2CB
  8
LAYER_1
 10
6.950869423755334
 20
11.5864340076498
 30
0.0
  0
VERTEX
  5
2CC
  8
LAYER_1
 10
6.949856075384071
 20
11.58257400981714
 30
0.0
  0
VERTEX
  5
2CD
  8
LAYER_1
 10
6.948676722937801
 20
11.57987719928328
 30
0.0
  0
VERTEX
  5
2CE
  8
LAYER_1
 10
6.94733699217122
 20
11.57838482865485
 30
0.0
  0
VERTEX
  5
2CF
  8
LAYER_1
 10
6.94512253605493
 20
11.57747938401586
 30
0.0
  0
VERTEX
  5
2D0
  8
LAYER_1
 10
6.941071684992417
 20
11.57630326315084
 30
0.0
  0
VERTEX
  5
2D1
  8
LAYER_1
 10
6.928383179766925
 20
11.57333675152311
 30
0.0
  0
VERTEX
  5
2D2
  8
LAYER_1
 10
6.911116239971127
 20
11.56988081133232
 30
0.0
  0
VERTEX
  5
2D3
  8
LAYER_1
 10
6.891115629081408
 20
11.56633096013916
 30
0.0
  0
VERTEX
  5
2D4
  8
LAYER_1
 10
6.840806476892602
 20
11.55793103890895
 30
0.0
  0
VERTEX
  5
2D5
  8
LAYER_1
 10
6.82762110562512
 20
11.54929165184021
 30
0.0
  0
VERTEX
  5
2D6
  8
LAYER_1
 10
6.824263887389855
 20
11.54689029939898
 30
0.0
  0
VERTEX
  5
2D7
  8
LAYER_1
 10
6.821460330740489
 20
11.54442231880456
 30
0.0
  0
VERTEX
  5
2D8
  8
LAYER_1
 10
6.819177754430762
 20
11.54182705044975
 30
0.0
  0
VERTEX
  5
2D9
  8
LAYER_1
 10
6.817383477214416
 20
11.53904383472739
 30
0.0
  0
VERTEX
  5
2DA
  8
LAYER_1
 10
6.81604481784519
 20
11.53601201203029
 30
0.0
  0
VERTEX
  5
2DB
  8
LAYER_1
 10
6.815129095076825
 20
11.53267092275128
 30
0.0
  0
VERTEX
  5
2DC
  8
LAYER_1
 10
6.814603627663063
 20
11.52895990728318
 30
0.0
  0
VERTEX
  5
2DD
  8
LAYER_1
 10
6.814435734357644
 20
11.52481830601881
 30
0.0
  0
VERTEX
  5
2DE
  8
LAYER_1
 10
6.814776969200221
 20
11.51774942498681
 30
0.0
  0
VERTEX
  5
2DF
  8
LAYER_1
 10
6.815937666131477
 20
11.51149533129703
 30
0.0
  0
VERTEX
  5
2E0
  8
LAYER_1
 10
6.816889528069515
 20
11.5085894502145
 30
0.0
  0
VERTEX
  5
2E1
  8
LAYER_1
 10
6.818123313756706
 20
11.50578601057835
 30
0.0
  0
VERTEX
  5
2E2
  8
LAYER_1
 10
6.819664709268713
 20
11.5030512605922
 30
0.0
  0
VERTEX
  5
2E3
  8
LAYER_1
 10
6.821539400681198
 20
11.50035144845965
 30
0.0
  0
VERTEX
  5
2E4
  8
LAYER_1
 10
6.826391415510244
 20
11.49492163056982
 30
0.0
  0
VERTEX
  5
2E5
  8
LAYER_1
 10
6.832884846849135
 20
11.48922654253774
 30
0.0
  0
VERTEX
  5
2E6
  8
LAYER_1
 10
6.841225183303164
 20
11.48299616999229
 30
0.0
  0
VERTEX
  5
2E7
  8
LAYER_1
 10
6.851617913477622
 20
11.47596049856236
 30
0.0
  0
VERTEX
  5
2E8
  8
LAYER_1
 10
6.876406032890941
 20
11.45971551205281
 30
0.0
  0
VERTEX
  5
2E9
  8
LAYER_1
 10
6.87470528728069
 20
11.42019267631183
 30
0.0
  0
VERTEX
  5
2EA
  8
LAYER_1
 10
6.874175919239088
 20
11.39908590434431
 30
0.0
  0
VERTEX
  5
2EB
  8
LAYER_1
 10
6.874438380580226
 20
11.39144083852752
 30
0.0
  0
VERTEX
  5
2EC
  8
LAYER_1
 10
6.875135513782782
 20
11.3852352974082
 30
0.0
  0
VERTEX
  5
2ED
  8
LAYER_1
 10
6.876329750061845
 20
11.38009476442594
 30
0.0
  0
VERTEX
  5
2EE
  8
LAYER_1
 10
6.878083520632509
 20
11.37564472302036
 30
0.0
  0
VERTEX
  5
2EF
  8
LAYER_1
 10
6.880459256709865
 20
11.37151065663106
 30
0.0
  0
VERTEX
  5
2F0
  8
LAYER_1
 10
6.883519389509004
 20
11.36731804869766
 30
0.0
  0
VERTEX
  5
2F1
  8
LAYER_1
 10
6.894034237347554
 20
11.35396625682446
 30
0.0
  0
VERTEX
  5
2F2
  8
LAYER_1
 10
6.819302009664753
 20
11.21706825244297
 30
0.0
  0
VERTEX
  5
2F3
  8
LAYER_1
 10
6.804621906395475
 20
11.18182345746265
 30
0.0
  0
VERTEX
  5
2F4
  8
LAYER_1
 10
6.798520787589057
 20
11.16554061333368
 30
0.0
  0
VERTEX
  5
2F5
  8
LAYER_1
 10
6.792877860768905
 20
11.14728883313656
 30
0.0
  0
VERTEX
  5
2F6
  8
LAYER_1
 10
6.787802633287461
 20
11.12763237847321
 30
0.0
  0
VERTEX
  5
2F7
  8
LAYER_1
 10
6.783404612497167
 20
11.10713551094554
 30
0.0
  0
VERTEX
  5
2F8
  8
LAYER_1
 10
6.779793305750466
 20
11.08636249215545
 30
0.0
  0
VERTEX
  5
2F9
  8
LAYER_1
 10
6.777078220399798
 20
11.06587758370485
 30
0.0
  0
VERTEX
  5
2FA
  8
LAYER_1
 10
6.775368863797607
 20
11.04624504719565
 30
0.0
  0
VERTEX
  5
2FB
  8
LAYER_1
 10
6.774774743296334
 20
11.02802914422975
 30
0.0
  0
VERTEX
  5
2FC
  8
LAYER_1
 10
6.77484660474267
 20
11.0178843506255
 30
0.0
  0
VERTEX
  5
2FD
  8
LAYER_1
 10
6.775202700076723
 20
11.00986011075398
 30
0.0
  0
VERTEX
  5
2FE
  8
LAYER_1
 10
6.776053795791057
 20
11.00341841257485
 30
0.0
  0
VERTEX
  5
2FF
  8
LAYER_1
 10
6.777610658378238
 20
10.99802124404781
 30
0.0
  0
VERTEX
  5
300
  8
LAYER_1
 10
6.78008405433083
 20
10.99313059313253
 30
0.0
  0
VERTEX
  5
301
  8
LAYER_1
 10
6.783684750141399
 20
10.98820844778869
 30
0.0
  0
VERTEX
  5
302
  8
LAYER_1
 10
6.795111107306724
 20
10.97611762565405
 30
0.0
  0
VERTEX
  5
303
  8
LAYER_1
 10
6.802063296686008
 20
10.96955976427891
 30
0.0
  0
VERTEX
  5
304
  8
LAYER_1
 10
6.809268284203041
 20
10.96352078429847
 30
0.0
  0
VERTEX
  5
305
  8
LAYER_1
 10
6.816703665355281
 20
10.95799762550157
 30
0.0
  0
VERTEX
  5
306
  8
LAYER_1
 10
6.824347035640182
 20
10.95298722767701
 30
0.0
  0
VERTEX
  5
307
  8
LAYER_1
 10
6.832175990555197
 20
10.94848653061363
 30
0.0
  0
VERTEX
  5
308
  8
LAYER_1
 10
6.840168125597783
 20
10.94449247410023
 30
0.0
  0
VERTEX
  5
309
  8
LAYER_1
 10
6.848301036265394
 20
10.94100199792565
 30
0.0
  0
VERTEX
  5
30A
  8
LAYER_1
 10
6.856552318055485
 20
10.93801204187869
 30
0.0
  0
VERTEX
  5
30B
  8
LAYER_1
 10
6.864899566465509
 20
10.93551954574817
 30
0.0
  0
VERTEX
  5
30C
  8
LAYER_1
 10
6.873320376992924
 20
10.93352144932294
 30
0.0
  0
VERTEX
  5
30D
  8
LAYER_1
 10
6.881792345135183
 20
10.93201469239178
 30
0.0
  0
VERTEX
  5
30E
  8
LAYER_1
 10
6.89029306638974
 20
10.93099621474354
 30
0.0
  0
VERTEX
  5
30F
  8
LAYER_1
 10
6.89880013625405
 20
10.93046295616703
 30
0.0
  0
VERTEX
  5
310
  8
LAYER_1
 10
6.907291150225569
 20
10.93041185645106
 30
0.0
  0
VERTEX
  5
311
  8
LAYER_1
 10
6.915743703801752
 20
10.93083985538446
 30
0.0
  0
VERTEX
  5
312
  8
LAYER_1
 10
6.924135392480052
 20
10.93174389275605
 30
0.0
  0
VERTEX
  5
313
  8
LAYER_1
 10
6.932443811757925
 20
10.93312090835465
 30
0.0
  0
VERTEX
  5
314
  8
LAYER_1
 10
6.940646557132826
 20
10.93496784196908
 30
0.0
  0
VERTEX
  5
315
  8
LAYER_1
 10
6.94872122410221
 20
10.93728163338815
 30
0.0
  0
VERTEX
  5
316
  8
LAYER_1
 10
6.956645408163531
 20
10.9400592224007
 30
0.0
  0
VERTEX
  5
317
  8
LAYER_1
 10
6.964396704814244
 20
10.94329754879553
 30
0.0
  0
VERTEX
  5
318
  8
LAYER_1
 10
6.971952709551804
 20
10.94699355236147
 30
0.0
  0
VERTEX
  5
319
  8
LAYER_1
 10
6.979291017873666
 20
10.95114417288734
 30
0.0
  0
VERTEX
  5
31A
  8
LAYER_1
 10
6.986389225277284
 20
10.95574635016195
 30
0.0
  0
VERTEX
  5
31B
  8
LAYER_1
 10
6.993224927260114
 20
10.96079702397413
 30
0.0
  0
VERTEX
  5
31C
  8
LAYER_1
 10
6.999775719319609
 20
10.9662931341127
 30
0.0
  0
VERTEX
  5
31D
  8
LAYER_1
 10
7.006019196953226
 20
10.97223162036648
 30
0.0
  0
VERTEX
  5
31E
  8
LAYER_1
 10
7.011932955658417
 20
10.97860942252428
 30
0.0
  0
VERTEX
  5
31F
  8
LAYER_1
 10
7.017494590932639
 20
10.98542348037493
 30
0.0
  0
VERTEX
  5
320
  8
LAYER_1
 10
7.022681698273347
 20
10.99267073370725
 30
0.0
  0
VERTEX
  5
321
  8
LAYER_1
 10
7.027471873177995
 20
11.00034812231005
 30
0.0
  0
VERTEX
  5
322
  8
LAYER_1
 10
7.031842711144037
 20
11.00845258597216
 30
0.0
  0
VERTEX
  5
323
  8
LAYER_1
 10
7.043182022315968
 20
11.03115735684308
 30
0.0
  0
VERTEX
  5
324
  8
LAYER_1
 10
7.073835411753741
 20
11.03115735684308
 30
0.0
  0
VERTEX
  5
325
  8
LAYER_1
 10
7.083160931876362
 20
11.03134211669519
 30
0.0
  0
VERTEX
  5
326
  8
LAYER_1
 10
7.091616600148003
 20
11.03201214168793
 30
0.0
  0
VERTEX
  5
327
  8
LAYER_1
 10
7.099781489092845
 20
11.03334104997592
 30
0.0
  0
VERTEX
  5
328
  8
LAYER_1
 10
7.108234671235071
 20
11.03550245971378
 30
0.0
  0
VERTEX
  5
329
  8
LAYER_1
 10
7.117555219098861
 20
11.03866998905614
 30
0.0
  0
VERTEX
  5
32A
  8
LAYER_1
 10
7.128322205208398
 20
11.04301725615761
 30
0.0
  0
VERTEX
  5
32B
  8
LAYER_1
 10
7.156511782261433
 20
11.0559454762564
 30
0.0
  0
VERTEX
  5
32C
  8
LAYER_1
 10
7.20853476333135
 20
11.08073359566972
 30
0.0
  0
VERTEX
  5
32D
  8
LAYER_1
 10
7.220141112129301
 20
11.08073359566972
 30
0.0
  0
VERTEX
  5
32E
  8
LAYER_1
 10
7.237668119480873
 20
11.02743913893108
 30
0.0
  0
VERTEX
  5
32F
  8
LAYER_1
 10
7.245715543245698
 20
11.00222105942719
 30
0.0
  0
VERTEX
  5
330
  8
LAYER_1
 10
7.253258960991577
 20
10.97696666022666
 30
0.0
  0
VERTEX
  5
331
  8
LAYER_1
 10
7.260332896050382
 20
10.95146240261806
 30
0.0
  0
VERTEX
  5
332
  8
LAYER_1
 10
7.266971871753987
 20
10.92549474788995
 30
0.0
  0
VERTEX
  5
333
  8
LAYER_1
 10
7.273210411434265
 20
10.89885015733091
 30
0.0
  0
VERTEX
  5
334
  8
LAYER_1
 10
7.279083038423087
 20
10.87131509222949
 30
0.0
  0
VERTEX
  5
335
  8
LAYER_1
 10
7.284624276052329
 20
10.84267601387427
 30
0.0
  0
VERTEX
  5
336
  8
LAYER_1
 10
7.28986864765386
 20
10.81271938355382
 30
0.0
  0
VERTEX
  5
337
  8
LAYER_1
 10
7.294850676559556
 20
10.7812316625567
 30
0.0
  0
VERTEX
  5
338
  8
LAYER_1
 10
7.299604886101289
 20
10.74799931217148
 30
0.0
  0
VERTEX
  5
339
  8
LAYER_1
 10
7.304165799610931
 20
10.71280879368672
 30
0.0
  0
VERTEX
  5
33A
  8
LAYER_1
 10
7.308567940420355
 20
10.675446568391
 30
0.0
  0
VERTEX
  5
33B
  8
LAYER_1
 10
7.312845831861435
 20
10.63569909757288
 30
0.0
  0
VERTEX
  5
33C
  8
LAYER_1
 10
7.317033997266043
 20
10.59335284252093
 30
0.0
  0
VERTEX
  5
33D
  8
LAYER_1
 10
7.325279243293334
 20
10.5000098248698
 30
0.0
  0
VERTEX
  5
33E
  8
LAYER_1
 10
6.901794266975379
 20
10.50000511677946
 30
0.0
  0
VERTEX
  5
33F
  8
LAYER_1
 10
5.409366640955678
 20
10.50000511677946
 30
0.0
  0
VERTEX
  5
340
  8
LAYER_1
 10
5.218115559957148
 20
10.50000511369355
 30
0.0
  0
VERTEX
  5
341
  8
LAYER_1
 10
5.218125192665667
 20
10.77048302361579
 30
0.0
  0
VERTEX
  5
342
  8
LAYER_1
 10
5.243722955193221
 20
10.77759080221819
 30
0.0
  0
VERTEX
  5
343
  8
LAYER_1
 10
5.269014454413769
 20
10.78557081254699
 30
0.0
  0
VERTEX
  5
344
  8
LAYER_1
 10
5.294000645075538
 20
10.79442306845029
 30
0.0
  0
VERTEX
  5
345
  8
LAYER_1
 10
5.31868248192675
 20
10.80414758377619
 30
0.0
  0
VERTEX
  5
346
  8
LAYER_1
 10
5.341714256533093
 20
10.81398720051626
 30
0.0
  0
VERTEX
  5
347
  8
LAYER_1
 10
5.364584203239981
 20
10.82443999165715
 30
0.0
  0
VERTEX
  5
348
  8
LAYER_1
 10
5.387175930352608
 20
10.83557942474987
 30
0.0
  0
VERTEX
  5
349
  8
LAYER_1
 10
5.409373046176169
 20
10.84747896734543
 30
0.0
  0
VERTEX
  5
34A
  8
LAYER_1
 10
5.431059159015859
 20
10.86021208699484
 30
0.0
  0
VERTEX
  5
34B
  8
LAYER_1
 10
5.452117877176869
 20
10.8738522512491
 30
0.0
  0
VERTEX
  5
34C
  8
LAYER_1
 10
5.462375590848245
 20
10.88103543371274
 30
0.0
  0
VERTEX
  5
34D
  8
LAYER_1
 10
5.472432808964397
 20
10.88847292765921
 30
0.0
  0
VERTEX
  5
34E
  8
LAYER_1
 10
5.482274982563479
 20
10.8961739165324
 30
0.0
  0
VERTEX
  5
34F
  8
LAYER_1
 10
5.491887562683637
 20
10.90414758377619
 30
0.0
  0
VERTEX
  5
350
  8
LAYER_1
 10
5.499115340207481
 20
10.91088250319118
 30
0.0
  0
VERTEX
  5
351
  8
LAYER_1
 10
5.505814827382954
 20
10.91813285078406
 30
0.0
  0
VERTEX
  5
352
  8
LAYER_1
 10
5.512108657043271
 20
10.92578057149832
 30
0.0
  0
VERTEX
  5
353
  8
LAYER_1
 10
5.51811946202165
 20
10.93370761027744
 30
0.0
  0
VERTEX
  5
354
  8
LAYER_1
 10
5.529782529265463
 20
10.9499274218042
 30
0.0
  0
VERTEX
  5
355
  8
LAYER_1
 10
5.53568005719733
 20
10.9579840844388
 30
0.0
  0
VERTEX
  5
356
  8
LAYER_1
 10
5.541785091780127
 20
10.9658478449122
 30
0.0
  0
VERTEX
  5
357
  8
LAYER_1
 10
5.791785091780127
 20
10.9658478449122
 30
0.0
 42
0.3937258151815996
  0
VERTEX
  5
358
  8
LAYER_1
 10
5.666785091780127
 20
11.3408478449122
 30
0.0
  0
VERTEX
  5
359
  8
LAYER_1
 10
5.45465305742416
 20
11.12871581055623
 30
0.0
  0
VERTEX
  5
35A
  8
LAYER_1
 10
5.417402589940096
 20
11.12998039459323
 30
0.0
  0
VERTEX
  5
35B
  8
LAYER_1
 10
5.377773750929276
 20
11.13037191552514
 30
0.0
  0
VERTEX
  5
35C
  8
LAYER_1
 10
5.336597156479563
 20
11.13044564800068
 30
0.0
  0
VERTEX
  5
35D
  8
LAYER_1
 10
5.29470342267882
 20
11.13075686666853
 30
0.0
  0
VERTEX
  5
35E
  8
LAYER_1
 10
5.252923165614913
 20
11.13186084617741
 30
0.0
  0
VERTEX
  5
35F
  8
LAYER_1
 10
5.23233515838673
 20
11.13288364457495
 30
0.0
  0
VERTEX
  5
360
  8
LAYER_1
 10
5.212087001375705
 20
11.134312861176
 30
0.0
  0
VERTEX
  5
361
  8
LAYER_1
 10
5.192282521592821
 20
11.13621790531166
 30
0.0
  0
VERTEX
  5
362
  8
LAYER_1
 10
5.17302554604906
 20
11.13866818631301
 30
0.0
  0
VERTEX
  5
363
  8
LAYER_1
 10
5.154419901755407
 20
11.14173311351114
 30
0.0
  0
VERTEX
  5
364
  8
LAYER_1
 10
5.136569415722843
 20
11.14548209623714
 30
0.0
  0
VERTEX
  5
365
  8
LAYER_1
 10
5.123322568320223
 20
11.14895454562899
 30
0.0
  0
VERTEX
  5
366
  8
LAYER_1
 10
5.109798099606612
 20
11.15313983978669
 30
0.0
  0
VERTEX
  5
367
  8
LAYER_1
 10
5.096042449225859
 20
11.1579565192879
 30
0.0
  0
VERTEX
  5
368
  8
LAYER_1
 10
5.082102056821818
 20
11.16332312471025
 30
0.0
  0
VERTEX
  5
369
  8
LAYER_1
 10
5.068023362038343
 20
11.16915819663139
 30
0.0
  0
VERTEX
  5
36A
  8
LAYER_1
 10
5.053852804519287
 20
11.17538027562896
 30
0.0
  0
VERTEX
  5
36B
  8
LAYER_1
 10
5.025421859849841
 20
11.18865961716399
 30
0.0
  0
VERTEX
  5
36C
  8
LAYER_1
 10
4.969500962013509
 20
11.21627817056758
 30
0.0
  0
VERTEX
  5
36D
  8
LAYER_1
 10
4.942754043148271
 20
11.22931403167845
 30
0.0
  0
VERTEX
  5
36E
  8
LAYER_1
 10
4.917311500519418
 20
11.24096538189025
 30
0.0
  0
VERTEX
  5
36F
  8
LAYER_1
 10
4.919018951283359
 20
11.25578929581024
 30
0.0
  0
VERTEX
  5
370
  8
LAYER_1
 10
4.920067383593501
 20
11.27024653915995
 30
0.0
  0
VERTEX
  5
371
  8
LAYER_1
 10
4.92045679600915
 20
11.28433711731611
 30
0.0
  0
VERTEX
  5
372
  8
LAYER_1
 10
4.920187187089613
 20
11.29806103565546
 30
0.0
  0
VERTEX
  5
373
  8
LAYER_1
 10
4.919258555394201
 20
11.31141829955473
 30
0.0
  0
VERTEX
  5
374
  8
LAYER_1
 10
4.91767089948222
 20
11.32440891439067
 30
0.0
  0
VERTEX
  5
375
  8
LAYER_1
 10
4.915424217912979
 20
11.33703288553999
 30
0.0
  0
VERTEX
  5
376
  8
LAYER_1
 10
4.912518509245785
 20
11.34929021837945
 30
0.0
  0
VERTEX
  5
377
  8
LAYER_1
 10
4.908953772039947
 20
11.36118091828578
 30
0.0
  0
VERTEX
  5
378
  8
LAYER_1
 10
4.904730004854772
 20
11.3727049906357
 30
0.0
  0
VERTEX
  5
379
  8
LAYER_1
 10
4.899847206249568
 20
11.38386244080596
 30
0.0
  0
VERTEX
  5
37A
  8
LAYER_1
 10
4.894305374783645
 20
11.39465327417329
 30
0.0
  0
VERTEX
  5
37B
  8
LAYER_1
 10
4.888104509016309
 20
11.40507749611443
 30
0.0
  0
VERTEX
  5
37C
  8
LAYER_1
 10
4.88124460750687
 20
11.41513511200612
 30
0.0
  0
VERTEX
  5
37D
  8
LAYER_1
 10
4.873725668814634
 20
11.42482612722509
 30
0.0
  0
VERTEX
  5
37E
  8
LAYER_1
 10
4.865547691498911
 20
11.43415054714806
 30
0.0
  0
VERTEX
  5
37F
  8
LAYER_1
 10
4.858174570616187
 20
11.44154669493251
 30
0.0
  0
VERTEX
  5
380
  8
LAYER_1
 10
4.850217851537082
 20
11.44853901302037
 30
0.0
  0
VERTEX
  5
381
  8
LAYER_1
 10
4.841733100092789
 20
11.45509979657748
 30
0.0
  0
VERTEX
  5
382
  8
LAYER_1
 10
4.832775882114498
 20
11.46120134076973
 30
0.0
  0
VERTEX
  5
383
  8
LAYER_1
 10
4.823401763433404
 20
11.46681594076296
 30
0.0
  0
VERTEX
  5
384
  8
LAYER_1
 10
4.813666309880698
 20
11.47191589172305
 30
0.0
  0
VERTEX
  5
385
  8
LAYER_1
 10
4.803625087287575
 20
11.47647348881586
 30
0.0
  0
VERTEX
  5
386
  8
LAYER_1
 10
4.793333661485227
 20
11.48046102720726
 30
0.0
  0
VERTEX
  5
387
  8
LAYER_1
 10
4.782847598304846
 20
11.48385080206309
 30
0.0
  0
VERTEX
  5
388
  8
LAYER_1
 10
4.772222463577624
 20
11.48661510854923
 30
0.0
  0
VERTEX
  5
389
  8
LAYER_1
 10
4.761513823134756
 20
11.48872624183155
 30
0.0
  0
VERTEX
  5
38A
  8
LAYER_1
 10
4.750777242807432
 20
11.49015649707589
 30
0.0
  0
VERTEX
  5
38B
  8
LAYER_1
 10
4.740068288426847
 20
11.49087816944814
 30
0.0
  0
VERTEX
  5
38C
  8
LAYER_1
 10
4.729442525824193
 20
11.49086355411415
 30
0.0
  0
VERTEX
  5
38D
  8
LAYER_1
 10
4.718955520830661
 20
11.49008494623977
 30
0.0
  0
VERTEX
  5
38E
  8
LAYER_1
 10
4.708662839277448
 20
11.48851464099089
 30
0.0
  0
VERTEX
  5
38F
  8
LAYER_1
 10
4.703039047616214
 20
11.48719963083835
 30
0.0
  0
VERTEX
  5
390
  8
LAYER_1
 10
4.697390947283722
 20
11.48544980582817
 30
0.0
  0
VERTEX
  5
391
  8
LAYER_1
 10
4.691730830221188
 20
11.48329264805732
 30
0.0
  0
VERTEX
  5
392
  8
LAYER_1
 10
4.686070988369821
 20
11.48075563962277
 30
0.0
  0
VERTEX
  5
393
  8
LAYER_1
 10
4.674801298065455
 20
11.47465199915045
 30
0.0
  0
VERTEX
  5
394
  8
LAYER_1
 10
4.663680211900333
 20
11.46735874118694
 30
0.0
  0
VERTEX
  5
395
  8
LAYER_1
 10
4.652806065404163
 20
11.459095722508
 30
0.0
  0
VERTEX
  5
396
  8
LAYER_1
 10
4.642277194106654
 20
11.45008279988938
 30
0.0
  0
VERTEX
  5
397
  8
LAYER_1
 10
4.632191933537515
 20
11.44053983010682
 30
0.0
  0
VERTEX
  5
398
  8
LAYER_1
 10
4.622648619226455
 20
11.43068666993606
 30
0.0
  0
VERTEX
  5
399
  8
LAYER_1
 10
4.613745586703182
 20
11.42074317615286
 30
0.0
  0
VERTEX
  5
39A
  8
LAYER_1
 10
4.605581171497406
 20
11.41092920553297
 30
0.0
  0
VERTEX
  5
39B
  8
LAYER_1
 10
4.598253709138834
 20
11.40146461485212
 30
0.0
  0
VERTEX
  5
39C
  8
LAYER_1
 10
4.591861535157177
 20
11.39256926088607
 30
0.0
  0
VERTEX
  5
39D
  8
LAYER_1
 10
4.586502985082143
 20
11.38446300041057
 30
0.0
  0
VERTEX
  5
39E
  8
LAYER_1
 10
4.582276394443441
 20
11.37736569020135
 30
0.0
  0
VERTEX
  5
39F
  8
LAYER_1
 10
4.579280098770779
 20
11.37149718703418
 30
0.0
  0
VERTEX
  5
3A0
  8
LAYER_1
 10
4.577612433593867
 20
11.36707734768478
 30
0.0
  0
VERTEX
  5
3A1
  8
LAYER_1
 10
4.573337466259744
 20
11.3471971016848
 30
0.0
  0
VERTEX
  5
3A2
  8
LAYER_1
 10
4.567727009504172
 20
11.32012672046099
 30
0.0
  0
VERTEX
  5
3A3
  8
LAYER_1
 10
4.564163100981025
 20
11.30557925194678
 30
0.0
  0
VERTEX
  5
3A4
  8
LAYER_1
 10
4.559955874167735
 20
11.29125507699456
 30
0.0
  0
VERTEX
  5
3A5
  8
LAYER_1
 10
4.557578782450746
 20
11.28438722745503
 30
0.0
  0
VERTEX
  5
3A6
  8
LAYER_1
 10
4.555002180419374
 20
11.277827804727
 30
0.0
  0
VERTEX
  5
3A7
  8
LAYER_1
 10
4.552213174493001
 20
11.27166100995079
 30
0.0
  0
VERTEX
  5
3A8
  8
LAYER_1
 10
4.549198871091015
 20
11.26597104426673
 30
0.0
  0
VERTEX
  5
3A9
  8
LAYER_1
 10
4.355021040562242
 20
11.20206478403158
 30
0.0
  0
VERTEX
  5
3AA
  8
LAYER_1
 10
4.548206205820058
 20
11.15030097501107
 30
0.0
 42
0.486669603405874
  0
VERTEX
  5
3AB
  8
LAYER_1
 10
4.636491338082209
 20
11.11486661843877
 30
0.0
  0
VERTEX
  5
3AC
  8
LAYER_1
 10
4.645464341471083
 20
11.09065220972548
 30
0.0
  0
VERTEX
  5
3AD
  8
LAYER_1
 10
4.650328717568748
 20
11.07881972673363
 30
0.0
  0
VERTEX
  5
3AE
  8
LAYER_1
 10
4.655445013646171
 20
11.06717038489078
 30
0.0
  0
VERTEX
  5
3AF
  8
LAYER_1
 10
4.660813232486554
 20
11.05570417937627
 30
0.0
  0
VERTEX
  5
3B0
  8
LAYER_1
 10
4.666433376873099
 20
11.04442110536946
 30
0.0
  0
VERTEX
  5
3B1
  8
LAYER_1
 10
4.672305449589011
 20
11.0333211580497
 30
0.0
  0
VERTEX
  5
3B2
  8
LAYER_1
 10
4.678429453417492
 20
11.02240433259634
 30
0.0
  0
VERTEX
  5
3B3
  8
LAYER_1
 10
4.684805391141746
 20
11.01167062418872
 30
0.0
  0
VERTEX
  5
3B4
  8
LAYER_1
 10
4.691433265544974
 20
11.00112002800621
 30
0.0
  0
VERTEX
  5
3B5
  8
LAYER_1
 10
4.698313079410383
 20
10.99075253922815
 30
0.0
  0
VERTEX
  5
3B6
  8
LAYER_1
 10
4.705444835521172
 20
10.98056815303389
 30
0.0
  0
VERTEX
  5
3B7
  8
LAYER_1
 10
4.712828536660547
 20
10.97056686460278
 30
0.0
  0
VERTEX
  5
3B8
  8
LAYER_1
 10
4.720464185611709
 20
10.96074866911418
 30
0.0
  0
VERTEX
  5
3B9
  8
LAYER_1
 10
4.728351785157862
 20
10.95111356174743
 30
0.0
  0
VERTEX
  5
3BA
  8
LAYER_1
 10
4.73649133808221
 20
10.94166153768188
 30
0.0
  0
VERTEX
  5
3BB
  8
LAYER_1
 10
4.746588425203335
 20
10.93052781860962
 30
0.0
  0
VERTEX
  5
3BC
  8
LAYER_1
 10
4.756996771603085
 20
10.91963834470669
 30
0.0
  0
VERTEX
  5
3BD
  8
LAYER_1
 10
4.767703609382476
 20
10.908999825878
 30
0.0
  0
VERTEX
  5
3BE
  8
LAYER_1
 10
4.778696170642519
 20
10.89861897202845
 30
0.0
  0
VERTEX
  5
3BF
  8
LAYER_1
 10
4.789961687484224
 20
10.88850249306297
 30
0.0
  0
VERTEX
  5
3C0
  8
LAYER_1
 10
4.801487392008607
 20
10.87865709888645
 30
0.0
  0
VERTEX
  5
3C1
  8
LAYER_1
 10
4.813260516316676
 20
10.86908949940382
 30
0.0
  0
VERTEX
  5
3C2
  8
LAYER_1
 10
4.825268292509445
 20
10.85980640451998
 30
0.0
  0
VERTEX
  5
3C3
  8
LAYER_1
 10
4.837497952687926
 20
10.85081452413984
 30
0.0
  0
VERTEX
  5
3C4
  8
LAYER_1
 10
4.849936728953132
 20
10.84212056816832
 30
0.0
  0
VERTEX
  5
3C5
  8
LAYER_1
 10
4.862571853406074
 20
10.83373124651032
 30
0.0
  0
VERTEX
  5
3C6
  8
LAYER_1
 10
4.875390558147765
 20
10.82565326907076
 30
0.0
  0
VERTEX
  5
3C7
  8
LAYER_1
 10
4.888380075279215
 20
10.81789334575454
 30
0.0
  0
VERTEX
  5
3C8
  8
LAYER_1
 10
4.90152763690144
 20
10.81045818646658
 30
0.0
  0
VERTEX
  5
3C9
  8
LAYER_1
 10
4.914820475115449
 20
10.8033545011118
 30
0.0
  0
VERTEX
  5
3CA
  8
LAYER_1
 10
4.928245822022255
 20
10.79658899959509
 30
0.0
  0
VERTEX
  5
3CB
  8
LAYER_1
 10
4.93875627730026
 20
10.79197011430604
 30
0.0
  0
VERTEX
  5
3CC
  8
LAYER_1
 10
4.9495675605681
 20
10.78805858191115
 30
0.0
  0
VERTEX
  5
3CD
  8
LAYER_1
 10
4.971862467985368
 20
10.7813586126499
 30
0.0
  0
VERTEX
  5
3CE
  8
LAYER_1
 10
4.971867702675763
 20
10.50000511603344
 30
0.0
  0
VERTEX
  5
3CF
  8
LAYER_1
 10
4.969748920735626
 20
10.50000511677946
 30
0.0
  0
VERTEX
  5
3D0
  8
LAYER_1
 10
3.776754896896637
 20
9.181939197363656
 30
0.0
 42
1.0
  0
VERTEX
  5
3D1
  8
LAYER_1
 10
3.776754896896637
 20
8.781939197363654
 30
0.0
  0
VERTEX
  5
3D2
  8
LAYER_1
 10
4.651754896896637
 20
8.781939197363654
 30
0.0
  0
VERTEX
  5
3D3
  8
LAYER_1
 10
4.651754896896637
 20
7.031939197363654
 30
0.0
  0
VERTEX
  5
3D4
  8
LAYER_1
 10
4.65677247533948
 20
6.981718178877975
 30
0.0
  0
VERTEX
  5
3D5
  8
LAYER_1
 10
4.322160650483424
 20
6.985243955037295
 30
0.0
  0
VERTEX
  5
3D6
  8
LAYER_1
 10
4.034511569122476
 20
6.98804616919859
 30
0.0
  0
VERTEX
  5
3D7
  8
LAYER_1
 10
3.921016690669157
 20
6.989435853469071
 30
0.0
  0
VERTEX
  5
3D8
  8
LAYER_1
 10
3.834524858189403
 20
6.990956542766957
 30
0.0
  0
VERTEX
  5
3D9
  8
LAYER_1
 10
3.802994913366674
 20
6.991798503418563
 30
0.0
  0
VERTEX
  5
3DA
  8
LAYER_1
 10
3.780123525049809
 20
6.992712202267885
 30
0.0
  0
VERTEX
  5
3DB
  8
LAYER_1
 10
3.766546624909633
 20
6.993710634961876
 30
0.0
  0
VERTEX
  5
3DC
  8
LAYER_1
 10
3.763442336552936
 20
6.994245687640296
 30
0.0
  0
VERTEX
  5
3DD
  8
LAYER_1
 10
3.762846010316184
 20
6.994522883761805
 30
0.0
  0
VERTEX
  5
3DE
  8
LAYER_1
 10
3.762900144616971
 20
6.994806797147492
 30
0.0
 42
0.3909419475827222
  0
VERTEX
  5
3DF
  8
LAYER_1
 10
3.768439969502701
 20
7.037753063191024
 30
0.0
 42
0.2054305027699929
  0
VERTEX
  5
3E0
  8
LAYER_1
 10
3.723521504568001
 20
7.068590332183389
 30
0.0
 42
-0.0806858900319479
  0
VERTEX
  5
3E1
  8
LAYER_1
 10
3.629012431384208
 20
7.103885574578095
 30
0.0
 42
-0.0400159092115233
  0
VERTEX
  5
3E2
  8
LAYER_1
 10
3.468977934661734
 20
7.213002811271066
 30
0.0
 42
-0.0466753526201397
  0
VERTEX
  5
3E3
  8
LAYER_1
 10
3.349890775921356
 20
7.328872006026463
 30
0.0
 42
0.1035306269499348
  0
VERTEX
  5
3E4
  8
LAYER_1
 10
2.888340812918798
 20
7.686093101817557
 30
0.0
 42
0.1802780167873
  0
VERTEX
  5
3E5
  8
LAYER_1
 10
2.547506933005639
 20
7.718779625691633
 30
0.0
 42
-0.0297131434962467
  0
VERTEX
  5
3E6
  8
LAYER_1
 10
2.197958762436553
 20
7.647301512011166
 30
0.0
 42
-0.1423934836400084
  0
VERTEX
  5
3E7
  8
LAYER_1
 10
1.971927144904235
 20
7.679289802325469
 30
0.0
 42
-0.1688639342192788
  0
VERTEX
  5
3E8
  8
LAYER_1
 10
1.832415771897875
 20
7.811370305578597
 30
0.0
 42
0.0472026577286414
  0
VERTEX
  5
3E9
  8
LAYER_1
 10
1.418500050137347
 20
8.453574820100163
 30
0.0
 42
0.1727981206552637
  0
VERTEX
  5
3EA
  8
LAYER_1
 10
1.181941165922748
 20
8.602455607379715
 30
0.0
  0
VERTEX
  5
3EB
  8
LAYER_1
 10
1.13549355881301
 20
8.612363592160031
 30
0.0
  0
VERTEX
  5
3EC
  8
LAYER_1
 10
1.088874768244154
 20
8.621400280178822
 30
0.0
  0
VERTEX
  5
3ED
  8
LAYER_1
 10
1.042096302881321
 20
8.629563267691278
 30
0.0
  0
VERTEX
  5
3EE
  8
LAYER_1
 10
0.9951696713896503
 20
8.636850150952588
 30
0.0
  0
VERTEX
  5
3EF
  8
LAYER_1
 10
0.9916030843537571
 20
8.647526594857485
 30
0.0
  0
VERTEX
  5
3F0
  8
LAYER_1
 10
0.98858154028306
 20
8.65953321228341
 30
0.0
  0
VERTEX
  5
3F1
  8
LAYER_1
 10
0.9859668075133473
 20
8.672594833808862
 30
0.0
  0
VERTEX
  5
3F2
  8
LAYER_1
 10
0.9836206543804074
 20
8.686436290012328
 30
0.0
  0
VERTEX
  5
3F3
  8
LAYER_1
 10
0.9791811603680001
 20
8.715358028767277
 30
0.0
  0
VERTEX
  5
3F4
  8
LAYER_1
 10
0.9768113561601094
 20
8.729887972475746
 30
0.0
  0
VERTEX
  5
3F5
  8
LAYER_1
 10
0.9741572049321454
 20
8.744097073176201
 30
0.0
  0
VERTEX
  5
3F6
  8
LAYER_1
 10
0.9710804750198966
 20
8.757710161447134
 30
0.0
  0
VERTEX
  5
3F7
  8
LAYER_1
 10
0.9674429347591512
 20
8.770452067867037
 30
0.0
  0
VERTEX
  5
3F8
  8
LAYER_1
 10
0.9653706633530262
 20
8.776410337438632
 30
0.0
  0
VERTEX
  5
3F9
  8
LAYER_1
 10
0.9631063524856979
 20
8.782047623014405
 30
0.0
  0
VERTEX
  5
3FA
  8
LAYER_1
 10
0.9606327231991396
 20
8.787329528416667
 30
0.0
  0
VERTEX
  5
3FB
  8
LAYER_1
 10
0.9579324965353251
 20
8.792221657467728
 30
0.0
  0
VERTEX
  5
3FC
  8
LAYER_1
 10
0.9549883935362278
 20
8.796689613989903
 30
0.0
  0
VERTEX
  5
3FD
  8
LAYER_1
 10
0.9517831352438211
 20
8.800699001805501
 30
0.0
  0
VERTEX
  5
3FE
  8
LAYER_1
 10
0.9482994427000788
 20
8.804215424736835
 30
0.0
  0
VERTEX
  5
3FF
  8
LAYER_1
 10
0.9445200369469744
 20
8.807204486606214
 30
0.0
  0
VERTEX
  5
400
  8
LAYER_1
 10
0.9404276390264814
 20
8.809631791235953
 30
0.0
  0
VERTEX
  5
401
  8
LAYER_1
 10
0.9360049699805736
 20
8.811462942448362
 30
0.0
  0
VERTEX
  5
402
  8
LAYER_1
 10
0.9312347508512242
 20
8.812663544065751
 30
0.0
  0
VERTEX
  5
403
  8
LAYER_1
 10
0.926099702680407
 20
8.813199199910434
 30
0.0
  0
VERTEX
  5
404
  8
LAYER_1
 10
0.9208790238120544
 20
8.813032403775708
 30
0.0
  0
VERTEX
  5
405
  8
LAYER_1
 10
0.9159780937086583
 20
8.812168069575934
 30
0.0
  0
VERTEX
  5
406
  8
LAYER_1
 10
0.9113819797845812
 20
8.810642163490053
 30
0.0
  0
VERTEX
  5
407
  8
LAYER_1
 10
0.9070757494541856
 20
8.808490651697001
 30
0.0
  0
VERTEX
  5
408
  8
LAYER_1
 10
0.9030444701318336
 20
8.805749500375718
 30
0.0
  0
VERTEX
  5
409
  8
LAYER_1
 10
0.8992732092318878
 20
8.802454675705144
 30
0.0
  0
VERTEX
  5
40A
  8
LAYER_1
 10
0.8957470341687105
 20
8.798642143864218
 30
0.0
  0
VERTEX
  5
40B
  8
LAYER_1
 10
0.8924510123566641
 20
8.79434787103188
 30
0.0
  0
VERTEX
  5
40C
  8
LAYER_1
 10
0.8893702112101111
 20
8.789607823387065
 30
0.0
  0
VERTEX
  5
40D
  8
LAYER_1
 10
0.8864896981434136
 20
8.784457967108718
 30
0.0
  0
VERTEX
  5
40E
  8
LAYER_1
 10
0.8812698059070354
 20
8.77307269336717
 30
0.0
  0
VERTEX
  5
40F
  8
LAYER_1
 10
0.8766718749624287
 20
8.760479779238752
 30
0.0
  0
VERTEX
  5
410
  8
LAYER_1
 10
0.8725764446244924
 20
8.746966954154974
 30
0.0
  0
VERTEX
  5
411
  8
LAYER_1
 10
0.8654152430282278
 20
8.718332488847388
 30
0.0
  0
VERTEX
  5
412
  8
LAYER_1
 10
0.8588305156374346
 20
8.689471132896509
 30
0.0
  0
VERTEX
  5
413
  8
LAYER_1
 10
0.8554556780563376
 20
8.675674694508617
 30
0.0
  0
VERTEX
  5
414
  8
LAYER_1
 10
0.8518665769713057
 20
8.662684721754438
 30
0.0
  0
VERTEX
  5
415
  8
LAYER_1
 10
0.8479437516972381
 20
8.650788944065484
 30
0.0
  0
VERTEX
  5
416
  8
LAYER_1
 10
0.8435677415490339
 20
8.640275090873269
 30
0.0
  0
VERTEX
  5
417
  8
LAYER_1
 10
0.8344074378770976
 20
8.6482130408878
 30
0.0
  0
VERTEX
  5
418
  8
LAYER_1
 10
0.8249864831045584
 20
8.657737868148164
 30
0.0
  0
VERTEX
  5
419
  8
LAYER_1
 10
0.8153361186253896
 20
8.66850590211861
 30
0.0
  0
VERTEX
  5
41A
  8
LAYER_1
 10
0.8054875858335648
 20
8.680173472263391
 30
0.0
  0
VERTEX
  5
41B
  8
LAYER_1
 10
0.785320980887843
 20
8.704832538932962
 30
0.0
  0
VERTEX
  5
41C
  8
LAYER_1
 10
0.775065391521893
 20
8.717136694386255
 30
0.0
  0
VERTEX
  5
41D
  8
LAYER_1
 10
0.7647365994191819
 20
8.728965703870891
 30
0.0
  0
VERTEX
  5
41E
  8
LAYER_1
 10
0.7543658459736835
 20
8.73997589685112
 30
0.0
  0
VERTEX
  5
41F
  8
LAYER_1
 10
0.7439843725793711
 20
8.749823602791196
 30
0.0
  0
VERTEX
  5
420
  8
LAYER_1
 10
0.7387993788370266
 20
8.754204126078752
 30
0.0
  0
VERTEX
  5
421
  8
LAYER_1
 10
0.7336234206302188
 20
8.758165151155366
 30
0.0
  0
VERTEX
  5
422
  8
LAYER_1
 10
0.7284604031331944
 20
8.761663719204066
 30
0.0
  0
VERTEX
  5
423
  8
LAYER_1
 10
0.7233142315201999
 20
8.764656871407887
 30
0.0
  0
VERTEX
  5
424
  8
LAYER_1
 10
0.7181888109654824
 20
8.767101648949858
 30
0.0
  0
VERTEX
  5
425
  8
LAYER_1
 10
0.7130880466432883
 20
8.768955093013009
 30
0.0
  0
VERTEX
  5
426
  8
LAYER_1
 10
0.7080158437278644
 20
8.770174244780373
 30
0.0
  0
VERTEX
  5
427
  8
LAYER_1
 10
0.7029761073934575
 20
8.770716145434982
 30
0.0
  0
VERTEX
  5
428
  8
LAYER_1
 10
0.6979727428143143
 20
8.770537836159868
 30
0.0
  0
VERTEX
  5
429
  8
LAYER_1
 10
0.6930096551646814
 20
8.76959635813806
 30
0.0
  0
VERTEX
  5
42A
  8
LAYER_1
 10
0.6880907496188056
 20
8.767848752552593
 30
0.0
  0
VERTEX
  5
42B
  8
LAYER_1
 10
0.6832199313509335
 20
8.765252060586496
 30
0.0
  0
VERTEX
  5
42C
  8
LAYER_1
 10
0.6790204970303421
 20
8.762414273129336
 30
0.0
  0
VERTEX
  5
42D
  8
LAYER_1
 10
0.6751647723829569
 20
8.75938472559815
 30
0.0
  0
VERTEX
  5
42E
  8
LAYER_1
 10
0.671644418468835
 20
8.756168440860435
 30
0.0
  0
VERTEX
  5
42F
  8
LAYER_1
 10
0.6684510963480332
 20
8.752770441783703
 30
0.0
  0
VERTEX
  5
430
  8
LAYER_1
 10
0.6655764670806084
 20
8.749195751235456
 30
0.0
  0
VERTEX
  5
431
  8
LAYER_1
 10
0.6630121917266172
 20
8.745449392083199
 30
0.0
  0
VERTEX
  5
432
  8
LAYER_1
 10
0.6607499313461167
 20
8.741536387194438
 30
0.0
  0
VERTEX
  5
433
  8
LAYER_1
 10
0.6587813469991638
 20
8.737461759436679
 30
0.0
  0
VERTEX
  5
434
  8
LAYER_1
 10
0.6570980997458153
 20
8.733230531677421
 30
0.0
  0
VERTEX
  5
435
  8
LAYER_1
 10
0.655691850646128
 20
8.728847726784176
 30
0.0
  0
VERTEX
  5
436
  8
LAYER_1
 10
0.6536769911479647
 20
8.719647477065736
 30
0.0
  0
VERTEX
  5
437
  8
LAYER_1
 10
0.6526700569851289
 20
8.709901193221397
 30
0.0
  0
VERTEX
  5
438
  8
LAYER_1
 10
0.6526043366380755
 20
8.699649058191197
 30
0.0
  0
VERTEX
  5
439
  8
LAYER_1
 10
0.6534131185872593
 20
8.688931254915177
 30
0.0
  0
VERTEX
  5
43A
  8
LAYER_1
 10
0.6550296913131353
 20
8.677787966333376
 30
0.0
  0
VERTEX
  5
43B
  8
LAYER_1
 10
0.6573873432961586
 20
8.666259375385831
 30
0.0
  0
VERTEX
  5
43C
  8
LAYER_1
 10
0.6604193630167838
 20
8.654385665012587
 30
0.0
  0
VERTEX
  5
43D
  8
LAYER_1
 10
0.6640590389554661
 20
8.64220701815368
 30
0.0
  0
VERTEX
  5
43E
  8
LAYER_1
 10
0.6682396595926604
 20
8.629763617749152
 30
0.0
  0
VERTEX
  5
43F
  8
LAYER_1
 10
0.6779568888844043
 20
8.60424328806339
 30
0.0
  0
VERTEX
  5
440
  8
LAYER_1
 10
0.6890373587356551
 20
8.578146139475617
 30
0.0
  0
VERTEX
  5
441
  8
LAYER_1
 10
0.700947376990052
 20
8.551793635506147
 30
0.0
  0
VERTEX
  5
442
  8
LAYER_1
 10
0.7251212900828422
 20
8.499608415503396
 30
0.0
  0
VERTEX
  5
443
  8
LAYER_1
 10
0.7363178006085143
 20
8.474418626510747
 30
0.0
  0
VERTEX
  5
444
  8
LAYER_1
 10
0.7462090909118902
 20
8.450259336217677
 30
0.0
  0
VERTEX
  5
445
  8
LAYER_1
 10
0.7504984996813545
 20
8.43866658543358
 30
0.0
  0
VERTEX
  5
446
  8
LAYER_1
 10
0.7542614688366095
 20
8.427452008144495
 30
0.0
  0
VERTEX
  5
447
  8
LAYER_1
 10
0.7574312868581101
 20
8.416655787290466
 30
0.0
  0
VERTEX
  5
448
  8
LAYER_1
 10
0.7599412422263114
 20
8.406318105811527
 30
0.0
  0
VERTEX
  5
449
  8
LAYER_1
 10
0.7468260326397955
 20
8.39112191891237
 30
0.0
  0
VERTEX
  5
44A
  8
LAYER_1
 10
0.733447935023327
 20
8.37615875296322
 30
0.0
  0
VERTEX
  5
44B
  8
LAYER_1
 10
0.7198102365855464
 20
8.361432117968635
 30
0.0
  0
VERTEX
  5
44C
  8
LAYER_1
 10
0.7059162245350947
 20
8.346945523933162
 30
0.0
  0
VERTEX
  5
44D
  8
LAYER_1
 10
0.6917691860806127
 20
8.332702480861352
 30
0.0
  0
VERTEX
  5
44E
  8
LAYER_1
 10
0.6773724084307411
 20
8.31870649875776
 30
0.0
  0
VERTEX
  5
44F
  8
LAYER_1
 10
0.6627291787941207
 20
8.304961087626937
 30
0.0
  0
VERTEX
  5
450
  8
LAYER_1
 10
0.6478427843793924
 20
8.291469757473434
 30
0.0
 42
-0.0501296975004851
  0
VERTEX
  5
451
  8
LAYER_1
 10
0.428399987105692
 20
8.13236066784779
 30
0.0
 42
0.1899374831844196
  0
VERTEX
  5
452
  8
LAYER_1
 10
0.3860943698321719
 20
8.078766062393482
 30
0.0
 42
0.2961968142825499
  0
VERTEX
  5
453
  8
LAYER_1
 10
0.4352822449357809
 20
7.909691546551043
 30
0.0
 42
0.2700168555068811
  0
VERTEX
  5
454
  8
LAYER_1
 10
0.6225799709463651
 20
7.874775683437234
 30
0.0
 42
-0.0551989891295712
  0
VERTEX
  5
455
  8
LAYER_1
 10
0.9621889845403224
 20
7.955320083000549
 30
0.0
 42
-0.2685593232612256
  0
VERTEX
  5
456
  8
LAYER_1
 10
1.032750518761134
 20
7.925307518797803
 30
0.0
 42
-0.0616519250826213
  0
VERTEX
  5
457
  8
LAYER_1
 10
1.083771914805368
 20
7.836352326687104
 30
0.0
 42
-0.0133105100435402
  0
VERTEX
  5
458
  8
LAYER_1
 10
1.255349448515954
 20
7.39527681466368
 30
0.0
 42
-0.046509478831633
  0
VERTEX
  5
459
  8
LAYER_1
 10
1.28644286746276
 20
7.274219823912924
 30
0.0
 42
0.0122758792781648
  0
VERTEX
  5
45A
  8
LAYER_1
 10
1.309189557504403
 20
7.151320744162183
 30
0.0
  0
VERTEX
  5
45B
  8
LAYER_1
 10
1.312907241934306
 20
7.134690890789159
 30
0.0
  0
VERTEX
  5
45C
  8
LAYER_1
 10
1.317031305101504
 20
7.118175404169572
 30
0.0
  0
VERTEX
  5
45D
  8
LAYER_1
 10
1.32155940823329
 20
7.101781727317125
 30
0.0
  0
VERTEX
  5
45E
  8
LAYER_1
 10
1.326489212556954
 20
7.085517303245516
 30
0.0
  0
VERTEX
  5
45F
  8
LAYER_1
 10
1.331818379299785
 20
7.06938957496845
 30
0.0
  0
VERTEX
  5
460
  8
LAYER_1
 10
1.337544569689075
 20
7.053405985499626
 30
0.0
  0
VERTEX
  5
461
  8
LAYER_1
 10
1.343665444952113
 20
7.037573977852746
 30
0.0
  0
VERTEX
  5
462
  8
LAYER_1
 10
1.350178666316189
 20
7.021900995041511
 30
0.0
  0
VERTEX
  5
463
  8
LAYER_1
 10
0.5267548968966373
 20
7.031939197363654
 30
0.0
 42
1.0
  0
VERTEX
  5
464
  8
LAYER_1
 10
0.5267548968966373
 20
6.431939197363656
 30
0.0
  0
VERTEX
  5
465
  8
LAYER_1
 10
1.251754896896635
 20
6.419439197363657
 30
0.0
 42
0.2143618748875326
  0
VERTEX
  5
466
  8
LAYER_1
 10
3.801754896896639
 20
2.277570753088371
 30
0.0
  0
VERTEX
  5
467
  8
LAYER_1
 10
6.901794266975379
 20
2.277570753088371
 30
0.0
  0
VERTEX
  5
468
  8
LAYER_1
 10
10.00183363705412
 20
2.277570753088371
 30
0.0
 42
0.2143618748875326
  0
VERTEX
  5
469
  8
LAYER_1
 10
12.55183363705412
 20
6.419439197363657
 30
0.0
  0
VERTEX
  5
46A
  8
LAYER_1
 10
13.27683363705412
 20
6.431939197363656
 30
0.0
 42
1.0
  0
VERTEX
  5
46B
  8
LAYER_1
 10
13.27683363705412
 20
7.031939197363654
 30
0.0
  0
VERTEX
  5
46C
  8
LAYER_1
 10
12.28342559999611
 20
7.019859354494868
 30
0.0
  0
VERTEX
  5
46D
  8
LAYER_1
 10
11.7376321679759
 20
7.00114861320092
 30
0.0
  0
VERTEX
  5
46E
  8
LAYER_1
 10
11.75053556084375
 20
7.098651208622718
 30
0.0
  0
VERTEX
  5
46F
  8
LAYER_1
 10
11.76398405939445
 20
7.197166114128185
 30
0.0
  0
VERTEX
  5
470
  8
LAYER_1
 10
11.7921249694596
 20
7.396476425223268
 30
0.0
  0
VERTEX
  5
471
  8
LAYER_1
 10
11.82127209000185
 20
7.59756668615243
 30
0.0
  0
VERTEX
  5
472
  8
LAYER_1
 10
11.85064261285168
 20
7.798924036581933
 30
0.0
  0
VERTEX
  5
473
  8
LAYER_1
 10
11.87945372983961
 20
7.999035616178042
 30
0.0
  0
VERTEX
  5
474
  8
LAYER_1
 10
11.89340488358239
 20
8.098151473059279
 30
0.0
  0
VERTEX
  5
475
  8
LAYER_1
 10
11.90692263279613
 20
8.196388564607016
 30
0.0
  0
VERTEX
  5
476
  8
LAYER_1
 10
11.91990912645963
 20
8.293557783279537
 30
0.0
  0
VERTEX
  5
477
  8
LAYER_1
 10
11.93226651355173
 20
8.389470021535121
 30
0.0
  0
VERTEX
  5
478
  8
LAYER_1
 10
11.94389694305121
 20
8.483936171832056
 30
0.0
  0
VERTEX
  5
479
  8
LAYER_1
 10
11.95470256393691
 20
8.576767126628623
 30
0.0
 42
-0.164212645316433
  0
VERTEX
  5
47A
  8
LAYER_1
 10
12.0162914934444
 20
8.683566949840609
 30
0.0
 42
0.3757440149677979
  0
VERTEX
  5
47B
  8
LAYER_1
 10
12.01346235905468
 20
8.909897701018332
 30
0.0
  0
VERTEX
  5
47C
  8
LAYER_1
 10
12.01941352543927
 20
8.955180007247884
 30
0.0
  0
VERTEX
  5
47D
  8
LAYER_1
 10
12.02566948438097
 20
9.000270168340517
 30
0.0
  0
VERTEX
  5
47E
  8
LAYER_1
 10
12.03897560451813
 20
9.090051225393623
 30
0.0
  0
VERTEX
  5
47F
  8
LAYER_1
 10
12.05314036863104
 20
9.179595212734853
 30
0.0
  0
VERTEX
  5
480
  8
LAYER_1
 10
12.06792342588457
 20
9.269256470921407
 30
0.0
  0
VERTEX
  5
481
  8
LAYER_1
 10
12.09838301647309
 20
9.450348162059317
 30
0.0
  0
VERTEX
  5
482
  8
LAYER_1
 10
12.11357884813784
 20
9.54248727612508
 30
0.0
  0
SEQEND
  5
483
  8
LAYER_1
  0
POLYLINE
  5
48
  8
LAYER_1
 66
     1
 10
0.0
 20
0.0
 30
0.0
 70
     1
  0
VERTEX
  5
484
  8
LAYER_1
 10
4.64852152066134
 20
2.710310595687529
 30
0.0
  0
VERTEX
  5
485
  8
LAYER_1
 10
5.64852152066134
 20
2.710310595687529
 30
0.0
  0
VERTEX
  5
486
  8
LAYER_1
 10
5.64852152066134
 20
2.835310595687529
 30
0.0
  0
VERTEX
  5
487
  8
LAYER_1
 10
4.64852152066134
 20
2.835310595687529
 30
0.0
  0
SEQEND
  5
488
  8
LAYER_1
  0
POLYLINE
  5
49
  8
LAYER_1
 66
     1
 10
0.0
 20
0.0
 30
0.0
 70
     1
  0
VERTEX
  5
489
  8
LAYER_1
 10
8.216457648021844
 20
2.71061059568753
 30
0.0
  0
VERTEX
  5
48A
  8
LAYER_1
 10
9.216457648021844
 20
2.71061059568753
 30
0.0
  0
VERTEX
  5
48B
  8
LAYER_1
 10
9.216457648021844
 20
2.83561059568753
 30
0.0
  0
VERTEX
  5
48C
  8
LAYER_1
 10
8.216457648021844
 20
2.83561059568753
 30
0.0
  0
SEQEND
  5
48D
  8
LAYER_1
  0
POLYLINE
  5
4A
  8
LAYER_1
 66
     1
 10
0.0
 20
0.0
 30
0.0
 70
     1
  0
VERTEX
  5
48E
  8
LAYER_1
 10
3.134707824929457
 20
3.397894316339762
 30
0.0
  0
VERTEX
  5
48F
  8
LAYER_1
 10
3.239973798941186
 20
3.465304068715529
 30
0.0
  0
VERTEX
  5
490
  8
LAYER_1
 10
2.835515284686593
 20
4.096899912785901
 30
0.0
  0
VERTEX
  5
491
  8
LAYER_1
 10
2.730249310674864
 20
4.029490160410134
 30
0.0
  0
SEQEND
  5
492
  8
LAYER_1
  0
POLYLINE
  5
4B
  8
LAYER_1
 66
     1
 10
0.0
 20
0.0
 30
0.0
 70
     1
  0
VERTEX
  5
493
  8
LAYER_1
 10
2.04597840069982
 20
5.111653959239582
 30
0.0
  0
VERTEX
  5
494
  8
LAYER_1
 10
2.151244374711549
 20
5.179063711615349
 30
0.0
  0
VERTEX
  5
495
  8
LAYER_1
 10
1.746785860456953
 20
5.810659555685721
 30
0.0
  0
VERTEX
  5
496
  8
LAYER_1
 10
1.641519886445224
 20
5.743249803309954
 30
0.0
  0
SEQEND
  5
497
  8
LAYER_1
  0
POLYLINE
  5
4C
  8
LAYER_1
 66
     1
 10
0.0
 20
0.0
 30
0.0
 70
     1
  0
VERTEX
  5
498
  8
LAYER_1
 10
3.016427749210735
 20
6.56061059568753
 30
0.0
  0
VERTEX
  5
499
  8
LAYER_1
 10
5.016427749210735
 20
6.56061059568753
 30
0.0
  0
VERTEX
  5
49A
  8
LAYER_1
 10
5.016427749210735
 20
6.68561059568753
 30
0.0
  0
VERTEX
  5
49B
  8
LAYER_1
 10
3.016427749210735
 20
6.68561059568753
 30
0.0
  0
SEQEND
  5
49C
  8
LAYER_1
  0
POLYLINE
  5
4D
  8
LAYER_1
 66
     1
 10
0.0
 20
0.0
 30
0.0
 70
     1
  0
VERTEX
  5
49D
  8
LAYER_1
 10
8.585464452256318
 20
6.56061059568753
 30
0.0
  0
VERTEX
  5
49E
  8
LAYER_1
 10
10.58546445225632
 20
6.56061059568753
 30
0.0
  0
VERTEX
  5
49F
  8
LAYER_1
 10
10.58546445225632
 20
6.68561059568753
 30
0.0
  0
VERTEX
  5
4A0
  8
LAYER_1
 10
8.585464452256318
 20
6.68561059568753
 30
0.0
  0
SEQEND
  5
4A1
  8
LAYER_1
  0
POLYLINE
  5
4E
  8
LAYER_1
 66
     1
 10
0.0
 20
0.0
 30
0.0
 70
     1
  0
VERTEX
  5
4A2
  8
LAYER_1
 10
10.6706558694407
 20
3.397845356341572
 30
0.0
  0
VERTEX
  5
4A3
  8
LAYER_1
 10
10.56538989542897
 20
3.465255108717338
 30
0.0
  0
VERTEX
  5
4A4
  8
LAYER_1
 10
10.96984840968356
 20
4.09685095278771
 30
0.0
  0
VERTEX
  5
4A5
  8
LAYER_1
 10
11.07511438369529
 20
4.029441200411943
 30
0.0
  0
SEQEND
  5
4A6
  8
LAYER_1
  0
POLYLINE
  5
4F
  8
LAYER_1
 66
     1
 10
0.0
 20
0.0
 30
0.0
 70
     1
  0
VERTEX
  5
4A7
  8
LAYER_1
 10
11.75938529367034
 20
5.111604999241392
 30
0.0
  0
VERTEX
  5
4A8
  8
LAYER_1
 10
11.65411931965861
 20
5.179014751617158
 30
0.0
  0
VERTEX
  5
4A9
  8
LAYER_1
 10
12.0585778339132
 20
5.81061059568753
 30
0.0
  0
VERTEX
  5
4AA
  8
LAYER_1
 10
12.16384380792493
 20
5.743200843311763
 30
0.0
  0
SEQEND
  5
4AB
  8
LAYER_1
  0
POLYLINE
  5
50
  8
LAYER_1
 66
     1
 10
0.0
 20
0.0
 30
0.0
 70
     1
  0
VERTEX
  5
4AC
  8
LAYER_1
 10
8.895488255336225
 20
7.556360218368239
 30
0.0
  0
VERTEX
  5
4AD
  8
LAYER_1
 10
9.020488255336225
 20
7.556360218368239
 30
0.0
  0
VERTEX
  5
4AE
  8
LAYER_1
 10
9.020488255336225
 20
8.306360218368239
 30
0.0
  0
VERTEX
  5
4AF
  8
LAYER_1
 10
8.895488255336225
 20
8.306360218368239
 30
0.0
  0
SEQEND
  5
4B0
  8
LAYER_1
  0
POLYLINE
  5
51
  8
LAYER_1
 66
     1
 10
0.0
 20
0.0
 30
0.0
 70
     1
  0
VERTEX
  5
4B1
  8
LAYER_1
 10
4.77838095312671
 20
7.56061059568753
 30
0.0
  0
VERTEX
  5
4B2
  8
LAYER_1
 10
4.90338095312671
 20
7.56061059568753
 30
0.0
  0
VERTEX
  5
4B3
  8
LAYER_1
 10
4.90338095312671
 20
8.31061059568753
 30
0.0
  0
VERTEX
  5
4B4
  8
LAYER_1
 10
4.77838095312671
 20
8.31061059568753
 30
0.0
  0
SEQEND
  5
4B5
  8
LAYER_1
  0
POLYLINE
  5
52
  8
LAYER_1
 66
     1
 10
0.0
 20
0.0
 30
0.0
 70
     1
  0
VERTEX
  5
4B6
  8
LAYER_1
 10
4.199813629385222
 20
9.47494380312323
 30
0.0
  0
VERTEX
  5
4B7
  8
LAYER_1
 10
4.291924761479272
 20
9.390442091043814
 30
0.0
  0
VERTEX
  5
4B8
  8
LAYER_1
 10
4.798935033955768
 20
9.943108883608117
 30
0.0
  0
VERTEX
  5
4B9
  8
LAYER_1
 10
4.706823901861718
 20
10.02761059568753
 30
0.0
  0
SEQEND
  5
4BA
  8
LAYER_1
  0
POLYLINE
  5
53
  8
LAYER_1
 66
     1
 10
0.0
 20
0.0
 30
0.0
 70
     1
  0
VERTEX
  5
4BB
  8
LAYER_1
 10
6.567221520661342
 20
10.2468116321057
 30
0.0
  0
VERTEX
  5
4BC
  8
LAYER_1
 10
6.567221520661342
 20
10.3718116321057
 30
0.0
  0
VERTEX
  5
4BD
  8
LAYER_1
 10
5.817221520661342
 20
10.3718116321057
 30
0.0
  0
VERTEX
  5
4BE
  8
LAYER_1
 10
5.817221520661342
 20
10.24681163210571
 30
0.0
  0
SEQEND
  5
4BF
  8
LAYER_1
  0
POLYLINE
  5
54
  8
LAYER_1
 66
     1
 10
0.0
 20
0.0
 30
0.0
 70
     1
  0
VERTEX
  5
4C0
  8
LAYER_1
 10
8.017221520661337
 20
10.24765437799473
 30
0.0
  0
VERTEX
  5
4C1
  8
LAYER_1
 10
8.017221520661337
 20
10.37265437799473
 30
0.0
  0
VERTEX
  5
4C2
  8
LAYER_1
 10
7.267221520661337
 20
10.37265437799473
 30
0.0
  0
VERTEX
  5
4C3
  8
LAYER_1
 10
7.267221520661337
 20
10.24765437799473
 30
0.0
  0
SEQEND
  5
4C4
  8
LAYER_1
  0
POLYLINE
  5
55
  8
LAYER_1
 66
     1
 10
0.0
 20
0.0
 30
0.0
 70
     1
  0
VERTEX
  5
4C5
  8
LAYER_1
 10
9.602943831914839
 20
9.472552125919938
 30
0.0
  0
VERTEX
  5
4C6
  8
LAYER_1
 10
9.510832699820789
 20
9.388050413840519
 30
0.0
  0
VERTEX
  5
4C7
  8
LAYER_1
 10
9.003822427344296
 20
9.940717206404821
 30
0.0
  0
VERTEX
  5
4C8
  8
LAYER_1
 10
9.095933559438343
 20
10.02521891848424
 30
0.0
  0
SEQEND
  5
4C9
  8
LAYER_1
  0
POLYLINE
  5
56
  8
LAYER_1
 66
     1
 10
0.0
 20
0.0
 30
0.0
 70
     1
  0
VERTEX
  5
4CA
  8
LAYER_1
 10
5.770507950847108
 20
18.22443031877393
 30
0.0
  0
VERTEX
  5
4CB
  8
LAYER_1
 10
5.012692105022706
 20
18.22443031877393
 30
0.0
 42
-0.4142135623730529
  0
VERTEX
  5
4CC
  8
LAYER_1
 10
4.912692105022707
 20
18.32443031877392
 30
0.0
  0
VERTEX
  5
4CD
  8
LAYER_1
 10
4.912692105022707
 20
19.42365350644133
 30
0.0
 42
-0.4142135623733905
  0
VERTEX
  5
4CE
  8
LAYER_1
 10
5.012692105022706
 20
19.52365350644132
 30
0.0
  0
VERTEX
  5
4CF
  8
LAYER_1
 10
5.770507950847108
 20
19.52365350644132
 30
0.0
 42
-0.4142135623730261
  0
VERTEX
  5
4D0
  8
LAYER_1
 10
5.870507950847108
 20
19.42365350644133
 30
0.0
  0
VERTEX
  5
4D1
  8
LAYER_1
 10
5.870507950847108
 20
18.32443031877392
 30
0.0
 42
-0.4142135623724489
  0
SEQEND
  5
4D2
  8
LAYER_1
  0
POLYLINE
  5
57
  8
LAYER_1
 66
     1
 10
0.0
 20
0.0
 30
0.0
 70
     1
  0
VERTEX
  5
4D3
  8
LAYER_1
 10
8.541600027934905
 20
18.2226389659
 30
0.0
  0
VERTEX
  5
4D4
  8
LAYER_1
 10
7.783784182110506
 20
18.2226389659
 30
0.0
 42
-0.4142135623730529
  0
VERTEX
  5
4D5
  8
LAYER_1
 10
7.683784182110506
 20
18.3226389659
 30
0.0
  0
VERTEX
  5
4D6
  8
LAYER_1
 10
7.683784182110506
 20
19.4218621535674
 30
0.0
 42
-0.4142135623733905
  0
VERTEX
  5
4D7
  8
LAYER_1
 10
7.783784182110506
 20
19.5218621535674
 30
0.0
  0
VERTEX
  5
4D8
  8
LAYER_1
 10
8.541600027934905
 20
19.5218621535674
 30
0.0
 42
-0.4142135623730261
  0
VERTEX
  5
4D9
  8
LAYER_1
 10
8.641600027934906
 20
19.4218621535674
 30
0.0
  0
VERTEX
  5
4DA
  8
LAYER_1
 10
8.641600027934906
 20
18.3226389659
 30
0.0
 42
-0.4142135623724489
  0
SEQEND
  5
4DB
  8
LAYER_1
  0
POLYLINE
  5
58
  8
LAYER_1
 66
     1
 10
0.0
 20
0.0
 30
0.0
 70
     1
  0
VERTEX
  5
4DC
  8
LAYER_1
 10
7.14550795084711
 20
18.23900112728116
 30
0.0
  0
VERTEX
  5
4DD
  8
LAYER_1
 10
6.387692105022706
 20
18.23900112728116
 30
0.0
 42
-0.4142135623730529
  0
VERTEX
  5
4DE
  8
LAYER_1
 10
6.287692105022709
 20
18.33900112728116
 30
0.0
  0
VERTEX
  5
4DF
  8
LAYER_1
 10
6.287692105022709
 20
19.43822431494857
 30
0.0
 42
-0.4142135623733905
  0
VERTEX
  5
4E0
  8
LAYER_1
 10
6.387692105022706
 20
19.53822431494856
 30
0.0
  0
VERTEX
  5
4E1
  8
LAYER_1
 10
7.14550795084711
 20
19.53822431494856
 30
0.0
 42
-0.4142135623730261
  0
VERTEX
  5
4E2
  8
LAYER_1
 10
7.245507950847108
 20
19.43822431494857
 30
0.0
  0
VERTEX
  5
4E3
  8
LAYER_1
 10
7.245507950847108
 20
18.33900112728116
 30
0.0
 42
-0.4142135623724489
  0
SEQEND
  5
4E4
  8
LAYER_1
  0
POLYLINE
  5
59
  8
LAYER_1
 66
     1
 10
0.0
 20
0.0
 30
0.0
 70
     1
  0
VERTEX
  5
4E5
  8
LAYER_1
 10
2.249558209966709
 20
19.16969469638236
 30
0.0
  0
VERTEX
  5
4E6
  8
LAYER_1
 10
2.242326646047482
 20
19.16944638584963
 30
0.0
  0
VERTEX
  5
4E7
  8
LAYER_1
 10
2.235303978519558
 20
19.16871757113867
 30
0.0
  0
VERTEX
  5
4E8
  8
LAYER_1
 10
2.228525759340095
 20
19.16753242758035
 30
0.0
  0
VERTEX
  5
4E9
  8
LAYER_1
 10
2.22202754046625
 20
19.16591513050554
 30
0.0
  0
VERTEX
  5
4EA
  8
LAYER_1
 10
2.215844873855181
 20
19.1638898552451
 30
0.0
  0
VERTEX
  5
4EB
  8
LAYER_1
 10
2.210013311464045
 20
19.16148077712991
 30
0.0
  0
VERTEX
  5
4EC
  8
LAYER_1
 10
2.20456840525
 20
19.15871207149083
 30
0.0
  0
VERTEX
  5
4ED
  8
LAYER_1
 10
2.199545707170204
 20
19.15560791365872
 30
0.0
  0
VERTEX
  5
4EE
  8
LAYER_1
 10
2.194980769181813
 20
19.15219247896446
 30
0.0
  0
VERTEX
  5
4EF
  8
LAYER_1
 10
2.190909143241985
 20
19.14848994273891
 30
0.0
  0
VERTEX
  5
4F0
  8
LAYER_1
 10
2.187366381307879
 20
19.14452448031293
 30
0.0
  0
VERTEX
  5
4F1
  8
LAYER_1
 10
2.18438803533665
 20
19.14032026701741
 30
0.0
  0
VERTEX
  5
4F2
  8
LAYER_1
 10
2.182009657285457
 20
19.13590147818319
 30
0.0
  0
VERTEX
  5
4F3
  8
LAYER_1
 10
2.180266799111458
 20
19.13129228914116
 30
0.0
  0
VERTEX
  5
4F4
  8
LAYER_1
 10
2.17919501277181
 20
19.12651687522217
 30
0.0
  0
VERTEX
  5
4F5
  8
LAYER_1
 10
2.17882985022367
 20
19.1215994117571
 30
0.0
  0
VERTEX
  5
4F6
  8
LAYER_1
 10
2.17919501277181
 20
19.11668194829202
 30
0.0
  0
VERTEX
  5
4F7
  8
LAYER_1
 10
2.180266799111458
 20
19.11190653437303
 30
0.0
  0
VERTEX
  5
4F8
  8
LAYER_1
 10
2.182009657285457
 20
19.107297345331
 30
0.0
  0
VERTEX
  5
4F9
  8
LAYER_1
 10
2.18438803533665
 20
19.10287855649678
 30
0.0
  0
VERTEX
  5
4FA
  8
LAYER_1
 10
2.187366381307879
 20
19.09867434320126
 30
0.0
  0
VERTEX
  5
4FB
  8
LAYER_1
 10
2.190909143241985
 20
19.09470888077528
 30
0.0
  0
VERTEX
  5
4FC
  8
LAYER_1
 10
2.194980769181813
 20
19.09100634454973
 30
0.0
  0
VERTEX
  5
4FD
  8
LAYER_1
 10
2.199545707170204
 20
19.08759090985547
 30
0.0
  0
VERTEX
  5
4FE
  8
LAYER_1
 10
2.20456840525
 20
19.08448675202337
 30
0.0
  0
VERTEX
  5
4FF
  8
LAYER_1
 10
2.210013311464045
 20
19.08171804638429
 30
0.0
  0
VERTEX
  5
500
  8
LAYER_1
 10
2.215844873855181
 20
19.0793089682691
 30
0.0
  0
VERTEX
  5
501
  8
LAYER_1
 10
2.22202754046625
 20
19.07728369300866
 30
0.0
  0
VERTEX
  5
502
  8
LAYER_1
 10
2.228525759340095
 20
19.07566639593385
 30
0.0
  0
VERTEX
  5
503
  8
LAYER_1
 10
2.235303978519558
 20
19.07448125237553
 30
0.0
  0
VERTEX
  5
504
  8
LAYER_1
 10
2.242326646047482
 20
19.07375243766457
 30
0.0
  0
VERTEX
  5
505
  8
LAYER_1
 10
2.249558209966709
 20
19.07350412713183
 30
0.0
  0
VERTEX
  5
506
  8
LAYER_1
 10
2.256789773885936
 20
19.07375243766457
 30
0.0
  0
VERTEX
  5
507
  8
LAYER_1
 10
2.26381244141386
 20
19.07448125237553
 30
0.0
  0
VERTEX
  5
508
  8
LAYER_1
 10
2.270590660593323
 20
19.07566639593385
 30
0.0
  0
VERTEX
  5
509
  8
LAYER_1
 10
2.277088879467168
 20
19.07728369300866
 30
0.0
  0
VERTEX
  5
50A
  8
LAYER_1
 10
2.283271546078237
 20
19.0793089682691
 30
0.0
  0
VERTEX
  5
50B
  8
LAYER_1
 10
2.289103108469372
 20
19.08171804638429
 30
0.0
  0
VERTEX
  5
50C
  8
LAYER_1
 10
2.294548014683418
 20
19.08448675202337
 30
0.0
  0
VERTEX
  5
50D
  8
LAYER_1
 10
2.299570712763214
 20
19.08759090985547
 30
0.0
  0
VERTEX
  5
50E
  8
LAYER_1
 10
2.304135650751605
 20
19.09100634454973
 30
0.0
  0
VERTEX
  5
50F
  8
LAYER_1
 10
2.308207276691433
 20
19.09470888077528
 30
0.0
  0
VERTEX
  5
510
  8
LAYER_1
 10
2.31175003862554
 20
19.09867434320126
 30
0.0
  0
VERTEX
  5
511
  8
LAYER_1
 10
2.314728384596768
 20
19.10287855649678
 30
0.0
  0
VERTEX
  5
512
  8
LAYER_1
 10
2.317106762647962
 20
19.107297345331
 30
0.0
  0
VERTEX
  5
513
  8
LAYER_1
 10
2.31884962082196
 20
19.11190653437303
 30
0.0
  0
VERTEX
  5
514
  8
LAYER_1
 10
2.319921407161609
 20
19.11668194829202
 30
0.0
  0
VERTEX
  5
515
  8
LAYER_1
 10
2.320286569709749
 20
19.1215994117571
 30
0.0
  0
VERTEX
  5
516
  8
LAYER_1
 10
2.319921407161609
 20
19.12651687522217
 30
0.0
  0
VERTEX
  5
517
  8
LAYER_1
 10
2.31884962082196
 20
19.13129228914116
 30
0.0
  0
VERTEX
  5
518
  8
LAYER_1
 10
2.317106762647962
 20
19.13590147818319
 30
0.0
  0
VERTEX
  5
519
  8
LAYER_1
 10
2.314728384596768
 20
19.14032026701741
 30
0.0
  0
VERTEX
  5
51A
  8
LAYER_1
 10
2.31175003862554
 20
19.14452448031293
 30
0.0
  0
VERTEX
  5
51B
  8
LAYER_1
 10
2.308207276691433
 20
19.14848994273891
 30
0.0
  0
VERTEX
  5
51C
  8
LAYER_1
 10
2.304135650751605
 20
19.15219247896446
 30
0.0
  0
VERTEX
  5
51D
  8
LAYER_1
 10
2.299570712763214
 20
19.15560791365872
 30
0.0
  0
VERTEX
  5
51E
  8
LAYER_1
 10
2.294548014683418
 20
19.15871207149083
 30
0.0
  0
VERTEX
  5
51F
  8
LAYER_1
 10
2.289103108469372
 20
19.16148077712991
 30
0.0
  0
VERTEX
  5
520
  8
LAYER_1
 10
2.283271546078237
 20
19.1638898552451
 30
0.0
  0
VERTEX
  5
521
  8
LAYER_1
 10
2.277088879467168
 20
19.16591513050554
 30
0.0
  0
VERTEX
  5
522
  8
LAYER_1
 10
2.270590660593323
 20
19.16753242758035
 30
0.0
  0
VERTEX
  5
523
  8
LAYER_1
 10
2.26381244141386
 20
19.16871757113867
 30
0.0
  0
VERTEX
  5
524
  8
LAYER_1
 10
2.256789773885936
 20
19.16944638584963
 30
0.0
  0
SEQEND
  5
525
  8
LAYER_1
  0
POLYLINE
  5
5A
  8
LAYER_1
 66
     1
 10
0.0
 20
0.0
 30
0.0
 70
     1
  0
VERTEX
  5
526
  8
LAYER_1
 10
13.02714606647881
 20
17.90541435145421
 30
0.0
  0
VERTEX
  5
527
  8
LAYER_1
 10
12.23365828917385
 20
17.89577245787507
 30
0.0
  0
VERTEX
  5
528
  8
LAYER_1
 10
12.23650743806524
 20
17.92405736303732
 30
0.0
  0
VERTEX
  5
529
  8
LAYER_1
 10
12.23996730920238
 20
17.95243671577547
 30
0.0
  0
VERTEX
  5
52A
  8
LAYER_1
 10
12.24348126262555
 20
17.98084962518292
 30
0.0
  0
VERTEX
  5
52B
  8
LAYER_1
 10
12.24649265837506
 20
18.00923520035306
 30
0.0
  0
VERTEX
  5
52C
  8
LAYER_1
 10
12.24763594713477
 20
18.02339870919083
 30
0.0
  0
VERTEX
  5
52D
  8
LAYER_1
 10
12.24844485649118
 20
18.03753255037929
 30
0.0
  0
VERTEX
  5
52E
  8
LAYER_1
 10
12.24884980644932
 20
18.05162911255512
 30
0.0
  0
VERTEX
  5
52F
  8
LAYER_1
 10
12.24878121701422
 20
18.065680784355
 30
0.0
  0
VERTEX
  5
530
  8
LAYER_1
 10
12.24816950819093
 20
18.0796799544156
 30
0.0
  0
VERTEX
  5
531
  8
LAYER_1
 10
12.24694509998448
 20
18.0936190113736
 30
0.0
  0
VERTEX
  5
532
  8
LAYER_1
 10
12.2450384123999
 20
18.10749034386566
 30
0.0
  0
VERTEX
  5
533
  8
LAYER_1
 10
12.24237986544223
 20
18.12128634052846
 30
0.0
  0
VERTEX
  5
534
  8
LAYER_1
 10
12.23961013300351
 20
18.13172179991847
 30
0.0
  0
VERTEX
  5
535
  8
LAYER_1
 10
12.2360755915857
 20
18.14187379242487
 30
0.0
  0
VERTEX
  5
536
  8
LAYER_1
 10
12.23187640689685
 20
18.15178032214337
 30
0.0
  0
VERTEX
  5
537
  8
LAYER_1
 10
12.22711274464501
 20
18.16147939316969
 30
0.0
  0
VERTEX
  5
538
  8
LAYER_1
 10
12.22188477053825
 20
18.17100900959952
 30
0.0
  0
VERTEX
  5
539
  8
LAYER_1
 10
12.21629265028461
 20
18.1804071755286
 30
0.0
  0
VERTEX
  5
53A
  8
LAYER_1
 10
12.20441663416893
 20
18.19896117226728
 30
0.0
  0
VERTEX
  5
53B
  8
LAYER_1
 10
12.19228602196241
 20
18.21744541615141
 30
0.0
  0
VERTEX
  5
53C
  8
LAYER_1
 10
12.18070213932949
 20
18.23616393994667
 30
0.0
  0
VERTEX
  5
53D
  8
LAYER_1
 10
12.17536563587327
 20
18.24570606705025
 30
0.0
  0
VERTEX
  5
53E
  8
LAYER_1
 10
12.17046631193462
 20
18.25542077641873
 30
0.0
  0
VERTEX
  5
53F
  8
LAYER_1
 10
12.16610433322159
 20
18.26534607214784
 30
0.0
  0
VERTEX
  5
540
  8
LAYER_1
 10
12.16237986544223
 20
18.27551995833328
 30
0.0
  0
VERTEX
  5
541
  8
LAYER_1
 10
12.15779941553188
 20
18.29029393606172
 30
0.0
  0
VERTEX
  5
542
  8
LAYER_1
 10
12.15368893313045
 20
18.30517269219227
 30
0.0
  0
VERTEX
  5
543
  8
LAYER_1
 10
12.15005306987987
 20
18.3201466738564
 30
0.0
  0
VERTEX
  5
544
  8
LAYER_1
 10
12.14689647742205
 20
18.33520632818561
 30
0.0
  0
VERTEX
  5
545
  8
LAYER_1
 10
12.15566033670459
 20
18.35427853827654
 30
0.0
  0
VERTEX
  5
546
  8
LAYER_1
 10
12.16415031111513
 20
18.37419340327619
 30
0.0
  0
VERTEX
  5
547
  8
LAYER_1
 10
12.17228273087729
 20
18.39462423473651
 30
0.0
  0
VERTEX
  5
548
  8
LAYER_1
 10
12.17997392621467
 20
18.41524434420944
 30
0.0
  0
VERTEX
  5
549
  8
LAYER_1
 10
12.18714022735087
 20
18.43572704324693
 30
0.0
  0
VERTEX
  5
54A
  8
LAYER_1
 10
12.19369796450951
 20
18.45574564340094
 30
0.0
  0
VERTEX
  5
54B
  8
LAYER_1
 10
12.19956346791417
 20
18.47497345622341
 30
0.0
  0
VERTEX
  5
54C
  8
LAYER_1
 10
12.20465306778848
 20
18.49308379326628
 30
0.0
  0
VERTEX
  5
54D
  8
LAYER_1
 10
12.20895081694373
 20
18.50926653736358
 30
0.0
  0
VERTEX
  5
54E
  8
LAYER_1
 10
12.21308580223916
 20
18.52620730402613
 30
0.0
  0
VERTEX
  5
54F
  8
LAYER_1
 10
12.21652544143966
 20
18.54353668995739
 30
0.0
  0
VERTEX
  5
550
  8
LAYER_1
 10
12.21781807430583
 20
18.55223167661862
 30
0.0
  0
VERTEX
  5
551
  8
LAYER_1
 10
12.21873715231009
 20
18.56088529186084
 30
0.0
  0
VERTEX
  5
552
  8
LAYER_1
 10
12.21921610267305
 20
18.56945136027198
 30
0.0
  0
VERTEX
  5
553
  8
LAYER_1
 10
12.21918835261532
 20
18.57788370643998
 30
0.0
  0
VERTEX
  5
554
  8
LAYER_1
 10
12.2185873293575
 20
18.58613615495276
 30
0.0
  0
VERTEX
  5
555
  8
LAYER_1
 10
12.21734646012021
 20
18.59416253039827
 30
0.0
  0
VERTEX
  5
556
  8
LAYER_1
 10
12.21539917212406
 20
18.60191665736444
 30
0.0
  0
VERTEX
  5
557
  8
LAYER_1
 10
12.21267889258965
 20
18.60935236043921
 30
0.0
  0
VERTEX
  5
558
  8
LAYER_1
 10
12.20911904873759
 20
18.61642346421051
 30
0.0
  0
VERTEX
  5
559
  8
LAYER_1
 10
12.20465306778848
 20
18.62308379326628
 30
0.0
  0
VERTEX
  5
55A
  8
LAYER_1
 10
12.19693771736901
 20
18.63281712176318
 30
0.0
  0
VERTEX
  5
55B
  8
LAYER_1
 10
12.18847380243924
 20
18.64247846502752
 30
0.0
  0
VERTEX
  5
55C
  8
LAYER_1
 10
12.18393085570573
 20
18.64713198681286
 30
0.0
  0
VERTEX
  5
55D
  8
LAYER_1
 10
12.17916443475191
 20
18.65158732582849
 30
0.0
  0
VERTEX
  5
55E
  8
LAYER_1
 10
12.17416242854689
 20
18.65578441992058
 30
0.0
  0
VERTEX
  5
55F
  8
LAYER_1
 10
12.16891272605974
 20
18.65966320693526
 30
0.0
  0
VERTEX
  5
560
  8
LAYER_1
 10
12.16340321625957
 20
18.66316362471868
 30
0.0
  0
VERTEX
  5
561
  8
LAYER_1
 10
12.15762178811547
 20
18.66622561111701
 30
0.0
  0
VERTEX
  5
562
  8
LAYER_1
 10
12.15155633059652
 20
18.66878910397636
 30
0.0
  0
VERTEX
  5
563
  8
LAYER_1
 10
12.14519473267181
 20
18.6707940411429
 30
0.0
  0
VERTEX
  5
564
  8
LAYER_1
 10
12.13852488331045
 20
18.67218036046278
 30
0.0
  0
VERTEX
  5
565
  8
LAYER_1
 10
12.13153467148151
 20
18.67288799978213
 30
0.0
  0
VERTEX
  5
566
  8
LAYER_1
 10
12.12421198615408
 20
18.67285689694712
 30
0.0
  0
VERTEX
  5
567
  8
LAYER_1
 10
12.11654471629727
 20
18.67202698980388
 30
0.0
  0
VERTEX
  5
568
  8
LAYER_1
 10
12.12481912493169
 20
18.69523279127988
 30
0.0
  0
VERTEX
  5
569
  8
LAYER_1
 10
12.13322386425028
 20
18.71838440889107
 30
0.0
  0
VERTEX
  5
56A
  8
LAYER_1
 10
12.14218936713775
 20
18.7412962740463
 30
0.0
  0
VERTEX
  5
56B
  8
LAYER_1
 10
12.14701691519629
 20
18.75260430926821
 30
0.0
  0
VERTEX
  5
56C
  8
LAYER_1
 10
12.15214606647881
 20
18.76378281815445
 30
0.0
  0
VERTEX
  5
56D
  8
LAYER_1
 10
12.15950290614469
 20
18.77827053000477
 30
0.0
  0
VERTEX
  5
56E
  8
LAYER_1
 10
12.16751549004591
 20
18.79246375256401
 30
0.0
  0
VERTEX
  5
56F
  8
LAYER_1
 10
12.17606524899874
 20
18.80641373927916
 30
0.0
  0
VERTEX
  5
570
  8
LAYER_1
 10
12.18503361381941
 20
18.82017174359719
 30
0.0
  0
VERTEX
  5
571
  8
LAYER_1
 10
12.20375188432937
 20
18.84731681882983
 30
0.0
  0
VERTEX
  5
572
  8
LAYER_1
 10
12.22272174810588
 20
18.87430900583774
 30
0.0
  0
VERTEX
  5
573
  8
LAYER_1
 10
12.23200460450973
 20
18.88787589987486
 30
0.0
  0
VERTEX
  5
574
  8
LAYER_1
 10
12.240994651679
 20
18.90155833219672
 30
0.0
  0
VERTEX
  5
575
  8
LAYER_1
 10
12.24957332042993
 20
18.91540755625032
 30
0.0
  0
VERTEX
  5
576
  8
LAYER_1
 10
12.25762204157881
 20
18.92947482548262
 30
0.0
  0
VERTEX
  5
577
  8
LAYER_1
 10
12.26502224594187
 20
18.9438113933406
 30
0.0
  0
VERTEX
  5
578
  8
LAYER_1
 10
12.27165536433539
 20
18.95846851327124
 30
0.0
  0
VERTEX
  5
579
  8
LAYER_1
 10
12.27740282757561
 20
18.97349743872152
 30
0.0
  0
VERTEX
  5
57A
  8
LAYER_1
 10
12.28214606647881
 20
18.98894942313841
 30
0.0
  0
VERTEX
  5
57B
  8
LAYER_1
 10
12.28486450392178
 20
18.99814494853576
 30
0.0
  0
VERTEX
  5
57C
  8
LAYER_1
 10
12.28808619192891
 20
19.00765648055985
 30
0.0
  0
VERTEX
  5
57D
  8
LAYER_1
 10
12.29552559913638
 20
19.02773528828272
 30
0.0
  0
VERTEX
  5
57E
  8
LAYER_1
 10
12.30343684710271
 20
19.04940129389581
 30
0.0
  0
VERTEX
  5
57F
  8
LAYER_1
 10
12.30724833605841
 20
19.0608968232827
 30
0.0
  0
VERTEX
  5
580
  8
LAYER_1
 10
12.31079249482937
 20
19.07286994498795
 30
0.0
  0
VERTEX
  5
581
  8
LAYER_1
 10
12.3139408932908
 20
19.08534758996016
 30
0.0
  0
VERTEX
  5
582
  8
LAYER_1
 10
12.31656510131787
 20
19.09835668914793
 30
0.0
  0
VERTEX
  5
583
  8
LAYER_1
 10
12.31853668878576
 20
19.11192417349988
 30
0.0
  0
VERTEX
  5
584
  8
LAYER_1
 10
12.31972722556966
 20
19.12607697396459
 30
0.0
  0
VERTEX
  5
585
  8
LAYER_1
 10
12.32000828154477
 20
19.14084202149068
 30
0.0
  0
VERTEX
  5
586
  8
LAYER_1
 10
12.31925142658625
 20
19.15624624702673
 30
0.0
  0
VERTEX
  5
587
  8
LAYER_1
 10
12.31732823056931
 20
19.17231658152136
 30
0.0
  0
VERTEX
  5
588
  8
LAYER_1
 10
12.31588912024992
 20
19.18060995554957
 30
0.0
  0
VERTEX
  5
589
  8
LAYER_1
 10
12.31411026336912
 20
19.18907995592316
 30
0.0
  0
VERTEX
  5
58A
  8
LAYER_1
 10
12.31189023960266
 20
19.19632339360982
 30
0.0
  0
VERTEX
  5
58B
  8
LAYER_1
 10
12.30863222133997
 20
19.20340163490921
 30
0.0
  0
VERTEX
  5
58C
  8
LAYER_1
 10
12.30443648835133
 20
19.21025026654185
 30
0.0
  0
VERTEX
  5
58D
  8
LAYER_1
 10
12.29940332040702
 20
19.21680487522824
 30
0.0
  0
VERTEX
  5
58E
  8
LAYER_1
 10
12.29363299727732
 20
19.2230010476889
 30
0.0
  0
VERTEX
  5
58F
  8
LAYER_1
 10
12.28722579873251
 20
19.22877437064433
 30
0.0
  0
VERTEX
  5
590
  8
LAYER_1
 10
12.28028200454287
 20
19.23406043081505
 30
0.0
  0
VERTEX
  5
591
  8
LAYER_1
 10
12.27290189447868
 20
19.23879481492155
 30
0.0
  0
VERTEX
  5
592
  8
LAYER_1
 10
12.26518574831021
 20
19.24291310968436
 30
0.0
  0
VERTEX
  5
593
  8
LAYER_1
 10
12.25723384580776
 20
19.24635090182397
 30
0.0
  0
VERTEX
  5
594
  8
LAYER_1
 10
12.2491464667416
 20
19.2490437780609
 30
0.0
  0
VERTEX
  5
595
  8
LAYER_1
 10
12.24102389088202
 20
19.25092732511566
 30
0.0
  0
VERTEX
  5
596
  8
LAYER_1
 10
12.23296639799928
 20
19.25193712970876
 30
0.0
  0
VERTEX
  5
597
  8
LAYER_1
 10
12.22507426786368
 20
19.2520087785607
 30
0.0
  0
VERTEX
  5
598
  8
LAYER_1
 10
12.21744778024548
 20
19.25107785839199
 30
0.0
  0
VERTEX
  5
599
  8
LAYER_1
 10
12.21018721491498
 20
19.24907995592316
 30
0.0
  0
VERTEX
  5
59A
  8
LAYER_1
 10
12.2012958692971
 20
19.24202987694817
 30
0.0
  0
VERTEX
  5
59B
  8
LAYER_1
 10
12.19303910275959
 20
19.2347972608756
 30
0.0
  0
VERTEX
  5
59C
  8
LAYER_1
 10
12.18538965011132
 20
19.22739562329664
 30
0.0
  0
VERTEX
  5
59D
  8
LAYER_1
 10
12.17832024616115
 20
19.21983847980248
 30
0.0
  0
VERTEX
  5
59E
  8
LAYER_1
 10
12.17180362571794
 20
19.21213934598432
 30
0.0
  0
VERTEX
  5
59F
  8
LAYER_1
 10
12.16581252359055
 20
19.20431173743334
 30
0.0
  0
VERTEX
  5
5A0
  8
LAYER_1
 10
12.16031967458785
 20
19.19636916974076
 30
0.0
  0
VERTEX
  5
5A1
  8
LAYER_1
 10
12.15529781351868
 20
19.18832515849774
 30
0.0
  0
VERTEX
  5
5A2
  8
LAYER_1
 10
12.15071967519192
 20
19.1801932192955
 30
0.0
  0
VERTEX
  5
5A3
  8
LAYER_1
 10
12.14655799441641
 20
19.17198686772523
 30
0.0
  0
VERTEX
  5
5A4
  8
LAYER_1
 10
12.14278550600103
 20
19.16371961937811
 30
0.0
  0
VERTEX
  5
5A5
  8
LAYER_1
 10
12.13937494475464
 20
19.15540498984535
 30
0.0
  0
VERTEX
  5
5A6
  8
LAYER_1
 10
12.13353054300423
 20
19.13868764958767
 30
0.0
  0
VERTEX
  5
5A7
  8
LAYER_1
 10
12.12880666763609
 20
19.12194297168172
 30
0.0
  0
VERTEX
  5
5A8
  8
LAYER_1
 10
12.12498519712109
 20
19.10527908085706
 30
0.0
  0
VERTEX
  5
5A9
  8
LAYER_1
 10
12.12184800993011
 20
19.08880410184325
 30
0.0
  0
VERTEX
  5
5AA
  8
LAYER_1
 10
12.11675399940375
 20
19.05685337816637
 30
0.0
  0
VERTEX
  5
5AB
  8
LAYER_1
 10
12.11436093301014
 20
19.0415938829624
 30
0.0
  0
VERTEX
  5
5AC
  8
LAYER_1
 10
12.11177966382408
 20
19.02695579848747
 30
0.0
  0
VERTEX
  5
5AD
  8
LAYER_1
 10
12.10879207031647
 20
19.01304724947115
 30
0.0
  0
VERTEX
  5
5AE
  8
LAYER_1
 10
12.10518003095818
 20
18.99997636064297
 30
0.0
  0
VERTEX
  5
5AF
  8
LAYER_1
 10
12.10193074726122
 20
18.98774116663122
 30
0.0
  0
VERTEX
  5
5B0
  8
LAYER_1
 10
12.09924925662079
 20
18.97385529917824
 30
0.0
  0
VERTEX
  5
5B1
  8
LAYER_1
 10
12.09698632531467
 20
18.95862094502631
 30
0.0
  0
VERTEX
  5
5B2
  8
LAYER_1
 10
12.09499271962063
 20
18.94234029091772
 30
0.0
  0
VERTEX
  5
5B3
  8
LAYER_1
 10
12.09121655017991
 20
18.90784882979967
 30
0.0
  0
VERTEX
  5
5B4
  8
LAYER_1
 10
12.08913551898879
 20
18.89024239627478
 30
0.0
  0
VERTEX
  5
5B5
  8
LAYER_1
 10
12.08672687852086
 20
18.87279840976236
 30
0.0
  0
VERTEX
  5
5B6
  8
LAYER_1
 10
12.0838413950539
 20
18.8558190570047
 30
0.0
  0
VERTEX
  5
5B7
  8
LAYER_1
 10
12.08032983486569
 20
18.83960652474408
 30
0.0
  0
VERTEX
  5
5B8
  8
LAYER_1
 10
12.07604296423401
 20
18.82446299972278
 30
0.0
  0
VERTEX
  5
5B9
  8
LAYER_1
 10
12.07356215196368
 20
18.81738654828384
 30
0.0
  0
VERTEX
  5
5BA
  8
LAYER_1
 10
12.07083154943664
 20
18.81069066868309
 30
0.0
  0
VERTEX
  5
5BB
  8
LAYER_1
 10
12.06783250243762
 20
18.80441313426331
 30
0.0
  0
VERTEX
  5
5BC
  8
LAYER_1
 10
12.06454635675134
 20
18.7985917183673
 30
0.0
  0
VERTEX
  5
5BD
  8
LAYER_1
 10
12.06095445816253
 20
18.79326419433782
 30
0.0
  0
VERTEX
  5
5BE
  8
LAYER_1
 10
12.05703815245591
 20
18.78846833551768
 30
0.0
  0
VERTEX
  5
5BF
  8
LAYER_1
 10
12.05277878541619
 20
18.78424191524965
 30
0.0
  0
VERTEX
  5
5C0
  8
LAYER_1
 10
12.04815770282811
 20
18.78062270687652
 30
0.0
  0
VERTEX
  5
5C1
  8
LAYER_1
 10
12.04315625047638
 20
18.77764848374108
 30
0.0
  0
VERTEX
  5
5C2
  8
LAYER_1
 10
12.03775577414573
 20
18.77535701918611
 30
0.0
  0
VERTEX
  5
5C3
  8
LAYER_1
 10
12.03609374103881
 20
18.77495686625711
 30
0.0
  0
VERTEX
  5
5C4
  8
LAYER_1
 10
12.03444794532973
 20
18.77489842911164
 30
0.0
  0
VERTEX
  5
5C5
  8
LAYER_1
 10
12.03121230508132
 20
18.77573491876028
 30
0.0
  0
VERTEX
  5
5C6
  8
LAYER_1
 10
12.02806333135305
 20
18.77772292131001
 30
0.0
  0
VERTEX
  5
5C7
  8
LAYER_1
 10
12.02501550209747
 20
18.7807188699388
 30
0.0
  0
VERTEX
  5
5C8
  8
LAYER_1
 10
12.02208329526713
 20
18.78457919782462
 30
0.0
  0
VERTEX
  5
5C9
  8
LAYER_1
 10
12.0192811888146
 20
18.78916033814546
 30
0.0
  0
VERTEX
  5
5CA
  8
LAYER_1
 10
12.01662366069241
 20
18.79431872407929
 30
0.0
  0
VERTEX
  5
5CB
  8
LAYER_1
 10
12.01412518885312
 20
18.79991078880408
 30
0.0
  0
VERTEX
  5
5CC
  8
LAYER_1
 10
12.00966332583346
 20
18.81182168733847
 30
0.0
  0
VERTEX
  5
5CD
  8
LAYER_1
 10
12.00601142337604
 20
18.82374449917242
 30
0.0
  0
VERTEX
  5
5CE
  8
LAYER_1
 10
12.00328530510128
 20
18.83453068972975
 30
0.0
  0
VERTEX
  5
5CF
  8
LAYER_1
 10
12.00160079462959
 20
18.84303172443426
 30
0.0
  0
VERTEX
  5
5D0
  8
LAYER_1
 10
12.00008350275886
 20
18.85387263456301
 30
0.0
  0
VERTEX
  5
5D1
  8
LAYER_1
 10
11.998968476466
 20
18.86482842547507
 30
0.0
  0
VERTEX
  5
5D2
  8
LAYER_1
 10
11.99770767450155
 20
18.88700659338098
 30
0.0
  0
VERTEX
  5
5D3
  8
LAYER_1
 10
11.99734329651145
 20
18.90941011561571
 30
0.0
  0
VERTEX
  5
5D4
  8
LAYER_1
 10
11.9974002502709
 20
18.93188287964296
 30
0.0
  0
VERTEX
  5
5D5
  8
LAYER_1
 10
11.99740344355513
 20
18.95426877292643
 30
0.0
  0
VERTEX
  5
5D6
  8
LAYER_1
 10
11.99687778413935
 20
18.97641168292983
 30
0.0
  0
VERTEX
  5
5D7
  8
LAYER_1
 10
11.9962681683487
 20
18.98734323403391
 30
0.0
  0
VERTEX
  5
5D8
  8
LAYER_1
 10
11.99534817979875
 20
18.99815549711687
 30
0.0
  0
VERTEX
  5
5D9
  8
LAYER_1
 10
11.99405843196141
 20
19.00882895811167
 30
0.0
  0
VERTEX
  5
5DA
  8
LAYER_1
 10
11.99233953830856
 20
19.01934410295126
 30
0.0
  0
VERTEX
  5
5DB
  8
LAYER_1
 10
11.99020222144899
 20
19.03249891606401
 30
0.0
  0
VERTEX
  5
5DC
  8
LAYER_1
 10
11.98831673391395
 20
19.0472344657183
 30
0.0
  0
VERTEX
  5
5DD
  8
LAYER_1
 10
11.98487530073063
 20
19.08036362651953
 30
0.0
  0
VERTEX
  5
5DE
  8
LAYER_1
 10
11.98116334658477
 20
19.11656328909109
 30
0.0
  0
VERTEX
  5
5DF
  8
LAYER_1
 10
11.97893970784658
 20
19.13513696595829
 30
0.0
  0
VERTEX
  5
5E0
  8
LAYER_1
 10
11.97632897930258
 20
19.15366515716912
 30
0.0
  0
VERTEX
  5
5E1
  8
LAYER_1
 10
11.97322467443105
 20
19.1718768256906
 30
0.0
  0
VERTEX
  5
5E2
  8
LAYER_1
 10
11.96952030671025
 20
19.18950093448976
 30
0.0
  0
VERTEX
  5
5E3
  8
LAYER_1
 10
11.96510938961848
 20
19.2062664465336
 30
0.0
  0
VERTEX
  5
5E4
  8
LAYER_1
 10
11.96260569802043
 20
19.21424252969947
 30
0.0
  0
VERTEX
  5
5E5
  8
LAYER_1
 10
11.95988543663399
 20
19.22190232478914
 30
0.0
  0
VERTEX
  5
5E6
  8
LAYER_1
 10
11.95693529464394
 20
19.2292119521735
 30
0.0
  0
VERTEX
  5
5E7
  8
LAYER_1
 10
11.95374196123506
 20
19.23613753222341
 30
0.0
  0
VERTEX
  5
5E8
  8
LAYER_1
 10
11.95029212559214
 20
19.24264518530975
 30
0.0
  0
VERTEX
  5
5E9
  8
LAYER_1
 10
11.94657247689997
 20
19.24870103180341
 30
0.0
  0
VERTEX
  5
5EA
  8
LAYER_1
 10
11.94256970434333
 20
19.25427119207526
 30
0.0
  0
VERTEX
  5
5EB
  8
LAYER_1
 10
11.93827049710699
 20
19.25932178649617
 30
0.0
  0
VERTEX
  5
5EC
  8
LAYER_1
 10
11.93366154437576
 20
19.26381893543702
 30
0.0
  0
VERTEX
  5
5ED
  8
LAYER_1
 10
11.9287295353344
 20
19.2677287592687
 30
0.0
  0
VERTEX
  5
5EE
  8
LAYER_1
 10
11.9222900975695
 20
19.27175879086138
 30
0.0
  0
VERTEX
  5
5EF
  8
LAYER_1
 10
11.91529842854436
 20
19.2751739464594
 30
0.0
  0
VERTEX
  5
5F0
  8
LAYER_1
 10
11.90784264157566
 20
19.27797409448794
 30
0.0
  0
VERTEX
  5
5F1
  8
LAYER_1
 10
11.90001084998008
 20
19.28015910337217
 30
0.0
  0
VERTEX
  5
5F2
  8
LAYER_1
 10
11.89189116707431
 20
19.28172884153727
 30
0.0
  0
VERTEX
  5
5F3
  8
LAYER_1
 10
11.88357170617504
 20
19.28268317740843
 30
0.0
  0
VERTEX
  5
5F4
  8
LAYER_1
 10
11.87514058059895
 20
19.28302197941081
 30
0.0
  0
VERTEX
  5
5F5
  8
LAYER_1
 10
11.86668590366272
 20
19.28274511596958
 30
0.0
  0
VERTEX
  5
5F6
  8
LAYER_1
 10
11.85829578868304
 20
19.28185245550993
 30
0.0
  0
VERTEX
  5
5F7
  8
LAYER_1
 10
11.8500583489766
 20
19.28034386645704
 30
0.0
  0
VERTEX
  5
5F8
  8
LAYER_1
 10
11.84206169786007
 20
19.27821921723608
 30
0.0
  0
VERTEX
  5
5F9
  8
LAYER_1
 10
11.83439394865015
 20
19.27547837627223
 30
0.0
  0
VERTEX
  5
5FA
  8
LAYER_1
 10
11.82714321466352
 20
19.27212121199065
 30
0.0
  0
VERTEX
  5
5FB
  8
LAYER_1
 10
11.82039760921686
 20
19.26814759281654
 30
0.0
  0
VERTEX
  5
5FC
  8
LAYER_1
 10
11.81424524562686
 20
19.26355738717506
 30
0.0
  0
VERTEX
  5
5FD
  8
LAYER_1
 10
11.8087742372102
 20
19.2583504634914
 30
0.0
  0
VERTEX
  5
5FE
  8
LAYER_1
 10
11.80600089558592
 20
19.25490965470593
 30
0.0
  0
VERTEX
  5
5FF
  8
LAYER_1
 10
11.80360448824475
 20
19.25102288457283
 30
0.0
  0
VERTEX
  5
600
  8
LAYER_1
 10
11.80156760263056
 20
19.24671759325711
 30
0.0
  0
VERTEX
  5
601
  8
LAYER_1
 10
11.79987282618719
 20
19.24202122092378
 30
0.0
  0
VERTEX
  5
602
  8
LAYER_1
 10
11.79850274635849
 20
19.23696120773788
 30
0.0
  0
VERTEX
  5
603
  8
LAYER_1
 10
11.79743995058833
 20
19.23156499386441
 30
0.0
  0
VERTEX
  5
604
  8
LAYER_1
 10
11.79616656099897
 20
19.2198737247149
 30
0.0
  0
VERTEX
  5
605
  8
LAYER_1
 10
11.79591335696995
 20
19.20716693479541
 30
0.0
  0
VERTEX
  5
606
  8
LAYER_1
 10
11.79654103805205
 20
19.19366414542612
 30
0.0
  0
VERTEX
  5
607
  8
LAYER_1
 10
11.7979103037961
 20
19.1795848779272
 30
0.0
  0
VERTEX
  5
608
  8
LAYER_1
 10
11.79988185375291
 20
19.16514865361882
 30
0.0
  0
VERTEX
  5
609
  8
LAYER_1
 10
11.80231638747328
 20
19.15057499382115
 30
0.0
  0
VERTEX
  5
60A
  8
LAYER_1
 10
11.80507460450803
 20
19.13608341985436
 30
0.0
  0
VERTEX
  5
60B
  8
LAYER_1
 10
11.8110048867239
 20
19.10822461469412
 30
0.0
  0
VERTEX
  5
60C
  8
LAYER_1
 10
11.81655829680702
 20
19.08332840869947
 30
0.0
  0
VERTEX
  5
60D
  8
LAYER_1
 10
11.82062043116386
 20
19.06315097243177
 30
0.0
  0
VERTEX
  5
60E
  8
LAYER_1
 10
11.82331546043961
 20
19.04983038111673
 30
0.0
  0
VERTEX
  5
60F
  8
LAYER_1
 10
11.82674312401448
 20
19.03669530015384
 30
0.0
  0
VERTEX
  5
610
  8
LAYER_1
 10
11.83079875984574
 20
19.0237192280642
 30
0.0
  0
VERTEX
  5
611
  8
LAYER_1
 10
11.83537770589066
 20
19.01087566336895
 30
0.0
  0
VERTEX
  5
612
  8
LAYER_1
 10
11.84568688045055
 20
18.9854800502461
 30
0.0
  0
VERTEX
  5
613
  8
LAYER_1
 10
11.8568333513523
 20
18.96029644895426
 30
0.0
  0
VERTEX
  5
614
  8
LAYER_1
 10
11.86797982225405
 20
18.93511284766242
 30
0.0
  0
VERTEX
  5
615
  8
LAYER_1
 10
11.8732914025981
 20
18.9224547933193
 30
0.0
  0
VERTEX
  5
616
  8
LAYER_1
 10
11.87828899681394
 20
18.90971723453956
 30
0.0
  0
VERTEX
  5
617
  8
LAYER_1
 10
11.88286794285886
 20
18.89687366984431
 30
0.0
  0
VERTEX
  5
618
  8
LAYER_1
 10
11.88692357869012
 20
18.88389759775468
 30
0.0
  0
VERTEX
  5
619
  8
LAYER_1
 10
11.89035124226499
 20
18.87076251679178
 30
0.0
  0
VERTEX
  5
61A
  8
LAYER_1
 10
11.89304627154074
 20
18.85744192547674
 30
0.0
  0
VERTEX
  5
61B
  8
LAYER_1
 10
11.89617536445927
 20
18.83647601709373
 30
0.0
  0
VERTEX
  5
61C
  8
LAYER_1
 10
11.89841043082964
 20
18.81542901538043
 30
0.0
  0
VERTEX
  5
61D
  8
LAYER_1
 10
11.89975147065187
 20
18.79430088248525
 30
0.0
  0
VERTEX
  5
61E
  8
LAYER_1
 10
11.90019848392594
 20
18.77309158055665
 30
0.0
  0
VERTEX
  5
61F
  8
LAYER_1
 10
11.89975147065187
 20
18.75180107174307
 30
0.0
  0
VERTEX
  5
620
  8
LAYER_1
 10
11.89841043082964
 20
18.73042931819293
 30
0.0
  0
VERTEX
  5
621
  8
LAYER_1
 10
11.89617536445927
 20
18.70897628205467
 30
0.0
  0
VERTEX
  5
622
  8
LAYER_1
 10
11.89304627154074
 20
18.68744192547674
 30
0.0
  0
VERTEX
  5
623
  8
LAYER_1
 10
11.8816825449695
 20
18.68618573049246
 30
0.0
  0
VERTEX
  5
624
  8
LAYER_1
 10
11.87097899251443
 20
18.68407597731199
 30
0.0
  0
VERTEX
  5
625
  8
LAYER_1
 10
11.86093559804947
 20
18.68111265837624
 30
0.0
  0
VERTEX
  5
626
  8
LAYER_1
 10
11.85155234544854
 20
18.67729576612613
 30
0.0
  0
VERTEX
  5
627
  8
LAYER_1
 10
11.84282921858558
 20
18.67262529300255
 30
0.0
  0
VERTEX
  5
628
  8
LAYER_1
 10
11.83476620133453
 20
18.66710123144641
 30
0.0
  0
VERTEX
  5
629
  8
LAYER_1
 10
11.82736327756931
 20
18.66072357389862
 30
0.0
  0
VERTEX
  5
62A
  8
LAYER_1
 10
11.82062043116386
 20
18.65349231280008
 30
0.0
  0
VERTEX
  5
62B
  8
LAYER_1
 10
11.81514945945377
 20
18.64657835050206
 30
0.0
  0
VERTEX
  5
62C
  8
LAYER_1
 10
11.80997882011293
 20
18.63926749602039
 30
0.0
  0
VERTEX
  5
62D
  8
LAYER_1
 10
11.80513576492125
 20
18.63160085800353
 30
0.0
  0
VERTEX
  5
62E
  8
LAYER_1
 10
11.8006475456586
 20
18.6236195450999
 30
0.0
  0
VERTEX
  5
62F
  8
LAYER_1
 10
11.79654141410487
 20
18.61536466595794
 30
0.0
  0
VERTEX
  5
630
  8
LAYER_1
 10
11.79284462203994
 20
18.60687732922609
 30
0.0
  0
VERTEX
  5
631
  8
LAYER_1
 10
11.7895844212437
 20
18.59819864355279
 30
0.0
  0
VERTEX
  5
632
  8
LAYER_1
 10
11.78678806349603
 20
18.58936971758647
 30
0.0
  0
VERTEX
  5
633
  8
LAYER_1
 10
11.78448280057682
 20
18.58043165997557
 30
0.0
  0
VERTEX
  5
634
  8
LAYER_1
 10
11.78269588426596
 20
18.57142557936852
 30
0.0
  0
VERTEX
  5
635
  8
LAYER_1
 10
11.78145456634332
 20
18.56239258441376
 30
0.0
  0
VERTEX
  5
636
  8
LAYER_1
 10
11.78078609858879
 20
18.55337378375972
 30
0.0
  0
VERTEX
  5
637
  8
LAYER_1
 10
11.78071773278226
 20
18.54441028605486
 30
0.0
  0
VERTEX
  5
638
  8
LAYER_1
 10
11.78127672070362
 20
18.5355431999476
 30
0.0
  0
VERTEX
  5
639
  8
LAYER_1
 10
11.78249031413274
 20
18.52681363408637
 30
0.0
  0
VERTEX
  5
63A
  8
LAYER_1
 10
11.78438576484951
 20
18.51826269711962
 30
0.0
  0
VERTEX
  5
63B
  8
LAYER_1
 10
11.78623740613398
 20
18.50969267229794
 30
0.0
  0
VERTEX
  5
63C
  8
LAYER_1
 10
11.78808866772016
 20
18.49836916364593
 30
0.0
  0
VERTEX
  5
63D
  8
LAYER_1
 10
11.791965511125
 20
18.46951709194081
 30
0.0
  0
VERTEX
  5
63E
  8
LAYER_1
 10
11.79636721371875
 20
18.43581727618407
 30
0.0
  0
VERTEX
  5
63F
  8
LAYER_1
 10
11.79887454929109
 20
18.41843408746753
 30
0.0
  0
VERTEX
  5
640
  8
LAYER_1
 10
11.80164469415618
 20
18.40138051055552
 30
0.0
  0
VERTEX
  5
641
  8
LAYER_1
 10
11.79216565447033
 20
18.3904982688676
 30
0.0
  0
VERTEX
  5
642
  8
LAYER_1
 10
11.78308174473633
 20
18.37936184438946
 30
0.0
  0
VERTEX
  5
643
  8
LAYER_1
 10
11.77439300134537
 20
18.36797125148845
 30
0.0
  0
VERTEX
  5
644
  8
LAYER_1
 10
11.76609946068864
 20
18.35632650453193
 30
0.0
  0
VERTEX
  5
645
  8
LAYER_1
 10
11.75820115915736
 20
18.34442761788728
 30
0.0
  0
VERTEX
  5
646
  8
LAYER_1
 10
11.7506981331427
 20
18.33227460592185
 30
0.0
  0
VERTEX
  5
647
  8
LAYER_1
 10
11.74359041903589
 20
18.31986748300303
 30
0.0
  0
VERTEX
  5
648
  8
LAYER_1
 10
11.7368780532281
 20
18.30720626349816
 30
0.0
  0
VERTEX
  5
649
  8
LAYER_1
 10
11.72955517068385
 20
18.29204485966026
 30
0.0
  0
VERTEX
  5
64A
  8
LAYER_1
 10
11.72285793298847
 20
18.27661929895055
 30
0.0
  0
VERTEX
  5
64B
  8
LAYER_1
 10
11.71673671085028
 20
18.2609536551421
 30
0.0
  0
VERTEX
  5
64C
  8
LAYER_1
 10
11.71114187497763
 20
18.245072002008
 30
0.0
  0
VERTEX
  5
64D
  8
LAYER_1
 10
11.70602379607883
 20
18.22899841332134
 30
0.0
  0
VERTEX
  5
64E
  8
LAYER_1
 10
11.70133284486224
 20
18.21275696285518
 30
0.0
  0
VERTEX
  5
64F
  8
LAYER_1
 10
11.69701939203618
 20
18.19637172438263
 30
0.0
  0
VERTEX
  5
650
  8
LAYER_1
 10
11.69303380830898
 20
18.17986677167675
 30
0.0
  0
VERTEX
  5
651
  8
LAYER_1
 10
11.68584773098451
 20
18.14659401865736
 30
0.0
  0
VERTEX
  5
652
  8
LAYER_1
 10
11.67937757855548
 20
18.11313129398169
 30
0.0
  0
VERTEX
  5
653
  8
LAYER_1
 10
11.66699691105042
 20
18.04640629040011
 30
0.0
  0
VERTEX
  5
654
  8
LAYER_1
 10
11.66338183308018
 20
18.02682261791117
 30
0.0
  0
VERTEX
  5
655
  8
LAYER_1
 10
11.66007862847128
 20
18.00718955283632
 30
0.0
  0
VERTEX
  5
656
  8
LAYER_1
 10
11.65428038184404
 20
17.96779336741023
 30
0.0
  0
VERTEX
  5
657
  8
LAYER_1
 10
11.64934725618178
 20
17.92825397908437
 30
0.0
  0
VERTEX
  5
658
  8
LAYER_1
 10
11.64502433649756
 20
17.88860763282131
 30
0.0
  0
VERTEX
  5
659
  8
LAYER_1
 10
11.54991760634925
 20
17.8874529242966
 30
0.0
  0
VERTEX
  5
65A
  8
LAYER_1
 10
11.54421069685279
 20
17.92613152956563
 30
0.0
  0
VERTEX
  5
65B
  8
LAYER_1
 10
11.54096114125268
 20
17.94540704118207
 30
0.0
  0
VERTEX
  5
65C
  8
LAYER_1
 10
11.53740906239708
 20
17.96463462262224
 30
0.0
  0
VERTEX
  5
65D
  8
LAYER_1
 10
11.52502839489203
 20
18.03135962620382
 30
0.0
  0
VERTEX
  5
65E
  8
LAYER_1
 10
11.518558242463
 20
18.06482235087949
 30
0.0
  0
VERTEX
  5
65F
  8
LAYER_1
 10
11.51137216513852
 20
18.09809510389887
 30
0.0
  0
VERTEX
  5
660
  8
LAYER_1
 10
11.50738658141132
 20
18.11460005660475
 30
0.0
  0
VERTEX
  5
661
  8
LAYER_1
 10
11.50307312858526
 20
18.13098529507731
 30
0.0
  0
VERTEX
  5
662
  8
LAYER_1
 10
11.49838217736867
 20
18.14722674554346
 30
0.0
  0
VERTEX
  5
663
  8
LAYER_1
 10
11.49326409846988
 20
18.16330033423013
 30
0.0
  0
VERTEX
  5
664
  8
LAYER_1
 10
11.48766926259722
 20
18.17918198736423
 30
0.0
  0
VERTEX
  5
665
  8
LAYER_1
 10
11.48154804045904
 20
18.19484763117267
 30
0.0
  0
VERTEX
  5
666
  8
LAYER_1
 10
11.47485080276365
 20
18.21027319188239
 30
0.0
  0
VERTEX
  5
667
  8
LAYER_1
 10
11.4675279202194
 20
18.22543459572029
 30
0.0
  0
VERTEX
  5
668
  8
LAYER_1
 10
11.46081555441162
 20
18.23809581522516
 30
0.0
  0
VERTEX
  5
669
  8
LAYER_1
 10
11.4537078403048
 20
18.25050293814398
 30
0.0
  0
VERTEX
  5
66A
  8
LAYER_1
 10
11.44620481429015
 20
18.26265595010941
 30
0.0
  0
VERTEX
  5
66B
  8
LAYER_1
 10
11.43830651275886
 20
18.27455483675406
 30
0.0
  0
VERTEX
  5
66C
  8
LAYER_1
 10
11.43001297210214
 20
18.28619958371057
 30
0.0
  0
VERTEX
  5
66D
  8
LAYER_1
 10
11.42132422871118
 20
18.29759017661159
 30
0.0
  0
VERTEX
  5
66E
  8
LAYER_1
 10
11.41224031897717
 20
18.30872660108973
 30
0.0
  0
VERTEX
  5
66F
  8
LAYER_1
 10
11.40276127929133
 20
18.31960884277765
 30
0.0
  0
VERTEX
  5
670
  8
LAYER_1
 10
11.40803875972875
 20
18.3540456084062
 30
0.0
  0
VERTEX
  5
671
  8
LAYER_1
 10
11.41244046232251
 20
18.38774542416294
 30
0.0
  0
VERTEX
  5
672
  8
LAYER_1
 10
11.41631730572734
 20
18.41659749586806
 30
0.0
  0
VERTEX
  5
673
  8
LAYER_1
 10
11.41816856731352
 20
18.42792100452007
 30
0.0
  0
VERTEX
  5
674
  8
LAYER_1
 10
11.42002020859799
 20
18.43649102934175
 30
0.0
  0
VERTEX
  5
675
  8
LAYER_1
 10
11.42191565931477
 20
18.4450419663085
 30
0.0
  0
VERTEX
  5
676
  8
LAYER_1
 10
11.42312925274389
 20
18.45377153216972
 30
0.0
  0
VERTEX
  5
677
  8
LAYER_1
 10
11.42368824066524
 20
18.46263861827699
 30
0.0
  0
VERTEX
  5
678
  8
LAYER_1
 10
11.42361987485872
 20
18.47160211598186
 30
0.0
  0
VERTEX
  5
679
  8
LAYER_1
 10
11.42295140710419
 20
18.48062091663589
 30
0.0
  0
VERTEX
  5
67A
  8
LAYER_1
 10
11.42171008918155
 20
18.48965391159064
 30
0.0
  0
VERTEX
  5
67B
  8
LAYER_1
 10
11.41992317287069
 20
18.49865999219769
 30
0.0
  0
VERTEX
  5
67C
  8
LAYER_1
 10
11.41761790995147
 20
18.5075980498086
 30
0.0
  0
VERTEX
  5
67D
  8
LAYER_1
 10
11.41482155220381
 20
18.51642697577492
 30
0.0
  0
VERTEX
  5
67E
  8
LAYER_1
 10
11.41156135140757
 20
18.52510566144823
 30
0.0
  0
VERTEX
  5
67F
  8
LAYER_1
 10
11.40786455934264
 20
18.53359299818007
 30
0.0
  0
VERTEX
  5
680
  8
LAYER_1
 10
11.4037584277889
 20
18.54184787732203
 30
0.0
  0
VERTEX
  5
681
  8
LAYER_1
 10
11.39927020852625
 20
18.54982919022566
 30
0.0
  0
VERTEX
  5
682
  8
LAYER_1
 10
11.39442715333457
 20
18.55749582824252
 30
0.0
  0
VERTEX
  5
683
  8
LAYER_1
 10
11.38925651399374
 20
18.56480668272419
 30
0.0
  0
VERTEX
  5
684
  8
LAYER_1
 10
11.38378554228364
 20
18.57172064502221
 30
0.0
  0
VERTEX
  5
685
  8
LAYER_1
 10
11.3770426958782
 20
18.57895190612075
 30
0.0
  0
VERTEX
  5
686
  8
LAYER_1
 10
11.36963977211298
 20
18.58532956366854
 30
0.0
  0
VERTEX
  5
687
  8
LAYER_1
 10
11.36157675486193
 20
18.59085362522468
 30
0.0
  0
VERTEX
  5
688
  8
LAYER_1
 10
11.35285362799896
 20
18.59552409834826
 30
0.0
  0
VERTEX
  5
689
  8
LAYER_1
 10
11.34347037539804
 20
18.59934099059838
 30
0.0
  0
VERTEX
  5
68A
  8
LAYER_1
 10
11.33342698093307
 20
18.60230430953412
 30
0.0
  0
VERTEX
  5
68B
  8
LAYER_1
 10
11.322723428478
 20
18.60441406271459
 30
0.0
  0
VERTEX
  5
68C
  8
LAYER_1
 10
11.31135970190677
 20
18.60567025769888
 30
0.0
  0
VERTEX
  5
68D
  8
LAYER_1
 10
11.30823060898824
 20
18.62720461427681
 30
0.0
  0
VERTEX
  5
68E
  8
LAYER_1
 10
11.30599554261786
 20
18.64865765041506
 30
0.0
  0
VERTEX
  5
68F
  8
LAYER_1
 10
11.30465450279564
 20
18.6700294039652
 30
0.0
  0
VERTEX
  5
690
  8
LAYER_1
 10
11.30420748952156
 20
18.69131991277879
 30
0.0
  0
VERTEX
  5
691
  8
LAYER_1
 10
11.30465450279564
 20
18.71252921470738
 30
0.0
  0
VERTEX
  5
692
  8
LAYER_1
 10
11.30599554261786
 20
18.73365734760256
 30
0.0
  0
VERTEX
  5
693
  8
LAYER_1
 10
11.30823060898824
 20
18.75470434931587
 30
0.0
  0
VERTEX
  5
694
  8
LAYER_1
 10
11.31135970190677
 20
18.77567025769887
 30
0.0
  0
VERTEX
  5
695
  8
LAYER_1
 10
11.31405473118251
 20
18.78899084901391
 30
0.0
  0
VERTEX
  5
696
  8
LAYER_1
 10
11.31748239475738
 20
18.80212592997681
 30
0.0
  0
VERTEX
  5
697
  8
LAYER_1
 10
11.32153803058864
 20
18.81510200206644
 30
0.0
  0
VERTEX
  5
698
  8
LAYER_1
 10
11.32611697663356
 20
18.8279455667617
 30
0.0
  0
VERTEX
  5
699
  8
LAYER_1
 10
11.33642615119345
 20
18.85334117988455
 30
0.0
  0
VERTEX
  5
69A
  8
LAYER_1
 10
11.3475726220952
 20
18.87852478117639
 30
0.0
  0
VERTEX
  5
69B
  8
LAYER_1
 10
11.35871909299695
 20
18.90370838246823
 30
0.0
  0
VERTEX
  5
69C
  8
LAYER_1
 10
11.364030673341
 20
18.91636643681134
 30
0.0
  0
VERTEX
  5
69D
  8
LAYER_1
 10
11.36902826755685
 20
18.92910399559108
 30
0.0
  0
VERTEX
  5
69E
  8
LAYER_1
 10
11.37360721360177
 20
18.94194756028633
 30
0.0
  0
VERTEX
  5
69F
  8
LAYER_1
 10
11.37766284943303
 20
18.95492363237597
 30
0.0
  0
VERTEX
  5
6A0
  8
LAYER_1
 10
11.3810905130079
 20
18.96805871333887
 30
0.0
  0
VERTEX
  5
6A1
  8
LAYER_1
 10
11.38378554228364
 20
18.9813793046539
 30
0.0
  0
VERTEX
  5
6A2
  8
LAYER_1
 10
11.38784767664048
 20
19.0015567409216
 30
0.0
  0
VERTEX
  5
6A3
  8
LAYER_1
 10
11.3934010867236
 20
19.02645294691625
 30
0.0
  0
VERTEX
  5
6A4
  8
LAYER_1
 10
11.39933136893947
 20
19.05431175207649
 30
0.0
  0
VERTEX
  5
6A5
  8
LAYER_1
 10
11.40208958597422
 20
19.06880332604328
 30
0.0
  0
VERTEX
  5
6A6
  8
LAYER_1
 10
11.4045241196946
 20
19.08337698584095
 30
0.0
  0
VERTEX
  5
6A7
  8
LAYER_1
 10
11.4064956696514
 20
19.09781321014933
 30
0.0
  0
VERTEX
  5
6A8
  8
LAYER_1
 10
11.40786493539545
 20
19.11189247764825
 30
0.0
  0
VERTEX
  5
6A9
  8
LAYER_1
 10
11.40849261647756
 20
19.12539526701754
 30
0.0
  0
VERTEX
  5
6AA
  8
LAYER_1
 10
11.40823941244853
 20
19.13810205693703
 30
0.0
  0
VERTEX
  5
6AB
  8
LAYER_1
 10
11.40773894712697
 20
19.14408835169054
 30
0.0
  0
VERTEX
  5
6AC
  8
LAYER_1
 10
11.40696602285918
 20
19.14979332608654
 30
0.0
  0
VERTEX
  5
6AD
  8
LAYER_1
 10
11.40590322708901
 20
19.15518953996001
 30
0.0
  0
VERTEX
  5
6AE
  8
LAYER_1
 10
11.40453314726032
 20
19.16024955314591
 30
0.0
  0
VERTEX
  5
6AF
  8
LAYER_1
 10
11.40283837081695
 20
19.16494592547924
 30
0.0
  0
VERTEX
  5
6B0
  8
LAYER_1
 10
11.40080148520275
 20
19.16925121679496
 30
0.0
  0
VERTEX
  5
6B1
  8
LAYER_1
 10
11.39840507786159
 20
19.17313798692806
 30
0.0
  0
VERTEX
  5
6B2
  8
LAYER_1
 10
11.3956317362373
 20
19.17657879571353
 30
0.0
  0
VERTEX
  5
6B3
  8
LAYER_1
 10
11.39016072782064
 20
19.18178571939719
 30
0.0
  0
VERTEX
  5
6B4
  8
LAYER_1
 10
11.38400836423064
 20
19.18637592503867
 30
0.0
  0
VERTEX
  5
6B5
  8
LAYER_1
 10
11.37726275878398
 20
19.19034954421278
 30
0.0
  0
VERTEX
  5
6B6
  8
LAYER_1
 10
11.37001202479735
 20
19.19370670849436
 30
0.0
  0
VERTEX
  5
6B7
  8
LAYER_1
 10
11.36234427558743
 20
19.19644754945821
 30
0.0
  0
VERTEX
  5
6B8
  8
LAYER_1
 10
11.3543476244709
 20
19.19857219867917
 30
0.0
  0
VERTEX
  5
6B9
  8
LAYER_1
 10
11.34611018476446
 20
19.20008078773206
 30
0.0
  0
VERTEX
  5
6BA
  8
LAYER_1
 10
11.33772006978478
 20
19.20097344819171
 30
0.0
  0
VERTEX
  5
6BB
  8
LAYER_1
 10
11.32926539284856
 20
19.20125031163294
 30
0.0
  0
VERTEX
  5
6BC
  8
LAYER_1
 10
11.32083426727247
 20
19.20091150963056
 30
0.0
  0
VERTEX
  5
6BD
  8
LAYER_1
 10
11.31251480637319
 20
19.1999571737594
 30
0.0
  0
VERTEX
  5
6BE
  8
LAYER_1
 10
11.30439512346743
 20
19.1983874355943
 30
0.0
  0
VERTEX
  5
6BF
  8
LAYER_1
 10
11.29656333187185
 20
19.19620242671007
 30
0.0
  0
VERTEX
  5
6C0
  8
LAYER_1
 10
11.28910754490315
 20
19.19340227868152
 30
0.0
  0
VERTEX
  5
6C1
  8
LAYER_1
 10
11.28211587587801
 20
19.1899871230835
 30
0.0
  0
VERTEX
  5
6C2
  8
LAYER_1
 10
11.27567643811311
 20
19.18595709149083
 30
0.0
  0
VERTEX
  5
6C3
  8
LAYER_1
 10
11.27074442907175
 20
19.18204726765915
 30
0.0
  0
VERTEX
  5
6C4
  8
LAYER_1
 10
11.26613547634051
 20
19.17755011871829
 30
0.0
  0
VERTEX
  5
6C5
  8
LAYER_1
 10
11.26183626910418
 20
19.17249952429739
 30
0.0
  0
VERTEX
  5
6C6
  8
LAYER_1
 10
11.25783349654754
 20
19.16692936402554
 30
0.0
  0
VERTEX
  5
6C7
  8
LAYER_1
 10
11.25411384785536
 20
19.16087351753188
 30
0.0
  0
VERTEX
  5
6C8
  8
LAYER_1
 10
11.25066401221245
 20
19.15436586444554
 30
0.0
  0
VERTEX
  5
6C9
  8
LAYER_1
 10
11.24747067880357
 20
19.14744028439563
 30
0.0
  0
VERTEX
  5
6CA
  8
LAYER_1
 10
11.24452053681352
 20
19.14013065701127
 30
0.0
  0
VERTEX
  5
6CB
  8
LAYER_1
 10
11.23929658382903
 20
19.12449477875573
 30
0.0
  0
VERTEX
  5
6CC
  8
LAYER_1
 10
11.23488566673725
 20
19.10772926671189
 30
0.0
  0
VERTEX
  5
6CD
  8
LAYER_1
 10
11.23118129901646
 20
19.09010515791273
 30
0.0
  0
VERTEX
  5
6CE
  8
LAYER_1
 10
11.22807699414493
 20
19.07189348939125
 30
0.0
  0
VERTEX
  5
6CF
  8
LAYER_1
 10
11.22546626560093
 20
19.05336529818042
 30
0.0
  0
VERTEX
  5
6D0
  8
LAYER_1
 10
11.22324262686274
 20
19.03479162131322
 30
0.0
  0
VERTEX
  5
6D1
  8
LAYER_1
 10
11.21953067271688
 20
18.99859195874166
 30
0.0
  0
VERTEX
  5
6D2
  8
LAYER_1
 10
11.21608923953355
 20
18.96546279794043
 30
0.0
  0
VERTEX
  5
6D3
  8
LAYER_1
 10
11.21420375199852
 20
18.95072724828614
 30
0.0
  0
VERTEX
  5
6D4
  8
LAYER_1
 10
11.21206643513894
 20
18.93757243517339
 30
0.0
  0
VERTEX
  5
6D5
  8
LAYER_1
 10
11.2103475414861
 20
18.9270572903338
 30
0.0
  0
VERTEX
  5
6D6
  8
LAYER_1
 10
11.20905779364875
 20
18.916383829339
 30
0.0
  0
VERTEX
  5
6D7
  8
LAYER_1
 10
11.20752818930816
 20
18.89464001515196
 30
0.0
  0
VERTEX
  5
6D8
  8
LAYER_1
 10
11.20700252989237
 20
18.87249710514856
 30
0.0
  0
VERTEX
  5
6D9
  8
LAYER_1
 10
11.2070057231766
 20
18.85011121186508
 30
0.0
  0
VERTEX
  5
6DA
  8
LAYER_1
 10
11.20706267693606
 20
18.82763844783784
 30
0.0
  0
VERTEX
  5
6DB
  8
LAYER_1
 10
11.20669829894596
 20
18.80523492560311
 30
0.0
  0
VERTEX
  5
6DC
  8
LAYER_1
 10
11.20620964422458
 20
18.79410791532553
 30
0.0
  0
VERTEX
  5
6DD
  8
LAYER_1
 10
11.2054374969815
 20
18.7830567576972
 30
0.0
  0
VERTEX
  5
6DE
  8
LAYER_1
 10
11.20432247068865
 20
18.77210096678514
 30
0.0
  0
VERTEX
  5
6DF
  8
LAYER_1
 10
11.20280517881791
 20
18.76126005665639
 30
0.0
  0
VERTEX
  5
6E0
  8
LAYER_1
 10
11.20112066834623
 20
18.75275902195188
 30
0.0
  0
VERTEX
  5
6E1
  8
LAYER_1
 10
11.19839455007147
 20
18.74197283139454
 30
0.0
  0
VERTEX
  5
6E2
  8
LAYER_1
 10
11.19474264761405
 20
18.73005001956059
 30
0.0
  0
VERTEX
  5
6E3
  8
LAYER_1
 10
11.19028078459439
 20
18.71813912102621
 30
0.0
  0
VERTEX
  5
6E4
  8
LAYER_1
 10
11.1877823127551
 20
18.71254705630142
 30
0.0
  0
VERTEX
  5
6E5
  8
LAYER_1
 10
11.18512478463291
 20
18.70738867036759
 30
0.0
  0
VERTEX
  5
6E6
  8
LAYER_1
 10
11.18232267818037
 20
18.70280753004675
 30
0.0
  0
VERTEX
  5
6E7
  8
LAYER_1
 10
11.17939047135004
 20
18.69894720216092
 30
0.0
  0
VERTEX
  5
6E8
  8
LAYER_1
 10
11.17634264209446
 20
18.69595125353214
 30
0.0
  0
VERTEX
  5
6E9
  8
LAYER_1
 10
11.17319366836618
 20
18.69396325098241
 30
0.0
  0
VERTEX
  5
6EA
  8
LAYER_1
 10
11.17158577668496
 20
18.69339209411908
 30
0.0
  0
VERTEX
  5
6EB
  8
LAYER_1
 10
11.16995802811777
 20
18.69312676133377
 30
0.0
  0
VERTEX
  5
6EC
  8
LAYER_1
 10
11.16831223240869
 20
18.69318519847923
 30
0.0
  0
VERTEX
  5
6ED
  8
LAYER_1
 10
11.16665019930178
 20
18.69358535140824
 30
0.0
  0
VERTEX
  5
6EE
  8
LAYER_1
 10
11.16124972297112
 20
18.69587681596321
 30
0.0
  0
VERTEX
  5
6EF
  8
LAYER_1
 10
11.1562482706194
 20
18.69885103909865
 30
0.0
  0
VERTEX
  5
6F0
  8
LAYER_1
 10
11.15162718803131
 20
18.70247024747178
 30
0.0
  0
VERTEX
  5
6F1
  8
LAYER_1
 10
11.1473678209916
 20
18.70669666773981
 30
0.0
  0
VERTEX
  5
6F2
  8
LAYER_1
 10
11.14345151528497
 20
18.71149252655995
 30
0.0
  0
VERTEX
  5
6F3
  8
LAYER_1
 10
11.13985961669616
 20
18.71682005058943
 30
0.0
  0
VERTEX
  5
6F4
  8
LAYER_1
 10
11.13657347100989
 20
18.72264146648544
 30
0.0
  0
VERTEX
  5
6F5
  8
LAYER_1
 10
11.13357442401087
 20
18.72891900090522
 30
0.0
  0
VERTEX
  5
6F6
  8
LAYER_1
 10
11.13084382148383
 20
18.73561488050596
 30
0.0
  0
VERTEX
  5
6F7
  8
LAYER_1
 10
11.12836300921349
 20
18.7426913319449
 30
0.0
  0
VERTEX
  5
6F8
  8
LAYER_1
 10
11.12407613858181
 20
18.75783485696621
 30
0.0
  0
VERTEX
  5
6F9
  8
LAYER_1
 10
11.1205645783936
 20
18.77404738922683
 30
0.0
  0
VERTEX
  5
6FA
  8
LAYER_1
 10
11.11767909492664
 20
18.79102674198449
 30
0.0
  0
VERTEX
  5
6FB
  8
LAYER_1
 10
11.11318942326759
 20
18.8260771620218
 30
0.0
  0
VERTEX
  5
6FC
  8
LAYER_1
 10
11.10941325382687
 20
18.86056862313985
 30
0.0
  0
VERTEX
  5
6FD
  8
LAYER_1
 10
11.10741964813284
 20
18.87684927724845
 30
0.0
  0
VERTEX
  5
6FE
  8
LAYER_1
 10
11.10515671682671
 20
18.89208363140038
 30
0.0
  0
VERTEX
  5
6FF
  8
LAYER_1
 10
11.10247522618628
 20
18.90596949885336
 30
0.0
  0
VERTEX
  5
700
  8
LAYER_1
 10
11.09922594248933
 20
18.9182046928651
 30
0.0
  0
VERTEX
  5
701
  8
LAYER_1
 10
11.09561390313104
 20
18.93127558169328
 30
0.0
  0
VERTEX
  5
702
  8
LAYER_1
 10
11.09262630962342
 20
18.9451841307096
 30
0.0
  0
VERTEX
  5
703
  8
LAYER_1
 10
11.08765197404376
 20
18.9750817103885
 30
0.0
  0
VERTEX
  5
704
  8
LAYER_1
 10
11.0825579635174
 20
19.00703243406538
 30
0.0
  0
VERTEX
  5
705
  8
LAYER_1
 10
11.07942077632642
 20
19.02350741307919
 30
0.0
  0
VERTEX
  5
706
  8
LAYER_1
 10
11.07559930581142
 20
19.04017130390385
 30
0.0
  0
VERTEX
  5
707
  8
LAYER_1
 10
11.07087543044327
 20
19.05691598180979
 30
0.0
  0
VERTEX
  5
708
  8
LAYER_1
 10
11.06810692796142
 20
19.06528482694027
 30
0.0
  0
VERTEX
  5
709
  8
LAYER_1
 10
11.06503102869287
 20
19.07363332206748
 30
0.0
  0
VERTEX
  5
70A
  8
LAYER_1
 10
11.06162046744647
 20
19.08194795160024
 30
0.0
  0
VERTEX
  5
70B
  8
LAYER_1
 10
11.05784797903109
 20
19.09021519994736
 30
0.0
  0
VERTEX
  5
70C
  8
LAYER_1
 10
11.05368629825559
 20
19.09842155151763
 30
0.0
  0
VERTEX
  5
70D
  8
LAYER_1
 10
11.04910815992882
 20
19.10655349071987
 30
0.0
  0
VERTEX
  5
70E
  8
LAYER_1
 10
11.04408629885966
 20
19.11459750196288
 30
0.0
  0
VERTEX
  5
70F
  8
LAYER_1
 10
11.03859344985695
 20
19.12254006965547
 30
0.0
  0
VERTEX
  5
710
  8
LAYER_1
 10
11.03260234772956
 20
19.13036767820645
 30
0.0
  0
VERTEX
  5
711
  8
LAYER_1
 10
11.02608572728635
 20
19.13806681202461
 30
0.0
  0
VERTEX
  5
712
  8
LAYER_1
 10
11.01901632333619
 20
19.14562395551877
 30
0.0
  0
VERTEX
  5
713
  8
LAYER_1
 10
11.01136687068792
 20
19.15302559309773
 30
0.0
  0
VERTEX
  5
714
  8
LAYER_1
 10
11.00311010415041
 20
19.1602582091703
 30
0.0
  0
VERTEX
  5
715
  8
LAYER_1
 10
10.99421875853252
 20
19.16730828814529
 30
0.0
  0
VERTEX
  5
716
  8
LAYER_1
 10
10.98695819320202
 20
19.16930619061412
 30
0.0
  0
VERTEX
  5
717
  8
LAYER_1
 10
10.97933170558383
 20
19.17023711078283
 30
0.0
  0
VERTEX
  5
718
  8
LAYER_1
 10
10.97143957544822
 20
19.17016546193089
 30
0.0
  0
VERTEX
  5
719
  8
LAYER_1
 10
10.96338208256549
 20
19.16915565733779
 30
0.0
  0
VERTEX
  5
71A
  8
LAYER_1
 10
10.9552595067059
 20
19.16727211028303
 30
0.0
  0
VERTEX
  5
71B
  8
LAYER_1
 10
10.94717212763974
 20
19.1645792340461
 30
0.0
  0
VERTEX
  5
71C
  8
LAYER_1
 10
10.93922022513729
 20
19.16114144190649
 30
0.0
  0
VERTEX
  5
71D
  8
LAYER_1
 10
10.93150407896883
 20
19.15702314714368
 30
0.0
  0
VERTEX
  5
71E
  8
LAYER_1
 10
10.92412396890463
 20
19.15228876303718
 30
0.0
  0
VERTEX
  5
71F
  8
LAYER_1
 10
10.91718017471499
 20
19.14700270286647
 30
0.0
  0
VERTEX
  5
720
  8
LAYER_1
 10
10.91077297617018
 20
19.14122937991104
 30
0.0
  0
VERTEX
  5
721
  8
LAYER_1
 10
10.90500265304048
 20
19.13503320745038
 30
0.0
  0
VERTEX
  5
722
  8
LAYER_1
 10
10.89996948509617
 20
19.12847859876398
 30
0.0
  0
VERTEX
  5
723
  8
LAYER_1
 10
10.89577375210753
 20
19.12162996713134
 30
0.0
  0
VERTEX
  5
724
  8
LAYER_1
 10
10.89251573384484
 20
19.11455172583195
 30
0.0
  0
VERTEX
  5
725
  8
LAYER_1
 10
10.89029571007839
 20
19.10730828814529
 30
0.0
  0
VERTEX
  5
726
  8
LAYER_1
 10
10.8870777428782
 20
19.09054491374349
 30
0.0
  0
VERTEX
  5
727
  8
LAYER_1
 10
10.88515454686125
 20
19.07447457924886
 30
0.0
  0
VERTEX
  5
728
  8
LAYER_1
 10
10.88439769190274
 20
19.05907035371281
 30
0.0
  0
VERTEX
  5
729
  8
LAYER_1
 10
10.88467874787784
 20
19.04430530618672
 30
0.0
  0
VERTEX
  5
72A
  8
LAYER_1
 10
10.88586928466175
 20
19.03015250572201
 30
0.0
  0
VERTEX
  5
72B
  8
LAYER_1
 10
10.88784087212964
 20
19.01658502137007
 30
0.0
  0
VERTEX
  5
72C
  8
LAYER_1
 10
10.89046508015671
 20
19.00357592218229
 30
0.0
  0
VERTEX
  5
72D
  8
LAYER_1
 10
10.89361347861813
 20
18.99109827721008
 30
0.0
  0
VERTEX
  5
72E
  8
LAYER_1
 10
10.8971576373891
 20
18.97912515550483
 30
0.0
  0
VERTEX
  5
72F
  8
LAYER_1
 10
10.9009691263448
 20
18.96762962611794
 30
0.0
  0
VERTEX
  5
730
  8
LAYER_1
 10
10.90888037431113
 20
18.94596362050485
 30
0.0
  0
VERTEX
  5
731
  8
LAYER_1
 10
10.9163197815186
 20
18.92588481278199
 30
0.0
  0
VERTEX
  5
732
  8
LAYER_1
 10
10.91954146952573
 20
18.91637328075789
 30
0.0
  0
VERTEX
  5
733
  8
LAYER_1
 10
10.9222599069687
 20
18.90717775536054
 30
0.0
  0
VERTEX
  5
734
  8
LAYER_1
 10
10.92700314587189
 20
18.89172577094365
 30
0.0
  0
VERTEX
  5
735
  8
LAYER_1
 10
10.93275060911212
 20
18.87669684549338
 30
0.0
  0
VERTEX
  5
736
  8
LAYER_1
 10
10.93938372750563
 20
18.86203972556274
 30
0.0
  0
VERTEX
  5
737
  8
LAYER_1
 10
10.9467839318687
 20
18.84770315770476
 30
0.0
  0
VERTEX
  5
738
  8
LAYER_1
 10
10.95483265301757
 20
18.83363588847246
 30
0.0
  0
VERTEX
  5
739
  8
LAYER_1
 10
10.96341132176851
 20
18.81978666441886
 30
0.0
  0
VERTEX
  5
73A
  8
LAYER_1
 10
10.98168422534163
 20
18.79253733805987
 30
0.0
  0
VERTEX
  5
73B
  8
LAYER_1
 10
11.00065408911813
 20
18.76554515105196
 30
0.0
  0
VERTEX
  5
73C
  8
LAYER_1
 10
11.01937235962809
 20
18.73840007581933
 30
0.0
  0
VERTEX
  5
73D
  8
LAYER_1
 10
11.02834072444877
 20
18.72464207150129
 30
0.0
  0
VERTEX
  5
73E
  8
LAYER_1
 10
11.03689048340159
 20
18.71069208478614
 30
0.0
  0
VERTEX
  5
73F
  8
LAYER_1
 10
11.04490306730282
 20
18.6964988622269
 30
0.0
  0
VERTEX
  5
740
  8
LAYER_1
 10
11.0522599069687
 20
18.68201115037659
 30
0.0
  0
VERTEX
  5
741
  8
LAYER_1
 10
11.05738905825122
 20
18.67083264149034
 30
0.0
  0
VERTEX
  5
742
  8
LAYER_1
 10
11.06221660630975
 20
18.65952460626843
 30
0.0
  0
VERTEX
  5
743
  8
LAYER_1
 10
11.07118210919722
 20
18.6366127411132
 30
0.0
  0
VERTEX
  5
744
  8
LAYER_1
 10
11.07958684851581
 20
18.61346112350201
 30
0.0
  0
VERTEX
  5
745
  8
LAYER_1
 10
11.08786125715024
 20
18.59025532202601
 30
0.0
  0
VERTEX
  5
746
  8
LAYER_1
 10
11.08019398729342
 20
18.59108522916925
 30
0.0
  0
VERTEX
  5
747
  8
LAYER_1
 10
11.072871301966
 20
18.59111633200427
 30
0.0
  0
VERTEX
  5
748
  8
LAYER_1
 10
11.06588109013706
 20
18.59040869268491
 30
0.0
  0
VERTEX
  5
749
  8
LAYER_1
 10
11.05921124077569
 20
18.58902237336503
 30
0.0
  0
VERTEX
  5
74A
  8
LAYER_1
 10
11.05284964285099
 20
18.58701743619849
 30
0.0
  0
VERTEX
  5
74B
  8
LAYER_1
 10
11.04678418533204
 20
18.58445394333913
 30
0.0
  0
VERTEX
  5
74C
  8
LAYER_1
 10
11.04100275718793
 20
18.58139195694082
 30
0.0
  0
VERTEX
  5
74D
  8
LAYER_1
 10
11.03549324738776
 20
18.57789153915739
 30
0.0
  0
VERTEX
  5
74E
  8
LAYER_1
 10
11.03024354490062
 20
18.57401275214271
 30
0.0
  0
VERTEX
  5
74F
  8
LAYER_1
 10
11.02524153869559
 20
18.56981565805063
 30
0.0
  0
VERTEX
  5
750
  8
LAYER_1
 10
11.01593217100826
 20
18.56070679724966
 30
0.0
  0
VERTEX
  5
751
  8
LAYER_1
 10
11.00746825607849
 20
18.55104545398531
 30
0.0
  0
VERTEX
  5
752
  8
LAYER_1
 10
10.99975290565902
 20
18.54131212548841
 30
0.0
  0
VERTEX
  5
753
  8
LAYER_1
 10
10.99528692470992
 20
18.53465179643264
 30
0.0
  0
VERTEX
  5
754
  8
LAYER_1
 10
10.99172708085786
 20
18.52758069266135
 30
0.0
  0
VERTEX
  5
755
  8
LAYER_1
 10
10.98900680132344
 20
18.52014498958658
 30
0.0
  0
VERTEX
  5
756
  8
LAYER_1
 10
10.98705951332729
 20
18.51239086262041
 30
0.0
  0
VERTEX
  5
757
  8
LAYER_1
 10
10.98581864409
 20
18.50436448717489
 30
0.0
  0
VERTEX
  5
758
  8
LAYER_1
 10
10.98521762083219
 20
18.49611203866211
 30
0.0
  0
VERTEX
  5
759
  8
LAYER_1
 10
10.98518987077446
 20
18.48767969249411
 30
0.0
  0
VERTEX
  5
75A
  8
LAYER_1
 10
10.98566882113742
 20
18.47911362408297
 30
0.0
  0
VERTEX
  5
75B
  8
LAYER_1
 10
10.98658789914167
 20
18.47046000884075
 30
0.0
  0
VERTEX
  5
75C
  8
LAYER_1
 10
10.98788053200785
 20
18.46176502217952
 30
0.0
  0
VERTEX
  5
75D
  8
LAYER_1
 10
10.99132017120834
 20
18.44443563624826
 30
0.0
  0
VERTEX
  5
75E
  8
LAYER_1
 10
10.99975290565902
 20
18.41131212548841
 30
0.0
  0
VERTEX
  5
75F
  8
LAYER_1
 10
11.00484250553333
 20
18.39320178844553
 30
0.0
  0
VERTEX
  5
760
  8
LAYER_1
 10
11.010708008938
 20
18.37397397562307
 30
0.0
  0
VERTEX
  5
761
  8
LAYER_1
 10
11.01726574609663
 20
18.35395537546906
 30
0.0
  0
VERTEX
  5
762
  8
LAYER_1
 10
11.02443204723284
 20
18.33347267643157
 30
0.0
  0
VERTEX
  5
763
  8
LAYER_1
 10
11.03212324257021
 20
18.31285256695864
 30
0.0
  0
VERTEX
  5
764
  8
LAYER_1
 10
11.04025566233237
 20
18.29242173549832
 30
0.0
  0
VERTEX
  5
765
  8
LAYER_1
 10
11.04874563674292
 20
18.27250687049867
 30
0.0
  0
VERTEX
  5
766
  8
LAYER_1
 10
11.05750949602545
 20
18.25343466040773
 30
0.0
  0
VERTEX
  5
767
  8
LAYER_1
 10
11.05435290356763
 20
18.23837500607853
 30
0.0
  0
VERTEX
  5
768
  8
LAYER_1
 10
11.05071704031705
 20
18.2234010244144
 30
0.0
  0
VERTEX
  5
769
  8
LAYER_1
 10
11.04660655791563
 20
18.20852226828385
 30
0.0
  0
VERTEX
  5
76A
  8
LAYER_1
 10
11.04202610800527
 20
18.19374829055541
 30
0.0
  0
VERTEX
  5
76B
  8
LAYER_1
 10
11.03830164022592
 20
18.18357440436997
 30
0.0
  0
VERTEX
  5
76C
  8
LAYER_1
 10
11.03393966151288
 20
18.17364910864086
 30
0.0
  0
VERTEX
  5
76D
  8
LAYER_1
 10
11.02904033757423
 20
18.16393439927238
 30
0.0
  0
VERTEX
  5
76E
  8
LAYER_1
 10
11.02370383411801
 20
18.1543922721688
 30
0.0
  0
VERTEX
  5
76F
  8
LAYER_1
 10
11.0121199514851
 20
18.13567374837355
 30
0.0
  0
VERTEX
  5
770
  8
LAYER_1
 10
10.99998933927858
 20
18.11718950448941
 30
0.0
  0
VERTEX
  5
771
  8
LAYER_1
 10
10.9881133231629
 20
18.09863550775072
 30
0.0
  0
VERTEX
  5
772
  8
LAYER_1
 10
10.98252120290926
 20
18.08923734182165
 30
0.0
  0
VERTEX
  5
773
  8
LAYER_1
 10
10.97729322880249
 20
18.07970772539181
 30
0.0
  0
VERTEX
  5
774
  8
LAYER_1
 10
10.97252956655066
 20
18.0700086543655
 30
0.0
  0
VERTEX
  5
775
  8
LAYER_1
 10
10.9683303818618
 20
18.060102124647
 30
0.0
  0
VERTEX
  5
776
  8
LAYER_1
 10
10.96479584044399
 20
18.0499501321406
 30
0.0
  0
VERTEX
  5
777
  8
LAYER_1
 10
10.96202610800527
 20
18.0395146727506
 30
0.0
  0
VERTEX
  5
778
  8
LAYER_1
 10
10.9600640298436
 20
18.02976058463011
 30
0.0
  0
VERTEX
  5
779
  8
LAYER_1
 10
10.95848874515144
 20
18.01996767614176
 30
0.0
  0
VERTEX
  5
77A
  8
LAYER_1
 10
10.95727573970838
 20
18.01013865988954
 30
0.0
  0
VERTEX
  5
77B
  8
LAYER_1
 10
10.956400499294
 20
18.00027624847746
 30
0.0
  0
VERTEX
  5
77C
  8
LAYER_1
 10
10.95556525666957
 20
17.98046209058971
 30
0.0
  0
VERTEX
  5
77D
  8
LAYER_1
 10
10.95578690351479
 20
17.96054690331054
 30
0.0
  0
VERTEX
  5
77E
  8
LAYER_1
 10
10.95686932606629
 20
17.94055238747196
 30
0.0
  0
VERTEX
  5
77F
  8
LAYER_1
 10
10.9586164105607
 20
17.920500243906
 30
0.0
  0
VERTEX
  5
780
  8
LAYER_1
 10
10.9633201103248
 20
17.88030987692002
 30
0.0
  0
VERTEX
  5
781
  8
LAYER_1
 10
9.022167858114699
 20
17.85671306209851
 30
0.0
  0
VERTEX
  5
782
  8
LAYER_1
 10
9.027185436557545
 20
17.90693408058419
 30
0.0
  0
VERTEX
  5
783
  8
LAYER_1
 10
9.027185436557545
 20
19.65693408058419
 30
0.0
  0
VERTEX
  5
784
  8
LAYER_1
 10
9.902185436557545
 20
19.65693408058419
 30
0.0
 42
1.0
  0
VERTEX
  5
785
  8
LAYER_1
 10
9.902185436557545
 20
20.05693408058419
 30
0.0
  0
VERTEX
  5
786
  8
LAYER_1
 10
8.709191412718553
 20
21.375
 30
0.0
  0
VERTEX
  5
787
  8
LAYER_1
 10
6.777146066478808
 20
21.375
 30
0.0
  0
VERTEX
  5
788
  8
LAYER_1
 10
5.284718440459107
 20
21.375
 30
0.0
  0
VERTEX
  5
789
  8
LAYER_1
 10
5.284934421595747
 20
21.3773772909489
 30
0.0
  0
VERTEX
  5
78A
  8
LAYER_1
 10
5.295129503083193
 20
21.49336369059796
 30
0.0
  0
VERTEX
  5
78B
  8
LAYER_1
 10
5.304332634082133
 20
21.6037254742464
 30
0.0
  0
VERTEX
  5
78C
  8
LAYER_1
 10
5.309022916306342
 20
21.66065505567056
 30
0.0
  0
VERTEX
  5
78D
  8
LAYER_1
 10
5.313715707504553
 20
21.71387755471615
 30
0.0
  0
VERTEX
  5
78E
  8
LAYER_1
 10
5.318453219272706
 20
21.76365405622631
 30
0.0
  0
VERTEX
  5
78F
  8
LAYER_1
 10
5.323277663206737
 20
21.81024564504422
 30
0.0
  0
VERTEX
  5
790
  8
LAYER_1
 10
5.328231250902584
 20
21.853913406013
 30
0.0
  0
VERTEX
  5
791
  8
LAYER_1
 10
5.333356193956187
 20
21.89491842397581
 30
0.0
  0
VERTEX
  5
792
  8
LAYER_1
 10
5.338694703963485
 20
21.9335217837758
 30
0.0
  0
VERTEX
  5
793
  8
LAYER_1
 10
5.344288992520413
 20
21.96998457025611
 30
0.0
  0
VERTEX
  5
794
  8
LAYER_1
 10
5.350181271222912
 20
22.00456786825988
 30
0.0
  0
VERTEX
  5
795
  8
LAYER_1
 10
5.356413751666919
 20
22.03753276263028
 30
0.0
  0
VERTEX
  5
796
  8
LAYER_1
 10
5.363028645448372
 20
22.06914033821045
 30
0.0
  0
VERTEX
  5
797
  8
LAYER_1
 10
5.370068164163211
 20
22.09965167984353
 30
0.0
  0
VERTEX
  5
798
  8
LAYER_1
 10
5.377574519407372
 20
22.12932787237268
 30
0.0
  0
VERTEX
  5
799
  8
LAYER_1
 10
5.385589922776795
 20
22.15843000064103
 30
0.0
  0
VERTEX
  5
79A
  8
LAYER_1
 10
5.394156585867417
 20
22.18721914949175
 30
0.0
  0
VERTEX
  5
79B
  8
LAYER_1
 10
5.403316720275178
 20
22.21595640376797
 30
0.0
  0
VERTEX
  5
79C
  8
LAYER_1
 10
5.42259921005942
 20
22.27458876450166
 30
0.0
  0
VERTEX
  5
79D
  8
LAYER_1
 10
5.435368035771628
 20
22.27458876450166
 30
0.0
  0
VERTEX
  5
79E
  8
LAYER_1
 10
5.492601571474834
 20
22.24731789904413
 30
0.0
  0
VERTEX
  5
79F
  8
LAYER_1
 10
5.509540803324212
 20
22.23936639516596
 30
0.0
  0
VERTEX
  5
7A0
  8
LAYER_1
 10
5.523614580178712
 20
22.23309480510785
 30
0.0
  0
VERTEX
  5
7A1
  8
LAYER_1
 10
5.535459973719076
 20
22.22831212134489
 30
0.0
  0
VERTEX
  5
7A2
  8
LAYER_1
 10
5.545714055626046
 20
22.22482733635222
 30
0.0
  0
VERTEX
  5
7A3
  8
LAYER_1
 10
5.555013897580366
 20
22.22244944260493
 30
0.0
  0
VERTEX
  5
7A4
  8
LAYER_1
 10
5.563996571262779
 20
22.22098743257816
 30
0.0
  0
VERTEX
  5
7A5
  8
LAYER_1
 10
5.573299148354026
 20
22.22025029874701
 30
0.0
  0
VERTEX
  5
7A6
  8
LAYER_1
 10
5.583558700534851
 20
22.2200470335866
 30
0.0
  0
VERTEX
  5
7A7
  8
LAYER_1
 10
5.617282293891662
 20
22.2200470335866
 30
0.0
  0
VERTEX
  5
7A8
  8
LAYER_1
 10
5.629757335833919
 20
22.19506818217231
 30
0.0
  0
VERTEX
  5
7A9
  8
LAYER_1
 10
5.634565951288812
 20
22.18615198589095
 30
0.0
  0
VERTEX
  5
7AA
  8
LAYER_1
 10
5.639835903928805
 20
22.17770563995558
 30
0.0
  0
VERTEX
  5
7AB
  8
LAYER_1
 10
5.645542545245299
 20
22.16973251108417
 30
0.0
  0
VERTEX
  5
7AC
  8
LAYER_1
 10
5.65166122672969
 20
22.1622359659947
 30
0.0
  0
VERTEX
  5
7AD
  8
LAYER_1
 10
5.65816729987338
 20
22.15521937140517
 30
0.0
  0
VERTEX
  5
7AE
  8
LAYER_1
 10
5.665036116167769
 20
22.14868609403354
 30
0.0
  0
VERTEX
  5
7AF
  8
LAYER_1
 10
5.672243027104257
 20
22.14263950059782
 30
0.0
  0
VERTEX
  5
7B0
  8
LAYER_1
 10
5.679763384174239
 20
22.13708295781596
 30
0.0
  0
VERTEX
  5
7B1
  8
LAYER_1
 10
5.687572538869118
 20
22.13201983240595
 30
0.0
  0
VERTEX
  5
7B2
  8
LAYER_1
 10
5.695645842680291
 20
22.1274534910858
 30
0.0
  0
VERTEX
  5
7B3
  8
LAYER_1
 10
5.703958647099158
 20
22.12338730057345
 30
0.0
  0
VERTEX
  5
7B4
  8
LAYER_1
 10
5.712486303617121
 20
22.11982462758691
 30
0.0
  0
VERTEX
  5
7B5
  8
LAYER_1
 10
5.721204163725575
 20
22.11676883884415
 30
0.0
  0
VERTEX
  5
7B6
  8
LAYER_1
 10
5.730087578915924
 20
22.11422330106316
 30
0.0
  0
VERTEX
  5
7B7
  8
LAYER_1
 10
5.739111900679564
 20
22.11219138096191
 30
0.0
  0
VERTEX
  5
7B8
  8
LAYER_1
 10
5.748252480507896
 20
22.11067644525839
 30
0.0
  0
VERTEX
  5
7B9
  8
LAYER_1
 10
5.757484669892318
 20
22.10968186067058
 30
0.0
  0
VERTEX
  5
7BA
  8
LAYER_1
 10
5.76678382032423
 20
22.10921099391646
 30
0.0
  0
VERTEX
  5
7BB
  8
LAYER_1
 10
5.776125283295031
 20
22.10926721171402
 30
0.0
  0
VERTEX
  5
7BC
  8
LAYER_1
 10
5.785484410296121
 20
22.10985388078123
 30
0.0
  0
VERTEX
  5
7BD
  8
LAYER_1
 10
5.7948365528189
 20
22.11097436783609
 30
0.0
  0
VERTEX
  5
7BE
  8
LAYER_1
 10
5.804157062354766
 20
22.11263203959655
 30
0.0
  0
VERTEX
  5
7BF
  8
LAYER_1
 10
5.813421290395119
 20
22.11483026278063
 30
0.0
  0
VERTEX
  5
7C0
  8
LAYER_1
 10
5.822604588431357
 20
22.11757240410628
 30
0.0
  0
VERTEX
  5
7C1
  8
LAYER_1
 10
5.831682307954881
 20
22.1208618302915
 30
0.0
  0
VERTEX
  5
7C2
  8
LAYER_1
 10
5.840629800457091
 20
22.12470190805427
 30
0.0
  0
VERTEX
  5
7C3
  8
LAYER_1
 10
5.849422417429384
 20
22.12909600411256
 30
0.0
  0
VERTEX
  5
7C4
  8
LAYER_1
 10
5.858035510363161
 20
22.13404748518437
 30
0.0
  0
VERTEX
  5
7C5
  8
LAYER_1
 10
5.866444430749821
 20
22.13955971798767
 30
0.0
  0
VERTEX
  5
7C6
  8
LAYER_1
 10
5.874624530080762
 20
22.14563606924044
 30
0.0
  0
VERTEX
  5
7C7
  8
LAYER_1
 10
5.882551159847386
 20
22.15227990566067
 30
0.0
  0
VERTEX
  5
7C8
  8
LAYER_1
 10
5.89019967154109
 20
22.15949459396634
 30
0.0
  0
VERTEX
  5
7C9
  8
LAYER_1
 10
5.897337055686814
 20
22.16675472866956
 30
0.0
  0
VERTEX
  5
7CA
  8
LAYER_1
 10
5.902770477891083
 20
22.17279641723928
 30
0.0
  0
VERTEX
  5
7CB
  8
LAYER_1
 10
5.906731814746299
 20
22.17821155830731
 30
0.0
  0
VERTEX
  5
7CC
  8
LAYER_1
 10
5.909452942844871
 20
22.18359205050547
 30
0.0
  0
VERTEX
  5
7CD
  8
LAYER_1
 10
5.911165738779202
 20
22.18952979246557
 30
0.0
  0
VERTEX
  5
7CE
  8
LAYER_1
 10
5.912102079141698
 20
22.19661668281945
 30
0.0
  0
VERTEX
  5
7CF
  8
LAYER_1
 10
5.912572899520809
 20
22.21660550323578
 30
0.0
  0
VERTEX
  5
7D0
  8
LAYER_1
 10
5.912406982904287
 20
22.22639208158429
 30
0.0
  0
VERTEX
  5
7D1
  8
LAYER_1
 10
5.911919272677013
 20
22.23664588752986
 30
0.0
  0
VERTEX
  5
7D2
  8
LAYER_1
 10
5.910038709123965
 20
22.25824479355436
 30
0.0
  0
VERTEX
  5
7D3
  8
LAYER_1
 10
5.907051684329177
 20
22.28078144399368
 30
0.0
  0
VERTEX
  5
7D4
  8
LAYER_1
 10
5.903078673760161
 20
22.30363506153221
 30
0.0
  0
VERTEX
  5
7D5
  8
LAYER_1
 10
5.898240152884426
 20
22.32618486885433
 30
0.0
  0
VERTEX
  5
7D6
  8
LAYER_1
 10
5.892656597169488
 20
22.34781008864443
 30
0.0
  0
VERTEX
  5
7D7
  8
LAYER_1
 10
5.886448482082855
 20
22.3678899435869
 30
0.0
  0
VERTEX
  5
7D8
  8
LAYER_1
 10
5.883147863358752
 20
22.37715636632914
 30
0.0
  0
VERTEX
  5
7D9
  8
LAYER_1
 10
5.87973628309204
 20
22.38580365636612
 30
0.0
  0
VERTEX
  5
7DA
  8
LAYER_1
 10
5.863585839628229
 20
22.42457852451808
 30
0.0
  0
VERTEX
  5
7DB
  8
LAYER_1
 10
5.781368528484229
 20
22.57518805631203
 30
0.0
  0
VERTEX
  5
7DC
  8
LAYER_1
 10
5.792936529909845
 20
22.5898771464249
 30
0.0
  0
VERTEX
  5
7DD
  8
LAYER_1
 10
5.796303161660161
 20
22.59448968055714
 30
0.0
  0
VERTEX
  5
7DE
  8
LAYER_1
 10
5.798916848396451
 20
22.59903780969979
 30
0.0
  0
VERTEX
  5
7DF
  8
LAYER_1
 10
5.800846274363725
 20
22.60393356150849
 30
0.0
  0
VERTEX
  5
7E0
  8
LAYER_1
 10
5.802160123806992
 20
22.60958896363891
 30
0.0
  0
VERTEX
  5
7E1
  8
LAYER_1
 10
5.802927080971263
 20
22.6164160437467
 30
0.0
  0
VERTEX
  5
7E2
  8
LAYER_1
 10
5.803215830101547
 20
22.62482682948753
 30
0.0
  0
VERTEX
  5
7E3
  8
LAYER_1
 10
5.802633441240198
 20
22.64804762849094
 30
0.0
  0
VERTEX
  5
7E4
  8
LAYER_1
 10
5.800762351144932
 20
22.6915290204441
 30
0.0
  0
VERTEX
  5
7E5
  8
LAYER_1
 10
5.828033216602464
 20
22.7094010838336
 30
0.0
  0
VERTEX
  5
7E6
  8
LAYER_1
 10
5.839466869216377
 20
22.71714143903239
 30
0.0
  0
VERTEX
  5
7E7
  8
LAYER_1
 10
5.848642563004029
 20
22.72399583764989
 30
0.0
  0
VERTEX
  5
7E8
  8
LAYER_1
 10
5.855786368044177
 20
22.73026133834811
 30
0.0
  0
VERTEX
  5
7E9
  8
LAYER_1
 10
5.861124354415574
 20
22.73623499978904
 30
0.0
  0
VERTEX
  5
7EA
  8
LAYER_1
 10
5.863186812500102
 20
22.7392052216199
 30
0.0
  0
VERTEX
  5
7EB
  8
LAYER_1
 10
5.864882592196976
 20
22.74221388063468
 30
0.0
  0
VERTEX
  5
7EC
  8
LAYER_1
 10
5.866239952266039
 20
22.74529810916613
 30
0.0
  0
VERTEX
  5
7ED
  8
LAYER_1
 10
5.867287151467137
 20
22.74849503954701
 30
0.0
  0
VERTEX
  5
7EE
  8
LAYER_1
 10
5.868564102304814
 20
22.75537553518805
 30
0.0
  0
VERTEX
  5
7EF
  8
LAYER_1
 10
5.86893951478876
 20
22.76315242621978
 30
0.0
  0
VERTEX
  5
7F0
  8
LAYER_1
 10
5.868754805506586
 20
22.76770884492086
 30
0.0
  0
VERTEX
  5
7F1
  8
LAYER_1
 10
5.868176707954929
 20
22.77179155090811
 30
0.0
  0
VERTEX
  5
7F2
  8
LAYER_1
 10
5.867169267576089
 20
22.77546727937667
 30
0.0
  0
VERTEX
  5
7F3
  8
LAYER_1
 10
5.865696529812366
 20
22.77880276552167
 30
0.0
  0
VERTEX
  5
7F4
  8
LAYER_1
 10
5.863722540106062
 20
22.78186474453824
 30
0.0
  0
VERTEX
  5
7F5
  8
LAYER_1
 10
5.861211343899477
 20
22.78471995162151
 30
0.0
  0
VERTEX
  5
7F6
  8
LAYER_1
 10
5.858126986634909
 20
22.78743512196663
 30
0.0
  0
VERTEX
  5
7F7
  8
LAYER_1
 10
5.85443351375466
 20
22.79007699076872
 30
0.0
  0
VERTEX
  5
7F8
  8
LAYER_1
 10
5.839927512720561
 20
22.79958168769465
 30
0.0
  0
VERTEX
  5
7F9
  8
LAYER_1
 10
5.784579460787008
 20
22.80882293419276
 30
0.0
  0
VERTEX
  5
7FA
  8
LAYER_1
 10
5.762575614527139
 20
22.81272833389933
 30
0.0
  0
VERTEX
  5
7FB
  8
LAYER_1
 10
5.743579240329366
 20
22.81653041659873
 30
0.0
  0
VERTEX
  5
7FC
  8
LAYER_1
 10
5.729619870798667
 20
22.81979405020196
 30
0.0
  0
VERTEX
  5
7FD
  8
LAYER_1
 10
5.725163291722526
 20
22.82108796981469
 30
0.0
  0
VERTEX
  5
7FE
  8
LAYER_1
 10
5.722727038540022
 20
22.82208410261999
 30
0.0
  0
VERTEX
  5
7FF
  8
LAYER_1
 10
5.72125312206917
 20
22.82372594716422
 30
0.0
  0
VERTEX
  5
800
  8
LAYER_1
 10
5.719955647204177
 20
22.82669286676014
 30
0.0
  0
VERTEX
  5
801
  8
LAYER_1
 10
5.718840803168066
 20
22.83093947699328
 30
0.0
  0
VERTEX
  5
802
  8
LAYER_1
 10
5.717914779183864
 20
22.83642039344916
 30
0.0
  0
VERTEX
  5
803
  8
LAYER_1
 10
5.717183764474591
 20
22.84309023171332
 30
0.0
  0
VERTEX
  5
804
  8
LAYER_1
 10
5.716653948263271
 20
22.85090360737125
 30
0.0
  0
VERTEX
  5
805
  8
LAYER_1
 10
5.716222668226587
 20
22.8697794332106
 30
0.0
  0
VERTEX
  5
806
  8
LAYER_1
 10
5.716127475781477
 20
22.88285291599138
 30
0.0
  0
VERTEX
  5
807
  8
LAYER_1
 10
5.715770444035552
 20
22.89346567548015
 30
0.0
  0
VERTEX
  5
808
  8
LAYER_1
 10
5.715044391372929
 20
22.90209034689459
 30
0.0
  0
VERTEX
  5
809
  8
LAYER_1
 10
5.713842136177716
 20
22.90919956545238
 30
0.0
  0
VERTEX
  5
80A
  8
LAYER_1
 10
5.712056496834028
 20
22.91526596637123
 30
0.0
  0
VERTEX
  5
80B
  8
LAYER_1
 10
5.709580291725977
 20
22.92076218486882
 30
0.0
  0
VERTEX
  5
80C
  8
LAYER_1
 10
5.706306339237675
 20
22.92616085616284
 30
0.0
  0
VERTEX
  5
80D
  8
LAYER_1
 10
5.702127457753235
 20
22.93193461547097
 30
0.0
  0
VERTEX
  5
80E
  8
LAYER_1
 10
5.699133867859823
 20
22.93618060392623
 30
0.0
  0
VERTEX
  5
80F
  8
LAYER_1
 10
5.69602763879933
 20
22.9411736192816
 30
0.0
  0
VERTEX
  5
810
  8
LAYER_1
 10
5.689838860974009
 20
22.95266847028752
 30
0.0
  0
VERTEX
  5
811
  8
LAYER_1
 10
5.684284319871095
 20
22.96495464767837
 30
0.0
  0
VERTEX
  5
812
  8
LAYER_1
 10
5.680087211084405
 20
22.97656763064379
 30
0.0
  0
VERTEX
  5
813
  8
LAYER_1
 10
5.672142174888926
 20
23.00272087221773
 30
0.0
  0
VERTEX
  5
814
  8
LAYER_1
 10
5.666608936624687
 20
23.0627167762243
 30
0.0
  0
VERTEX
  5
815
  8
LAYER_1
 10
5.663971277446332
 20
23.08908711161286
 30
0.0
  0
VERTEX
  5
816
  8
LAYER_1
 10
5.661267030702914
 20
23.11092998966183
 30
0.0
  0
VERTEX
  5
817
  8
LAYER_1
 10
5.658330912718182
 20
23.12885135133135
 30
0.0
  0
VERTEX
  5
818
  8
LAYER_1
 10
5.654997639815885
 20
23.14345713758156
 30
0.0
  0
VERTEX
  5
819
  8
LAYER_1
 10
5.653130419121822
 20
23.14970604647446
 30
0.0
  0
VERTEX
  5
81A
  8
LAYER_1
 10
5.651101928319773
 20
23.1553532893726
 30
0.0
  0
VERTEX
  5
81B
  8
LAYER_1
 10
5.648891506950207
 20
23.16047460889598
 30
0.0
  0
VERTEX
  5
81C
  8
LAYER_1
 10
5.646478494553594
 20
23.16514574766462
 30
0.0
  0
VERTEX
  5
81D
  8
LAYER_1
 10
5.6438422306704
 20
23.16944244829855
 30
0.0
  0
VERTEX
  5
81E
  8
LAYER_1
 10
5.640962054841096
 20
23.17344045341777
 30
0.0
  0
VERTEX
  5
81F
  8
LAYER_1
 10
5.634387325506029
 20
23.18084334759219
 30
0.0
  0
VERTEX
  5
820
  8
LAYER_1
 10
5.629695710091314
 20
23.18529834500136
 30
0.0
  0
VERTEX
  5
821
  8
LAYER_1
 10
5.625324169115311
 20
23.18883276835707
 30
0.0
  0
VERTEX
  5
822
  8
LAYER_1
 10
5.620981150679714
 20
23.19154727415213
 30
0.0
  0
VERTEX
  5
823
  8
LAYER_1
 10
5.616375102886219
 20
23.19354251887936
 30
0.0
  0
VERTEX
  5
824
  8
LAYER_1
 10
5.611214473836521
 20
23.19491915903157
 30
0.0
  0
VERTEX
  5
825
  8
LAYER_1
 10
5.605207711632312
 20
23.19577785110157
 30
0.0
  0
VERTEX
  5
826
  8
LAYER_1
 10
5.598063264375289
 20
23.19621925158218
 30
0.0
  0
VERTEX
  5
827
  8
LAYER_1
 10
5.589489580167147
 20
23.1963440169662
 30
0.0
  0
VERTEX
  5
828
  8
LAYER_1
 10
5.580884429695272
 20
23.19622249412514
 30
0.0
  0
VERTEX
  5
829
  8
LAYER_1
 10
5.573747620598706
 20
23.19578924587806
 30
0.0
  0
VERTEX
  5
82A
  8
LAYER_1
 10
5.567784684316956
 20
23.19494125263906
 30
0.0
  0
VERTEX
  5
82B
  8
LAYER_1
 10
5.562701152289534
 20
23.19357549482227
 30
0.0
  0
VERTEX
  5
82C
  8
LAYER_1
 10
5.558202555955955
 20
23.1915889528418
 30
0.0
  0
VERTEX
  5
82D
  8
LAYER_1
 10
5.553994426755725
 20
23.18887860711176
 30
0.0
  0
VERTEX
  5
82E
  8
LAYER_1
 10
5.54978229612836
 20
23.18534143804629
 30
0.0
  0
VERTEX
  5
82F
  8
LAYER_1
 10
5.545271695513369
 20
23.18087442605948
 30
0.0
  0
VERTEX
  5
830
  8
LAYER_1
 10
5.540208929911008
 20
23.17525048440075
 30
0.0
  0
VERTEX
  5
831
  8
LAYER_1
 10
5.538055888465041
 20
23.17241413662511
 30
0.0
  0
VERTEX
  5
832
  8
LAYER_1
 10
5.536102378414585
 20
23.16936020975638
 30
0.0
  0
VERTEX
  5
833
  8
LAYER_1
 10
5.534308877628666
 20
23.16593770794787
 30
0.0
  0
VERTEX
  5
834
  8
LAYER_1
 10
5.532635863976312
 20
23.16199563535289
 30
0.0
  0
VERTEX
  5
835
  8
LAYER_1
 10
5.529493209548406
 20
23.1519487944168
 30
0.0
  0
VERTEX
  5
836
  8
LAYER_1
 10
5.526358238083082
 20
23.13801172017463
 30
0.0
  0
VERTEX
  5
837
  8
LAYER_1
 10
5.522914772532556
 20
23.11897644585288
 30
0.0
  0
VERTEX
  5
838
  8
LAYER_1
 10
5.513837650984758
 20
23.06077942987674
 30
0.0
  0
VERTEX
  5
839
  8
LAYER_1
 10
5.512088107248941
 20
23.05014131288361
 30
0.0
  0
VERTEX
  5
83A
  8
LAYER_1
 10
5.510232485382482
 20
23.04088562283079
 30
0.0
  0
VERTEX
  5
83B
  8
LAYER_1
 10
5.508205187052454
 20
23.03283297340338
 30
0.0
  0
VERTEX
  5
83C
  8
LAYER_1
 10
5.505940613925928
 20
23.02580397828647
 30
0.0
  0
VERTEX
  5
83D
  8
LAYER_1
 10
5.503373167669976
 20
23.01961925116515
 30
0.0
  0
VERTEX
  5
83E
  8
LAYER_1
 10
5.50043724995167
 20
23.01409940572451
 30
0.0
  0
VERTEX
  5
83F
  8
LAYER_1
 10
5.497067262438081
 20
23.00906505564963
 30
0.0
  0
VERTEX
  5
840
  8
LAYER_1
 10
5.493197606796283
 20
23.0043368146256
 30
0.0
  0
VERTEX
  5
841
  8
LAYER_1
 10
5.478610276547016
 20
22.98801075736257
 30
0.0
  0
VERTEX
  5
842
  8
LAYER_1
 10
5.460042465422031
 20
23.04172628606795
 30
0.0
  0
VERTEX
  5
843
  8
LAYER_1
 10
5.455233418525883
 20
23.05607342654116
 30
0.0
  0
VERTEX
  5
844
  8
LAYER_1
 10
5.451260638376906
 20
23.06894424553423
 30
0.0
  0
VERTEX
  5
845
  8
LAYER_1
 10
5.448068786110436
 20
23.08060865858781
 30
0.0
  0
VERTEX
  5
846
  8
LAYER_1
 10
5.445602522861813
 20
23.09133658124262
 30
0.0
  0
VERTEX
  5
847
  8
LAYER_1
 10
5.443806509766373
 20
23.10139792903933
 30
0.0
  0
VERTEX
  5
848
  8
LAYER_1
 10
5.442625407959456
 20
23.11106261751863
 30
0.0
  0
VERTEX
  5
849
  8
LAYER_1
 10
5.442003878576395
 20
23.1206005622212
 30
0.0
  0
VERTEX
  5
84A
  8
LAYER_1
 10
5.441886582752529
 20
23.13028167868772
 30
0.0
  0
VERTEX
  5
84B
  8
LAYER_1
 10
5.441950422508825
 20
23.1416071151997
 30
0.0
  0
VERTEX
  5
84C
  8
LAYER_1
 10
5.441673654118722
 20
23.15051224393384
 30
0.0
  0
VERTEX
  5
84D
  8
LAYER_1
 10
5.440805975847178
 20
23.15763028141273
 30
0.0
  0
VERTEX
  5
84E
  8
LAYER_1
 10
5.439097085959149
 20
23.16359444415894
 30
0.0
  0
VERTEX
  5
84F
  8
LAYER_1
 10
5.436296682719593
 20
23.16903794869507
 30
0.0
  0
VERTEX
  5
850
  8
LAYER_1
 10
5.432154464393466
 20
23.17459401154369
 30
0.0
  0
VERTEX
  5
851
  8
LAYER_1
 10
5.418843375541321
 20
23.18857667826878
 30
0.0
  0
VERTEX
  5
852
  8
LAYER_1
 10
5.413011354002935
 20
23.19415071284333
 30
0.0
  0
VERTEX
  5
853
  8
LAYER_1
 10
5.407285065883817
 20
23.19910204720391
 30
0.0
  0
VERTEX
  5
854
  8
LAYER_1
 10
5.401660576479904
 20
23.20343312675399
 30
0.0
  0
VERTEX
  5
855
  8
LAYER_1
 10
5.396133951087132
 20
23.20714639689708
 30
0.0
  0
VERTEX
  5
856
  8
LAYER_1
 10
5.390701255001433
 20
23.21024430303666
 30
0.0
  0
VERTEX
  5
857
  8
LAYER_1
 10
5.385358553518744
 20
23.21272929057623
 30
0.0
  0
VERTEX
  5
858
  8
LAYER_1
 10
5.380101911935
 20
23.21460380491928
 30
0.0
  0
VERTEX
  5
859
  8
LAYER_1
 10
5.374927395546138
 20
23.21587029146929
 30
0.0
  0
VERTEX
  5
85A
  8
LAYER_1
 10
5.366601616545617
 20
23.21710437059571
 30
0.0
  0
VERTEX
  5
85B
  8
LAYER_1
 10
5.359390040785462
 20
23.21734871319891
 30
0.0
  0
VERTEX
  5
85C
  8
LAYER_1
 10
5.356117324648769
 20
23.21705703120918
 30
0.0
  0
VERTEX
  5
85D
  8
LAYER_1
 10
5.353021453956063
 20
23.21646667257448
 30
0.0
  0
VERTEX
  5
85E
  8
LAYER_1
 10
5.350068526918644
 20
23.21556055645677
 30
0.0
  0
VERTEX
  5
85F
  8
LAYER_1
 10
5.34722464174781
 20
23.214321602018
 30
0.0
  0
VERTEX
  5
860
  8
LAYER_1
 10
5.34445589665486
 20
23.2127327284201
 30
0.0
  0
VERTEX
  5
861
  8
LAYER_1
 10
5.341728389851093
 20
23.21077685482504
 30
0.0
  0
VERTEX
  5
862
  8
LAYER_1
 10
5.336261483956305
 20
23.2056957842912
 30
0.0
  0
VERTEX
  5
863
  8
LAYER_1
 10
5.330552709753831
 20
23.19894174371206
 30
0.0
  0
VERTEX
  5
864
  8
LAYER_1
 10
5.324330852934063
 20
23.19037808638319
 30
0.0
  0
VERTEX
  5
865
  8
LAYER_1
 10
5.32042925541257
 20
23.18444149566932
 30
0.0
  0
VERTEX
  5
866
  8
LAYER_1
 10
5.317455240870016
 20
23.17897596581525
 30
0.0
  0
VERTEX
  5
867
  8
LAYER_1
 10
5.315320206590957
 20
23.17340152049389
 30
0.0
  0
VERTEX
  5
868
  8
LAYER_1
 10
5.313935549859947
 20
23.16713818337813
 30
0.0
  0
VERTEX
  5
869
  8
LAYER_1
 10
5.313212667961539
 20
23.15960597814086
 30
0.0
  0
VERTEX
  5
86A
  8
LAYER_1
 10
5.313062958180289
 20
23.15022492845499
 30
0.0
  0
VERTEX
  5
86B
  8
LAYER_1
 10
5.31412864410748
 20
23.123596390429
 30
0.0
  0
VERTEX
  5
86C
  8
LAYER_1
 10
5.314985850501375
 20
23.09946915589137
 30
0.0
  0
VERTEX
  5
86D
  8
LAYER_1
 10
5.314876219618742
 20
23.08997626847836
 30
0.0
  0
VERTEX
  5
86E
  8
LAYER_1
 10
5.314376341204504
 20
23.08186144041454
 30
0.0
  0
VERTEX
  5
86F
  8
LAYER_1
 10
5.313462646649747
 20
23.0748728512839
 30
0.0
  0
VERTEX
  5
870
  8
LAYER_1
 10
5.312111567345558
 20
23.06875868067042
 30
0.0
  0
VERTEX
  5
871
  8
LAYER_1
 10
5.310299534683023
 20
23.0632671081581
 30
0.0
  0
VERTEX
  5
872
  8
LAYER_1
 10
5.30800298005323
 20
23.05814631333092
 30
0.0
  0
VERTEX
  5
873
  8
LAYER_1
 10
5.305912770596951
 20
23.05331016707156
 30
0.0
  0
VERTEX
  5
874
  8
LAYER_1
 10
5.304101389736919
 20
23.04757589756737
 30
0.0
  0
VERTEX
  5
875
  8
LAYER_1
 10
5.302564572966838
 20
23.04091296665727
 30
0.0
  0
VERTEX
  5
876
  8
LAYER_1
 10
5.301298055780409
 20
23.03329083618021
 30
0.0
  0
VERTEX
  5
877
  8
LAYER_1
 10
5.300297573671333
 20
23.02467896797513
 30
0.0
  0
VERTEX
  5
878
  8
LAYER_1
 10
5.299558862133315
 20
23.01504682388095
 30
0.0
  0
VERTEX
  5
879
  8
LAYER_1
 10
5.298849692745261
 20
22.9925995553811
 30
0.0
  0
VERTEX
  5
87A
  8
LAYER_1
 10
5.298358060187112
 20
22.96463326738656
 30
0.0
  0
VERTEX
  5
87B
  8
LAYER_1
 10
5.297682385324979
 20
22.95579102798961
 30
0.0
  0
VERTEX
  5
87C
  8
LAYER_1
 10
5.296464957805936
 20
22.94952171275193
 30
0.0
  0
VERTEX
  5
87D
  8
LAYER_1
 10
5.295593278924713
 20
22.94715166444884
 30
0.0
  0
VERTEX
  5
87E
  8
LAYER_1
 10
5.294514392428828
 20
22.9451845624928
 30
0.0
  0
VERTEX
  5
87F
  8
LAYER_1
 10
5.293204375168138
 20
22.94354031198623
 30
0.0
  0
VERTEX
  5
880
  8
LAYER_1
 10
5.2916393039925
 20
22.94213881803152
 30
0.0
  0
VERTEX
  5
881
  8
LAYER_1
 10
5.287648307295798
 20
22.93974372018736
 30
0.0
  0
VERTEX
  5
882
  8
LAYER_1
 10
5.282350017137567
 20
22.93735850977962
 30
0.0
  0
VERTEX
  5
883
  8
LAYER_1
 10
5.275250737466319
 20
22.93376220866799
 30
0.0
  0
VERTEX
  5
884
  8
LAYER_1
 10
5.268104674305163
 20
22.92902284309141
 30
0.0
  0
VERTEX
  5
885
  8
LAYER_1
 10
5.260783980802093
 20
22.92300668690003
 30
0.0
  0
VERTEX
  5
886
  8
LAYER_1
 10
5.253160810105101
 20
22.91558001394399
 30
0.0
  0
VERTEX
  5
887
  8
LAYER_1
 10
5.245107315362182
 20
22.90660909807341
 30
0.0
  0
VERTEX
  5
888
  8
LAYER_1
 10
5.236495649721329
 20
22.89596021313843
 30
0.0
  0
VERTEX
  5
889
  8
LAYER_1
 10
5.227197966330534
 20
22.8834996329892
 30
0.0
  0
VERTEX
  5
88A
  8
LAYER_1
 10
5.217086418337791
 20
22.86909363147583
 30
0.0
  0
VERTEX
  5
88B
  8
LAYER_1
 10
5.194814042184868
 20
22.83705346321178
 30
0.0
  0
VERTEX
  5
88C
  8
LAYER_1
 10
5.194129337957141
 20
22.83692673024687
 30
0.0
  0
VERTEX
  5
88D
  8
LAYER_1
 10
5.192839250353876
 20
22.83735654818637
 30
0.0
  0
VERTEX
  5
88E
  8
LAYER_1
 10
5.188742159922306
 20
22.83969145253866
 30
0.0
  0
VERTEX
  5
88F
  8
LAYER_1
 10
5.183121240693303
 20
22.84366940778873
 30
0.0
  0
VERTEX
  5
890
  8
LAYER_1
 10
5.176574962470012
 20
22.84890164545669
 30
0.0
  0
VERTEX
  5
891
  8
LAYER_1
 10
5.169719810386175
 20
22.85425279805271
 30
0.0
  0
VERTEX
  5
892
  8
LAYER_1
 10
5.16243850220333
 20
22.85915938661165
 30
0.0
  0
VERTEX
  5
893
  8
LAYER_1
 10
5.154779694079126
 20
22.86362697631564
 30
0.0
  0
VERTEX
  5
894
  8
LAYER_1
 10
5.14679204217121
 20
22.86766113234683
 30
0.0
  0
VERTEX
  5
895
  8
LAYER_1
 10
5.138524202637232
 20
22.87126741988733
 30
0.0
  0
VERTEX
  5
896
  8
LAYER_1
 10
5.13002483163484
 20
22.8744514041193
 30
0.0
  0
VERTEX
  5
897
  8
LAYER_1
 10
5.121342585321683
 20
22.87721865022487
 30
0.0
  0
VERTEX
  5
898
  8
LAYER_1
 10
5.112526119855408
 20
22.87957472338618
 30
0.0
  0
VERTEX
  5
899
  8
LAYER_1
 10
5.103624091393665
 20
22.88152518878536
 30
0.0
  0
VERTEX
  5
89A
  8
LAYER_1
 10
5.094685156094102
 20
22.88307561160455
 30
0.0
  0
VERTEX
  5
89B
  8
LAYER_1
 10
5.085757970114368
 20
22.88423155702588
 30
0.0
  0
VERTEX
  5
89C
  8
LAYER_1
 10
5.076891189612111
 20
22.8849985902315
 30
0.0
  0
VERTEX
  5
89D
  8
LAYER_1
 10
5.068133470744979
 20
22.88538227640354
 30
0.0
  0
VERTEX
  5
89E
  8
LAYER_1
 10
5.059533469670621
 20
22.88538818072414
 30
0.0
  0
VERTEX
  5
89F
  8
LAYER_1
 10
5.051139842546686
 20
22.88502186837543
 30
0.0
  0
VERTEX
  5
8A0
  8
LAYER_1
 10
5.043001245530823
 20
22.88428890453955
 30
0.0
  0
VERTEX
  5
8A1
  8
LAYER_1
 10
5.035166334780679
 20
22.88319485439864
 30
0.0
  0
VERTEX
  5
8A2
  8
LAYER_1
 10
5.027683766453904
 20
22.88174528313483
 30
0.0
  0
VERTEX
  5
8A3
  8
LAYER_1
 10
5.020602196708146
 20
22.87994575593027
 30
0.0
  0
VERTEX
  5
8A4
  8
LAYER_1
 10
5.013970281701052
 20
22.87780183796708
 30
0.0
  0
VERTEX
  5
8A5
  8
LAYER_1
 10
5.007836677590273
 20
22.8753190944274
 30
0.0
  0
VERTEX
  5
8A6
  8
LAYER_1
 10
5.002250040533457
 20
22.87250309049337
 30
0.0
  0
VERTEX
  5
8A7
  8
LAYER_1
 10
4.997259026688251
 20
22.86935939134714
 30
0.0
  0
VERTEX
  5
8A8
  8
LAYER_1
 10
4.992912292212306
 20
22.86589356217083
 30
0.0
  0
VERTEX
  5
8A9
  8
LAYER_1
 10
4.989258493263269
 20
22.86211116814658
 30
0.0
  0
VERTEX
  5
8AA
  8
LAYER_1
 10
4.986346285998788
 20
22.85801777445652
 30
0.0
  0
VERTEX
  5
8AB
  8
LAYER_1
 10
4.984224326576513
 20
22.8536189462828
 30
0.0
  0
VERTEX
  5
8AC
  8
LAYER_1
 10
4.982941271154091
 20
22.84892024880755
 30
0.0
  0
VERTEX
  5
8AD
  8
LAYER_1
 10
4.982545775889172
 20
22.84392724721291
 30
0.0
  0
VERTEX
  5
8AE
  8
LAYER_1
 10
4.983086496939404
 20
22.83864550668102
 30
0.0
  0
VERTEX
  5
8AF
  8
LAYER_1
 10
4.984612090462434
 20
22.83308059239401
 30
0.0
  0
VERTEX
  5
8B0
  8
LAYER_1
 10
4.987171212615912
 20
22.82723806953402
 30
0.0
  0
VERTEX
  5
8B1
  8
LAYER_1
 10
4.991475743110174
 20
22.81967015713458
 30
0.0
  0
VERTEX
  5
8B2
  8
LAYER_1
 10
4.996745923515314
 20
22.81170601299483
 30
0.0
  0
VERTEX
  5
8B3
  8
LAYER_1
 10
5.002921322814723
 20
22.80340079664031
 30
0.0
  0
VERTEX
  5
8B4
  8
LAYER_1
 10
5.009941509991788
 20
22.79480966759654
 30
0.0
  0
VERTEX
  5
8B5
  8
LAYER_1
 10
5.017746054029896
 20
22.78598778538905
 30
0.0
  0
VERTEX
  5
8B6
  8
LAYER_1
 10
5.026274523912438
 20
22.77699030954337
 30
0.0
  0
VERTEX
  5
8B7
  8
LAYER_1
 10
5.035466488622799
 20
22.76787239958504
 30
0.0
  0
VERTEX
  5
8B8
  8
LAYER_1
 10
5.045261517144366
 20
22.75868921503958
 30
0.0
  0
VERTEX
  5
8B9
  8
LAYER_1
 10
5.055599178460531
 20
22.74949591543253
 30
0.0
  0
VERTEX
  5
8BA
  8
LAYER_1
 10
5.066419041554678
 20
22.74034766028941
 30
0.0
  0
VERTEX
  5
8BB
  8
LAYER_1
 10
5.077660675410195
 20
22.73129960913575
 30
0.0
  0
VERTEX
  5
8BC
  8
LAYER_1
 10
5.089263649010473
 20
22.72240692149708
 30
0.0
  0
VERTEX
  5
8BD
  8
LAYER_1
 10
5.101167531338898
 20
22.71372475689894
 30
0.0
  0
VERTEX
  5
8BE
  8
LAYER_1
 10
5.113311891378858
 20
22.70530827486685
 30
0.0
  0
VERTEX
  5
8BF
  8
LAYER_1
 10
5.12563629811374
 20
22.69721263492635
 30
0.0
  0
VERTEX
  5
8C0
  8
LAYER_1
 10
5.138080320526933
 20
22.68949299660296
 30
0.0
  0
VERTEX
  5
8C1
  8
LAYER_1
 10
5.169221407454728
 20
22.67049348233406
 30
0.0
  0
VERTEX
  5
8C2
  8
LAYER_1
 10
5.168795157840176
 20
22.66734748686265
 30
0.0
  0
VERTEX
  5
8C3
  8
LAYER_1
 10
5.166789534520341
 20
22.65948051402189
 30
0.0
  0
VERTEX
  5
8C4
  8
LAYER_1
 10
5.159337437784094
 20
22.63433008246512
 30
0.0
  0
VERTEX
  5
8C5
  8
LAYER_1
 10
5.12469965798001
 20
22.50366403434492
 30
0.0
  0
VERTEX
  5
8C6
  8
LAYER_1
 10
5.078888700370424
 20
22.29913254341344
 30
0.0
  0
VERTEX
  5
8C7
  8
LAYER_1
 10
5.034443799310438
 20
22.07278436011593
 30
0.0
  0
VERTEX
  5
8C8
  8
LAYER_1
 10
5.010711638333917
 20
21.95025977372497
 30
0.0
  0
VERTEX
  5
8C9
  8
LAYER_1
 10
4.99939775273954
 20
21.89394072770402
 30
0.0
  0
VERTEX
  5
8CA
  8
LAYER_1
 10
4.988390652162851
 20
21.84067903841346
 30
0.0
  0
VERTEX
  5
8CB
  8
LAYER_1
 10
4.977644327920175
 20
21.79029609981379
 30
0.0
  0
VERTEX
  5
8CC
  8
LAYER_1
 10
4.967112771327838
 20
21.74261330586555
 30
0.0
  0
VERTEX
  5
8CD
  8
LAYER_1
 10
4.956749973702165
 20
21.69745205052926
 30
0.0
  0
VERTEX
  5
8CE
  8
LAYER_1
 10
4.94650992635948
 20
21.65463372776544
 30
0.0
  0
VERTEX
  5
8CF
  8
LAYER_1
 10
4.936346620616108
 20
21.61397973153459
 30
0.0
  0
VERTEX
  5
8D0
  8
LAYER_1
 10
4.926214047788374
 20
21.57531145579726
 30
0.0
  0
VERTEX
  5
8D1
  8
LAYER_1
 10
4.916066199192604
 20
21.53845029451394
 30
0.0
  0
VERTEX
  5
8D2
  8
LAYER_1
 10
4.905857066145122
 20
21.50321764164517
 30
0.0
  0
VERTEX
  5
8D3
  8
LAYER_1
 10
4.895540639962253
 20
21.46943489115147
 30
0.0
  0
VERTEX
  5
8D4
  8
LAYER_1
 10
4.885070911960323
 20
21.43692343699336
 30
0.0
  0
VERTEX
  5
8D5
  8
LAYER_1
 10
4.874401873455655
 20
21.40550467313135
 30
0.0
  0
VERTEX
  5
8D6
  8
LAYER_1
 10
4.863487515764575
 20
21.37499999352596
 30
0.0
  0
VERTEX
  5
8D7
  8
LAYER_1
 10
4.845100720239058
 20
21.375
 30
0.0
  0
VERTEX
  5
8D8
  8
LAYER_1
 10
3.652106696400066
 20
20.05693408058419
 30
0.0
 42
1.0
  0
VERTEX
  5
8D9
  8
LAYER_1
 10
3.652106696400066
 20
19.65693408058419
 30
0.0
  0
VERTEX
  5
8DA
  8
LAYER_1
 10
4.527106696400066
 20
19.65693408058419
 30
0.0
  0
VERTEX
  5
8DB
  8
LAYER_1
 10
4.527106696400095
 20
19.59450289779529
 30
0.0
  0
VERTEX
  5
8DC
  8
LAYER_1
 10
4.38081440965548
 20
19.04853265091188
 30
0.0
  0
VERTEX
  5
8DD
  8
LAYER_1
 10
4.249632787613349
 20
19.15669058896267
 30
0.0
  0
VERTEX
  5
8DE
  8
LAYER_1
 10
4.225484938854985
 20
19.16982083625155
 30
0.0
  0
VERTEX
  5
8DF
  8
LAYER_1
 10
4.201195416683417
 20
19.18239759008143
 30
0.0
  0
VERTEX
  5
8E0
  8
LAYER_1
 10
4.176764209871966
 20
19.19442085445087
 30
0.0
  0
VERTEX
  5
8E1
  8
LAYER_1
 10
4.15219130719395
 20
19.20589063335841
 30
0.0
  0
VERTEX
  5
8E2
  8
LAYER_1
 10
4.127476697422688
 20
19.21680693080259
 30
0.0
  0
VERTEX
  5
8E3
  8
LAYER_1
 10
4.1026203693315
 20
19.22716975078197
 30
0.0
  0
VERTEX
  5
8E4
  8
LAYER_1
 10
4.077622311693703
 20
19.23697909729508
 30
0.0
  0
VERTEX
  5
8E5
  8
LAYER_1
 10
4.052482513282618
 20
19.24623497434045
 30
0.0
  0
VERTEX
  5
8E6
  8
LAYER_1
 10
4.027200962871563
 20
19.25493738591666
 30
0.0
  0
VERTEX
  5
8E7
  8
LAYER_1
 10
4.001777649233857
 20
19.26308633602222
 30
0.0
  0
VERTEX
  5
8E8
  8
LAYER_1
 10
3.97621256114282
 20
19.2706818286557
 30
0.0
  0
VERTEX
  5
8E9
  8
LAYER_1
 10
3.95050568737177
 20
19.27772386781562
 30
0.0
  0
VERTEX
  5
8EA
  8
LAYER_1
 10
3.924657016694026
 20
19.28421245750055
 30
0.0
  0
VERTEX
  5
8EB
  8
LAYER_1
 10
3.898666537882909
 20
19.29014760170901
 30
0.0
  0
VERTEX
  5
8EC
  8
LAYER_1
 10
3.872534239711736
 20
19.29552930443955
 30
0.0
  0
VERTEX
  5
8ED
  8
LAYER_1
 10
3.846260110953827
 20
19.30035756969072
 30
0.0
  0
VERTEX
  5
8EE
  8
LAYER_1
 10
3.821601058676075
 20
19.30409455623119
 30
0.0
  0
VERTEX
  5
8EF
  8
LAYER_1
 10
3.796851200985478
 20
19.30686823068567
 30
0.0
  0
VERTEX
  5
8F0
  8
LAYER_1
 10
3.772020254821294
 20
19.30877824602857
 30
0.0
  0
VERTEX
  5
8F1
  8
LAYER_1
 10
3.747117937122784
 20
19.30992425523432
 30
0.0
  0
VERTEX
  5
8F2
  8
LAYER_1
 10
3.722153964829206
 20
19.31040591127731
 30
0.0
  0
VERTEX
  5
8F3
  8
LAYER_1
 10
3.697138054879823
 20
19.31032286713197
 30
0.0
  0
VERTEX
  5
8F4
  8
LAYER_1
 10
3.672079924213894
 20
19.3097747757727
 30
0.0
  0
VERTEX
  5
8F5
  8
LAYER_1
 10
3.646989289770677
 20
19.30886129017392
 30
0.0
  0
VERTEX
  5
8F6
  8
LAYER_1
 10
3.596749377309425
 20
19.30633674815547
 30
0.0
  0
VERTEX
  5
8F7
  8
LAYER_1
 10
3.546496053010146
 20
19.30354646487192
 30
0.0
  0
VERTEX
  5
8F8
  8
LAYER_1
 10
3.496307052386921
 20
19.30128766411858
 30
0.0
  0
VERTEX
  5
8F9
  8
LAYER_1
 10
3.471260965801978
 20
19.30060670212675
 30
0.0
  0
VERTEX
  5
8FA
  8
LAYER_1
 10
3.446260110953828
 20
19.30035756969072
 30
0.0
  0
VERTEX
  5
8FB
  8
LAYER_1
 10
3.433536616444785
 20
19.29982145013442
 30
0.0
  0
VERTEX
  5
8FC
  8
LAYER_1
 10
3.420403856453403
 20
19.2983560566805
 30
0.0
  0
VERTEX
  5
8FD
  8
LAYER_1
 10
3.406955916283297
 20
19.29617583715152
 30
0.0
  0
VERTEX
  5
8FE
  8
LAYER_1
 10
3.393286881238085
 20
19.29349523936997
 30
0.0
  0
VERTEX
  5
8FF
  8
LAYER_1
 10
3.365661867736811
 20
19.28749070033931
 30
0.0
  0
VERTEX
  5
900
  8
LAYER_1
 10
3.351894059887983
 20
19.28459565473525
 30
0.0
  0
VERTEX
  5
901
  8
LAYER_1
 10
3.338281498378515
 20
19.28205802216872
 30
0.0
  0
VERTEX
  5
902
  8
LAYER_1
 10
3.324918268512027
 20
19.28009225046225
 30
0.0
  0
VERTEX
  5
903
  8
LAYER_1
 10
3.311898455592134
 20
19.27891278743838
 30
0.0
  0
VERTEX
  5
904
  8
LAYER_1
 10
3.299316144922453
 20
19.27873408091961
 30
0.0
  0
VERTEX
  5
905
  8
LAYER_1
 10
3.293218454588823
 20
19.27908702629418
 30
0.0
  0
VERTEX
  5
906
  8
LAYER_1
 10
3.287265421806602
 20
19.27977057872847
 30
0.0
  0
VERTEX
  5
907
  8
LAYER_1
 10
3.281468807238742
 20
19.2808115442003
 30
0.0
  0
VERTEX
  5
908
  8
LAYER_1
 10
3.275840371548197
 20
19.28223672868749
 30
0.0
  0
VERTEX
  5
909
  8
LAYER_1
 10
3.270391875397917
 20
19.28407293816785
 30
0.0
  0
VERTEX
  5
90A
  8
LAYER_1
 10
3.265135079450855
 20
19.28634697861919
 30
0.0
  0
VERTEX
  5
90B
  8
LAYER_1
 10
3.260081744369963
 20
19.28908565601933
 30
0.0
  0
VERTEX
  5
90C
  8
LAYER_1
 10
3.255243630818193
 20
19.29231577634609
 30
0.0
  0
VERTEX
  5
90D
  8
LAYER_1
 10
3.250632499458498
 20
19.29606414557728
 30
0.0
  0
VERTEX
  5
90E
  8
LAYER_1
 10
3.246260110953829
 20
19.30035756969072
 30
0.0
  0
VERTEX
  5
90F
  8
LAYER_1
 10
3.239283935830007
 20
19.30838298228809
 30
0.0
  0
VERTEX
  5
910
  8
LAYER_1
 10
3.232930059469331
 20
19.31673217599695
 30
0.0
  0
VERTEX
  5
911
  8
LAYER_1
 10
3.227165340881491
 20
19.32538845826918
 30
0.0
  0
VERTEX
  5
912
  8
LAYER_1
 10
3.22195663907618
 20
19.33433513655668
 30
0.0
  0
VERTEX
  5
913
  8
LAYER_1
 10
3.217270813063091
 20
19.34355551831133
 30
0.0
  0
VERTEX
  5
914
  8
LAYER_1
 10
3.213074721851914
 20
19.353032910985
 30
0.0
  0
VERTEX
  5
915
  8
LAYER_1
 10
3.209335224452344
 20
19.36275062202958
 30
0.0
  0
VERTEX
  5
916
  8
LAYER_1
 10
3.20601917987407
 20
19.37269195889698
 30
0.0
  0
VERTEX
  5
917
  8
LAYER_1
 10
3.203093447126786
 20
19.38284022903905
 30
0.0
  0
VERTEX
  5
918
  8
LAYER_1
 10
3.200524885220184
 20
19.3931787399077
 30
0.0
  0
VERTEX
  5
919
  8
LAYER_1
 10
3.198280353163954
 20
19.40369079895481
 30
0.0
  0
VERTEX
  5
91A
  8
LAYER_1
 10
3.19632670996779
 20
19.41435971363227
 30
0.0
  0
VERTEX
  5
91B
  8
LAYER_1
 10
3.193159526194428
 20
19.43610133968575
 30
0.0
  0
VERTEX
  5
91C
  8
LAYER_1
 10
3.190758205977633
 20
19.45827007768322
 30
0.0
  0
VERTEX
  5
91D
  8
LAYER_1
 10
3.187192644523891
 20
19.50335472797049
 30
0.0
  0
VERTEX
  5
91E
  8
LAYER_1
 10
3.185498147442018
 20
19.52600355949044
 30
0.0
  0
VERTEX
  5
91F
  8
LAYER_1
 10
3.183509002226858
 20
19.54854534141472
 30
0.0
  0
VERTEX
  5
920
  8
LAYER_1
 10
3.180960080955948
 20
19.57084653335841
 30
0.0
  0
VERTEX
  5
921
  8
LAYER_1
 10
3.177586255706824
 20
19.59277359493659
 30
0.0
  0
VERTEX
  5
922
  8
LAYER_1
 10
3.175507151614663
 20
19.60355509546832
 30
0.0
  0
VERTEX
  5
923
  8
LAYER_1
 10
3.173122398557024
 20
19.61419298576434
 30
0.0
  0
VERTEX
  5
924
  8
LAYER_1
 10
3.1703988555436
 20
19.62467057327652
 30
0.0
  0
VERTEX
  5
925
  8
LAYER_1
 10
3.167303381584084
 20
19.63497116545675
 30
0.0
  0
VERTEX
  5
926
  8
LAYER_1
 10
3.158490928406357
 20
19.66351561691081
 30
0.0
  0
VERTEX
  5
927
  8
LAYER_1
 10
3.148852662414534
 20
19.69479386246582
 30
0.0
  0
VERTEX
  5
928
  8
LAYER_1
 10
3.143563091573873
 20
19.71088830007006
 30
0.0
  0
VERTEX
  5
929
  8
LAYER_1
 10
3.137874157882332
 20
19.72698235664618
 30
0.0
  0
VERTEX
  5
92A
  8
LAYER_1
 10
3.131721558124125
 20
19.74284808900973
 30
0.0
  0
VERTEX
  5
92B
  8
LAYER_1
 10
3.125040989083469
 20
19.75825755397626
 30
0.0
  0
VERTEX
  5
92C
  8
LAYER_1
 10
3.117768147544576
 20
19.77298280836133
 30
0.0
  0
VERTEX
  5
92D
  8
LAYER_1
 10
3.109838730291663
 20
19.78679590898049
 30
0.0
  0
VERTEX
  5
92E
  8
LAYER_1
 10
3.105607711017515
 20
19.79328916938271
 30
0.0
  0
VERTEX
  5
92F
  8
LAYER_1
 10
3.101188434108942
 20
19.79946891264928
 30
0.0
  0
VERTEX
  5
930
  8
LAYER_1
 10
3.096572861663972
 20
19.80530664588214
 30
0.0
  0
VERTEX
  5
931
  8
LAYER_1
 10
3.09175295578063
 20
19.81077387618325
 30
0.0
  0
VERTEX
  5
932
  8
LAYER_1
 10
3.086720678556945
 20
19.81584211065453
 30
0.0
  0
VERTEX
  5
933
  8
LAYER_1
 10
3.081467992090941
 20
19.82048285639795
 30
0.0
  0
VERTEX
  5
934
  8
LAYER_1
 10
3.075986858480647
 20
19.82466762051543
 30
0.0
  0
VERTEX
  5
935
  8
LAYER_1
 10
3.07026923982409
 20
19.82836791010893
 30
0.0
  0
VERTEX
  5
936
  8
LAYER_1
 10
3.064307098219296
 20
19.83155523228038
 30
0.0
  0
VERTEX
  5
937
  8
LAYER_1
 10
3.058092395764291
 20
19.83420109413174
 30
0.0
  0
VERTEX
  5
938
  8
LAYER_1
 10
3.051617094557104
 20
19.83627700276495
 30
0.0
  0
VERTEX
  5
939
  8
LAYER_1
 10
3.044873156695759
 20
19.83775446528194
 30
0.0
  0
VERTEX
  5
93A
  8
LAYER_1
 10
3.039422524114552
 20
19.8384831348195
 30
0.0
  0
VERTEX
  5
93B
  8
LAYER_1
 10
3.033970728964096
 20
19.83882901726803
 30
0.0
  0
VERTEX
  5
93C
  8
LAYER_1
 10
3.028520110797025
 20
19.83880863512539
 30
0.0
  0
VERTEX
  5
93D
  8
LAYER_1
 10
3.023073009165971
 20
19.83843851088944
 30
0.0
  0
VERTEX
  5
93E
  8
LAYER_1
 10
3.017631763623566
 20
19.83773516705806
 30
0.0
  0
VERTEX
  5
93F
  8
LAYER_1
 10
3.012198713722443
 20
19.83671512612909
 30
0.0
  0
VERTEX
  5
940
  8
LAYER_1
 10
3.001366559054568
 20
19.83379104296987
 30
0.0
  0
VERTEX
  5
941
  8
LAYER_1
 10
2.990595261583401
 20
19.82979844139467
 30
0.0
  0
VERTEX
  5
942
  8
LAYER_1
 10
2.979903537729999
 20
19.8248695013864
 30
0.0
  0
VERTEX
  5
943
  8
LAYER_1
 10
2.96931010391542
 20
19.81913640292795
 30
0.0
  0
VERTEX
  5
944
  8
LAYER_1
 10
2.95883367656072
 20
19.8127313260022
 30
0.0
  0
VERTEX
  5
945
  8
LAYER_1
 10
2.948492972086955
 20
19.80578645059208
 30
0.0
  0
VERTEX
  5
946
  8
LAYER_1
 10
2.938306706915181
 20
19.79843395668046
 30
0.0
  0
VERTEX
  5
947
  8
LAYER_1
 10
2.918472360161836
 20
19.78303483328436
 30
0.0
  0
VERTEX
  5
948
  8
LAYER_1
 10
2.899480367669137
 20
19.76759139567706
 30
0.0
  0
VERTEX
  5
949
  8
LAYER_1
 10
2.881480460805536
 20
19.75316108372175
 30
0.0
  0
VERTEX
  5
94A
  8
LAYER_1
 10
2.874474380819433
 20
19.7471571032294
 30
0.0
  0
VERTEX
  5
94B
  8
LAYER_1
 10
2.868208305237722
 20
19.74066857343424
 30
0.0
  0
VERTEX
  5
94C
  8
LAYER_1
 10
2.862629669555379
 20
19.73373398885501
 30
0.0
  0
VERTEX
  5
94D
  8
LAYER_1
 10
2.857685909267376
 20
19.72639184401044
 30
0.0
  0
VERTEX
  5
94E
  8
LAYER_1
 10
2.853324459868688
 20
19.71868063341926
 30
0.0
  0
VERTEX
  5
94F
  8
LAYER_1
 10
2.849492756854288
 20
19.71063885160022
 30
0.0
  0
VERTEX
  5
950
  8
LAYER_1
 10
2.846138235719152
 20
19.70230499307206
 30
0.0
  0
VERTEX
  5
951
  8
LAYER_1
 10
2.843208331958251
 20
19.6937175523535
 30
0.0
  0
VERTEX
  5
952
  8
LAYER_1
 10
2.840650481066561
 20
19.68491502396328
 30
0.0
  0
VERTEX
  5
953
  8
LAYER_1
 10
2.838412118539056
 20
19.67593590242013
 30
0.0
  0
VERTEX
  5
954
  8
LAYER_1
 10
2.834683600556494
 20
19.65760185795002
 30
0.0
  0
VERTEX
  5
955
  8
LAYER_1
 10
2.831602261970358
 20
19.63902337509304
 30
0.0
  0
VERTEX
  5
956
  8
LAYER_1
 10
2.828747586740437
 20
19.62050840999908
 30
0.0
  0
VERTEX
  5
957
  8
LAYER_1
 10
2.825699058826526
 20
19.60236491881803
 30
0.0
  0
VERTEX
  5
958
  8
LAYER_1
 10
2.822036162188414
 20
19.58490085769976
 30
0.0
  0
VERTEX
  5
959
  8
LAYER_1
 10
2.819842914335219
 20
19.57651984971101
 30
0.0
  0
VERTEX
  5
95A
  8
LAYER_1
 10
2.817338380785895
 20
19.56842418279417
 30
0.0
  0
VERTEX
  5
95B
  8
LAYER_1
 10
2.814469997035417
 20
19.56065235146797
 30
0.0
  0
VERTEX
  5
95C
  8
LAYER_1
 10
2.811185198578759
 20
19.55324285025113
 30
0.0
  0
VERTEX
  5
95D
  8
LAYER_1
 10
2.807431420910894
 20
19.54623417366242
 30
0.0
  0
VERTEX
  5
95E
  8
LAYER_1
 10
2.803156099526797
 20
19.53966481622054
 30
0.0
  0
VERTEX
  5
95F
  8
LAYER_1
 10
2.798306669921442
 20
19.53357327244426
 30
0.0
  0
VERTEX
  5
960
  8
LAYER_1
 10
2.792830567589802
 20
19.52799803685229
 30
0.0
  0
VERTEX
  5
961
  8
LAYER_1
 10
2.786675228026852
 20
19.52297760396337
 30
0.0
  0
VERTEX
  5
962
  8
LAYER_1
 10
2.779788086727565
 20
19.51855046829625
 30
0.0
  0
VERTEX
  5
963
  8
LAYER_1
 10
2.772116579186916
 20
19.51475512436964
 30
0.0
  0
VERTEX
  5
964
  8
LAYER_1
 10
2.763608140899878
 20
19.5116300667023
 30
0.0
  0
VERTEX
  5
965
  8
LAYER_1
 10
2.753864979216247
 20
19.50897783025368
 30
0.0
  0
VERTEX
  5
966
  8
LAYER_1
 10
2.744095026833493
 20
19.50703489595796
 30
0.0
  0
VERTEX
  5
967
  8
LAYER_1
 10
2.734299131622995
 20
19.50575943764656
 30
0.0
  0
VERTEX
  5
968
  8
LAYER_1
 10
2.724478141456134
 20
19.50510962915083
 30
0.0
  0
VERTEX
  5
969
  8
LAYER_1
 10
2.714632904204289
 20
19.50504364430216
 30
0.0
  0
VERTEX
  5
96A
  8
LAYER_1
 10
2.70476426773884
 20
19.50551965693191
 30
0.0
  0
VERTEX
  5
96B
  8
LAYER_1
 10
2.694873079931167
 20
19.50649584087148
 30
0.0
  0
VERTEX
  5
96C
  8
LAYER_1
 10
2.68496018865265
 20
19.50793036995224
 30
0.0
  0
VERTEX
  5
96D
  8
LAYER_1
 10
2.675026441774669
 20
19.50978141800557
 30
0.0
  0
VERTEX
  5
96E
  8
LAYER_1
 10
2.665072687168604
 20
19.51200715886284
 30
0.0
  0
VERTEX
  5
96F
  8
LAYER_1
 10
2.645108546257742
 20
19.51741541431476
 30
0.0
  0
VERTEX
  5
970
  8
LAYER_1
 10
2.625074548891102
 20
19.52382052695901
 30
0.0
  0
VERTEX
  5
971
  8
LAYER_1
 10
2.604977478039725
 20
19.53088788744662
 30
0.0
  0
VERTEX
  5
972
  8
LAYER_1
 10
2.564621247766915
 20
19.54567091455605
 30
0.0
  0
VERTEX
  5
973
  8
LAYER_1
 10
2.544375654287562
 20
19.55271736247992
 30
0.0
  0
VERTEX
  5
974
  8
LAYER_1
 10
2.524094119207628
 20
19.55908762085128
 30
0.0
  0
VERTEX
  5
975
  8
LAYER_1
 10
2.503783425498153
 20
19.56444708032114
 30
0.0
  0
VERTEX
  5
976
  8
LAYER_1
 10
2.493619263835789
 20
19.56664319504645
 30
0.0
  0
VERTEX
  5
977
  8
LAYER_1
 10
2.483450356130179
 20
19.56846113154053
 30
0.0
  0
VERTEX
  5
978
  8
LAYER_1
 10
2.473277550252703
 20
19.56985906363475
 30
0.0
  0
VERTEX
  5
979
  8
LAYER_1
 10
2.463101694074742
 20
19.57079516516049
 30
0.0
  0
VERTEX
  5
97A
  8
LAYER_1
 10
2.452923635467675
 20
19.57122760994913
 30
0.0
  0
VERTEX
  5
97B
  8
LAYER_1
 10
2.442744222302883
 20
19.57111457183204
 30
0.0
  0
VERTEX
  5
97C
  8
LAYER_1
 10
2.404530036554493
 20
19.56955020227583
 30
0.0
  0
VERTEX
  5
97D
  8
LAYER_1
 10
2.384987323720548
 20
19.56854688081689
 30
0.0
  0
VERTEX
  5
97E
  8
LAYER_1
 10
2.36528733502084
 20
19.56726256562317
 30
0.0
  0
VERTEX
  5
97F
  8
LAYER_1
 10
2.345529923535922
 20
19.565597079734
 30
0.0
  0
VERTEX
  5
980
  8
LAYER_1
 10
2.325814942346348
 20
19.56345024618872
 30
0.0
  0
VERTEX
  5
981
  8
LAYER_1
 10
2.30624224453267
 20
19.56072188802663
 30
0.0
  0
VERTEX
  5
982
  8
LAYER_1
 10
2.286911683175441
 20
19.55731182828708
 30
0.0
  0
VERTEX
  5
983
  8
LAYER_1
 10
2.267923111355215
 20
19.55311989000938
 30
0.0
  0
VERTEX
  5
984
  8
LAYER_1
 10
2.249376382152545
 20
19.54804589623289
 30
0.0
  0
VERTEX
  5
985
  8
LAYER_1
 10
2.231371348647984
 20
19.54198966999691
 30
0.0
  0
VERTEX
  5
986
  8
LAYER_1
 10
2.222603171870166
 20
19.5385619144064
 30
0.0
  0
VERTEX
  5
987
  8
LAYER_1
 10
2.214007863922084
 20
19.53485103434078
 30
0.0
  0
VERTEX
  5
988
  8
LAYER_1
 10
2.205597906438805
 20
19.53084450767994
 30
0.0
  0
VERTEX
  5
989
  8
LAYER_1
 10
2.197385781055399
 20
19.52652981230382
 30
0.0
  0
VERTEX
  5
98A
  8
LAYER_1
 10
2.189383969406934
 20
19.52189442609232
 30
0.0
  0
VERTEX
  5
98B
  8
LAYER_1
 10
2.181604953128481
 20
19.51692582692537
 30
0.0
  0
VERTEX
  5
98C
  8
LAYER_1
 10
2.174061213855108
 20
19.51161149268287
 30
0.0
  0
VERTEX
  5
98D
  8
LAYER_1
 10
2.166765233221885
 20
19.50593890124475
 30
0.0
  0
VERTEX
  5
98E
  8
LAYER_1
 10
2.15972949286388
 20
19.49989553049091
 30
0.0
  0
VERTEX
  5
98F
  8
LAYER_1
 10
2.152966474416163
 20
19.49346885830129
 30
0.0
  0
VERTEX
  5
990
  8
LAYER_1
 10
2.148715456962015
 20
19.4889558586136
 30
0.0
  0
VERTEX
  5
991
  8
LAYER_1
 10
2.144782521507804
 20
19.48425296038657
 30
0.0
  0
VERTEX
  5
992
  8
LAYER_1
 10
2.141152849520776
 20
19.47936932097911
 30
0.0
  0
VERTEX
  5
993
  8
LAYER_1
 10
2.137811622468179
 20
19.47431409775015
 30
0.0
  0
VERTEX
  5
994
  8
LAYER_1
 10
2.131935229035261
 20
19.46372552926341
 30
0.0
  0
VERTEX
  5
995
  8
LAYER_1
 10
2.127034792947023
 20
19.45256051379777
 30
0.0
  0
VERTEX
  5
996
  8
LAYER_1
 10
2.122991765941439
 20
19.44089231022462
 30
0.0
  0
VERTEX
  5
997
  8
LAYER_1
 10
2.119687599756483
 20
19.42879417741534
 30
0.0
  0
VERTEX
  5
998
  8
LAYER_1
 10
2.117003746130128
 20
19.41633937424134
 30
0.0
  0
VERTEX
  5
999
  8
LAYER_1
 10
2.114821656800348
 20
19.40360115957402
 30
0.0
  0
VERTEX
  5
99A
  8
LAYER_1
 10
2.11148857798241
 20
19.377567531245
 30
0.0
  0
VERTEX
  5
99B
  8
LAYER_1
 10
2.108739977206455
 20
19.35127936339945
 30
0.0
  0
VERTEX
  5
99C
  8
LAYER_1
 10
2.105627468376276
 20
19.32532272700855
 30
0.0
  0
VERTEX
  5
99D
  8
LAYER_1
 10
2.103638377785785
 20
19.31265188028709
 30
0.0
  0
VERTEX
  5
99E
  8
LAYER_1
 10
2.101202665395659
 20
19.30028369304348
 30
0.0
  0
VERTEX
  5
99F
  8
LAYER_1
 10
2.094539692410589
 20
19.26877226133911
 30
0.0
  0
VERTEX
  5
9A0
  8
LAYER_1
 10
2.08839806813553
 20
19.2371378583525
 30
0.0
  0
VERTEX
  5
9A1
  8
LAYER_1
 10
2.07725774633554
 20
19.1736108878025
 30
0.0
  0
VERTEX
  5
9A2
  8
LAYER_1
 10
2.066939461235887
 20
19.1099242799333
 30
0.0
  0
VERTEX
  5
9A3
  8
LAYER_1
 10
2.056600974076767
 20
19.04629953328473
 30
0.0
  0
VERTEX
  5
9A4
  8
LAYER_1
 10
2.053606767017773
 20
19.0263475786975
 30
0.0
  0
VERTEX
  5
9A5
  8
LAYER_1
 10
2.051096593057431
 20
19.00627685773638
 30
0.0
  0
VERTEX
  5
9A6
  8
LAYER_1
 10
2.046460607688261
 20
18.96603656285944
 30
0.0
  0
VERTEX
  5
9A7
  8
LAYER_1
 10
2.04380092790721
 20
18.94599571202712
 30
0.0
  0
VERTEX
  5
9A8
  8
LAYER_1
 10
2.040557544480368
 20
18.92609354098788
 30
0.0
  0
VERTEX
  5
9A9
  8
LAYER_1
 10
2.036463523221622
 20
18.90639441128346
 30
0.0
  0
VERTEX
  5
9AA
  8
LAYER_1
 10
2.034014106472127
 20
18.89664109991361
 30
0.0
  0
VERTEX
  5
9AB
  8
LAYER_1
 10
2.031251929944863
 20
18.88696268445561
 30
0.0
  0
VERTEX
  5
9AC
  8
LAYER_1
 10
2.02383329072976
 20
18.86156297861546
 30
0.0
  0
VERTEX
  5
9AD
  8
LAYER_1
 10
2.019854088284846
 20
18.84874673924421
 30
0.0
  0
VERTEX
  5
9AE
  8
LAYER_1
 10
2.015379536549426
 20
18.83616315604184
 30
0.0
  0
VERTEX
  5
9AF
  8
LAYER_1
 10
2.010173064974303
 20
18.82404491436057
 30
0.0
  0
VERTEX
  5
9B0
  8
LAYER_1
 10
2.007221430950229
 20
18.81823301076292
 30
0.0
  0
VERTEX
  5
9B1
  8
LAYER_1
 10
2.00399810301028
 20
18.81262469955263
 30
0.0
  0
VERTEX
  5
9B2
  8
LAYER_1
 10
2.000473509835806
 20
18.80724906639873
 30
0.0
  0
VERTEX
  5
9B3
  8
LAYER_1
 10
1.996618080108158
 20
18.80213519697025
 30
0.0
  0
VERTEX
  5
9B4
  8
LAYER_1
 10
1.992402242508686
 20
18.79731217693622
 30
0.0
  0
VERTEX
  5
9B5
  8
LAYER_1
 10
1.98779642571874
 20
18.79280909196568
 30
0.0
  0
VERTEX
  5
9B6
  8
LAYER_1
 10
1.978949731373819
 20
18.78553358976717
 30
0.0
  0
VERTEX
  5
9B7
  8
LAYER_1
 10
1.969216243213577
 20
18.77887584627562
 30
0.0
  0
VERTEX
  5
9B8
  8
LAYER_1
 10
1.958783522294185
 20
18.77304901216321
 30
0.0
  0
VERTEX
  5
9B9
  8
LAYER_1
 10
1.95336356237986
 20
18.77051379570925
 30
0.0
  0
VERTEX
  5
9BA
  8
LAYER_1
 10
1.947839129671812
 20
18.76826623810214
 30
0.0
  0
VERTEX
  5
9BB
  8
LAYER_1
 10
1.942233669302061
 20
18.76633298317591
 30
0.0
  0
VERTEX
  5
9BC
  8
LAYER_1
 10
1.936570626402629
 20
18.76474067476459
 30
0.0
  0
VERTEX
  5
9BD
  8
LAYER_1
 10
1.930873446105536
 20
18.76351595670219
 30
0.0
  0
VERTEX
  5
9BE
  8
LAYER_1
 10
1.925165573542804
 20
18.76268547282275
 30
0.0
  0
VERTEX
  5
9BF
  8
LAYER_1
 10
1.919470453846455
 20
18.76227586696027
 30
0.0
  0
VERTEX
  5
9C0
  8
LAYER_1
 10
1.913811532148509
 20
18.76231378294879
 30
0.0
  0
VERTEX
  5
9C1
  8
LAYER_1
 10
1.908212253580988
 20
18.76282586462234
 30
0.0
  0
VERTEX
  5
9C2
  8
LAYER_1
 10
1.902696063275913
 20
18.76383875581493
 30
0.0
  0
VERTEX
  5
9C3
  8
LAYER_1
 10
1.897265115609351
 20
18.76535735314902
 30
0.0
  0
VERTEX
  5
9C4
  8
LAYER_1
 10
1.891932220178254
 20
18.76734559981532
 30
0.0
  0
VERTEX
  5
9C5
  8
LAYER_1
 10
1.886717893561378
 20
18.7697731103372
 30
0.0
  0
VERTEX
  5
9C6
  8
LAYER_1
 10
1.881642652337476
 20
18.77260949923806
 30
0.0
  0
VERTEX
  5
9C7
  8
LAYER_1
 10
1.876727013085303
 20
18.77582438104128
 30
0.0
  0
VERTEX
  5
9C8
  8
LAYER_1
 10
1.871991492383612
 20
18.77938737027025
 30
0.0
  0
VERTEX
  5
9C9
  8
LAYER_1
 10
1.867456606811157
 20
18.78326808144836
 30
0.0
  0
VERTEX
  5
9CA
  8
LAYER_1
 10
1.863142872946693
 20
18.787436129099
 30
0.0
  0
VERTEX
  5
9CB
  8
LAYER_1
 10
1.859070807368973
 20
18.79186112774556
 30
0.0
  0
VERTEX
  5
9CC
  8
LAYER_1
 10
1.855260926656753
 20
18.79651269191141
 30
0.0
  0
VERTEX
  5
9CD
  8
LAYER_1
 10
1.851733747388784
 20
18.80136043611996
 30
0.0
  0
VERTEX
  5
9CE
  8
LAYER_1
 10
1.848509786143822
 20
18.8063739748946
 30
0.0
  0
VERTEX
  5
9CF
  8
LAYER_1
 10
1.845609559500621
 20
18.81152292275871
 30
0.0
  0
VERTEX
  5
9D0
  8
LAYER_1
 10
1.843053584037935
 20
18.81677689423567
 30
0.0
  0
VERTEX
  5
9D1
  8
LAYER_1
 10
1.840862376334518
 20
18.82210550384887
 30
0.0
  0
VERTEX
  5
9D2
  8
LAYER_1
 10
1.839056452969123
 20
18.82747836612171
 30
0.0
  0
VERTEX
  5
9D3
  8
LAYER_1
 10
1.837120266263372
 20
18.83507589026777
 30
0.0
  0
VERTEX
  5
9D4
  8
LAYER_1
 10
1.835774841229881
 20
18.8428299792908
 30
0.0
  0
VERTEX
  5
9D5
  8
LAYER_1
 10
1.83499464863781
 20
18.85070939882845
 30
0.0
  0
VERTEX
  5
9D6
  8
LAYER_1
 10
1.834754159256319
 20
18.8586829145184
 30
0.0
  0
VERTEX
  5
9D7
  8
LAYER_1
 10
1.83502784385457
 20
18.8667192919983
 30
0.0
  0
VERTEX
  5
9D8
  8
LAYER_1
 10
1.835790173201721
 20
18.87478729690581
 30
0.0
  0
VERTEX
  5
9D9
  8
LAYER_1
 10
1.837015618066934
 20
18.8828556948786
 30
0.0
  0
VERTEX
  5
9DA
  8
LAYER_1
 10
1.838678649219368
 20
18.89089325155433
 30
0.0
  0
VERTEX
  5
9DB
  8
LAYER_1
 10
1.840753737428184
 20
18.89886873257066
 30
0.0
  0
VERTEX
  5
9DC
  8
LAYER_1
 10
1.843215353462542
 20
18.90675090356525
 30
0.0
  0
VERTEX
  5
9DD
  8
LAYER_1
 10
1.846037968091603
 20
18.91450853017577
 30
0.0
  0
VERTEX
  5
9DE
  8
LAYER_1
 10
1.849196052084527
 20
18.92211037803987
 30
0.0
  0
VERTEX
  5
9DF
  8
LAYER_1
 10
1.852664076210474
 20
18.92952521279522
 30
0.0
  0
VERTEX
  5
9E0
  8
LAYER_1
 10
1.856416511238604
 20
18.93672180007948
 30
0.0
  0
VERTEX
  5
9E1
  8
LAYER_1
 10
1.860427827938078
 20
18.94366890553031
 30
0.0
  0
VERTEX
  5
9E2
  8
LAYER_1
 10
1.864672497078056
 20
18.95033529478537
 30
0.0
  0
VERTEX
  5
9E3
  8
LAYER_1
 10
1.868302496125914
 20
18.95505754275255
 30
0.0
  0
VERTEX
  5
9E4
  8
LAYER_1
 10
1.872454776799577
 20
18.95926087775094
 30
0.0
  0
VERTEX
  5
9E5
  8
LAYER_1
 10
1.877055972392886
 20
18.96301857293955
 30
0.0
  0
VERTEX
  5
9E6
  8
LAYER_1
 10
1.882032716199687
 20
18.96640390147745
 30
0.0
  0
VERTEX
  5
9E7
  8
LAYER_1
 10
1.892819381629136
 20
18.97235055123727
 30
0.0
  0
VERTEX
  5
9E8
  8
LAYER_1
 10
1.90422783943867
 20
18.97768701230274
 30
0.0
  0
VERTEX
  5
9E9
  8
LAYER_1
 10
1.915671155979038
 20
18.9829994699462
 30
0.0
  0
VERTEX
  5
9EA
  8
LAYER_1
 10
1.921222469507892
 20
18.98582988038229
 30
0.0
  0
VERTEX
  5
9EB
  8
LAYER_1
 10
1.926562397600986
 20
18.98887410944001
 30
0.0
  0
VERTEX
  5
9EC
  8
LAYER_1
 10
1.931617573552161
 20
18.9922054302784
 30
0.0
  0
VERTEX
  5
9ED
  8
LAYER_1
 10
1.936314630655263
 20
18.9958971160565
 30
0.0
  0
VERTEX
  5
9EE
  8
LAYER_1
 10
1.940580202204133
 20
19.00002243993336
 30
0.0
  0
VERTEX
  5
9EF
  8
LAYER_1
 10
1.944340921492616
 20
19.00465467506803
 30
0.0
  0
VERTEX
  5
9F0
  8
LAYER_1
 10
1.948837183855907
 20
19.01140762167008
 30
0.0
  0
VERTEX
  5
9F1
  8
LAYER_1
 10
1.952942379094182
 20
19.01841173492164
 30
0.0
  0
VERTEX
  5
9F2
  8
LAYER_1
 10
1.956671925659321
 20
19.02564448484741
 30
0.0
  0
VERTEX
  5
9F3
  8
LAYER_1
 10
1.960041242003203
 20
19.03308334147214
 30
0.0
  0
VERTEX
  5
9F4
  8
LAYER_1
 10
1.963065746577708
 20
19.04070577482052
 30
0.0
  0
VERTEX
  5
9F5
  8
LAYER_1
 10
1.965760857834715
 20
19.0484892549173
 30
0.0
  0
VERTEX
  5
9F6
  8
LAYER_1
 10
1.968141994226104
 20
19.0564112517872
 30
0.0
  0
VERTEX
  5
9F7
  8
LAYER_1
 10
1.970224574203755
 20
19.06444923545493
 30
0.0
  0
VERTEX
  5
9F8
  8
LAYER_1
 10
1.973555738725361
 20
19.08078304328279
 30
0.0
  0
VERTEX
  5
9F9
  8
LAYER_1
 10
1.975877699014569
 20
19.09731043859866
 30
0.0
  0
VERTEX
  5
9FA
  8
LAYER_1
 10
1.977313802686417
 20
19.11385118160034
 30
0.0
  0
VERTEX
  5
9FB
  8
LAYER_1
 10
1.977987397355941
 20
19.1302250324856
 30
0.0
  0
VERTEX
  5
9FC
  8
LAYER_1
 10
1.977790899973472
 20
19.14167641325805
 30
0.0
  0
VERTEX
  5
9FD
  8
LAYER_1
 10
1.976762203662145
 20
19.15273834308369
 30
0.0
  0
VERTEX
  5
9FE
  8
LAYER_1
 10
1.97496111384528
 20
19.1634495300663
 30
0.0
  0
VERTEX
  5
9FF
  8
LAYER_1
 10
1.972447435946197
 20
19.17384868230966
 30
0.0
  0
VERTEX
  5
A00
  8
LAYER_1
 10
1.969280975388215
 20
19.18397450791756
 30
0.0
  0
VERTEX
  5
A01
  8
LAYER_1
 10
1.965521537594652
 20
19.19386571499378
 30
0.0
  0
VERTEX
  5
A02
  8
LAYER_1
 10
1.961228927988829
 20
19.20356101164211
 30
0.0
  0
VERTEX
  5
A03
  8
LAYER_1
 10
1.956462951994065
 20
19.21309910596632
 30
0.0
  0
VERTEX
  5
A04
  8
LAYER_1
 10
1.95128341503368
 20
19.2225187060702
 30
0.0
  0
VERTEX
  5
A05
  8
LAYER_1
 10
1.945750122530992
 20
19.23185852005753
 30
0.0
  0
VERTEX
  5
A06
  8
LAYER_1
 10
1.933861492591989
 20
19.25045362209768
 30
0.0
  0
VERTEX
  5
A07
  8
LAYER_1
 10
1.92127550556361
 20
19.26919407691702
 30
0.0
  0
VERTEX
  5
A08
  8
LAYER_1
 10
1.908470604832411
 20
19.28838954934581
 30
0.0
  0
VERTEX
  5
A09
  8
LAYER_1
 10
1.901512373573635
 20
19.29845244903867
 30
0.0
  0
VERTEX
  5
A0A
  8
LAYER_1
 10
1.894014757256017
 20
19.30818909092236
 30
0.0
  0
VERTEX
  5
A0B
  8
LAYER_1
 10
1.886010848208811
 20
19.31758880693727
 30
0.0
  0
VERTEX
  5
A0C
  8
LAYER_1
 10
1.877533738761269
 20
19.3266409290238
 30
0.0
  0
VERTEX
  5
A0D
  8
LAYER_1
 10
1.868616521242645
 20
19.33533478912231
 30
0.0
  0
VERTEX
  5
A0E
  8
LAYER_1
 10
1.859292287982192
 20
19.34365971917321
 30
0.0
  0
VERTEX
  5
A0F
  8
LAYER_1
 10
1.849594131309162
 20
19.35160505111688
 30
0.0
  0
VERTEX
  5
A10
  8
LAYER_1
 10
1.839555143552809
 20
19.35916011689371
 30
0.0
  0
VERTEX
  5
A11
  8
LAYER_1
 10
1.829208417042386
 20
19.36631424844409
 30
0.0
  0
VERTEX
  5
A12
  8
LAYER_1
 10
1.818587044107146
 20
19.37305677770841
 30
0.0
  0
VERTEX
  5
A13
  8
LAYER_1
 10
1.807724117076342
 20
19.37937703662706
 30
0.0
  0
VERTEX
  5
A14
  8
LAYER_1
 10
1.796652728279226
 20
19.38526435714043
 30
0.0
  0
VERTEX
  5
A15
  8
LAYER_1
 10
1.785405970045053
 20
19.3907080711889
 30
0.0
  0
VERTEX
  5
A16
  8
LAYER_1
 10
1.774016934703075
 20
19.39569751071285
 30
0.0
  0
VERTEX
  5
A17
  8
LAYER_1
 10
1.762518714582544
 20
19.40022200765269
 30
0.0
  0
VERTEX
  5
A18
  8
LAYER_1
 10
1.750944402012715
 20
19.40427089394881
 30
0.0
  0
VERTEX
  5
A19
  8
LAYER_1
 10
1.741412897661685
 20
19.40765771146419
 30
0.0
  0
VERTEX
  5
A1A
  8
LAYER_1
 10
1.73373452188701
 20
19.41084088390874
 30
0.0
  0
VERTEX
  5
A1B
  8
LAYER_1
 10
1.721293739444783
 20
19.41678789852707
 30
0.0
  0
VERTEX
  5
A1C
  8
LAYER_1
 10
1.715209624466261
 20
19.41964754317172
 30
0.0
  0
VERTEX
  5
A1D
  8
LAYER_1
 10
1.708335221442152
 20
19.42249514768726
 30
0.0
  0
VERTEX
  5
A1E
  8
LAYER_1
 10
1.70000967621697
 20
19.42537861330912
 30
0.0
  0
VERTEX
  5
A1F
  8
LAYER_1
 10
1.689572134635229
 20
19.42834584127273
 30
0.0
  0
VERTEX
  5
A20
  8
LAYER_1
 10
1.670506783122376
 20
19.43274544220817
 30
0.0
  0
VERTEX
  5
A21
  8
LAYER_1
 10
1.660627056878823
 20
19.43459539584026
 30
0.0
  0
VERTEX
  5
A22
  8
LAYER_1
 10
1.650587365881435
 20
19.43615236706044
 30
0.0
  0
VERTEX
  5
A23
  8
LAYER_1
 10
1.640441261808399
 20
19.4373715424776
 30
0.0
  0
VERTEX
  5
A24
  8
LAYER_1
 10
1.630242296337902
 20
19.43820810870061
 30
0.0
  0
VERTEX
  5
A25
  8
LAYER_1
 10
1.620044021148129
 20
19.43861725233836
 30
0.0
  0
VERTEX
  5
A26
  8
LAYER_1
 10
1.609899987917269
 20
19.43855415999973
 30
0.0
  0
VERTEX
  5
A27
  8
LAYER_1
 10
1.599863748323508
 20
19.4379740182936
 30
0.0
  0
VERTEX
  5
A28
  8
LAYER_1
 10
1.589988854045033
 20
19.43683201382885
 30
0.0
  0
VERTEX
  5
A29
  8
LAYER_1
 10
1.580328856760031
 20
19.43508333321437
 30
0.0
  0
VERTEX
  5
A2A
  8
LAYER_1
 10
1.570937308146689
 20
19.43268316305903
 30
0.0
  0
VERTEX
  5
A2B
  8
LAYER_1
 10
1.561867759883192
 20
19.42958668997172
 30
0.0
  0
VERTEX
  5
A2C
  8
LAYER_1
 10
1.55317376364773
 20
19.42574910056132
 30
0.0
  0
VERTEX
  5
A2D
  8
LAYER_1
 10
1.544908871118487
 20
19.42112558143671
 30
0.0
  0
VERTEX
  5
A2E
  8
LAYER_1
 10
1.537126633973651
 20
19.41567131920678
 30
0.0
  0
VERTEX
  5
A2F
  8
LAYER_1
 10
1.530993966728167
 20
19.41036726437959
 30
0.0
  0
VERTEX
  5
A30
  8
LAYER_1
 10
1.525374242207238
 20
19.40449122004297
 30
0.0
  0
VERTEX
  5
A31
  8
LAYER_1
 10
1.520258397358657
 20
19.39809743564286
 30
0.0
  0
VERTEX
  5
A32
  8
LAYER_1
 10
1.515637369130219
 20
19.3912401606252
 30
0.0
  0
VERTEX
  5
A33
  8
LAYER_1
 10
1.511502094469717
 20
19.38397364443592
 30
0.0
  0
VERTEX
  5
A34
  8
LAYER_1
 10
1.507843510324944
 20
19.37635213652097
 30
0.0
  0
VERTEX
  5
A35
  8
LAYER_1
 10
1.504652553643695
 20
19.36842988632628
 30
0.0
  0
VERTEX
  5
A36
  8
LAYER_1
 10
1.501920161373763
 20
19.3602611432978
 30
0.0
  0
VERTEX
  5
A37
  8
LAYER_1
 10
1.499637270462941
 20
19.35190015688147
 30
0.0
  0
VERTEX
  5
A38
  8
LAYER_1
 10
1.497794817859024
 20
19.34340117652321
 30
0.0
  0
VERTEX
  5
A39
  8
LAYER_1
 10
1.496383740509804
 20
19.33481845166899
 30
0.0
  0
VERTEX
  5
A3A
  8
LAYER_1
 10
1.495394975363076
 20
19.32620623176472
 30
0.0
  0
VERTEX
  5
A3B
  8
LAYER_1
 10
1.494819459366633
 20
19.31761876625636
 30
0.0
  0
VERTEX
  5
A3C
  8
LAYER_1
 10
1.494648129468269
 20
19.30911030458984
 30
0.0
  0
VERTEX
  5
A3D
  8
LAYER_1
 10
1.494871922615777
 20
19.30073509621111
 30
0.0
  0
VERTEX
  5
A3E
  8
LAYER_1
 10
1.495481775756952
 20
19.2925473905661
 30
0.0
  0
VERTEX
  5
A3F
  8
LAYER_1
 10
1.496477141590583
 20
19.28511949944094
 30
0.0
  0
VERTEX
  5
A40
  8
LAYER_1
 10
1.497967986011318
 20
19.27775637701768
 30
0.0
  0
VERTEX
  5
A41
  8
LAYER_1
 10
1.499926838869531
 20
19.27047079287724
 30
0.0
  0
VERTEX
  5
A42
  8
LAYER_1
 10
1.502326230015594
 20
19.26327551660055
 30
0.0
  0
VERTEX
  5
A43
  8
LAYER_1
 10
1.505138689299884
 20
19.25618331776856
 30
0.0
  0
VERTEX
  5
A44
  8
LAYER_1
 10
1.508336746572773
 20
19.24920696596217
 30
0.0
  0
VERTEX
  5
A45
  8
LAYER_1
 10
1.511892931684636
 20
19.24235923076234
 30
0.0
  0
VERTEX
  5
A46
  8
LAYER_1
 10
1.515779774485847
 20
19.23565288174997
 30
0.0
  0
VERTEX
  5
A47
  8
LAYER_1
 10
1.51996980482678
 20
19.22910068850602
 30
0.0
  0
VERTEX
  5
A48
  8
LAYER_1
 10
1.524435552557808
 20
19.22271542061141
 30
0.0
  0
VERTEX
  5
A49
  8
LAYER_1
 10
1.534084319591651
 20
19.21049673919392
 30
0.0
  0
VERTEX
  5
A4A
  8
LAYER_1
 10
1.544506314390368
 20
19.19909899414496
 30
0.0
  0
VERTEX
  5
A4B
  8
LAYER_1
 10
1.555481775756951
 20
19.18862434211196
 30
0.0
  0
VERTEX
  5
A4C
  8
LAYER_1
 10
1.561057143885868
 20
19.18404769688775
 30
0.0
  0
VERTEX
  5
A4D
  8
LAYER_1
 10
1.566933562640815
 20
19.17994696666143
 30
0.0
  0
VERTEX
  5
A4E
  8
LAYER_1
 10
1.573077545356937
 20
19.17626814420716
 30
0.0
  0
VERTEX
  5
A4F
  8
LAYER_1
 10
1.579455605369376
 20
19.17295722229905
 30
0.0
  0
VERTEX
  5
A50
  8
LAYER_1
 10
1.592780010623782
 20
19.16722305121782
 30
0.0
  0
VERTEX
  5
A51
  8
LAYER_1
 10
1.606638885085184
 20
19.16231239561074
 30
0.0
  0
VERTEX
  5
A52
  8
LAYER_1
 10
1.620764335434733
 20
19.15779319767083
 30
0.0
  0
VERTEX
  5
A53
  8
LAYER_1
 10
1.634888468353578
 20
19.15323339959108
 30
0.0
  0
VERTEX
  5
A54
  8
LAYER_1
 10
1.64874339052287
 20
19.1482009435645
 30
0.0
  0
VERTEX
  5
A55
  8
LAYER_1
 10
1.655486180914293
 20
19.14537245075646
 30
0.0
  0
VERTEX
  5
A56
  8
LAYER_1
 10
1.66206120862376
 20
19.14226377178409
 30
0.0
  0
VERTEX
  5
A57
  8
LAYER_1
 10
1.670394659426138
 20
19.13867063320269
 30
0.0
  0
VERTEX
  5
A58
  8
LAYER_1
 10
1.679466108630614
 20
19.13553442919214
 30
0.0
  0
VERTEX
  5
A59
  8
LAYER_1
 10
1.688798595819101
 20
19.13251499797863
 30
0.0
  0
VERTEX
  5
A5A
  8
LAYER_1
 10
1.697915160573513
 20
19.12927217778839
 30
0.0
  0
VERTEX
  5
A5B
  8
LAYER_1
 10
1.706338842475763
 20
19.1254658068476
 30
0.0
  0
VERTEX
  5
A5C
  8
LAYER_1
 10
1.710141802226674
 20
19.12324498929145
 30
0.0
  0
VERTEX
  5
A5D
  8
LAYER_1
 10
1.713592681107763
 20
19.12075572338249
 30
0.0
  0
VERTEX
  5
A5E
  8
LAYER_1
 10
1.716631859066768
 20
19.11795548889899
 30
0.0
  0
VERTEX
  5
A5F
  8
LAYER_1
 10
1.719199716051427
 20
19.11480176561924
 30
0.0
  0
VERTEX
  5
A60
  8
LAYER_1
 10
1.721236632009481
 20
19.11125203332151
 30
0.0
  0
VERTEX
  5
A61
  8
LAYER_1
 10
1.722682986888669
 20
19.10726377178408
 30
0.0
  0
VERTEX
  5
A62
  8
LAYER_1
 10
1.723538263226964
 20
19.10337121881036
 30
0.0
  0
VERTEX
  5
A63
  8
LAYER_1
 10
1.724016041758534
 20
19.09953191887679
 30
0.0
  0
VERTEX
  5
A64
  8
LAYER_1
 10
1.724135449513481
 20
19.09574296167788
 30
0.0
  0
VERTEX
  5
A65
  8
LAYER_1
 10
1.723915613521908
 20
19.09200143690814
 30
0.0
  0
VERTEX
  5
A66
  8
LAYER_1
 10
1.722534718419616
 20
19.08464904343417
 30
0.0
  0
VERTEX
  5
A67
  8
LAYER_1
 10
1.720026372692481
 20
19.07745145601094
 30
0.0
  0
VERTEX
  5
A68
  8
LAYER_1
 10
1.716543592581325
 20
19.0703853921945
 30
0.0
  0
VERTEX
  5
A69
  8
LAYER_1
 10
1.712239394326973
 20
19.0634275695409
 30
0.0
  0
VERTEX
  5
A6A
  8
LAYER_1
 10
1.707266794170245
 20
19.05655470560619
 30
0.0
  0
VERTEX
  5
A6B
  8
LAYER_1
 10
1.701778808351967
 20
19.04974351794642
 30
0.0
  0
VERTEX
  5
A6C
  8
LAYER_1
 10
1.68986874469405
 20
19.03621304167589
 30
0.0
  0
VERTEX
  5
A6D
  8
LAYER_1
 10
1.677733333279805
 20
19.02264988117773
 30
0.0
  0
VERTEX
  5
A6E
  8
LAYER_1
 10
1.671963662766117
 20
19.01579783823342
 30
0.0
  0
VERTEX
  5
A6F
  8
LAYER_1
 10
1.666596704035817
 20
19.00886777690034
 30
0.0
  0
VERTEX
  5
A70
  8
LAYER_1
 10
1.661785473329727
 20
19.00183641473455
 30
0.0
  0
VERTEX
  5
A71
  8
LAYER_1
 10
1.657682986888672
 20
18.99468046929211
 30
0.0
  0
VERTEX
  5
A72
  8
LAYER_1
 10
1.645578535696177
 20
18.9715193788483
 30
0.0
  0
VERTEX
  5
A73
  8
LAYER_1
 10
1.633699053426047
 20
18.94816361691458
 30
0.0
  0
VERTEX
  5
A74
  8
LAYER_1
 10
1.628185036318581
 20
18.93631657225964
 30
0.0
  0
VERTEX
  5
A75
  8
LAYER_1
 10
1.623136894259759
 20
18.92430546547699
 30
0.0
  0
VERTEX
  5
A76
  8
LAYER_1
 10
1.618691171522268
 20
18.91209183181488
 30
0.0
  0
VERTEX
  5
A77
  8
LAYER_1
 10
1.61498441237879
 20
18.89963720652156
 30
0.0
  0
VERTEX
  5
A78
  8
LAYER_1
 10
1.611509575683029
 20
18.88482089251823
 30
0.0
  0
VERTEX
  5
A79
  8
LAYER_1
 10
1.6087456021599
 20
18.8698274876502
 30
0.0
  0
VERTEX
  5
A7A
  8
LAYER_1
 10
1.606639467678616
 20
18.85469584501759
 30
0.0
  0
VERTEX
  5
A7B
  8
LAYER_1
 10
1.605138148108387
 20
18.83946481772053
 30
0.0
  0
VERTEX
  5
A7C
  8
LAYER_1
 10
1.604188619318426
 20
18.82417325885914
 30
0.0
  0
VERTEX
  5
A7D
  8
LAYER_1
 10
1.603737857177943
 20
18.80886002153356
 30
0.0
  0
VERTEX
  5
A7E
  8
LAYER_1
 10
1.603732837556151
 20
18.7935639588439
 30
0.0
  0
VERTEX
  5
A7F
  8
LAYER_1
 10
1.604120536322261
 20
18.7783239238903
 30
0.0
  0
VERTEX
  5
A80
  8
LAYER_1
 10
1.60480295969465
 20
18.76725778623094
 30
0.0
  0
VERTEX
  5
A81
  8
LAYER_1
 10
1.605970034979583
 20
18.7562267885328
 30
0.0
  0
VERTEX
  5
A82
  8
LAYER_1
 10
1.609433536111728
 20
18.73426377841341
 30
0.0
  0
VERTEX
  5
A83
  8
LAYER_1
 10
1.613861829367983
 20
18.71242202431846
 30
0.0
  0
VERTEX
  5
A84
  8
LAYER_1
 10
1.618605704397636
 20
18.69068865703429
 30
0.0
  0
VERTEX
  5
A85
  8
LAYER_1
 10
1.622858660092288
 20
18.66842894782015
 30
0.0
  0
VERTEX
  5
A86
  8
LAYER_1
 10
1.626482311076634
 20
18.64577297205104
 30
0.0
  0
VERTEX
  5
A87
  8
LAYER_1
 10
1.63001566296585
 20
18.6229940598791
 30
0.0
  0
VERTEX
  5
A88
  8
LAYER_1
 10
1.63399772137511
 20
18.6003655414565
 30
0.0
  0
VERTEX
  5
A89
  8
LAYER_1
 10
1.636325454779499
 20
18.58919309557374
 30
0.0
  0
VERTEX
  5
A8A
  8
LAYER_1
 10
1.638967491919589
 20
18.57816074693536
 30
0.0
  0
VERTEX
  5
A8B
  8
LAYER_1
 10
1.641991208497278
 20
18.56730266181039
 30
0.0
  0
VERTEX
  5
A8C
  8
LAYER_1
 10
1.645463980214462
 20
18.55665300646784
 30
0.0
  0
VERTEX
  5
A8D
  8
LAYER_1
 10
1.649453182773038
 20
18.54624594717674
 30
0.0
  0
VERTEX
  5
A8E
  8
LAYER_1
 10
1.654026191874904
 20
18.53611565020609
 30
0.0
  0
VERTEX
  5
A8F
  8
LAYER_1
 10
1.659250383221955
 20
18.52629628182493
 30
0.0
  0
VERTEX
  5
A90
  8
LAYER_1
 10
1.665193132516089
 20
18.51682200830226
 30
0.0
  0
VERTEX
  5
A91
  8
LAYER_1
 10
1.671273308306157
 20
18.50825042295969
 30
0.0
  0
VERTEX
  5
A92
  8
LAYER_1
 10
1.677744992369097
 20
18.49982959296225
 30
0.0
  0
VERTEX
  5
A93
  8
LAYER_1
 10
1.684590708575334
 20
18.49159436442667
 30
0.0
  0
VERTEX
  5
A94
  8
LAYER_1
 10
1.691792980795294
 20
18.48357958346969
 30
0.0
  0
VERTEX
  5
A95
  8
LAYER_1
 10
1.699334332899401
 20
18.47582009620806
 30
0.0
  0
VERTEX
  5
A96
  8
LAYER_1
 10
1.707197288758081
 20
18.46835074875853
 30
0.0
  0
VERTEX
  5
A97
  8
LAYER_1
 10
1.715364372241757
 20
18.46120638723783
 30
0.0
  0
VERTEX
  5
A98
  8
LAYER_1
 10
1.723818107220855
 20
18.45442185776271
 30
0.0
  0
VERTEX
  5
A99
  8
LAYER_1
 10
1.732541017565801
 20
18.44803200644991
 30
0.0
  0
VERTEX
  5
A9A
  8
LAYER_1
 10
1.741515627147017
 20
18.44207167941617
 30
0.0
  0
VERTEX
  5
A9B
  8
LAYER_1
 10
1.750724459834931
 20
18.43657572277823
 30
0.0
  0
VERTEX
  5
A9C
  8
LAYER_1
 10
1.760150039499965
 20
18.43157898265284
 30
0.0
  0
VERTEX
  5
A9D
  8
LAYER_1
 10
1.769774890012546
 20
18.42711630515674
 30
0.0
  0
VERTEX
  5
A9E
  8
LAYER_1
 10
1.779581535243098
 20
18.42322253640667
 30
0.0
  0
VERTEX
  5
A9F
  8
LAYER_1
 10
1.789552499062046
 20
18.41993252251937
 30
0.0
  0
VERTEX
  5
AA0
  8
LAYER_1
 10
1.799670305339815
 20
18.4172811096116
 30
0.0
  0
VERTEX
  5
AA1
  8
LAYER_1
 10
1.81024768607553
 20
18.41534912599273
 30
0.0
  0
VERTEX
  5
AA2
  8
LAYER_1
 10
1.820874574122679
 20
18.41430841956573
 30
0.0
  0
VERTEX
  5
AA3
  8
LAYER_1
 10
1.831542079759372
 20
18.4140814012289
 30
0.0
  0
VERTEX
  5
AA4
  8
LAYER_1
 10
1.842241313263722
 20
18.41459048188054
 30
0.0
  0
VERTEX
  5
AA5
  8
LAYER_1
 10
1.852963384913838
 20
18.41575807241895
 30
0.0
  0
VERTEX
  5
AA6
  8
LAYER_1
 10
1.863699404987832
 20
18.41750658374242
 30
0.0
  0
VERTEX
  5
AA7
  8
LAYER_1
 10
1.874440483763815
 20
18.41975842674925
 30
0.0
  0
VERTEX
  5
AA8
  8
LAYER_1
 10
1.885177731519898
 20
18.42243601233773
 30
0.0
  0
VERTEX
  5
AA9
  8
LAYER_1
 10
1.906605175084806
 20
18.42875805485289
 30
0.0
  0
VERTEX
  5
AAA
  8
LAYER_1
 10
1.927910617907445
 20
18.43585199847426
 30
0.0
  0
VERTEX
  5
AAB
  8
LAYER_1
 10
1.949022942212703
 20
18.44309713038823
 30
0.0
  0
VERTEX
  5
AAC
  8
LAYER_1
 10
1.969871030225468
 20
18.44987273778119
 30
0.0
  0
VERTEX
  5
AAD
  8
LAYER_1
 10
1.986123691615115
 20
18.45551073580514
 30
0.0
  0
VERTEX
  5
AAE
  8
LAYER_1
 10
2.002027881645667
 20
18.46212784185113
 30
0.0
  0
VERTEX
  5
AAF
  8
LAYER_1
 10
2.033253785314984
 20
18.47699940454308
 30
0.0
  0
VERTEX
  5
AB0
  8
LAYER_1
 10
2.048806967796502
 20
18.48460387445597
 30
0.0
  0
VERTEX
  5
AB1
  8
LAYER_1
 10
2.064474616604425
 20
18.49188747892475
 30
0.0
  0
VERTEX
  5
AB2
  8
LAYER_1
 10
2.080372466160131
 20
18.49852522458288
 30
0.0
  0
VERTEX
  5
AB3
  8
LAYER_1
 10
2.088443883225081
 20
18.50150033993092
 30
0.0
  0
VERTEX
  5
AB4
  8
LAYER_1
 10
2.096616250884994
 20
18.50419211806384
 30
0.0
  0
VERTEX
  5
AB5
  8
LAYER_1
 10
2.106893987281307
 20
18.50776290405485
 30
0.0
  0
VERTEX
  5
AB6
  8
LAYER_1
 10
2.117406423961497
 20
18.51189682962489
 30
0.0
  0
VERTEX
  5
AB7
  8
LAYER_1
 10
2.128055279091891
 20
18.5160932093801
 30
0.0
  0
VERTEX
  5
AB8
  8
LAYER_1
 10
2.138742270838816
 20
18.51985135792661
 30
0.0
  0
VERTEX
  5
AB9
  8
LAYER_1
 10
2.149369117368602
 20
18.52267058987058
 30
0.0
  0
VERTEX
  5
ABA
  8
LAYER_1
 10
2.154629273104045
 20
18.52357164793103
 30
0.0
  0
VERTEX
  5
ABB
  8
LAYER_1
 10
2.159837536847575
 20
18.52405021981815
 30
0.0
  0
VERTEX
  5
ABC
  8
LAYER_1
 10
2.164981623369985
 20
18.5240437198577
 30
0.0
  0
VERTEX
  5
ABD
  8
LAYER_1
 10
2.170049247442064
 20
18.52348956237545
 30
0.0
  0
VERTEX
  5
ABE
  8
LAYER_1
 10
2.175028123834604
 20
18.52232516169718
 30
0.0
  0
VERTEX
  5
ABF
  8
LAYER_1
 10
2.179905967318396
 20
18.52048793214864
 30
0.0
  0
VERTEX
  5
AC0
  8
LAYER_1
 10
2.184389356897121
 20
18.51818192203907
 30
0.0
  0
VERTEX
  5
AC1
  8
LAYER_1
 10
2.188729203522958
 20
18.51542672257807
 30
0.0
  0
VERTEX
  5
AC2
  8
LAYER_1
 10
2.192899598126418
 20
18.51226075671497
 30
0.0
  0
VERTEX
  5
AC3
  8
LAYER_1
 10
2.196874631638016
 20
18.50872244739908
 30
0.0
  0
VERTEX
  5
AC4
  8
LAYER_1
 10
2.200628394988263
 20
18.50485021757974
 30
0.0
  0
VERTEX
  5
AC5
  8
LAYER_1
 10
2.20413497910767
 20
18.50068249020627
 30
0.0
  0
VERTEX
  5
AC6
  8
LAYER_1
 10
2.207368474926753
 20
18.49625768822799
 30
0.0
  0
VERTEX
  5
AC7
  8
LAYER_1
 10
2.210302973376022
 20
18.49161423459423
 30
0.0
  0
VERTEX
  5
AC8
  8
LAYER_1
 10
2.21291256538599
 20
18.48679055225432
 30
0.0
  0
VERTEX
  5
AC9
  8
LAYER_1
 10
2.215171341887169
 20
18.48182506415757
 30
0.0
  0
VERTEX
  5
ACA
  8
LAYER_1
 10
2.217053393810073
 20
18.47675619325332
 30
0.0
  0
VERTEX
  5
ACB
  8
LAYER_1
 10
2.218532812085214
 20
18.4716223624909
 30
0.0
  0
VERTEX
  5
ACC
  8
LAYER_1
 10
2.219583687643104
 20
18.46646199481961
 30
0.0
  0
VERTEX
  5
ACD
  8
LAYER_1
 10
2.220180111414256
 20
18.4613135131888
 30
0.0
  0
VERTEX
  5
ACE
  8
LAYER_1
 10
2.220296174329182
 20
18.45621534054779
 30
0.0
  0
VERTEX
  5
ACF
  8
LAYER_1
 10
2.219905967318395
 20
18.45120589984588
 30
0.0
  0
VERTEX
  5
AD0
  8
LAYER_1
 10
2.218529089001934
 20
18.44463213937012
 30
0.0
  0
VERTEX
  5
AD1
  8
LAYER_1
 10
2.216253421808494
 20
18.43849923075178
 30
0.0
  0
VERTEX
  5
AD2
  8
LAYER_1
 10
2.213172006760165
 20
18.4327616314887
 30
0.0
  0
VERTEX
  5
AD3
  8
LAYER_1
 10
2.209377884879037
 20
18.42737379907872
 30
0.0
  0
VERTEX
  5
AD4
  8
LAYER_1
 10
2.204964097187198
 20
18.42229019101968
 30
0.0
  0
VERTEX
  5
AD5
  8
LAYER_1
 10
2.200023684706741
 20
18.41746526480943
 30
0.0
  0
VERTEX
  5
AD6
  8
LAYER_1
 10
2.194649688459754
 20
18.41285347794581
 30
0.0
  0
VERTEX
  5
AD7
  8
LAYER_1
 10
2.188935149468326
 20
18.40840928792665
 30
0.0
  0
VERTEX
  5
AD8
  8
LAYER_1
 10
2.176856607340513
 20
18.39984152841312
 30
0.0
  0
VERTEX
  5
AD9
  8
LAYER_1
 10
2.164532386500021
 20
18.39139764625157
 30
0.0
  0
VERTEX
  5
ADA
  8
LAYER_1
 10
2.152706815123569
 20
18.38271330142474
 30
0.0
  0
VERTEX
  5
ADB
  8
LAYER_1
 10
2.147213625539583
 20
18.37816709925645
 30
0.0
  0
VERTEX
  5
ADC
  8
LAYER_1
 10
2.142124221387876
 20
18.37342415391537
 30
0.0
  0
VERTEX
  5
ADD
  8
LAYER_1
 10
2.134764828970887
 20
18.36651794559942
 30
0.0
  0
VERTEX
  5
ADE
  8
LAYER_1
 10
2.126893299536349
 20
18.35988511937438
 30
0.0
  0
VERTEX
  5
ADF
  8
LAYER_1
 10
2.110085755584534
 20
18.34718644460533
 30
0.0
  0
VERTEX
  5
AE0
  8
LAYER_1
 10
2.092645441472262
 20
18.33482179242469
 30
0.0
  0
VERTEX
  5
AE1
  8
LAYER_1
 10
2.07551620913936
 20
18.32228482564899
 30
0.0
  0
VERTEX
  5
AE2
  8
LAYER_1
 10
2.067363202371369
 20
18.31579349391814
 30
0.0
  0
VERTEX
  5
AE3
  8
LAYER_1
 10
2.059641910525656
 20
18.30906920709471
 30
0.0
  0
VERTEX
  5
AE4
  8
LAYER_1
 10
2.052470315094701
 20
18.30204867303077
 30
0.0
  0
VERTEX
  5
AE5
  8
LAYER_1
 10
2.045966397570981
 20
18.29466859957837
 30
0.0
  0
VERTEX
  5
AE6
  8
LAYER_1
 10
2.040248139446975
 20
18.28686569458959
 30
0.0
  0
VERTEX
  5
AE7
  8
LAYER_1
 10
2.035433522215162
 20
18.27857666591648
 30
0.0
  0
VERTEX
  5
AE8
  8
LAYER_1
 10
2.033401948150227
 20
18.27423007640206
 30
0.0
  0
VERTEX
  5
AE9
  8
LAYER_1
 10
2.03164052736802
 20
18.26973822141109
 30
0.0
  0
VERTEX
  5
AEA
  8
LAYER_1
 10
2.0301640075551
 20
18.26509318942507
 30
0.0
  0
VERTEX
  5
AEB
  8
LAYER_1
 10
2.028987136398028
 20
18.26028706892551
 30
0.0
  0
VERTEX
  5
AEC
  8
LAYER_1
 10
2.027898712320117
 20
18.2527819326082
 30
0.0
  0
VERTEX
  5
AED
  8
LAYER_1
 10
2.027925203038757
 20
18.2462005759497
 30
0.0
  0
VERTEX
  5
AEE
  8
LAYER_1
 10
2.028988634037326
 20
18.24045216541706
 30
0.0
  0
VERTEX
  5
AEF
  8
LAYER_1
 10
2.031011030799204
 20
18.23544586747734
 30
0.0
  0
VERTEX
  5
AF0
  8
LAYER_1
 10
2.03391441880777
 20
18.23109084859758
 30
0.0
  0
VERTEX
  5
AF1
  8
LAYER_1
 10
2.037620823546404
 20
18.22729627524484
 30
0.0
  0
VERTEX
  5
AF2
  8
LAYER_1
 10
2.042052270498485
 20
18.22397131388617
 30
0.0
  0
VERTEX
  5
AF3
  8
LAYER_1
 10
2.047130785147393
 20
18.22102513098861
 30
0.0
  0
VERTEX
  5
AF4
  8
LAYER_1
 10
2.052778392976506
 20
18.21836689301923
 30
0.0
  0
VERTEX
  5
AF5
  8
LAYER_1
 10
2.058917119469204
 20
18.21590576644507
 30
0.0
  0
VERTEX
  5
AF6
  8
LAYER_1
 10
2.072356030378873
 20
18.21121151335062
 30
0.0
  0
VERTEX
  5
AF7
  8
LAYER_1
 10
2.086823721743435
 20
18.20621570344167
 30
0.0
  0
VERTEX
  5
AF8
  8
LAYER_1
 10
2.094248423804749
 20
18.20337763084938
 30
0.0
  0
VERTEX
  5
AF9
  8
LAYER_1
 10
2.101696397429924
 20
18.20019166845463
 30
0.0
  0
VERTEX
  5
AFA
  8
LAYER_1
 10
2.112316004243875
 20
18.1958691517195
 30
0.0
  0
VERTEX
  5
AFB
  8
LAYER_1
 10
2.121588047325052
 20
18.19317607109736
 30
0.0
  0
VERTEX
  5
AFC
  8
LAYER_1
 10
2.125775823426235
 20
18.19240211772515
 30
0.0
  0
VERTEX
  5
AFD
  8
LAYER_1
 10
2.129695217746685
 20
18.19198938145696
 30
0.0
  0
VERTEX
  5
AFE
  8
LAYER_1
 10
2.133369066670556
 20
18.19192248165138
 30
0.0
  0
VERTEX
  5
AFF
  8
LAYER_1
 10
2.136820206582001
 20
18.19218603766702
 30
0.0
  0
VERTEX
  5
B00
  8
LAYER_1
 10
2.140071473865175
 20
18.19276466886246
 30
0.0
  0
VERTEX
  5
B01
  8
LAYER_1
 10
2.14314570490423
 20
18.1936429945963
 30
0.0
  0
VERTEX
  5
B02
  8
LAYER_1
 10
2.148854403786601
 20
18.19623720711352
 30
0.0
  0
VERTEX
  5
B03
  8
LAYER_1
 10
2.154128994302342
 20
18.19984563008744
 30
0.0
  0
VERTEX
  5
B04
  8
LAYER_1
 10
2.159152167524682
 20
18.20434521838678
 30
0.0
  0
VERTEX
  5
B05
  8
LAYER_1
 10
2.169175026382074
 20
18.21552571043672
 30
0.0
  0
VERTEX
  5
B06
  8
LAYER_1
 10
2.180384508944609
 20
18.22879432221327
 30
0.0
  0
VERTEX
  5
B07
  8
LAYER_1
 10
2.186890961798376
 20
18.23590406017087
 30
0.0
  0
VERTEX
  5
B08
  8
LAYER_1
 10
2.194242143798116
 20
18.24316669266634
 30
0.0
  0
VERTEX
  5
B09
  8
LAYER_1
 10
2.202620746017056
 20
18.25045917456842
 30
0.0
  0
VERTEX
  5
B0A
  8
LAYER_1
 10
2.212209459528426
 20
18.25765846074585
 30
0.0
  0
VERTEX
  5
B0B
  8
LAYER_1
 10
2.231247037894435
 20
18.27039242752951
 30
0.0
  0
VERTEX
  5
B0C
  8
LAYER_1
 10
2.251296598080001
 20
18.28287654278212
 30
0.0
  0
VERTEX
  5
B0D
  8
LAYER_1
 10
2.272144606102269
 20
18.29494134705866
 30
0.0
  0
VERTEX
  5
B0E
  8
LAYER_1
 10
2.293577527978383
 20
18.30641738091415
 30
0.0
  0
VERTEX
  5
B0F
  8
LAYER_1
 10
2.31538182972549
 20
18.31713518490356
 30
0.0
  0
VERTEX
  5
B10
  8
LAYER_1
 10
2.337343977360735
 20
18.32692529958189
 30
0.0
  0
VERTEX
  5
B11
  8
LAYER_1
 10
2.359250436901263
 20
18.33561826550414
 30
0.0
  0
VERTEX
  5
B12
  8
LAYER_1
 10
2.380887674364219
 20
18.3430446232253
 30
0.0
  0
VERTEX
  5
B13
  8
LAYER_1
 10
2.388122564180648
 20
18.34515490118893
 30
0.0
  0
VERTEX
  5
B14
  8
LAYER_1
 10
2.395520963164429
 20
18.34699296724206
 30
0.0
  0
VERTEX
  5
B15
  8
LAYER_1
 10
2.410743131518865
 20
18.34985679558611
 30
0.0
  0
VERTEX
  5
B16
  8
LAYER_1
 10
2.42642386519717
 20
18.35164477219609
 30
0.0
  0
VERTEX
  5
B17
  8
LAYER_1
 10
2.442432849968983
 20
18.35236556101062
 30
0.0
  0
VERTEX
  5
B18
  8
LAYER_1
 10
2.458639771603946
 20
18.35202782596833
 30
0.0
  0
VERTEX
  5
B19
  8
LAYER_1
 10
2.474914315871699
 20
18.35064023100785
 30
0.0
  0
VERTEX
  5
B1A
  8
LAYER_1
 10
2.491126168541881
 20
18.34821144006781
 30
0.0
  0
VERTEX
  5
B1B
  8
LAYER_1
 10
2.507145015384135
 20
18.34475011708683
 30
0.0
  0
VERTEX
  5
B1C
  8
LAYER_1
 10
2.5228405421681
 20
18.34026492600354
 30
0.0
  0
VERTEX
  5
B1D
  8
LAYER_1
 10
2.538082434663417
 20
18.33476453075658
 30
0.0
  0
VERTEX
  5
B1E
  8
LAYER_1
 10
2.552740378639728
 20
18.32825759528456
 30
0.0
  0
VERTEX
  5
B1F
  8
LAYER_1
 10
2.559809646736269
 20
18.32462938244498
 30
0.0
  0
VERTEX
  5
B20
  8
LAYER_1
 10
2.566684059866672
 20
18.32075278352612
 30
0.0
  0
VERTEX
  5
B21
  8
LAYER_1
 10
2.573347328752145
 20
18.31662888152031
 30
0.0
  0
VERTEX
  5
B22
  8
LAYER_1
 10
2.57978316411389
 20
18.31225875941989
 30
0.0
  0
VERTEX
  5
B23
  8
LAYER_1
 10
2.585975276673115
 20
18.30764350021717
 30
0.0
  0
VERTEX
  5
B24
  8
LAYER_1
 10
2.591907377151024
 20
18.30278418690449
 30
0.0
  0
VERTEX
  5
B25
  8
LAYER_1
 10
2.597563176268821
 20
18.29768190247417
 30
0.0
  0
VERTEX
  5
B26
  8
LAYER_1
 10
2.602926384747712
 20
18.29233772991855
 30
0.0
  0
VERTEX
  5
B27
  8
LAYER_1
 10
2.607980713308902
 20
18.28675275222995
 30
0.0
  0
VERTEX
  5
B28
  8
LAYER_1
 10
2.612709872673596
 20
18.2809280524007
 30
0.0
  0
VERTEX
  5
B29
  8
LAYER_1
 10
2.617347111001277
 20
18.27438456185078
 30
0.0
  0
VERTEX
  5
B2A
  8
LAYER_1
 10
2.621395646856558
 20
18.26763980551675
 30
0.0
  0
VERTEX
  5
B2B
  8
LAYER_1
 10
2.624884432820048
 20
18.26070370669024
 30
0.0
  0
VERTEX
  5
B2C
  8
LAYER_1
 10
2.627842421472357
 20
18.25358618866289
 30
0.0
  0
VERTEX
  5
B2D
  8
LAYER_1
 10
2.630298565394094
 20
18.24629717472634
 30
0.0
  0
VERTEX
  5
B2E
  8
LAYER_1
 10
2.632281817165871
 20
18.23884658817221
 30
0.0
  0
VERTEX
  5
B2F
  8
LAYER_1
 10
2.633821129368296
 20
18.23124435229215
 30
0.0
  0
VERTEX
  5
B30
  8
LAYER_1
 10
2.634945454581979
 20
18.2235003903778
 30
0.0
  0
VERTEX
  5
B31
  8
LAYER_1
 10
2.635683745387531
 20
18.21562462572079
 30
0.0
  0
VERTEX
  5
B32
  8
LAYER_1
 10
2.636064954365561
 20
18.20762698161276
 30
0.0
  0
VERTEX
  5
B33
  8
LAYER_1
 10
2.635871937161496
 20
18.19130574821018
 30
0.0
  0
VERTEX
  5
B34
  8
LAYER_1
 10
2.634598023614661
 20
18.17461607650316
 30
0.0
  0
VERTEX
  5
B35
  8
LAYER_1
 10
2.632474834369937
 20
18.15763735282479
 30
0.0
  0
VERTEX
  5
B36
  8
LAYER_1
 10
2.626607111366336
 20
18.12313029488639
 30
0.0
  0
VERTEX
  5
B37
  8
LAYER_1
 10
2.620121733309724
 20
18.08841966505973
 30
0.0
  0
VERTEX
  5
B38
  8
LAYER_1
 10
2.617226475248737
 20
18.07118647652105
 30
0.0
  0
VERTEX
  5
B39
  8
LAYER_1
 10
2.614871665359134
 20
18.05414055400958
 30
0.0
  0
VERTEX
  5
B3A
  8
LAYER_1
 10
2.613288924285794
 20
18.03736128385844
 30
0.0
  0
VERTEX
  5
B3B
  8
LAYER_1
 10
2.612709872673596
 20
18.0209280524007
 30
0.0
  0
VERTEX
  5
B3C
  8
LAYER_1
 10
2.612709872673596
 20
17.88005314342799
 30
0.0
  0
VERTEX
  5
B3D
  8
LAYER_1
 10
0.4021066964000664
 20
17.90693408058419
 30
0.0
 42
1.0
  0
VERTEX
  5
B3E
  8
LAYER_1
 10
0.4021066964000664
 20
17.30693408058419
 30
0.0
  0
VERTEX
  5
B3F
  8
LAYER_1
 10
1.127106696400068
 20
17.29443408058419
 30
0.0
 42
0.2143618748875326
  0
VERTEX
  5
B40
  8
LAYER_1
 10
3.677106696400068
 20
13.15256563630891
 30
0.0
  0
VERTEX
  5
B41
  8
LAYER_1
 10
6.777146066478808
 20
13.15256563630891
 30
0.0
  0
VERTEX
  5
B42
  8
LAYER_1
 10
9.877185436557543
 20
13.15256563630891
 30
0.0
 42
0.2143618748875326
  0
VERTEX
  5
B43
  8
LAYER_1
 10
12.42718543655754
 20
17.29443408058419
 30
0.0
  0
VERTEX
  5
B44
  8
LAYER_1
 10
13.15218543655755
 20
17.30693408058419
 30
0.0
  0
VERTEX
  5
B45
  8
LAYER_1
 10
13.16929547720989
 20
17.30730720898279
 30
0.0
  0
VERTEX
  5
B46
  8
LAYER_1
 10
13.18590316208476
 20
17.30841204838001
 30
0.0
  0
VERTEX
  5
B47
  8
LAYER_1
 10
13.20200848853566
 20
17.31022678007794
 30
0.0
  0
VERTEX
  5
B48
  8
LAYER_1
 10
13.21761145391611
 20
17.31272958537869
 30
0.0
  0
VERTEX
  5
B49
  8
LAYER_1
 10
13.23271205557964
 20
17.31589864558439
 30
0.0
  0
VERTEX
  5
B4A
  8
LAYER_1
 10
13.24731029087976
 20
17.31971214199712
 30
0.0
  0
VERTEX
  5
B4B
  8
LAYER_1
 10
13.26140615716998
 20
17.324148255919
 30
0.0
  0
VERTEX
  5
B4C
  8
LAYER_1
 10
13.27499965180383
 20
17.32918516865215
 30
0.0
  0
VERTEX
  5
B4D
  8
LAYER_1
 10
13.28809077213483
 20
17.33480106149865
 30
0.0
  0
VERTEX
  5
B4E
  8
LAYER_1
 10
13.30067951551649
 20
17.34097411576064
 30
0.0
  0
VERTEX
  5
B4F
  8
LAYER_1
 10
13.31276587930233
 20
17.34768251274021
 30
0.0
  0
VERTEX
  5
B50
  8
LAYER_1
 10
13.32434986084587
 20
17.35490443373947
 30
0.0
  0
VERTEX
  5
B51
  8
LAYER_1
 10
13.33543145750062
 20
17.36261806006053
 30
0.0
  0
VERTEX
  5
B52
  8
LAYER_1
 10
13.34601066662012
 20
17.37080157300549
 30
0.0
  0
VERTEX
  5
B53
  8
LAYER_1
 10
13.35608748555786
 20
17.37943315387647
 30
0.0
  0
VERTEX
  5
B54
  8
LAYER_1
 10
13.36566191166738
 20
17.38849098397558
 30
0.0
  0
VERTEX
  5
B55
  8
LAYER_1
 10
13.3747339423022
 20
17.39795324460491
 30
0.0
  0
VERTEX
  5
B56
  8
LAYER_1
 10
13.38330357481582
 20
17.40779811706659
 30
0.0
  0
VERTEX
  5
B57
  8
LAYER_1
 10
13.39137080656176
 20
17.41800378266272
 30
0.0
  0
VERTEX
  5
B58
  8
LAYER_1
 10
13.39893563489355
 20
17.4285484226954
 30
0.0
  0
VERTEX
  5
B59
  8
LAYER_1
 10
13.40599805716471
 20
17.43941021846674
 30
0.0
  0
VERTEX
  5
B5A
  8
LAYER_1
 10
13.41255807072875
 20
17.45056735127886
 30
0.0
  0
VERTEX
  5
B5B
  8
LAYER_1
 10
13.41861567293919
 20
17.46199800243386
 30
0.0
  0
VERTEX
  5
B5C
  8
LAYER_1
 10
13.42417086114954
 20
17.47368035323385
 30
0.0
  0
VERTEX
  5
B5D
  8
LAYER_1
 10
13.42922363271334
 20
17.48559258498094
 30
0.0
  0
VERTEX
  5
B5E
  8
LAYER_1
 10
13.43377398498409
 20
17.49771287897723
 30
0.0
  0
VERTEX
  5
B5F
  8
LAYER_1
 10
13.43782191531531
 20
17.51001941652484
 30
0.0
  0
VERTEX
  5
B60
  8
LAYER_1
 10
13.44136742106052
 20
17.52249037892586
 30
0.0
  0
VERTEX
  5
B61
  8
LAYER_1
 10
13.44441049957325
 20
17.53510394748242
 30
0.0
  0
VERTEX
  5
B62
  8
LAYER_1
 10
13.446951148207
 20
17.54783830349661
 30
0.0
  0
VERTEX
  5
B63
  8
LAYER_1
 10
13.4489893643153
 20
17.56067162827055
 30
0.0
  0
VERTEX
  5
B64
  8
LAYER_1
 10
13.45052514525166
 20
17.57358210310635
 30
0.0
  0
VERTEX
  5
B65
  8
LAYER_1
 10
13.4515584883696
 20
17.5865479093061
 30
0.0
  0
VERTEX
  5
B66
  8
LAYER_1
 10
13.45208939102265
 20
17.59954722817193
 30
0.0
  0
VERTEX
  5
B67
  8
LAYER_1
 10
13.45211785056431
 20
17.61255824100593
 30
0.0
  0
VERTEX
  5
B68
  8
LAYER_1
 10
13.45164386434811
 20
17.62555912911023
 30
0.0
  0
VERTEX
  5
B69
  8
LAYER_1
 10
13.45066742972757
 20
17.63852807378691
 30
0.0
  0
VERTEX
  5
B6A
  8
LAYER_1
 10
13.44918854405621
 20
17.6514432563381
 30
0.0
  0
VERTEX
  5
B6B
  8
LAYER_1
 10
13.44720720468753
 20
17.6642828580659
 30
0.0
  0
VERTEX
  5
B6C
  8
LAYER_1
 10
13.44472340897507
 20
17.67702506027242
 30
0.0
  0
VERTEX
  5
B6D
  8
LAYER_1
 10
13.44173715427233
 20
17.68964804425977
 30
0.0
  0
VERTEX
  5
B6E
  8
LAYER_1
 10
13.43824843793284
 20
17.70212999133005
 30
0.0
  0
VERTEX
  5
B6F
  8
LAYER_1
 10
13.43425725731012
 20
17.71444908278538
 30
0.0
  0
VERTEX
  5
B70
  8
LAYER_1
 10
13.42976360975767
 20
17.72658349992785
 30
0.0
  0
VERTEX
  5
B71
  8
LAYER_1
 10
13.42476749262903
 20
17.73851142405959
 30
0.0
  0
VERTEX
  5
B72
  8
LAYER_1
 10
13.41926890327771
 20
17.7502110364827
 30
0.0
  0
VERTEX
  5
B73
  8
LAYER_1
 10
13.41326783905724
 20
17.76166051849928
 30
0.0
  0
VERTEX
  5
B74
  8
LAYER_1
 10
13.40676429732111
 20
17.77283805141144
 30
0.0
  0
VERTEX
  5
B75
  8
LAYER_1
 10
13.39975827542286
 20
17.7837218165213
 30
0.0
  0
VERTEX
  5
B76
  8
LAYER_1
 10
13.392249770716
 20
17.79428999513096
 30
0.0
  0
VERTEX
  5
B77
  8
LAYER_1
 10
13.38423878055406
 20
17.80452076854252
 30
0.0
  0
VERTEX
  5
B78
  8
LAYER_1
 10
13.37572530229054
 20
17.8143923180581
 30
0.0
  0
VERTEX
  5
B79
  8
LAYER_1
 10
13.36670933327897
 20
17.82388282497981
 30
0.0
  0
VERTEX
  5
B7A
  8
LAYER_1
 10
13.35719087087287
 20
17.83297047060976
 30
0.0
  0
VERTEX
  5
B7B
  8
LAYER_1
 10
13.34716991242575
 20
17.84163343625004
 30
0.0
  0
VERTEX
  5
B7C
  8
LAYER_1
 10
13.33664645529113
 20
17.84984990320277
 30
0.0
  0
VERTEX
  5
B7D
  8
LAYER_1
 10
13.32562049682254
 20
17.85759805277006
 30
0.0
  0
VERTEX
  5
B7E
  8
LAYER_1
 10
13.31409203437348
 20
17.86485606625401
 30
0.0
  0
VERTEX
  5
B7F
  8
LAYER_1
 10
13.30206106529748
 20
17.87160212495674
 30
0.0
  0
VERTEX
  5
B80
  8
LAYER_1
 10
13.28952758694806
 20
17.87781441018035
 30
0.0
  0
VERTEX
  5
B81
  8
LAYER_1
 10
13.27649159667873
 20
17.88347110322695
 30
0.0
  0
VERTEX
  5
B82
  8
LAYER_1
 10
13.26295309184301
 20
17.88855038539866
 30
0.0
  0
VERTEX
  5
B83
  8
LAYER_1
 10
13.24891206979442
 20
17.89303043799756
 30
0.0
  0
VERTEX
  5
B84
  8
LAYER_1
 10
13.23436852788648
 20
17.89688944232578
 30
0.0
  0
VERTEX
  5
B85
  8
LAYER_1
 10
13.23434134616718
 20
18.18817512467019
 30
0.0
  0
VERTEX
  5
B86
  8
LAYER_1
 10
13.24412552918142
 20
18.19164884090695
 30
0.0
  0
VERTEX
  5
B87
  8
LAYER_1
 10
13.2539031099578
 20
18.1947290420483
 30
0.0
  0
VERTEX
  5
B88
  8
LAYER_1
 10
13.27329238392787
 20
18.2003339836041
 30
0.0
  0
VERTEX
  5
B89
  8
LAYER_1
 10
13.28283103668703
 20
18.20317126629822
 30
0.0
  0
VERTEX
  5
B8A
  8
LAYER_1
 10
13.29221700633925
 20
18.20624011845626
 30
0.0
  0
VERTEX
  5
B8B
  8
LAYER_1
 10
13.30141377266726
 20
18.20969681121804
 30
0.0
  0
VERTEX
  5
B8C
  8
LAYER_1
 10
13.31038481545378
 20
18.21369761572342
 30
0.0
  0
VERTEX
  5
B8D
  8
LAYER_1
 10
13.32381016236059
 20
18.22046311724013
 30
0.0
  0
VERTEX
  5
B8E
  8
LAYER_1
 10
13.3371030005746
 20
18.22756680259492
 30
0.0
  0
VERTEX
  5
B8F
  8
LAYER_1
 10
13.35025056219682
 20
18.23500196188288
 30
0.0
  0
VERTEX
  5
B90
  8
LAYER_1
 10
13.36324007932827
 20
18.24276188519909
 30
0.0
  0
VERTEX
  5
B91
  8
LAYER_1
 10
13.37605878406996
 20
18.25083986263866
 30
0.0
  0
VERTEX
  5
B92
  8
LAYER_1
 10
13.38869390852291
 20
18.25922918429665
 30
0.0
  0
VERTEX
  5
B93
  8
LAYER_1
 10
13.40113268478811
 20
18.26792314026817
 30
0.0
  0
VERTEX
  5
B94
  8
LAYER_1
 10
13.41336234496659
 20
18.27691502064831
 30
0.0
  0
VERTEX
  5
B95
  8
LAYER_1
 10
13.42537012115936
 20
18.28619811553215
 30
0.0
  0
VERTEX
  5
B96
  8
LAYER_1
 10
13.43714324546743
 20
18.29576571501478
 30
0.0
  0
VERTEX
  5
B97
  8
LAYER_1
 10
13.44866894999181
 20
18.3056111091913
 30
0.0
  0
VERTEX
  5
B98
  8
LAYER_1
 10
13.45993446683352
 20
18.31572758815678
 30
0.0
  0
VERTEX
  5
B99
  8
LAYER_1
 10
13.47092702809356
 20
18.32610844200633
 30
0.0
  0
VERTEX
  5
B9A
  8
LAYER_1
 10
13.48163386587295
 20
18.33674696083502
 30
0.0
  0
VERTEX
  5
B9B
  8
LAYER_1
 10
13.4920422122727
 20
18.34763643473796
 30
0.0
  0
VERTEX
  5
B9C
  8
LAYER_1
 10
13.50213929939382
 20
18.35877015381021
 30
0.0
  0
VERTEX
  5
B9D
  8
LAYER_1
 10
13.51027885231817
 20
18.36822217787575
 30
0.0
  0
VERTEX
  5
B9E
  8
LAYER_1
 10
13.51816645186433
 20
18.37785728524251
 30
0.0
  0
VERTEX
  5
B9F
  8
LAYER_1
 10
13.52580210081549
 20
18.38767548073111
 30
0.0
  0
VERTEX
  5
BA0
  8
LAYER_1
 10
13.53318580195486
 20
18.39767676916222
 30
0.0
  0
VERTEX
  5
BA1
  8
LAYER_1
 10
13.54031755806565
 20
18.40786115535648
 30
0.0
  0
VERTEX
  5
BA2
  8
LAYER_1
 10
13.54719737193106
 20
18.41822864413454
 30
0.0
  0
VERTEX
  5
BA3
  8
LAYER_1
 10
13.55382524633429
 20
18.42877924031705
 30
0.0
  0
VERTEX
  5
BA4
  8
LAYER_1
 10
13.56020118405854
 20
18.43951294872467
 30
0.0
  0
VERTEX
  5
BA5
  8
LAYER_1
 10
13.56632518788702
 20
18.45042977417803
 30
0.0
  0
VERTEX
  5
BA6
  8
LAYER_1
 10
13.57219726060293
 20
18.46152972149779
 30
0.0
  0
VERTEX
  5
BA7
  8
LAYER_1
 10
13.57781740498948
 20
18.4728127955046
 30
0.0
  0
VERTEX
  5
BA8
  8
LAYER_1
 10
13.58318562382986
 20
18.48427900101911
 30
0.0
  0
VERTEX
  5
BA9
  8
LAYER_1
 10
13.58830191990729
 20
18.49592834286197
 30
0.0
  0
VERTEX
  5
BAA
  8
LAYER_1
 10
13.59316629600495
 20
18.50776082585381
 30
0.0
  0
VERTEX
  5
BAB
  8
LAYER_1
 10
13.60213929939383
 20
18.5319752345671
 30
0.0
 42
0.486669603405874
  0
VERTEX
  5
BAC
  8
LAYER_1
 10
13.69042443165598
 20
18.5674095911394
 30
0.0
  0
VERTEX
  5
BAD
  8
LAYER_1
 10
13.88360959691379
 20
18.61917340015991
 30
0.0
  0
VERTEX
  5
BAE
  8
LAYER_1
 10
13.68943176638502
 20
18.68307966039506
 30
0.0
  0
VERTEX
  5
BAF
  8
LAYER_1
 10
13.68641746298304
 20
18.68876962607911
 30
0.0
  0
VERTEX
  5
BB0
  8
LAYER_1
 10
13.68362845705666
 20
18.69493642085533
 30
0.0
  0
VERTEX
  5
BB1
  8
LAYER_1
 10
13.6786747633083
 20
18.70836369312289
 30
0.0
  0
VERTEX
  5
BB2
  8
LAYER_1
 10
13.67446753649501
 20
18.72268786807511
 30
0.0
  0
VERTEX
  5
BB3
  8
LAYER_1
 10
13.67090362797186
 20
18.73723533658932
 30
0.0
  0
VERTEX
  5
BB4
  8
LAYER_1
 10
13.66529317121629
 20
18.76430571781313
 30
0.0
  0
VERTEX
  5
BB5
  8
LAYER_1
 10
13.66304032569401
 20
18.77548141227743
 30
0.0
  0
VERTEX
  5
BB6
  8
LAYER_1
 10
13.66101820388217
 20
18.78418596381312
 30
0.0
  0
VERTEX
  5
BB7
  8
LAYER_1
 10
13.65935053870526
 20
18.7886058031625
 30
0.0
  0
VERTEX
  5
BB8
  8
LAYER_1
 10
13.6563542430326
 20
18.79447430632968
 30
0.0
  0
VERTEX
  5
BB9
  8
LAYER_1
 10
13.65212765239389
 20
18.8015716165389
 30
0.0
  0
VERTEX
  5
BBA
  8
LAYER_1
 10
13.64676910231886
 20
18.80967787701441
 30
0.0
  0
VERTEX
  5
BBB
  8
LAYER_1
 10
13.6403769283372
 20
18.81857323098046
 30
0.0
  0
VERTEX
  5
BBC
  8
LAYER_1
 10
13.63304946597863
 20
18.8280378216613
 30
0.0
  0
VERTEX
  5
BBD
  8
LAYER_1
 10
13.62488505077285
 20
18.8378517922812
 30
0.0
  0
VERTEX
  5
BBE
  8
LAYER_1
 10
13.61598201824958
 20
18.8477952860644
 30
0.0
  0
VERTEX
  5
BBF
  8
LAYER_1
 10
13.60643870393852
 20
18.85764844623515
 30
0.0
  0
VERTEX
  5
BC0
  8
LAYER_1
 10
13.59635344336938
 20
18.86719141601771
 30
0.0
  0
VERTEX
  5
BC1
  8
LAYER_1
 10
13.58582457207187
 20
18.87620433863633
 30
0.0
  0
VERTEX
  5
BC2
  8
LAYER_1
 10
13.5749504255757
 20
18.88446735731527
 30
0.0
  0
VERTEX
  5
BC3
  8
LAYER_1
 10
13.56382933941058
 20
18.89176061527878
 30
0.0
  0
VERTEX
  5
BC4
  8
LAYER_1
 10
13.55820692380519
 20
18.89497487874982
 30
0.0
  0
VERTEX
  5
BC5
  8
LAYER_1
 10
13.55255964910621
 20
18.8978642557511
 30
0.0
  0
VERTEX
  5
BC6
  8
LAYER_1
 10
13.54689980725485
 20
18.90040126418565
 30
0.0
  0
VERTEX
  5
BC7
  8
LAYER_1
 10
13.54123969019231
 20
18.9025584219565
 30
0.0
  0
VERTEX
  5
BC8
  8
LAYER_1
 10
13.53559158985982
 20
18.90430824696668
 30
0.0
  0
VERTEX
  5
BC9
  8
LAYER_1
 10
13.52996779819859
 20
18.90562325711922
 30
0.0
  0
VERTEX
  5
BCA
  8
LAYER_1
 10
13.51967511664537
 20
18.90719356236811
 30
0.0
  0
VERTEX
  5
BCB
  8
LAYER_1
 10
13.50918811165184
 20
18.90797217024248
 30
0.0
  0
VERTEX
  5
BCC
  8
LAYER_1
 10
13.49856234904919
 20
18.90798678557647
 30
0.0
  0
VERTEX
  5
BCD
  8
LAYER_1
 10
13.4878533946686
 20
18.90726511320423
 30
0.0
  0
VERTEX
  5
BCE
  8
LAYER_1
 10
13.47711681434128
 20
18.90583485795988
 30
0.0
  0
VERTEX
  5
BCF
  8
LAYER_1
 10
13.46640817389841
 20
18.90372372467757
 30
0.0
  0
VERTEX
  5
BD0
  8
LAYER_1
 10
13.45578303917119
 20
18.90095941819142
 30
0.0
  0
VERTEX
  5
BD1
  8
LAYER_1
 10
13.44529697599081
 20
18.89756964333559
 30
0.0
  0
VERTEX
  5
BD2
  8
LAYER_1
 10
13.43500555018846
 20
18.89358210494419
 30
0.0
  0
VERTEX
  5
BD3
  8
LAYER_1
 10
13.42496432759534
 20
18.88902450785138
 30
0.0
  0
VERTEX
  5
BD4
  8
LAYER_1
 10
13.41522887404263
 20
18.88392455689129
 30
0.0
  0
VERTEX
  5
BD5
  8
LAYER_1
 10
13.40585475536154
 20
18.87830995689806
 30
0.0
  0
VERTEX
  5
BD6
  8
LAYER_1
 10
13.39689753738325
 20
18.87220841270581
 30
0.0
  0
VERTEX
  5
BD7
  8
LAYER_1
 10
13.38841278593895
 20
18.8656476291487
 30
0.0
  0
VERTEX
  5
BD8
  8
LAYER_1
 10
13.38045606685985
 20
18.85865531106084
 30
0.0
  0
VERTEX
  5
BD9
  8
LAYER_1
 10
13.37308294597712
 20
18.85125916327639
 30
0.0
  0
VERTEX
  5
BDA
  8
LAYER_1
 10
13.3649049686614
 20
18.84193474335341
 30
0.0
  0
VERTEX
  5
BDB
  8
LAYER_1
 10
13.35738602996916
 20
18.83224372813445
 30
0.0
  0
VERTEX
  5
BDC
  8
LAYER_1
 10
13.35052612845972
 20
18.82218611224277
 30
0.0
  0
VERTEX
  5
BDD
  8
LAYER_1
 10
13.34432526269239
 20
18.81176189030163
 30
0.0
  0
VERTEX
  5
BDE
  8
LAYER_1
 10
13.33878343122647
 20
18.80097105693429
 30
0.0
  0
VERTEX
  5
BDF
  8
LAYER_1
 10
13.33390063262126
 20
18.78981360676403
 30
0.0
  0
VERTEX
  5
BE0
  8
LAYER_1
 10
13.32967686543609
 20
18.77828953441411
 30
0.0
  0
VERTEX
  5
BE1
  8
LAYER_1
 10
13.32611212823025
 20
18.76639883450778
 30
0.0
  0
VERTEX
  5
BE2
  8
LAYER_1
 10
13.32320641956306
 20
18.75414150166833
 30
0.0
  0
VERTEX
  5
BE3
  8
LAYER_1
 10
13.32095973799382
 20
18.741517530519
 30
0.0
  0
VERTEX
  5
BE4
  8
LAYER_1
 10
13.31937208208183
 20
18.72852691568307
 30
0.0
  0
VERTEX
  5
BE5
  8
LAYER_1
 10
13.31844345038642
 20
18.7151696517838
 30
0.0
  0
VERTEX
  5
BE6
  8
LAYER_1
 10
13.31817384146688
 20
18.70144573344444
 30
0.0
  0
VERTEX
  5
BE7
  8
LAYER_1
 10
13.31856325388253
 20
18.68735515528828
 30
0.0
  0
VERTEX
  5
BE8
  8
LAYER_1
 10
13.31961168619268
 20
18.67289791193857
 30
0.0
  0
VERTEX
  5
BE9
  8
LAYER_1
 10
13.32131913695662
 20
18.65807399801858
 30
0.0
  0
VERTEX
  5
BEA
  8
LAYER_1
 10
13.29587659432777
 20
18.64642264780678
 30
0.0
  0
VERTEX
  5
BEB
  8
LAYER_1
 10
13.26912967546253
 20
18.63338678669591
 30
0.0
  0
VERTEX
  5
BEC
  8
LAYER_1
 10
13.24144989751173
 20
18.6196180900648
 30
0.0
  0
VERTEX
  5
BED
  8
LAYER_1
 10
13.2132087776262
 20
18.60576823329231
 30
0.0
  0
VERTEX
  5
BEE
  8
LAYER_1
 10
13.18477783295675
 20
18.59248889175729
 30
0.0
  0
VERTEX
  5
BEF
  8
LAYER_1
 10
13.17060727543769
 20
18.58626681275971
 30
0.0
  0
VERTEX
  5
BF0
  8
LAYER_1
 10
13.15652858065422
 20
18.58043174083858
 30
0.0
  0
VERTEX
  5
BF1
  8
LAYER_1
 10
13.14258818825018
 20
18.57506513541623
 30
0.0
  0
VERTEX
  5
BF2
  8
LAYER_1
 10
13.12883253786942
 20
18.57024845591502
 30
0.0
  0
VERTEX
  5
BF3
  8
LAYER_1
 10
13.11530806915581
 20
18.56606316175732
 30
0.0
  0
VERTEX
  5
BF4
  8
LAYER_1
 10
13.10206122175319
 20
18.56259071236547
 30
0.0
  0
VERTEX
  5
BF5
  8
LAYER_1
 10
13.08421073572063
 20
18.55884172963948
 30
0.0
  0
VERTEX
  5
BF6
  8
LAYER_1
 10
13.06560509142697
 20
18.55577680244134
 30
0.0
  0
VERTEX
  5
BF7
  8
LAYER_1
 10
13.04634811588322
 20
18.55332652143999
 30
0.0
  0
VERTEX
  5
BF8
  8
LAYER_1
 10
13.02654363610033
 20
18.55142147730433
 30
0.0
  0
VERTEX
  5
BF9
  8
LAYER_1
 10
13.0062954790893
 20
18.54999226070327
 30
0.0
  0
VERTEX
  5
BFA
  8
LAYER_1
 10
12.98570747186112
 20
18.54896946230574
 30
0.0
  0
VERTEX
  5
BFB
  8
LAYER_1
 10
12.94392721479721
 20
18.54786548279687
 30
0.0
  0
VERTEX
  5
BFC
  8
LAYER_1
 10
12.90203348099647
 20
18.54755426412901
 30
0.0
  0
VERTEX
  5
BFD
  8
LAYER_1
 10
12.86085688654676
 20
18.54748053165347
 30
0.0
  0
VERTEX
  5
BFE
  8
LAYER_1
 10
12.82122804753594
 20
18.54708901072156
 30
0.0
  0
VERTEX
  5
BFF
  8
LAYER_1
 10
12.80225360384757
 20
18.54660055625674
 30
0.0
  0
VERTEX
  5
C00
  8
LAYER_1
 10
12.78397758005187
 20
18.54582442668456
 30
0.0
  0
VERTEX
  5
C01
  8
LAYER_1
 10
12.57184554569591
 20
18.75795646104052
 30
0.0
 42
0.3937258151815996
  0
VERTEX
  5
C02
  8
LAYER_1
 10
12.44684554569591
 20
18.38295646104052
 30
0.0
  0
VERTEX
  5
C03
  8
LAYER_1
 10
12.69684554569591
 20
18.38295646104052
 30
0.0
  0
VERTEX
  5
C04
  8
LAYER_1
 10
12.70884810821057
 20
18.36703603793253
 30
0.0
  0
VERTEX
  5
C05
  8
LAYER_1
 10
12.72051117545439
 20
18.35081622640578
 30
0.0
  0
VERTEX
  5
C06
  8
LAYER_1
 10
12.72652198043276
 20
18.34288918762665
 30
0.0
  0
VERTEX
  5
C07
  8
LAYER_1
 10
12.73281581009308
 20
18.33524146691239
 30
0.0
  0
VERTEX
  5
C08
  8
LAYER_1
 10
12.73951529726856
 20
18.32799111931951
 30
0.0
  0
VERTEX
  5
C09
  8
LAYER_1
 10
12.7467430747924
 20
18.32125619990452
 30
0.0
  0
VERTEX
  5
C0A
  8
LAYER_1
 10
12.75635565491256
 20
18.31328253266074
 30
0.0
  0
VERTEX
  5
C0B
  8
LAYER_1
 10
12.76619782851164
 20
18.30558154378754
 30
0.0
  0
VERTEX
  5
C0C
  8
LAYER_1
 10
12.77625504662779
 20
18.29814404984106
 30
0.0
  0
VERTEX
  5
C0D
  8
LAYER_1
 10
12.78651276029917
 20
18.29096086737743
 30
0.0
  0
VERTEX
  5
C0E
  8
LAYER_1
 10
12.80757147846018
 20
18.27732070312317
 30
0.0
  0
VERTEX
  5
C0F
  8
LAYER_1
 10
12.82925759129987
 20
18.26458758347376
 30
0.0
  0
VERTEX
  5
C10
  8
LAYER_1
 10
12.85145470712343
 20
18.2526880408782
 30
0.0
  0
VERTEX
  5
C11
  8
LAYER_1
 10
12.87404643423605
 20
18.24154860778548
 30
0.0
  0
VERTEX
  5
C12
  8
LAYER_1
 10
12.89691638094294
 20
18.23109581664459
 30
0.0
  0
VERTEX
  5
C13
  8
LAYER_1
 10
12.91994815554929
 20
18.22125619990452
 30
0.0
  0
VERTEX
  5
C14
  8
LAYER_1
 10
12.94622607203837
 20
18.21093675623929
 30
0.0
  0
VERTEX
  5
C15
  8
LAYER_1
 10
12.97284883787618
 20
18.20160524702785
 30
0.0
  0
VERTEX
  5
C16
  8
LAYER_1
 10
12.99981766761096
 20
18.19326165557795
 30
0.0
  0
VERTEX
  5
C17
  8
LAYER_1
 10
13.02713377579095
 20
18.18590596519736
 30
0.0
  0
SEQEND
  5
C18
  8
LAYER_1
  0
POLYLINE
  5
5B
  8
LAYER_1
 66
     1
 10
0.0
 20
0.0
 30
0.0
 70
     1
  0
VERTEX
  5
C19
  8
LAYER_1
 10
2.892096256184006
 20
17.43497676226136
 30
0.0
  0
VERTEX
  5
C1A
  8
LAYER_1
 10
4.892096256184006
 20
17.43497676226136
 30
0.0
  0
VERTEX
  5
C1B
  8
LAYER_1
 10
4.892096256184006
 20
17.55997676226136
 30
0.0
  0
VERTEX
  5
C1C
  8
LAYER_1
 10
2.892096256184006
 20
17.55997676226136
 30
0.0
  0
SEQEND
  5
C1D
  8
LAYER_1
  0
POLYLINE
  5
5C
  8
LAYER_1
 66
     1
 10
0.0
 20
0.0
 30
0.0
 70
     1
  0
VERTEX
  5
C1E
  8
LAYER_1
 10
4.075482136358497
 20
20.34930996969706
 30
0.0
  0
VERTEX
  5
C1F
  8
LAYER_1
 10
4.167593268452547
 20
20.26480825761764
 30
0.0
  0
VERTEX
  5
C20
  8
LAYER_1
 10
4.67460354092904
 20
20.81747505018194
 30
0.0
  0
VERTEX
  5
C21
  8
LAYER_1
 10
4.582492408834991
 20
20.90197676226136
 30
0.0
  0
SEQEND
  5
C22
  8
LAYER_1
  0
POLYLINE
  5
5D
  8
LAYER_1
 66
     1
 10
0.0
 20
0.0
 30
0.0
 70
     1
  0
VERTEX
  5
C23
  8
LAYER_1
 10
6.442890027634613
 20
21.12117779867953
 30
0.0
  0
VERTEX
  5
C24
  8
LAYER_1
 10
6.442890027634613
 20
21.24617779867953
 30
0.0
  0
VERTEX
  5
C25
  8
LAYER_1
 10
5.692890027634613
 20
21.24617779867953
 30
0.0
  0
VERTEX
  5
C26
  8
LAYER_1
 10
5.692890027634613
 20
21.12117779867953
 30
0.0
  0
SEQEND
  5
C27
  8
LAYER_1
  0
POLYLINE
  5
5E
  8
LAYER_1
 66
     1
 10
0.0
 20
0.0
 30
0.0
 70
     1
  0
VERTEX
  5
C28
  8
LAYER_1
 10
7.892890027634611
 20
21.12202054456855
 30
0.0
  0
VERTEX
  5
C29
  8
LAYER_1
 10
7.892890027634611
 20
21.24702054456855
 30
0.0
  0
VERTEX
  5
C2A
  8
LAYER_1
 10
7.142890027634612
 20
21.24702054456855
 30
0.0
  0
VERTEX
  5
C2B
  8
LAYER_1
 10
7.142890027634612
 20
21.12202054456855
 30
0.0
  0
SEQEND
  5
C2C
  8
LAYER_1
  0
POLYLINE
  5
5F
  8
LAYER_1
 66
     1
 10
0.0
 20
0.0
 30
0.0
 70
     1
  0
VERTEX
  5
C2D
  8
LAYER_1
 10
4.654049460099985
 20
18.43497676226136
 30
0.0
  0
VERTEX
  5
C2E
  8
LAYER_1
 10
4.779049460099985
 20
18.43497676226136
 30
0.0
  0
VERTEX
  5
C2F
  8
LAYER_1
 10
4.779049460099985
 20
19.18497676226136
 30
0.0
  0
VERTEX
  5
C30
  8
LAYER_1
 10
4.654049460099985
 20
19.18497676226136
 30
0.0
  0
SEQEND
  5
C31
  8
LAYER_1
  0
POLYLINE
  5
60
  8
LAYER_1
 66
     1
 10
0.0
 20
0.0
 30
0.0
 70
     1
  0
VERTEX
  5
C32
  8
LAYER_1
 10
8.771156762309499
 20
18.43072638494207
 30
0.0
  0
VERTEX
  5
C33
  8
LAYER_1
 10
8.896156762309499
 20
18.43072638494207
 30
0.0
  0
VERTEX
  5
C34
  8
LAYER_1
 10
8.896156762309499
 20
19.18072638494207
 30
0.0
  0
VERTEX
  5
C35
  8
LAYER_1
 10
8.771156762309499
 20
19.18072638494207
 30
0.0
  0
SEQEND
  5
C36
  8
LAYER_1
  0
POLYLINE
  5
61
  8
LAYER_1
 66
     1
 10
0.0
 20
0.0
 30
0.0
 70
     1
  0
VERTEX
  5
C37
  8
LAYER_1
 10
9.478612338888112
 20
20.34691829249376
 30
0.0
  0
VERTEX
  5
C38
  8
LAYER_1
 10
9.386501206794058
 20
20.26241658041435
 30
0.0
  0
VERTEX
  5
C39
  8
LAYER_1
 10
8.879490934317566
 20
20.81508337297865
 30
0.0
  0
VERTEX
  5
C3A
  8
LAYER_1
 10
8.971602066411617
 20
20.89958508505806
 30
0.0
  0
SEQEND
  5
C3B
  8
LAYER_1
  0
POLYLINE
  5
62
  8
LAYER_1
 66
     1
 10
0.0
 20
0.0
 30
0.0
 70
     1
  0
VERTEX
  5
C3C
  8
LAYER_1
 10
8.461132959229587
 20
17.43497676226136
 30
0.0
  0
VERTEX
  5
C3D
  8
LAYER_1
 10
10.46113295922959
 20
17.43497676226136
 30
0.0
  0
VERTEX
  5
C3E
  8
LAYER_1
 10
10.46113295922959
 20
17.55997676226136
 30
0.0
  0
VERTEX
  5
C3F
  8
LAYER_1
 10
8.461132959229587
 20
17.55997676226136
 30
0.0
  0
SEQEND
  5
C40
  8
LAYER_1
  0
POLYLINE
  5
63
  8
LAYER_1
 66
     1
 10
0.0
 20
0.0
 30
0.0
 70
     1
  0
VERTEX
  5
C41
  8
LAYER_1
 10
11.63505380064361
 20
15.98597116581522
 30
0.0
  0
VERTEX
  5
C42
  8
LAYER_1
 10
11.52978782663188
 20
16.05338091819099
 30
0.0
  0
VERTEX
  5
C43
  8
LAYER_1
 10
11.93424634088648
 20
16.68497676226136
 30
0.0
  0
VERTEX
  5
C44
  8
LAYER_1
 10
12.03951231489821
 20
16.61756700988559
 30
0.0
  0
SEQEND
  5
C45
  8
LAYER_1
  0
POLYLINE
  5
64
  8
LAYER_1
 66
     1
 10
0.0
 20
0.0
 30
0.0
 70
     1
  0
VERTEX
  5
C46
  8
LAYER_1
 10
1.921646907673095
 20
15.98602012581341
 30
0.0
  0
VERTEX
  5
C47
  8
LAYER_1
 10
2.026912881684822
 20
16.05342987818918
 30
0.0
  0
VERTEX
  5
C48
  8
LAYER_1
 10
1.622454367430228
 20
16.68502572225955
 30
0.0
  0
VERTEX
  5
C49
  8
LAYER_1
 10
1.517188393418499
 20
16.61761596988378
 30
0.0
  0
SEQEND
  5
C4A
  8
LAYER_1
  0
POLYLINE
  5
65
  8
LAYER_1
 66
     1
 10
0.0
 20
0.0
 30
0.0
 70
     1
  0
VERTEX
  5
C4B
  8
LAYER_1
 10
10.54632437641397
 20
14.2722115229154
 30
0.0
  0
VERTEX
  5
C4C
  8
LAYER_1
 10
10.44105840240224
 20
14.33962127529117
 30
0.0
  0
VERTEX
  5
C4D
  8
LAYER_1
 10
10.84551691665684
 20
14.97121711936154
 30
0.0
  0
VERTEX
  5
C4E
  8
LAYER_1
 10
10.95078289066857
 20
14.90380736698577
 30
0.0
  0
SEQEND
  5
C4F
  8
LAYER_1
  0
POLYLINE
  5
66
  8
LAYER_1
 66
     1
 10
0.0
 20
0.0
 30
0.0
 70
     1
  0
VERTEX
  5
C50
  8
LAYER_1
 10
8.092126154995118
 20
13.58497676226136
 30
0.0
  0
VERTEX
  5
C51
  8
LAYER_1
 10
9.092126154995118
 20
13.58497676226136
 30
0.0
  0
VERTEX
  5
C52
  8
LAYER_1
 10
9.092126154995118
 20
13.70997676226136
 30
0.0
  0
VERTEX
  5
C53
  8
LAYER_1
 10
8.092126154995118
 20
13.70997676226136
 30
0.0
  0
SEQEND
  5
C54
  8
LAYER_1
  0
POLYLINE
  5
67
  8
LAYER_1
 66
     1
 10
0.0
 20
0.0
 30
0.0
 70
     1
  0
VERTEX
  5
C55
  8
LAYER_1
 10
4.524190027634614
 20
13.58467676226136
 30
0.0
  0
VERTEX
  5
C56
  8
LAYER_1
 10
5.524190027634614
 20
13.58467676226136
 30
0.0
  0
VERTEX
  5
C57
  8
LAYER_1
 10
5.524190027634614
 20
13.70967676226136
 30
0.0
  0
VERTEX
  5
C58
  8
LAYER_1
 10
4.524190027634614
 20
13.70967676226136
 30
0.0
  0
SEQEND
  5
C59
  8
LAYER_1
  0
POLYLINE
  5
68
  8
LAYER_1
 66
     1
 10
0.0
 20
0.0
 30
0.0
 70
     1
  0
VERTEX
  5
C5A
  8
LAYER_1
 10
3.010376331902732
 20
14.27226048291359
 30
0.0
  0
VERTEX
  5
C5B
  8
LAYER_1
 10
3.115642305914461
 20
14.33967023528935
 30
0.0
  0
VERTEX
  5
C5C
  8
LAYER_1
 10
2.711183791659867
 20
14.97126607935973
 30
0.0
  0
VERTEX
  5
C5D
  8
LAYER_1
 10
2.605917817648136
 20
14.90385632698396
 30
0.0
  0
SEQEND
  5
C5E
  8
LAYER_1
  0
POLYLINE
  5
69
  8
LAYER_1
 66
     1
 10
0.0
 20
0.0
 30
0.0
 70
     1
  0
VERTEX
  5
C5F
  8
LAYER_1
 10
24.25
 20
13.99931270076686
 30
0.0
  0
VERTEX
  5
C60
  8
LAYER_1
 10
24.25
 20
11.47255851833262
 30
0.0
  0
VERTEX
  5
C61
  8
LAYER_1
 10
20.25
 20
11.47255851833262
 30
0.0
  0
VERTEX
  5
C62
  8
LAYER_1
 10
20.25
 20
13.99929647221747
 30
0.0
  0
VERTEX
  5
C63
  8
LAYER_1
 10
20.125
 20
13.99929647221747
 30
0.0
  0
VERTEX
  5
C64
  8
LAYER_1
 10
20.125
 20
15.99929647221747
 30
0.0
  0
VERTEX
  5
C65
  8
LAYER_1
 10
20.25
 20
15.99929647221747
 30
0.0
  0
VERTEX
  5
C66
  8
LAYER_1
 10
20.25
 20
19.56975191666428
 30
0.0
  0
VERTEX
  5
C67
  8
LAYER_1
 10
20.125
 20
19.56975191666429
 30
0.0
  0
VERTEX
  5
C68
  8
LAYER_1
 10
20.125
 20
21.56975191666428
 30
0.0
  0
VERTEX
  5
C69
  8
LAYER_1
 10
20.25
 20
21.56975191666427
 30
0.0
  0
VERTEX
  5
C6A
  8
LAYER_1
 10
20.25
 20
24.27255851833262
 30
0.0
  0
VERTEX
  5
C6B
  8
LAYER_1
 10
24.25
 20
24.27255851833262
 30
0.0
  0
VERTEX
  5
C6C
  8
LAYER_1
 10
24.25
 20
21.56834940381243
 30
0.0
  0
VERTEX
  5
C6D
  8
LAYER_1
 10
24.375
 20
21.56834940381244
 30
0.0
  0
VERTEX
  5
C6E
  8
LAYER_1
 10
24.375
 20
19.56834940381245
 30
0.0
  0
VERTEX
  5
C6F
  8
LAYER_1
 10
24.25
 20
19.56834940381245
 30
0.0
  0
VERTEX
  5
C70
  8
LAYER_1
 10
24.25
 20
15.99931270076688
 30
0.0
  0
VERTEX
  5
C71
  8
LAYER_1
 10
24.375
 20
15.99931270076687
 30
0.0
  0
VERTEX
  5
C72
  8
LAYER_1
 10
24.375
 20
13.99931270076687
 30
0.0
  0
SEQEND
  5
C73
  8
LAYER_1
  0
POLYLINE
  5
6A
  8
LAYER_1
 66
     1
 10
0.0
 20
0.0
 30
0.0
 70
     1
  0
VERTEX
  5
C74
  8
LAYER_1
 10
15.51
 20
17.63609122858328
 30
0.0
  0
VERTEX
  5
C75
  8
LAYER_1
 10
15.125
 20
17.63609122858328
 30
0.0
  0
VERTEX
  5
C76
  8
LAYER_1
 10
15.125
 20
21.63609122858328
 30
0.0
  0
VERTEX
  5
C77
  8
LAYER_1
 10
15.51
 20
21.63609122858328
 30
0.0
  0
VERTEX
  5
C78
  8
LAYER_1
 10
15.51
 20
21.76104906902164
 30
0.0
  0
VERTEX
  5
C79
  8
LAYER_1
 10
16.26
 20
21.76104906902164
 30
0.0
  0
VERTEX
  5
C7A
  8
LAYER_1
 10
16.26
 20
21.63609122858328
 30
0.0
  0
VERTEX
  5
C7B
  8
LAYER_1
 10
16.95999999999998
 20
21.63609122858327
 30
0.0
  0
VERTEX
  5
C7C
  8
LAYER_1
 10
16.96
 20
21.76078913941367
 30
0.0
  0
VERTEX
  5
C7D
  8
LAYER_1
 10
17.71
 20
21.76078913941367
 30
0.0
  0
VERTEX
  5
C7E
  8
LAYER_1
 10
17.71
 20
21.63609122858328
 30
0.0
  0
VERTEX
  5
C7F
  8
LAYER_1
 10
18.125
 20
21.63609122858328
 30
0.0
  0
VERTEX
  5
C80
  8
LAYER_1
 10
18.125
 20
17.63609122858328
 30
0.0
  0
VERTEX
  5
C81
  8
LAYER_1
 10
17.70999999999995
 20
17.63609122858328
 30
0.0
  0
VERTEX
  5
C82
  8
LAYER_1
 10
17.71
 20
17.51100092511662
 30
0.0
  0
VERTEX
  5
C83
  8
LAYER_1
 10
16.96
 20
17.51100092511662
 30
0.0
  0
VERTEX
  5
C84
  8
LAYER_1
 10
16.95999999999999
 20
17.63609122858328
 30
0.0
  0
VERTEX
  5
C85
  8
LAYER_1
 10
16.26000000000002
 20
17.63609122858328
 30
0.0
  0
VERTEX
  5
C86
  8
LAYER_1
 10
16.26
 20
17.51078274753483
 30
0.0
  0
VERTEX
  5
C87
  8
LAYER_1
 10
15.51
 20
17.51078274753483
 30
0.0
  0
SEQEND
  5
C88
  8
LAYER_1
  0
POLYLINE
  5
6B
  8
LAYER_1
 66
     1
 10
0.0
 20
0.0
 30
0.0
 70
     1
  0
VERTEX
  5
C89
  8
LAYER_1
 10
13.79267609668256
 20
11.125
 30
0.0
  0
VERTEX
  5
C8A
  8
LAYER_1
 10
13.79267609668256
 20
11.00314557523061
 30
0.0
  0
VERTEX
  5
C8B
  8
LAYER_1
 10
14.79267609668256
 20
11.00314557523061
 30
0.0
  0
VERTEX
  5
C8C
  8
LAYER_1
 10
14.79267609668255
 20
11.125
 30
0.0
  0
VERTEX
  5
C8D
  8
LAYER_1
 10
17.36138609668254
 20
11.125
 30
0.0
  0
VERTEX
  5
C8E
  8
LAYER_1
 10
17.36138609668256
 20
11.00275005592589
 30
0.0
  0
VERTEX
  5
C8F
  8
LAYER_1
 10
18.36138609668256
 20
11.00275005592589
 30
0.0
  0
VERTEX
  5
C90
  8
LAYER_1
 10
18.36138609668257
 20
11.125
 30
0.0
  0
VERTEX
  5
C91
  8
LAYER_1
 10
19.09138609668256
 20
11.125
 30
0.0
  0
VERTEX
  5
C92
  8
LAYER_1
 10
19.09138609668256
 20
15.125
 30
0.0
  0
VERTEX
  5
C93
  8
LAYER_1
 10
18.36138609668256
 20
15.125
 30
0.0
  0
VERTEX
  5
C94
  8
LAYER_1
 10
18.36138609668256
 20
15.24484479261912
 30
0.0
  0
VERTEX
  5
C95
  8
LAYER_1
 10
17.36138609668256
 20
15.24484479261912
 30
0.0
  0
VERTEX
  5
C96
  8
LAYER_1
 10
17.36138609668256
 20
15.125
 30
0.0
  0
VERTEX
  5
C97
  8
LAYER_1
 10
14.79267609668256
 20
15.125
 30
0.0
  0
VERTEX
  5
C98
  8
LAYER_1
 10
14.79267609668256
 20
15.24733969235934
 30
0.0
  0
VERTEX
  5
C99
  8
LAYER_1
 10
13.79267609668256
 20
15.24733969235934
 30
0.0
  0
VERTEX
  5
C9A
  8
LAYER_1
 10
13.79267609668256
 20
15.125
 30
0.0
  0
VERTEX
  5
C9B
  8
LAYER_1
 10
13.09138609668256
 20
15.125
 30
0.0
  0
VERTEX
  5
C9C
  8
LAYER_1
 10
13.09138609668256
 20
11.125
 30
0.0
  0
SEQEND
  5
C9D
  8
LAYER_1
  0
POLYLINE
  5
6C
  8
LAYER_1
 66
     1
 10
0.0
 20
0.0
 30
0.0
 70
     1
  0
VERTEX
  5
C9E
  8
LAYER_1
 10
22.34277113088455
 20
0.5342524225650855
 30
0.0
  0
VERTEX
  5
C9F
  8
LAYER_1
 10
22.16881544303847
 20
0.2613652753303128
 30
0.0
  0
VERTEX
  5
CA0
  8
LAYER_1
 10
18.79585136150413
 20
2.411507899594852
 30
0.0
  0
VERTEX
  5
CA1
  8
LAYER_1
 10
18.96980704935022
 20
2.684395046829621
 30
0.0
  0
VERTEX
  5
CA2
  8
LAYER_1
 10
18.86602253059792
 20
2.750553924337321
 30
0.0
  0
VERTEX
  5
CA3
  8
LAYER_1
 10
19.26917427264752
 20
3.382984689625008
 30
0.0
  0
VERTEX
  5
CA4
  8
LAYER_1
 10
19.37295879139981
 20
3.316825812117312
 30
0.0
  0
VERTEX
  5
CA5
  8
LAYER_1
 10
20.06100443116447
 20
4.396174318208303
 30
0.0
  0
VERTEX
  5
CA6
  8
LAYER_1
 10
19.95676353472759
 20
4.462624119985772
 30
0.0
  0
VERTEX
  5
CA7
  8
LAYER_1
 10
20.35991527677719
 20
5.095054885273459
 30
0.0
  0
VERTEX
  5
CA8
  8
LAYER_1
 10
20.46415617321407
 20
5.028605083495993
 30
0.0
  0
VERTEX
  5
CA9
  8
LAYER_1
 10
20.6772261577356
 20
5.3628514709374
 30
0.0
  0
VERTEX
  5
CAA
  8
LAYER_1
 10
24.05019023926994
 20
3.212708846672861
 30
0.0
  0
VERTEX
  5
CAB
  8
LAYER_1
 10
23.83712025474841
 20
2.87846245923145
 30
0.0
  0
VERTEX
  5
CAC
  8
LAYER_1
 10
23.94152504648955
 20
2.811908180124522
 30
0.0
  0
VERTEX
  5
CAD
  8
LAYER_1
 10
23.53837330443995
 20
2.179477414836832
 30
0.0
  0
VERTEX
  5
CAE
  8
LAYER_1
 10
23.4339685126988
 20
2.246031693943763
 30
0.0
  0
VERTEX
  5
CAF
  8
LAYER_1
 10
22.74592287293415
 20
1.166683187852772
 30
0.0
  0
VERTEX
  5
CB0
  8
LAYER_1
 10
22.8506016992405
 20
1.099954221620536
 30
0.0
  0
VERTEX
  5
CB1
  8
LAYER_1
 10
22.4474499571909
 20
0.4675234563328452
 30
0.0
  0
SEQEND
  5
CB2
  8
LAYER_1
  0
POLYLINE
  5
6D
  8
LAYER_1
 66
     1
 10
0.0
 20
0.0
 30
0.0
 70
     1
  0
VERTEX
  5
CB3
  8
LAYER_1
 10
14.79688739987166
 20
0.4068712351347408
 30
0.0
  0
VERTEX
  5
CB4
  8
LAYER_1
 10
14.97084308771774
 20
0.1339840878999681
 30
0.0
  0
VERTEX
  5
CB5
  8
LAYER_1
 10
18.34380716925208
 20
2.284126712164511
 30
0.0
  0
VERTEX
  5
CB6
  8
LAYER_1
 10
18.169851481406
 20
2.55701385939928
 30
0.0
  0
VERTEX
  5
CB7
  8
LAYER_1
 10
18.27363600015829
 20
2.623172736906977
 30
0.0
  0
VERTEX
  5
CB8
  8
LAYER_1
 10
17.8704842581087
 20
3.255603502194667
 30
0.0
  0
VERTEX
  5
CB9
  8
LAYER_1
 10
17.7666997393564
 20
3.189444624686967
 30
0.0
  0
VERTEX
  5
CBA
  8
LAYER_1
 10
17.07865409959174
 20
4.268793130777961
 30
0.0
  0
VERTEX
  5
CBB
  8
LAYER_1
 10
17.18289499602862
 20
4.335242932555428
 30
0.0
  0
VERTEX
  5
CBC
  8
LAYER_1
 10
16.77974325397902
 20
4.967673697843118
 30
0.0
  0
VERTEX
  5
CBD
  8
LAYER_1
 10
16.67550235754214
 20
4.901223896065648
 30
0.0
  0
VERTEX
  5
CBE
  8
LAYER_1
 10
16.46243237302061
 20
5.235470283507059
 30
0.0
  0
VERTEX
  5
CBF
  8
LAYER_1
 10
13.08946829148627
 20
3.08532765924252
 30
0.0
  0
VERTEX
  5
CC0
  8
LAYER_1
 10
13.3025382760078
 20
2.751081271801109
 30
0.0
  0
VERTEX
  5
CC1
  8
LAYER_1
 10
13.19813348426666
 20
2.684526992694177
 30
0.0
  0
VERTEX
  5
CC2
  8
LAYER_1
 10
13.60128522631626
 20
2.052096227406491
 30
0.0
  0
VERTEX
  5
CC3
  8
LAYER_1
 10
13.7056900180574
 20
2.118650506513418
 30
0.0
  0
VERTEX
  5
CC4
  8
LAYER_1
 10
14.39373565782206
 20
1.039302000422431
 30
0.0
  0
VERTEX
  5
CC5
  8
LAYER_1
 10
14.28905683151571
 20
0.9725730341901908
 30
0.0
  0
VERTEX
  5
CC6
  8
LAYER_1
 10
14.69220857356531
 20
0.340142268902504
 30
0.0
  0
SEQEND
  5
CC7
  8
LAYER_1
  0
POLYLINE
  5
6E
  8
LAYER_1
 66
     1
 10
0.0
 20
0.0
 30
0.0
 70
     1
  0
VERTEX
  5
CC8
  8
LAYER_1
 10
13.91125203523337
 20
5.320479557319806
 30
0.0
  0
VERTEX
  5
CC9
  8
LAYER_1
 10
13.82012933254024
 20
5.236777293918439
 30
0.0
  0
VERTEX
  5
CCA
  8
LAYER_1
 10
14.32749275637786
 20
4.684434686335279
 30
0.0
  0
VERTEX
  5
CCB
  8
LAYER_1
 10
14.41861545907099
 20
4.768136949736646
 30
0.0
  0
VERTEX
  5
CCC
  8
LAYER_1
 10
14.69612360633781
 20
4.466026930595837
 30
0.0
  0
VERTEX
  5
CCD
  8
LAYER_1
 10
17.64195084678135
 20
7.171965191063147
 30
0.0
  0
VERTEX
  5
CCE
  8
LAYER_1
 10
17.36337450286624
 20
7.475238105466796
 30
0.0
  0
VERTEX
  5
CCF
  8
LAYER_1
 10
17.45467456789634
 20
7.559103287971843
 30
0.0
  0
VERTEX
  5
CD0
  8
LAYER_1
 10
16.94731114405872
 20
8.111445895555004
 30
0.0
  0
VERTEX
  5
CD1
  8
LAYER_1
 10
16.85601107902861
 20
8.027580713049975
 30
0.0
  0
VERTEX
  5
CD2
  8
LAYER_1
 10
16.6272239991061
 20
8.276650406229468
 30
0.0
  0
VERTEX
  5
CD3
  8
LAYER_1
 10
13.68139675866257
 20
5.570712145762164
 30
0.0
  0
SEQEND
  5
CD4
  8
LAYER_1
  0
POLYLINE
  5
6F
  8
LAYER_1
 66
     1
 10
0.0
 20
0.0
 30
0.0
 70
     1
  0
VERTEX
  5
CD5
  8
LAYER_1
 10
23.08874796476663
 20
5.327802220494502
 30
0.0
  0
VERTEX
  5
CD6
  8
LAYER_1
 10
23.17987066745976
 20
5.244099957093131
 30
0.0
  0
VERTEX
  5
CD7
  8
LAYER_1
 10
22.67250724362215
 20
4.691757349509975
 30
0.0
  0
VERTEX
  5
CD8
  8
LAYER_1
 10
22.58138454092901
 20
4.775459612911338
 30
0.0
  0
VERTEX
  5
CD9
  8
LAYER_1
 10
22.30387639366219
 20
4.473349593770529
 30
0.0
  0
VERTEX
  5
CDA
  8
LAYER_1
 10
19.35804915321865
 20
7.179287854237839
 30
0.0
  0
VERTEX
  5
CDB
  8
LAYER_1
 10
19.63662549713377
 20
7.482560768641492
 30
0.0
  0
VERTEX
  5
CDC
  8
LAYER_1
 10
19.54532543210366
 20
7.566425951146537
 30
0.0
  0
VERTEX
  5
CDD
  8
LAYER_1
 10
20.05268885594128
 20
8.118768558729698
 30
0.0
  0
VERTEX
  5
CDE
  8
LAYER_1
 10
20.14398892097139
 20
8.034903376224669
 30
0.0
  0
VERTEX
  5
CDF
  8
LAYER_1
 10
20.3727760008939
 20
8.283973069404162
 30
0.0
  0
VERTEX
  5
CE0
  8
LAYER_1
 10
23.31860324133743
 20
5.57803480893686
 30
0.0
  0
SEQEND
  5
CE1
  8
LAYER_1
  0
POLYLINE
  5
70
  8
LAYER_1
 66
     1
 10
0.0
 20
0.0
 30
0.0
 70
     1
  0
VERTEX
  5
CE2
  8
LAYER_1
 10
14.28880853446657
 20
9.216311021977859
 30
0.0
  0
VERTEX
  5
CE3
  8
LAYER_1
 10
14.28880853446657
 20
8.75
 30
0.0
  0
VERTEX
  5
CE4
  8
LAYER_1
 10
18.28880853446657
 20
8.75
 30
0.0
  0
VERTEX
  5
CE5
  8
LAYER_1
 10
18.28880853446656
 20
9.214500000000022
 30
0.0
  0
VERTEX
  5
CE6
  8
LAYER_1
 10
18.41227798879808
 20
9.214500000000001
 30
0.0
  0
VERTEX
  5
CE7
  8
LAYER_1
 10
18.41227798879808
 20
9.964500000000001
 30
0.0
  0
VERTEX
  5
CE8
  8
LAYER_1
 10
18.28880853446655
 20
9.964500000000022
 30
0.0
  0
VERTEX
  5
CE9
  8
LAYER_1
 10
18.28880853446657
 20
10.25
 30
0.0
  0
VERTEX
  5
CEA
  8
LAYER_1
 10
14.28880853446657
 20
10.25
 30
0.0
  0
VERTEX
  5
CEB
  8
LAYER_1
 10
14.28880853446656
 20
9.966311021977743
 30
0.0
  0
VERTEX
  5
CEC
  8
LAYER_1
 10
14.16620241672062
 20
9.966311021977816
 30
0.0
  0
VERTEX
  5
CED
  8
LAYER_1
 10
14.16620241672062
 20
9.216311021977816
 30
0.0
  0
SEQEND
  5
CEE
  8
LAYER_1
  0
POLYLINE
  5
71
  8
LAYER_1
 66
     1
 10
0.0
 20
0.0
 30
0.0
 70
     1
  0
VERTEX
  5
CEF
  8
LAYER_1
 10
16.07571409086087
 20
9.86239019787263
 30
0.0
  0
VERTEX
  5
CF0
  8
LAYER_1
 10
15.45426402998569
 20
9.86239019787263
 30
0.0
  0
VERTEX
  5
CF1
  8
LAYER_1
 10
15.45031296687115
 20
9.861873909145597
 30
0.0
  0
VERTEX
  5
CF2
  8
LAYER_1
 10
15.44647603713572
 20
9.860358553291785
 30
0.0
  0
VERTEX
  5
CF3
  8
LAYER_1
 10
15.44277266507382
 20
9.857894395801996
 30
0.0
  0
VERTEX
  5
CF4
  8
LAYER_1
 10
15.43922227497986
 20
9.854531702167016
 30
0.0
  0
VERTEX
  5
CF5
  8
LAYER_1
 10
15.43584429114823
 20
9.850320737877645
 30
0.0
  0
VERTEX
  5
CF6
  8
LAYER_1
 10
15.43265813787334
 20
9.845311768424683
 30
0.0
  0
VERTEX
  5
CF7
  8
LAYER_1
 10
15.4296832394496
 20
9.839555059298922
 30
0.0
  0
VERTEX
  5
CF8
  8
LAYER_1
 10
15.42693902017141
 20
9.833100875991162
 30
0.0
  0
VERTEX
  5
CF9
  8
LAYER_1
 10
15.42444490433318
 20
9.825999483992199
 30
0.0
  0
VERTEX
  5
CFA
  8
LAYER_1
 10
15.42222031622931
 20
9.818301148792823
 30
0.0
  0
VERTEX
  5
CFB
  8
LAYER_1
 10
15.4202846801542
 20
9.81005613588384
 30
0.0
  0
VERTEX
  5
CFC
  8
LAYER_1
 10
15.41865742040226
 20
9.801314710756042
 30
0.0
  0
VERTEX
  5
CFD
  8
LAYER_1
 10
15.41735796126789
 20
9.792127138900227
 30
0.0
  0
VERTEX
  5
CFE
  8
LAYER_1
 10
15.41640572704551
 20
9.782543685807187
 30
0.0
  0
VERTEX
  5
CFF
  8
LAYER_1
 10
15.4158201420295
 20
9.772614616967722
 30
0.0
  0
VERTEX
  5
D00
  8
LAYER_1
 10
15.41562063051429
 20
9.76239019787263
 30
0.0
  0
VERTEX
  5
D01
  8
LAYER_1
 10
15.41562063051429
 20
9.237659644681141
 30
0.0
  0
VERTEX
  5
D02
  8
LAYER_1
 10
15.4158201420295
 20
9.227435225586042
 30
0.0
  0
VERTEX
  5
D03
  8
LAYER_1
 10
15.4164057270455
 20
9.21750615674657
 30
0.0
  0
VERTEX
  5
D04
  8
LAYER_1
 10
15.41735796126788
 20
9.207922703653525
 30
0.0
  0
VERTEX
  5
D05
  8
LAYER_1
 10
15.41865742040224
 20
9.1987351317977
 30
0.0
  0
VERTEX
  5
D06
  8
LAYER_1
 10
15.42028468015418
 20
9.189993706669897
 30
0.0
  0
VERTEX
  5
D07
  8
LAYER_1
 10
15.42222031622929
 20
9.181748693760909
 30
0.0
  0
VERTEX
  5
D08
  8
LAYER_1
 10
15.42444490433316
 20
9.174050358561532
 30
0.0
  0
VERTEX
  5
D09
  8
LAYER_1
 10
15.4269390201714
 20
9.166948966562567
 30
0.0
  0
VERTEX
  5
D0A
  8
LAYER_1
 10
15.42968323944959
 20
9.160494783254807
 30
0.0
  0
VERTEX
  5
D0B
  8
LAYER_1
 10
15.43265813787333
 20
9.154738074129046
 30
0.0
  0
VERTEX
  5
D0C
  8
LAYER_1
 10
15.43584429114822
 20
9.149729104676085
 30
0.0
  0
VERTEX
  5
D0D
  8
LAYER_1
 10
15.43922227497985
 20
9.14551814038672
 30
0.0
  0
VERTEX
  5
D0E
  8
LAYER_1
 10
15.44277266507381
 20
9.142155446751746
 30
0.0
  0
VERTEX
  5
D0F
  8
LAYER_1
 10
15.44647603713571
 20
9.13969128926196
 30
0.0
  0
VERTEX
  5
D10
  8
LAYER_1
 10
15.45031296687114
 20
9.13817593340816
 30
0.0
  0
VERTEX
  5
D11
  8
LAYER_1
 10
15.45426402998569
 20
9.137659644681142
 30
0.0
  0
VERTEX
  5
D12
  8
LAYER_1
 10
16.07571409086087
 20
9.137659644681142
 30
0.0
  0
VERTEX
  5
D13
  8
LAYER_1
 10
16.07966515397542
 20
9.138175933408169
 30
0.0
  0
VERTEX
  5
D14
  8
LAYER_1
 10
16.08350208371084
 20
9.139691289261975
 30
0.0
  0
VERTEX
  5
D15
  8
LAYER_1
 10
16.08720545577274
 20
9.142155446751765
 30
0.0
  0
VERTEX
  5
D16
  8
LAYER_1
 10
16.09075584586671
 20
9.145518140386741
 30
0.0
  0
VERTEX
  5
D17
  8
LAYER_1
 10
16.09413382969834
 20
9.149729104676108
 30
0.0
  0
VERTEX
  5
D18
  8
LAYER_1
 10
16.09731998297323
 20
9.154738074129071
 30
0.0
  0
VERTEX
  5
D19
  8
LAYER_1
 10
16.10029488139697
 20
9.160494783254832
 30
0.0
  0
VERTEX
  5
D1A
  8
LAYER_1
 10
16.10303910067516
 20
9.166948966562591
 30
0.0
  0
VERTEX
  5
D1B
  8
LAYER_1
 10
16.10553321651339
 20
9.174050358561555
 30
0.0
  0
VERTEX
  5
D1C
  8
LAYER_1
 10
16.10775780461726
 20
9.18174869376093
 30
0.0
  0
VERTEX
  5
D1D
  8
LAYER_1
 10
16.10969344069237
 20
9.189993706669913
 30
0.0
  0
VERTEX
  5
D1E
  8
LAYER_1
 10
16.11132070044431
 20
9.198735131797715
 30
0.0
  0
VERTEX
  5
D1F
  8
LAYER_1
 10
16.11262015957867
 20
9.207922703653535
 30
0.0
  0
VERTEX
  5
D20
  8
LAYER_1
 10
16.11357239380106
 20
9.217506156746577
 30
0.0
  0
VERTEX
  5
D21
  8
LAYER_1
 10
16.11415797881705
 20
9.227435225586046
 30
0.0
  0
VERTEX
  5
D22
  8
LAYER_1
 10
16.11435749033227
 20
9.237659644681141
 30
0.0
  0
VERTEX
  5
D23
  8
LAYER_1
 10
16.11435749033227
 20
9.76239019787263
 30
0.0
  0
VERTEX
  5
D24
  8
LAYER_1
 10
16.11415797881708
 20
9.772614616967758
 30
0.0
  0
VERTEX
  5
D25
  8
LAYER_1
 10
16.11357239380111
 20
9.78254368580726
 30
0.0
  0
VERTEX
  5
D26
  8
LAYER_1
 10
16.11262015957874
 20
9.792127138900334
 30
0.0
  0
VERTEX
  5
D27
  8
LAYER_1
 10
16.11132070044439
 20
9.801314710756184
 30
0.0
  0
VERTEX
  5
D28
  8
LAYER_1
 10
16.10969344069246
 20
9.810056135884015
 30
0.0
  0
VERTEX
  5
D29
  8
LAYER_1
 10
16.10775780461735
 20
9.818301148793026
 30
0.0
  0
VERTEX
  5
D2A
  8
LAYER_1
 10
16.10553321651348
 20
9.82599948399242
 30
0.0
  0
VERTEX
  5
D2B
  8
LAYER_1
 10
16.10303910067524
 20
9.8331008759914
 30
0.0
  0
VERTEX
  5
D2C
  8
LAYER_1
 10
16.10029488139704
 20
9.839555059299169
 30
0.0
  0
VERTEX
  5
D2D
  8
LAYER_1
 10
16.0973199829733
 20
9.845311768424928
 30
0.0
  0
VERTEX
  5
D2E
  8
LAYER_1
 10
16.0941338296984
 20
9.85032073787788
 30
0.0
  0
VERTEX
  5
D2F
  8
LAYER_1
 10
16.09075584586676
 20
9.854531702167229
 30
0.0
  0
VERTEX
  5
D30
  8
LAYER_1
 10
16.08720545577278
 20
9.857894395802177
 30
0.0
  0
VERTEX
  5
D31
  8
LAYER_1
 10
16.08350208371087
 20
9.860358553291924
 30
0.0
  0
VERTEX
  5
D32
  8
LAYER_1
 10
16.07966515397543
 20
9.861873909145674
 30
0.0
  0
SEQEND
  5
D33
  8
LAYER_1
  0
POLYLINE
  5
72
  8
LAYER_1
 66
     1
 10
0.0
 20
0.0
 30
0.0
 70
     1
  0
VERTEX
  5
D34
  8
LAYER_1
 10
17.12421637553301
 20
9.862340355318857
 30
0.0
  0
VERTEX
  5
D35
  8
LAYER_1
 10
16.50276631465783
 20
9.862340355318857
 30
0.0
  0
VERTEX
  5
D36
  8
LAYER_1
 10
16.49881525154328
 20
9.861824066591826
 30
0.0
  0
VERTEX
  5
D37
  8
LAYER_1
 10
16.49497832180786
 20
9.860308710738014
 30
0.0
  0
VERTEX
  5
D38
  8
LAYER_1
 10
16.49127494974596
 20
9.85784455324822
 30
0.0
  0
VERTEX
  5
D39
  8
LAYER_1
 10
16.48772455965199
 20
9.85448185961324
 30
0.0
  0
VERTEX
  5
D3A
  8
LAYER_1
 10
16.48434657582036
 20
9.85027089532387
 30
0.0
  0
VERTEX
  5
D3B
  8
LAYER_1
 10
16.48116042254548
 20
9.845261925870908
 30
0.0
  0
VERTEX
  5
D3C
  8
LAYER_1
 10
16.47818552412174
 20
9.839505216745149
 30
0.0
  0
VERTEX
  5
D3D
  8
LAYER_1
 10
16.47544130484355
 20
9.833051033437389
 30
0.0
  0
VERTEX
  5
D3E
  8
LAYER_1
 10
16.47294718900532
 20
9.825949641438424
 30
0.0
  0
VERTEX
  5
D3F
  8
LAYER_1
 10
16.47072260090145
 20
9.818251306239052
 30
0.0
  0
VERTEX
  5
D40
  8
LAYER_1
 10
16.46878696482634
 20
9.81000629333007
 30
0.0
  0
VERTEX
  5
D41
  8
LAYER_1
 10
16.4671597050744
 20
9.80126486820227
 30
0.0
  0
VERTEX
  5
D42
  8
LAYER_1
 10
16.46586024594004
 20
9.792077296346456
 30
0.0
  0
VERTEX
  5
D43
  8
LAYER_1
 10
16.46490801171765
 20
9.782493843253416
 30
0.0
  0
VERTEX
  5
D44
  8
LAYER_1
 10
16.46432242670165
 20
9.77256477441395
 30
0.0
  0
VERTEX
  5
D45
  8
LAYER_1
 10
16.46412291518643
 20
9.762340355318857
 30
0.0
  0
VERTEX
  5
D46
  8
LAYER_1
 10
16.46412291518643
 20
9.237609802127368
 30
0.0
  0
VERTEX
  5
D47
  8
LAYER_1
 10
16.46432242670164
 20
9.227385383032267
 30
0.0
  0
VERTEX
  5
D48
  8
LAYER_1
 10
16.46490801171764
 20
9.217456314192797
 30
0.0
  0
VERTEX
  5
D49
  8
LAYER_1
 10
16.46586024594002
 20
9.207872861099752
 30
0.0
  0
VERTEX
  5
D4A
  8
LAYER_1
 10
16.46715970507438
 20
9.198685289243928
 30
0.0
  0
VERTEX
  5
D4B
  8
LAYER_1
 10
16.46878696482632
 20
9.189943864116124
 30
0.0
  0
VERTEX
  5
D4C
  8
LAYER_1
 10
16.47072260090142
 20
9.181698851207138
 30
0.0
  0
VERTEX
  5
D4D
  8
LAYER_1
 10
16.4729471890053
 20
9.17400051600776
 30
0.0
  0
VERTEX
  5
D4E
  8
LAYER_1
 10
16.47544130484354
 20
9.166899124008793
 30
0.0
  0
VERTEX
  5
D4F
  8
LAYER_1
 10
16.47818552412172
 20
9.160444940701032
 30
0.0
  0
VERTEX
  5
D50
  8
LAYER_1
 10
16.48116042254546
 20
9.154688231575271
 30
0.0
  0
VERTEX
  5
D51
  8
LAYER_1
 10
16.48434657582035
 20
9.14967926212231
 30
0.0
  0
VERTEX
  5
D52
  8
LAYER_1
 10
16.48772455965199
 20
9.145468297832945
 30
0.0
  0
VERTEX
  5
D53
  8
LAYER_1
 10
16.49127494974595
 20
9.14210560419797
 30
0.0
  0
VERTEX
  5
D54
  8
LAYER_1
 10
16.49497832180786
 20
9.139641446708186
 30
0.0
  0
VERTEX
  5
D55
  8
LAYER_1
 10
16.49881525154328
 20
9.138126090854385
 30
0.0
  0
VERTEX
  5
D56
  8
LAYER_1
 10
16.50276631465783
 20
9.137609802127368
 30
0.0
  0
VERTEX
  5
D57
  8
LAYER_1
 10
17.12421637553301
 20
9.137609802127368
 30
0.0
  0
VERTEX
  5
D58
  8
LAYER_1
 10
17.12816743864756
 20
9.138126090854394
 30
0.0
  0
VERTEX
  5
D59
  8
LAYER_1
 10
17.13200436838298
 20
9.1396414467082
 30
0.0
  0
VERTEX
  5
D5A
  8
LAYER_1
 10
17.13570774044488
 20
9.14210560419799
 30
0.0
  0
VERTEX
  5
D5B
  8
LAYER_1
 10
17.13925813053885
 20
9.145468297832966
 30
0.0
  0
VERTEX
  5
D5C
  8
LAYER_1
 10
17.14263611437048
 20
9.149679262122334
 30
0.0
  0
VERTEX
  5
D5D
  8
LAYER_1
 10
17.14582226764536
 20
9.154688231575296
 30
0.0
  0
VERTEX
  5
D5E
  8
LAYER_1
 10
17.14879716606911
 20
9.160444940701057
 30
0.0
  0
VERTEX
  5
D5F
  8
LAYER_1
 10
17.1515413853473
 20
9.166899124008818
 30
0.0
  0
VERTEX
  5
D60
  8
LAYER_1
 10
17.15403550118553
 20
9.174000516007784
 30
0.0
  0
VERTEX
  5
D61
  8
LAYER_1
 10
17.1562600892894
 20
9.181698851207159
 30
0.0
  0
VERTEX
  5
D62
  8
LAYER_1
 10
17.15819572536451
 20
9.189943864116142
 30
0.0
  0
VERTEX
  5
D63
  8
LAYER_1
 10
17.15982298511645
 20
9.198685289243944
 30
0.0
  0
VERTEX
  5
D64
  8
LAYER_1
 10
17.16112244425081
 20
9.207872861099764
 30
0.0
  0
VERTEX
  5
D65
  8
LAYER_1
 10
17.1620746784732
 20
9.217456314192805
 30
0.0
  0
VERTEX
  5
D66
  8
LAYER_1
 10
17.16266026348919
 20
9.227385383032273
 30
0.0
  0
VERTEX
  5
D67
  8
LAYER_1
 10
17.16285977500441
 20
9.237609802127368
 30
0.0
  0
VERTEX
  5
D68
  8
LAYER_1
 10
17.16285977500441
 20
9.762340355318857
 30
0.0
  0
VERTEX
  5
D69
  8
LAYER_1
 10
17.16266026348922
 20
9.772564774413986
 30
0.0
  0
VERTEX
  5
D6A
  8
LAYER_1
 10
17.16207467847325
 20
9.782493843253487
 30
0.0
  0
VERTEX
  5
D6B
  8
LAYER_1
 10
17.16112244425088
 20
9.792077296346562
 30
0.0
  0
VERTEX
  5
D6C
  8
LAYER_1
 10
17.15982298511653
 20
9.801264868202413
 30
0.0
  0
VERTEX
  5
D6D
  8
LAYER_1
 10
17.1581957253646
 20
9.810006293330243
 30
0.0
  0
VERTEX
  5
D6E
  8
LAYER_1
 10
17.15626008928949
 20
9.818251306239253
 30
0.0
  0
VERTEX
  5
D6F
  8
LAYER_1
 10
17.15403550118562
 20
9.825949641438648
 30
0.0
  0
VERTEX
  5
D70
  8
LAYER_1
 10
17.15154138534738
 20
9.833051033437627
 30
0.0
  0
VERTEX
  5
D71
  8
LAYER_1
 10
17.14879716606918
 20
9.839505216745398
 30
0.0
  0
VERTEX
  5
D72
  8
LAYER_1
 10
17.14582226764544
 20
9.845261925871156
 30
0.0
  0
VERTEX
  5
D73
  8
LAYER_1
 10
17.14263611437054
 20
9.850270895324108
 30
0.0
  0
VERTEX
  5
D74
  8
LAYER_1
 10
17.1392581305389
 20
9.854481859613458
 30
0.0
  0
VERTEX
  5
D75
  8
LAYER_1
 10
17.13570774044492
 20
9.857844553248402
 30
0.0
  0
VERTEX
  5
D76
  8
LAYER_1
 10
17.13200436838301
 20
9.860308710738149
 30
0.0
  0
VERTEX
  5
D77
  8
LAYER_1
 10
17.12816743864757
 20
9.8618240665919
 30
0.0
  0
SEQEND
  5
D78
  8
LAYER_1
  0
POLYLINE
  5
73
  8
LAYER_1
 66
     1
 10
0.0
 20
0.0
 30
0.0
 70
     1
  0
VERTEX
  5
D79
  8
LAYER_1
 10
19.87890161957295
 20
9.341311021977859
 30
0.0
  0
VERTEX
  5
D7A
  8
LAYER_1
 10
19.87890161957295
 20
8.875
 30
0.0
  0
VERTEX
  5
D7B
  8
LAYER_1
 10
23.87890161957295
 20
8.875
 30
0.0
  0
VERTEX
  5
D7C
  8
LAYER_1
 10
23.87890161957294
 20
9.339500000000022
 30
0.0
  0
VERTEX
  5
D7D
  8
LAYER_1
 10
24.00237107390446
 20
9.339500000000001
 30
0.0
  0
VERTEX
  5
D7E
  8
LAYER_1
 10
24.00237107390446
 20
10.0895
 30
0.0
  0
VERTEX
  5
D7F
  8
LAYER_1
 10
23.87890161957293
 20
10.08950000000002
 30
0.0
  0
VERTEX
  5
D80
  8
LAYER_1
 10
23.87890161957295
 20
10.375
 30
0.0
  0
VERTEX
  5
D81
  8
LAYER_1
 10
19.87890161957295
 20
10.375
 30
0.0
  0
VERTEX
  5
D82
  8
LAYER_1
 10
19.87890161957294
 20
10.09131102197774
 30
0.0
  0
VERTEX
  5
D83
  8
LAYER_1
 10
19.756295501827
 20
10.09131102197782
 30
0.0
  0
VERTEX
  5
D84
  8
LAYER_1
 10
19.756295501827
 20
9.341311021977816
 30
0.0
  0
SEQEND
  5
D85
  8
LAYER_1
  0
POLYLINE
  5
74
  8
LAYER_1
 66
     1
 10
0.0
 20
0.0
 30
0.0
 70
     1
  0
VERTEX
  5
D86
  8
LAYER_1
 10
21.66580717596725
 20
9.98739019787263
 30
0.0
  0
VERTEX
  5
D87
  8
LAYER_1
 10
21.04435711509207
 20
9.98739019787263
 30
0.0
  0
VERTEX
  5
D88
  8
LAYER_1
 10
21.04040605197753
 20
9.986873909145597
 30
0.0
  0
VERTEX
  5
D89
  8
LAYER_1
 10
21.0365691222421
 20
9.985358553291785
 30
0.0
  0
VERTEX
  5
D8A
  8
LAYER_1
 10
21.0328657501802
 20
9.982894395801996
 30
0.0
  0
VERTEX
  5
D8B
  8
LAYER_1
 10
21.02931536008624
 20
9.979531702167016
 30
0.0
  0
VERTEX
  5
D8C
  8
LAYER_1
 10
21.02593737625461
 20
9.975320737877645
 30
0.0
  0
VERTEX
  5
D8D
  8
LAYER_1
 10
21.02275122297972
 20
9.970311768424683
 30
0.0
  0
VERTEX
  5
D8E
  8
LAYER_1
 10
21.01977632455598
 20
9.964555059298922
 30
0.0
  0
VERTEX
  5
D8F
  8
LAYER_1
 10
21.01703210527779
 20
9.958100875991162
 30
0.0
  0
VERTEX
  5
D90
  8
LAYER_1
 10
21.01453798943956
 20
9.950999483992199
 30
0.0
  0
VERTEX
  5
D91
  8
LAYER_1
 10
21.01231340133569
 20
9.943301148792823
 30
0.0
  0
VERTEX
  5
D92
  8
LAYER_1
 10
21.01037776526058
 20
9.93505613588384
 30
0.0
  0
VERTEX
  5
D93
  8
LAYER_1
 10
21.00875050550864
 20
9.926314710756042
 30
0.0
  0
VERTEX
  5
D94
  8
LAYER_1
 10
21.00745104637428
 20
9.917127138900227
 30
0.0
  0
VERTEX
  5
D95
  8
LAYER_1
 10
21.00649881215189
 20
9.907543685807187
 30
0.0
  0
VERTEX
  5
D96
  8
LAYER_1
 10
21.00591322713589
 20
9.897614616967722
 30
0.0
  0
VERTEX
  5
D97
  8
LAYER_1
 10
21.00571371562068
 20
9.88739019787263
 30
0.0
  0
VERTEX
  5
D98
  8
LAYER_1
 10
21.00571371562068
 20
9.362659644681141
 30
0.0
  0
VERTEX
  5
D99
  8
LAYER_1
 10
21.00591322713588
 20
9.352435225586042
 30
0.0
  0
VERTEX
  5
D9A
  8
LAYER_1
 10
21.00649881215188
 20
9.34250615674657
 30
0.0
  0
VERTEX
  5
D9B
  8
LAYER_1
 10
21.00745104637427
 20
9.332922703653525
 30
0.0
  0
VERTEX
  5
D9C
  8
LAYER_1
 10
21.00875050550863
 20
9.3237351317977
 30
0.0
  0
VERTEX
  5
D9D
  8
LAYER_1
 10
21.01037776526056
 20
9.314993706669897
 30
0.0
  0
VERTEX
  5
D9E
  8
LAYER_1
 10
21.01231340133567
 20
9.306748693760909
 30
0.0
  0
VERTEX
  5
D9F
  8
LAYER_1
 10
21.01453798943954
 20
9.299050358561532
 30
0.0
  0
VERTEX
  5
DA0
  8
LAYER_1
 10
21.01703210527778
 20
9.291948966562567
 30
0.0
  0
VERTEX
  5
DA1
  8
LAYER_1
 10
21.01977632455597
 20
9.285494783254807
 30
0.0
  0
VERTEX
  5
DA2
  8
LAYER_1
 10
21.02275122297971
 20
9.279738074129046
 30
0.0
  0
VERTEX
  5
DA3
  8
LAYER_1
 10
21.0259373762546
 20
9.274729104676085
 30
0.0
  0
VERTEX
  5
DA4
  8
LAYER_1
 10
21.02931536008623
 20
9.27051814038672
 30
0.0
  0
VERTEX
  5
DA5
  8
LAYER_1
 10
21.0328657501802
 20
9.267155446751746
 30
0.0
  0
VERTEX
  5
DA6
  8
LAYER_1
 10
21.0365691222421
 20
9.26469128926196
 30
0.0
  0
VERTEX
  5
DA7
  8
LAYER_1
 10
21.04040605197753
 20
9.26317593340816
 30
0.0
  0
VERTEX
  5
DA8
  8
LAYER_1
 10
21.04435711509207
 20
9.262659644681142
 30
0.0
  0
VERTEX
  5
DA9
  8
LAYER_1
 10
21.66580717596725
 20
9.262659644681142
 30
0.0
  0
VERTEX
  5
DAA
  8
LAYER_1
 10
21.6697582390818
 20
9.263175933408169
 30
0.0
  0
VERTEX
  5
DAB
  8
LAYER_1
 10
21.67359516881722
 20
9.264691289261975
 30
0.0
  0
VERTEX
  5
DAC
  8
LAYER_1
 10
21.67729854087912
 20
9.267155446751765
 30
0.0
  0
VERTEX
  5
DAD
  8
LAYER_1
 10
21.68084893097309
 20
9.270518140386741
 30
0.0
  0
VERTEX
  5
DAE
  8
LAYER_1
 10
21.68422691480472
 20
9.274729104676108
 30
0.0
  0
VERTEX
  5
DAF
  8
LAYER_1
 10
21.68741306807961
 20
9.279738074129071
 30
0.0
  0
VERTEX
  5
DB0
  8
LAYER_1
 10
21.69038796650335
 20
9.285494783254832
 30
0.0
  0
VERTEX
  5
DB1
  8
LAYER_1
 10
21.69313218578154
 20
9.291948966562591
 30
0.0
  0
VERTEX
  5
DB2
  8
LAYER_1
 10
21.69562630161978
 20
9.299050358561555
 30
0.0
  0
VERTEX
  5
DB3
  8
LAYER_1
 10
21.69785088972365
 20
9.30674869376093
 30
0.0
  0
VERTEX
  5
DB4
  8
LAYER_1
 10
21.69978652579875
 20
9.314993706669913
 30
0.0
  0
VERTEX
  5
DB5
  8
LAYER_1
 10
21.70141378555069
 20
9.323735131797715
 30
0.0
  0
VERTEX
  5
DB6
  8
LAYER_1
 10
21.70271324468505
 20
9.332922703653535
 30
0.0
  0
VERTEX
  5
DB7
  8
LAYER_1
 10
21.70366547890744
 20
9.342506156746577
 30
0.0
  0
VERTEX
  5
DB8
  8
LAYER_1
 10
21.70425106392344
 20
9.352435225586046
 30
0.0
  0
VERTEX
  5
DB9
  8
LAYER_1
 10
21.70445057543865
 20
9.362659644681141
 30
0.0
  0
VERTEX
  5
DBA
  8
LAYER_1
 10
21.70445057543865
 20
9.88739019787263
 30
0.0
  0
VERTEX
  5
DBB
  8
LAYER_1
 10
21.70425106392346
 20
9.897614616967758
 30
0.0
  0
VERTEX
  5
DBC
  8
LAYER_1
 10
21.70366547890749
 20
9.90754368580726
 30
0.0
  0
VERTEX
  5
DBD
  8
LAYER_1
 10
21.70271324468512
 20
9.917127138900334
 30
0.0
  0
VERTEX
  5
DBE
  8
LAYER_1
 10
21.70141378555077
 20
9.926314710756184
 30
0.0
  0
VERTEX
  5
DBF
  8
LAYER_1
 10
21.69978652579884
 20
9.935056135884015
 30
0.0
  0
VERTEX
  5
DC0
  8
LAYER_1
 10
21.69785088972373
 20
9.943301148793026
 30
0.0
  0
VERTEX
  5
DC1
  8
LAYER_1
 10
21.69562630161986
 20
9.95099948399242
 30
0.0
  0
VERTEX
  5
DC2
  8
LAYER_1
 10
21.69313218578162
 20
9.9581008759914
 30
0.0
  0
VERTEX
  5
DC3
  8
LAYER_1
 10
21.69038796650342
 20
9.964555059299169
 30
0.0
  0
VERTEX
  5
DC4
  8
LAYER_1
 10
21.68741306807968
 20
9.970311768424928
 30
0.0
  0
VERTEX
  5
DC5
  8
LAYER_1
 10
21.68422691480478
 20
9.97532073787788
 30
0.0
  0
VERTEX
  5
DC6
  8
LAYER_1
 10
21.68084893097314
 20
9.979531702167229
 30
0.0
  0
VERTEX
  5
DC7
  8
LAYER_1
 10
21.67729854087916
 20
9.982894395802177
 30
0.0
  0
VERTEX
  5
DC8
  8
LAYER_1
 10
21.67359516881725
 20
9.985358553291924
 30
0.0
  0
VERTEX
  5
DC9
  8
LAYER_1
 10
21.66975823908181
 20
9.986873909145674
 30
0.0
  0
SEQEND
  5
DCA
  8
LAYER_1
  0
POLYLINE
  5
75
  8
LAYER_1
 66
     1
 10
0.0
 20
0.0
 30
0.0
 70
     1
  0
VERTEX
  5
DCB
  8
LAYER_1
 10
22.71430946063939
 20
9.987340355318857
 30
0.0
  0
VERTEX
  5
DCC
  8
LAYER_1
 10
22.09285939976421
 20
9.987340355318857
 30
0.0
  0
VERTEX
  5
DCD
  8
LAYER_1
 10
22.08890833664967
 20
9.986824066591826
 30
0.0
  0
VERTEX
  5
DCE
  8
LAYER_1
 10
22.08507140691424
 20
9.985308710738014
 30
0.0
  0
VERTEX
  5
DCF
  8
LAYER_1
 10
22.08136803485234
 20
9.98284455324822
 30
0.0
  0
VERTEX
  5
DD0
  8
LAYER_1
 10
22.07781764475838
 20
9.97948185961324
 30
0.0
  0
VERTEX
  5
DD1
  8
LAYER_1
 10
22.07443966092675
 20
9.97527089532387
 30
0.0
  0
VERTEX
  5
DD2
  8
LAYER_1
 10
22.07125350765186
 20
9.970261925870908
 30
0.0
  0
VERTEX
  5
DD3
  8
LAYER_1
 10
22.06827860922812
 20
9.964505216745149
 30
0.0
  0
VERTEX
  5
DD4
  8
LAYER_1
 10
22.06553438994993
 20
9.958051033437389
 30
0.0
  0
VERTEX
  5
DD5
  8
LAYER_1
 10
22.0630402741117
 20
9.950949641438424
 30
0.0
  0
VERTEX
  5
DD6
  8
LAYER_1
 10
22.06081568600783
 20
9.943251306239052
 30
0.0
  0
VERTEX
  5
DD7
  8
LAYER_1
 10
22.05888004993272
 20
9.93500629333007
 30
0.0
  0
VERTEX
  5
DD8
  8
LAYER_1
 10
22.05725279018078
 20
9.92626486820227
 30
0.0
  0
VERTEX
  5
DD9
  8
LAYER_1
 10
22.05595333104642
 20
9.917077296346456
 30
0.0
  0
VERTEX
  5
DDA
  8
LAYER_1
 10
22.05500109682403
 20
9.907493843253416
 30
0.0
  0
VERTEX
  5
DDB
  8
LAYER_1
 10
22.05441551180803
 20
9.89756477441395
 30
0.0
  0
VERTEX
  5
DDC
  8
LAYER_1
 10
22.05421600029281
 20
9.887340355318857
 30
0.0
  0
VERTEX
  5
DDD
  8
LAYER_1
 10
22.05421600029281
 20
9.362609802127368
 30
0.0
  0
VERTEX
  5
DDE
  8
LAYER_1
 10
22.05441551180802
 20
9.352385383032267
 30
0.0
  0
VERTEX
  5
DDF
  8
LAYER_1
 10
22.05500109682402
 20
9.342456314192797
 30
0.0
  0
VERTEX
  5
DE0
  8
LAYER_1
 10
22.05595333104641
 20
9.332872861099752
 30
0.0
  0
VERTEX
  5
DE1
  8
LAYER_1
 10
22.05725279018077
 20
9.323685289243928
 30
0.0
  0
VERTEX
  5
DE2
  8
LAYER_1
 10
22.0588800499327
 20
9.314943864116124
 30
0.0
  0
VERTEX
  5
DE3
  8
LAYER_1
 10
22.06081568600781
 20
9.306698851207138
 30
0.0
  0
VERTEX
  5
DE4
  8
LAYER_1
 10
22.06304027411168
 20
9.29900051600776
 30
0.0
  0
VERTEX
  5
DE5
  8
LAYER_1
 10
22.06553438994992
 20
9.291899124008793
 30
0.0
  0
VERTEX
  5
DE6
  8
LAYER_1
 10
22.06827860922811
 20
9.285444940701032
 30
0.0
  0
VERTEX
  5
DE7
  8
LAYER_1
 10
22.07125350765185
 20
9.279688231575271
 30
0.0
  0
VERTEX
  5
DE8
  8
LAYER_1
 10
22.07443966092674
 20
9.27467926212231
 30
0.0
  0
VERTEX
  5
DE9
  8
LAYER_1
 10
22.07781764475837
 20
9.270468297832945
 30
0.0
  0
VERTEX
  5
DEA
  8
LAYER_1
 10
22.08136803485234
 20
9.26710560419797
 30
0.0
  0
VERTEX
  5
DEB
  8
LAYER_1
 10
22.08507140691424
 20
9.264641446708186
 30
0.0
  0
VERTEX
  5
DEC
  8
LAYER_1
 10
22.08890833664967
 20
9.263126090854385
 30
0.0
  0
VERTEX
  5
DED
  8
LAYER_1
 10
22.09285939976421
 20
9.262609802127368
 30
0.0
  0
VERTEX
  5
DEE
  8
LAYER_1
 10
22.71430946063939
 20
9.262609802127368
 30
0.0
  0
VERTEX
  5
DEF
  8
LAYER_1
 10
22.71826052375394
 20
9.263126090854394
 30
0.0
  0
VERTEX
  5
DF0
  8
LAYER_1
 10
22.72209745348936
 20
9.2646414467082
 30
0.0
  0
VERTEX
  5
DF1
  8
LAYER_1
 10
22.72580082555126
 20
9.26710560419799
 30
0.0
  0
VERTEX
  5
DF2
  8
LAYER_1
 10
22.72935121564523
 20
9.270468297832966
 30
0.0
  0
VERTEX
  5
DF3
  8
LAYER_1
 10
22.73272919947686
 20
9.274679262122334
 30
0.0
  0
VERTEX
  5
DF4
  8
LAYER_1
 10
22.73591535275175
 20
9.279688231575296
 30
0.0
  0
VERTEX
  5
DF5
  8
LAYER_1
 10
22.73889025117549
 20
9.285444940701057
 30
0.0
  0
VERTEX
  5
DF6
  8
LAYER_1
 10
22.74163447045368
 20
9.291899124008818
 30
0.0
  0
VERTEX
  5
DF7
  8
LAYER_1
 10
22.74412858629191
 20
9.299000516007784
 30
0.0
  0
VERTEX
  5
DF8
  8
LAYER_1
 10
22.74635317439579
 20
9.306698851207159
 30
0.0
  0
VERTEX
  5
DF9
  8
LAYER_1
 10
22.74828881047089
 20
9.314943864116142
 30
0.0
  0
VERTEX
  5
DFA
  8
LAYER_1
 10
22.74991607022283
 20
9.323685289243944
 30
0.0
  0
VERTEX
  5
DFB
  8
LAYER_1
 10
22.75121552935719
 20
9.332872861099764
 30
0.0
  0
VERTEX
  5
DFC
  8
LAYER_1
 10
22.75216776357958
 20
9.342456314192805
 30
0.0
  0
VERTEX
  5
DFD
  8
LAYER_1
 10
22.75275334859558
 20
9.352385383032273
 30
0.0
  0
VERTEX
  5
DFE
  8
LAYER_1
 10
22.75295286011079
 20
9.362609802127368
 30
0.0
  0
VERTEX
  5
DFF
  8
LAYER_1
 10
22.75295286011079
 20
9.887340355318857
 30
0.0
  0
VERTEX
  5
E00
  8
LAYER_1
 10
22.7527533485956
 20
9.897564774413986
 30
0.0
  0
VERTEX
  5
E01
  8
LAYER_1
 10
22.75216776357963
 20
9.907493843253487
 30
0.0
  0
VERTEX
  5
E02
  8
LAYER_1
 10
22.75121552935726
 20
9.917077296346562
 30
0.0
  0
VERTEX
  5
E03
  8
LAYER_1
 10
22.74991607022291
 20
9.926264868202413
 30
0.0
  0
VERTEX
  5
E04
  8
LAYER_1
 10
22.74828881047098
 20
9.935006293330243
 30
0.0
  0
VERTEX
  5
E05
  8
LAYER_1
 10
22.74635317439587
 20
9.943251306239253
 30
0.0
  0
VERTEX
  5
E06
  8
LAYER_1
 10
22.744128586292
 20
9.950949641438648
 30
0.0
  0
VERTEX
  5
E07
  8
LAYER_1
 10
22.74163447045376
 20
9.958051033437627
 30
0.0
  0
VERTEX
  5
E08
  8
LAYER_1
 10
22.73889025117556
 20
9.964505216745398
 30
0.0
  0
VERTEX
  5
E09
  8
LAYER_1
 10
22.73591535275182
 20
9.970261925871156
 30
0.0
  0
VERTEX
  5
E0A
  8
LAYER_1
 10
22.73272919947692
 20
9.975270895324108
 30
0.0
  0
VERTEX
  5
E0B
  8
LAYER_1
 10
22.72935121564528
 20
9.979481859613458
 30
0.0
  0
VERTEX
  5
E0C
  8
LAYER_1
 10
22.7258008255513
 20
9.982844553248402
 30
0.0
  0
VERTEX
  5
E0D
  8
LAYER_1
 10
22.72209745348939
 20
9.985308710738149
 30
0.0
  0
VERTEX
  5
E0E
  8
LAYER_1
 10
22.71826052375395
 20
9.9868240665919
 30
0.0
  0
SEQEND
  5
E0F
  8
LAYER_1
  0
ENDSEC
  0
EOF
