  0
SECTION
  2
HEADER
  9
$ACADVER
  1
AC1014
  9
$HANDSEED
  5
FFFF
  9
$MEASUREMENT
 70
     1
  0
ENDSEC
  0
SECTION
  2
TABLES
  0
TABLE
  2
VPORT
  5
8
330
0
100
AcDbSymbolTable
 70
     4
  0
VPORT
  5
2E
330
8
100
AcDbSymbolTableRecord
100
AcDbViewportTableRecord
  2
*ACTIVE
 70
     0
 10
0.0
 20
0.0
 11
1.0
 21
1.0
 12
210.0
 22
148.5
 13
0.0
 23
0.0
 14
10.0
 24
10.0
 15
10.0
 25
10.0
 16
0.0
 26
0.0
 36
1.0
 17
0.0
 27
0.0
 37
0.0
 40
341.0
 41
1.24
 42
50.0
 43
0.0
 44
0.0
 50
0.0
 51
0.0
 71
     0
 72
   100
 73
     1
 74
     3
 75
     0
 76
     0
 77
     0
 78
     0
  0
ENDTAB
  0
TABLE
  2
LTYPE
  5
5
330
0
100
AcDbSymbolTable
 70
     1
  0
LTYPE
  5
14
330
5
100
AcDbSymbolTableRecord
100
AcDbLinetypeTableRecord
  2
BYBLOCK
 70
     0
  3

 72
    65
 73
     0
 40
0.0
  0
LTYPE
  5
15
330
5
100
AcDbSymbolTableRecord
100
AcDbLinetypeTableRecord
  2
BYLAYER
 70
     0
  3

 72
    65
 73
     0
 40
0.0
  0
LTYPE
  5
16
330
5
100
AcDbSymbolTableRecord
100
AcDbLinetypeTableRecord
  2
CONTINUOUS
 70
     0
  3
Solid line
 72
    65
 73
     0
 40
0.0
  0
ENDTAB
  0
TABLE
  2
LAYER
  5
2
100
AcDbSymbolTable
 70
2
  0
LAYER
  5
50
100
AcDbSymbolTableRecord
100
AcDbLayerTableRecord
  2
0
 70
0
  6
CONTINUOUS
  0
LAYER
  5
51
100
AcDbSymbolTableRecord
100
AcDbLayerTableRecord
  2
Layer_1
 70
0
  6
CONTINUOUS
  0
ENDTAB
  0
TABLE
  2
STYLE
  5
3
330
0
100
AcDbSymbolTable
 70
     1
  0
STYLE
  5
11
330
3
100
AcDbSymbolTableRecord
100
AcDbTextStyleTableRecord
  2
STANDARD
 70
     0
 40
0.0
 41
1.0
 50
0.0
 71
     0
 42
2.5
  3
txt
  4

  0
ENDTAB
  0
TABLE
  2
VIEW
  5
6
330
0
100
AcDbSymbolTable
 70
     0
  0
ENDTAB
  0
TABLE
  2
UCS
  5
7
330
0
100
AcDbSymbolTable
 70
     0
  0
ENDTAB
  0
TABLE
  2
APPID
  5
9
330
0
100
AcDbSymbolTable
 70
     2
  0
APPID
  5
12
330
9
100
AcDbSymbolTableRecord
100
AcDbRegAppTableRecord
  2
ACAD
 70
     0
  0
ENDTAB
  0
TABLE
  2
DIMSTYLE
  5
A
330
0
100
AcDbSymbolTable
 70
     1
  0
DIMSTYLE
105
27
330
A
100
AcDbSymbolTableRecord
100
AcDbDimStyleTableRecord
  2
ISO-25
 70
     0
  3

  4

  5

  6

  7

 40
1.0
 41
2.5
 42
0.625
 43
3.75
 44
1.25
 45
0.0
 46
0.0
 47
0.0
 48
0.0
140
2.5
141
2.5
142
0.0
143
0.03937007874016
144
1.0
145
0.0
146
1.0
147
0.625
 71
     0
 72
     0
 73
     0
 74
     0
 75
     0
 76
     0
 77
     1
 78
     8
170
     0
171
     3
172
     1
173
     0
174
     0
175
     0
176
     0
177
     0
178
     0
270
     2
271
     2
272
     2
273
     2
274
     3
340
11
275
     0
280
     0
281
     0
282
     0
283
     0
284
     8
285
     0
286
     0
287
     3
288
     0
  0
ENDTAB
  0
TABLE
  2
BLOCK_RECORD
  5
1
330
0
100
AcDbSymbolTable
 70
     1
  0
BLOCK_RECORD
  5
1F
330
1
100
AcDbSymbolTableRecord
100
AcDbBlockTableRecord
  2
*MODEL_SPACE
  0
BLOCK_RECORD
  5
1B
330
1
100
AcDbSymbolTableRecord
100
AcDbBlockTableRecord
  2
*PAPER_SPACE
  0
ENDTAB
  0
ENDSEC
  0
SECTION
  2
BLOCKS
  0
BLOCK
  5
20
330
1F
100
AcDbEntity
  8
0
100
AcDbBlockBegin
  2
*MODEL_SPACE
 70
     0
 10
0.0
 20
0.0
 30
0.0
  3
*MODEL_SPACE
  1

  0
ENDBLK
  5
21
330
1F
100
AcDbEntity
  8
0
100
AcDbBlockEnd
  0
BLOCK
  5
1C
330
1B
100
AcDbEntity
 67
     1
  8
0
100
AcDbBlockBegin
  2
*PAPER_SPACE
  1

  0
ENDBLK
  5
1D
330
1B
100
AcDbEntity
 67
     1
  8
0
100
AcDbBlockEnd
  0
ENDSEC
  0
SECTION
  2
ENTITIES
  0
SPLINE
  5
100
100
AcDbEntity
  8
Layer_1
 62
1
100
AcDbSpline
 70
8
 71
3
 72
8
 73
4
 74
0
 40
0
 40
0
 40
0
 40
0
 40
1
 40
1
 40
1
 40
1
 10
57.229647
 20
24.697084
 30
0.0
 10
57.001037
 20
25.052992
 30
0.0
 10
55.477201
 20
27.581971
 30
0.0
 10
53.843338
 20
30.317041
 30
0.0
  0
SPLINE
  5
101
100
AcDbEntity
  8
Layer_1
 62
1
100
AcDbSpline
 70
8
 71
3
 72
8
 73
4
 74
0
 40
0
 40
0
 40
0
 40
0
 40
1
 40
1
 40
1
 40
1
 10
53.843338
 20
30.317041
 30
0.0
 10
52.209479
 20
33.052108
 30
0.0
 10
50.784211
 20
35.187554
 30
0.0
 10
50.676077
 20
35.062476
 30
0.0
  0
SPLINE
  5
102
100
AcDbEntity
  8
Layer_1
 62
1
100
AcDbSpline
 70
8
 71
3
 72
8
 73
4
 74
0
 40
0
 40
0
 40
0
 40
0
 40
1
 40
1
 40
1
 40
1
 10
50.676077
 20
35.062476
 30
0.0
 10
50.567944
 20
34.937395
 30
0.0
 10
49.207541
 20
32.699612
 30
0.0
 10
47.652956
 20
30.089623
 30
0.0
  0
SPLINE
  5
103
100
AcDbEntity
  8
Layer_1
 62
1
100
AcDbSpline
 70
8
 71
3
 72
8
 73
4
 74
0
 40
0
 40
0
 40
0
 40
0
 40
1
 40
1
 40
1
 40
1
 10
47.652956
 20
30.089623
 30
0.0
 10
46.098375
 20
27.479634
 30
0.0
 10
44.639525
 20
25.052992
 30
0.0
 10
44.411066
 20
24.697084
 30
0.0
  0
SPLINE
  5
104
100
AcDbEntity
  8
Layer_1
 62
1
100
AcDbSpline
 70
8
 71
3
 72
8
 73
4
 74
0
 40
0
 40
0
 40
0
 40
0
 40
1
 40
1
 40
1
 40
1
 10
85.207900
 20
89.881775
 30
0.0
 10
85.120096
 20
89.900867
 30
0.0
 10
85.031881
 20
89.918097
 30
0.0
 10
84.943317
 20
89.933455
 30
0.0
  0
SPLINE
  5
105
100
AcDbEntity
  8
Layer_1
 62
1
100
AcDbSpline
 70
8
 71
3
 72
8
 73
4
 74
0
 40
0
 40
0
 40
0
 40
0
 40
1
 40
1
 40
1
 40
1
 10
84.943317
 20
89.933455
 30
0.0
 10
84.737579
 20
89.963380
 30
0.0
 10
84.530443
 20
89.983215
 30
0.0
 10
84.322683
 20
89.992885
 30
0.0
  0
SPLINE
  5
106
100
AcDbEntity
  8
Layer_1
 62
1
100
AcDbSpline
 70
8
 71
3
 72
8
 73
4
 74
0
 40
0
 40
0
 40
0
 40
0
 40
1
 40
1
 40
1
 40
1
 10
84.322683
 20
89.992885
 30
0.0
 10
84.114693
 20
90.002382
 30
0.0
 10
83.906349
 20
90.001682
 30
0.0
 10
83.698431
 20
89.990785
 30
0.0
  0
SPLINE
  5
107
100
AcDbEntity
  8
Layer_1
 62
1
100
AcDbSpline
 70
8
 71
3
 72
8
 73
4
 74
0
 40
0
 40
0
 40
0
 40
0
 40
1
 40
1
 40
1
 40
1
 10
83.698431
 20
89.990785
 30
0.0
 10
83.490619
 20
89.980087
 30
0.0
 10
83.283482
 20
89.959218
 30
0.0
 10
83.077798
 20
89.928255
 30
0.0
  0
SPLINE
  5
108
100
AcDbEntity
  8
Layer_1
 62
1
100
AcDbSpline
 70
8
 71
3
 72
8
 73
4
 74
0
 40
0
 40
0
 40
0
 40
0
 40
1
 40
1
 40
1
 40
1
 10
83.077798
 20
89.928255
 30
0.0
 10
82.872045
 20
89.897098
 30
0.0
 10
82.668012
 20
89.855878
 30
0.0
 10
82.466465
 20
89.804750
 30
0.0
  0
SPLINE
  5
109
100
AcDbEntity
  8
Layer_1
 62
1
100
AcDbSpline
 70
8
 71
3
 72
8
 73
4
 74
0
 40
0
 40
0
 40
0
 40
0
 40
1
 40
1
 40
1
 40
1
 10
82.466465
 20
89.804750
 30
0.0
 10
82.265057
 20
89.753868
 30
0.0
 10
82.066372
 20
89.693159
 30
0.0
 10
81.871152
 20
89.622849
 30
0.0
  0
SPLINE
  5
10a
100
AcDbEntity
  8
Layer_1
 62
1
100
AcDbSpline
 70
8
 71
3
 72
8
 73
4
 74
0
 40
0
 40
0
 40
0
 40
0
 40
1
 40
1
 40
1
 40
1
 10
81.871152
 20
89.622849
 30
0.0
 10
81.831185
 20
89.606545
 30
0.0
 10
81.791392
 20
89.589834
 30
0.0
 10
81.751780
 20
89.572719
 30
0.0
  0
SPLINE
  5
10b
100
AcDbEntity
  8
Layer_1
 62
1
100
AcDbSpline
 70
8
 71
3
 72
8
 73
4
 74
0
 40
0
 40
0
 40
0
 40
0
 40
1
 40
1
 40
1
 40
1
 10
81.751780
 20
89.572719
 30
0.0
 10
79.874130
 20
86.451051
 30
0.0
 10
76.841487
 20
81.291377
 30
0.0
 10
76.841487
 20
81.147909
 30
0.0
  0
SPLINE
  5
10c
100
AcDbEntity
  8
Layer_1
 62
1
100
AcDbSpline
 70
8
 71
3
 72
8
 73
4
 74
0
 40
0
 40
0
 40
0
 40
0
 40
1
 40
1
 40
1
 40
1
 10
76.841487
 20
81.147909
 30
0.0
 10
76.841487
 20
81.089619
 30
0.0
 10
79.882472
 20
81.041973
 30
0.0
 10
83.599731
 20
81.041973
 30
0.0
  0
SPLINE
  5
10d
100
AcDbEntity
  8
Layer_1
 62
1
100
AcDbSpline
 70
8
 71
3
 72
8
 73
4
 74
0
 40
0
 40
0
 40
0
 40
0
 40
1
 40
1
 40
1
 40
1
 10
83.599731
 20
81.041973
 30
0.0
 10
87.316986
 20
81.041973
 30
0.0
 10
90.358491
 20
81.112663
 30
0.0
 10
90.358491
 20
81.198553
 30
0.0
  0
SPLINE
  5
10e
100
AcDbEntity
  8
Layer_1
 62
1
100
AcDbSpline
 70
8
 71
3
 72
8
 73
4
 74
0
 40
0
 40
0
 40
0
 40
0
 40
1
 40
1
 40
1
 40
1
 10
90.358491
 20
81.198553
 30
0.0
 10
90.358491
 20
81.284453
 30
0.0
 10
88.855305
 20
83.883677
 30
0.0
 10
87.018126
 20
86.974945
 30
0.0
  0
SPLINE
  5
10f
100
AcDbEntity
  8
Layer_1
 62
1
100
AcDbSpline
 70
8
 71
3
 72
8
 73
4
 74
0
 40
0
 40
0
 40
0
 40
0
 40
1
 40
1
 40
1
 40
1
 10
87.018126
 20
86.974945
 30
0.0
 10
86.285603
 20
88.207498
 30
0.0
 10
85.751161
 20
89.034551
 30
0.0
 10
85.207900
 20
89.881744
 30
0.0
  0
LWPOLYLINE
  5
110
100
AcDbEntity
  8
Layer_1
 62
1
100
AcDbPolyline
 90
5
 70
0
 10
44.411066
 20
24.697084
 30
0.0
 10
43.995688
 20
24.049978
 30
0.0
 10
50.820491
 20
24.049978
 30
0.0
 10
57.645295
 20
24.049978
 30
0.0
 10
57.229647
 20
24.697084
 30
0.0
  0
SPLINE
  5
111
100
AcDbEntity
  8
Layer_1
 62
1
100
AcDbSpline
 70
8
 71
3
 72
8
 73
4
 74
0
 40
0
 40
0
 40
0
 40
0
 40
1
 40
1
 40
1
 40
1
 10
101.862667
 20
62.195970
 30
0.0
 10
101.862667
 20
62.380424
 30
0.0
 10
95.552920
 20
73.076233
 30
0.0
 10
95.279056
 20
73.356018
 30
0.0
  0
SPLINE
  5
112
100
AcDbEntity
  8
Layer_1
 62
1
100
AcDbSpline
 70
8
 71
3
 72
8
 73
4
 74
0
 40
0
 40
0
 40
0
 40
0
 40
1
 40
1
 40
1
 40
1
 10
95.279056
 20
73.356018
 30
0.0
 10
95.159075
 20
73.478594
 30
0.0
 10
93.720408
 20
71.278438
 30
0.0
 10
92.082023
 20
68.466783
 30
0.0
  0
SPLINE
  5
113
100
AcDbEntity
  8
Layer_1
 62
1
100
AcDbSpline
 70
8
 71
3
 72
8
 73
4
 74
0
 40
0
 40
0
 40
0
 40
0
 40
1
 40
1
 40
1
 40
1
 10
92.082023
 20
68.466783
 30
0.0
 10
90.443634
 20
65.655127
 30
0.0
 10
88.917750
 20
63.063485
 30
0.0
 10
88.691165
 20
62.707577
 30
0.0
  0
LWPOLYLINE
  5
114
100
AcDbEntity
  8
Layer_1
 62
1
100
AcDbPolyline
 90
1
 70
1
 10
85.207900
 20
89.881744
 30
0.0
  0
SPLINE
  5
115
100
AcDbEntity
  8
Layer_1
 62
1
100
AcDbSpline
 70
8
 71
3
 72
8
 73
4
 74
0
 40
0
 40
0
 40
0
 40
0
 40
1
 40
1
 40
1
 40
1
 10
95.070919
 20
62.060472
 30
0.0
 10
98.806387
 20
62.060472
 30
0.0
 10
101.862667
 20
62.121442
 30
0.0
 10
101.862667
 20
62.195970
 30
0.0
  0
LWPOLYLINE
  5
116
100
AcDbEntity
  8
Layer_1
 62
1
100
AcDbPolyline
 90
3
 70
0
 10
88.691165
 20
62.707577
 30
0.0
 10
88.279193
 20
62.060472
 30
0.0
 10
95.070919
 20
62.060472
 30
0.0
  0
SPLINE
  5
117
100
AcDbEntity
  8
Layer_1
 62
1
100
AcDbSpline
 70
8
 71
3
 72
8
 73
4
 74
0
 40
0
 40
0
 40
0
 40
0
 40
1
 40
1
 40
1
 40
1
 10
78.492232
 20
63.722741
 30
0.0
 10
74.563763
 20
70.729607
 30
0.0
 10
72.938587
 20
73.540233
 30
0.0
 10
72.814835
 20
73.541372
 30
0.0
  0
SPLINE
  5
118
100
AcDbEntity
  8
Layer_1
 62
1
100
AcDbSpline
 70
8
 71
3
 72
8
 73
4
 74
0
 40
0
 40
0
 40
0
 40
0
 40
1
 40
1
 40
1
 40
1
 10
72.814835
 20
73.541372
 30
0.0
 10
72.686417
 20
73.542572
 30
0.0
 10
66.195957
 20
62.901809
 30
0.0
 10
65.960319
 20
62.303775
 30
0.0
  0
SPLINE
  5
119
100
AcDbEntity
  8
Layer_1
 62
1
100
AcDbSpline
 70
8
 71
3
 72
8
 73
4
 74
0
 40
0
 40
0
 40
0
 40
0
 40
1
 40
1
 40
1
 40
1
 10
65.960319
 20
62.303775
 30
0.0
 10
65.907589
 20
62.169960
 30
0.0
 10
68.915393
 20
62.060472
 30
0.0
 10
72.644321
 20
62.060472
 30
0.0
  0
LWPOLYLINE
  5
11a
100
AcDbEntity
  8
Layer_1
 62
1
100
AcDbPolyline
 90
1
 70
1
 10
101.862667
 20
62.195970
 30
0.0
  0
SPLINE
  5
11b
100
AcDbEntity
  8
Layer_1
 62
1
100
AcDbSpline
 70
8
 71
3
 72
8
 73
4
 74
0
 40
0
 40
0
 40
0
 40
0
 40
1
 40
1
 40
1
 40
1
 10
98.515897
 20
51.539988
 30
0.0
 10
100.356627
 20
54.611866
 30
0.0
 10
101.862667
 20
57.200285
 30
0.0
 10
101.862667
 20
57.292030
 30
0.0
  0
SPLINE
  5
11c
100
AcDbEntity
  8
Layer_1
 62
1
100
AcDbSpline
 70
8
 71
3
 72
8
 73
4
 74
0
 40
0
 40
0
 40
0
 40
0
 40
1
 40
1
 40
1
 40
1
 10
101.862667
 20
57.292030
 30
0.0
 10
101.862667
 20
57.383770
 30
0.0
 10
98.821267
 20
57.458836
 30
0.0
 10
95.103996
 20
57.458836
 30
0.0
  0
SPLINE
  5
11d
100
AcDbEntity
  8
Layer_1
 62
1
100
AcDbSpline
 70
8
 71
3
 72
8
 73
4
 74
0
 40
0
 40
0
 40
0
 40
0
 40
1
 40
1
 40
1
 40
1
 10
95.103996
 20
57.458836
 30
0.0
 10
91.386739
 20
57.458836
 30
0.0
 10
88.345347
 20
57.393736
 30
0.0
 10
88.345347
 20
57.314158
 30
0.0
  0
SPLINE
  5
11e
100
AcDbEntity
  8
Layer_1
 62
1
100
AcDbSpline
 70
8
 71
3
 72
8
 73
4
 74
0
 40
0
 40
0
 40
0
 40
0
 40
1
 40
1
 40
1
 40
1
 10
88.345347
 20
57.314158
 30
0.0
 10
88.345347
 20
56.981946
 30
0.0
 10
94.764407
 20
45.954753
 30
0.0
 10
94.957790
 20
45.954753
 30
0.0
  0
SPLINE
  5
11f
100
AcDbEntity
  8
Layer_1
 62
1
100
AcDbSpline
 70
8
 71
3
 72
8
 73
4
 74
0
 40
0
 40
0
 40
0
 40
0
 40
1
 40
1
 40
1
 40
1
 10
94.957790
 20
45.954753
 30
0.0
 10
95.074022
 20
45.954753
 30
0.0
 10
96.675167
 20
48.468108
 30
0.0
 10
98.515897
 20
51.539988
 30
0.0
  0
LWPOLYLINE
  5
120
100
AcDbEntity
  8
Layer_1
 62
1
100
AcDbPolyline
 90
4
 70
0
 10
72.644321
 20
62.060472
 30
0.0
 10
79.424192
 20
62.060472
 30
0.0
 10
78.492232
 20
63.722735
 30
0.0
 10
78.492232
 20
63.722741
 30
0.0
  0
SPLINE
  5
121
100
AcDbEntity
  8
Layer_1
 62
1
100
AcDbSpline
 70
8
 71
3
 72
8
 73
4
 74
0
 40
0
 40
0
 40
0
 40
0
 40
1
 40
1
 40
1
 40
1
 10
68.726514
 20
44.013439
 30
0.0
 10
68.497904
 20
44.369347
 30
0.0
 10
66.974068
 20
46.898327
 30
0.0
 10
65.340206
 20
49.633396
 30
0.0
  0
SPLINE
  5
122
100
AcDbEntity
  8
Layer_1
 62
1
100
AcDbSpline
 70
8
 71
3
 72
8
 73
4
 74
0
 40
0
 40
0
 40
0
 40
0
 40
1
 40
1
 40
1
 40
1
 10
65.340206
 20
49.633396
 30
0.0
 10
63.706347
 20
52.368463
 30
0.0
 10
62.281078
 20
54.503909
 30
0.0
 10
62.172945
 20
54.378831
 30
0.0
  0
SPLINE
  5
123
100
AcDbEntity
  8
Layer_1
 62
1
100
AcDbSpline
 70
8
 71
3
 72
8
 73
4
 74
0
 40
0
 40
0
 40
0
 40
0
 40
1
 40
1
 40
1
 40
1
 10
62.172945
 20
54.378831
 30
0.0
 10
62.064812
 20
54.253750
 30
0.0
 10
60.704409
 20
52.015967
 30
0.0
 10
59.149824
 20
49.405978
 30
0.0
  0
SPLINE
  5
124
100
AcDbEntity
  8
Layer_1
 62
1
100
AcDbSpline
 70
8
 71
3
 72
8
 73
4
 74
0
 40
0
 40
0
 40
0
 40
0
 40
1
 40
1
 40
1
 40
1
 10
59.149824
 20
49.405978
 30
0.0
 10
57.595243
 20
46.795989
 30
0.0
 10
56.136393
 20
44.369347
 30
0.0
 10
55.907934
 20
44.013439
 30
0.0
  0
LWPOLYLINE
  5
125
100
AcDbEntity
  8
Layer_1
 62
1
100
AcDbPolyline
 90
1
 70
1
 10
98.515897
 20
51.539988
 30
0.0
  0
SPLINE
  5
126
100
AcDbEntity
  8
Layer_1
 62
1
100
AcDbSpline
 70
8
 71
3
 72
8
 73
4
 74
0
 40
0
 40
0
 40
0
 40
0
 40
1
 40
1
 40
1
 40
1
 10
110.020927
 20
34.115691
 30
0.0
 10
112.177497
 20
37.648710
 30
0.0
 10
113.941957
 20
40.681011
 30
0.0
 10
113.941957
 20
40.854136
 30
0.0
  0
SPLINE
  5
127
100
AcDbEntity
  8
Layer_1
 62
1
100
AcDbSpline
 70
8
 71
3
 72
8
 73
4
 74
0
 40
0
 40
0
 40
0
 40
0
 40
1
 40
1
 40
1
 40
1
 10
113.941957
 20
40.854136
 30
0.0
 10
113.941957
 20
41.190809
 30
0.0
 10
106.790177
 20
53.662408
 30
0.0
 10
106.491127
 20
53.847230
 30
0.0
  0
SPLINE
  5
128
100
AcDbEntity
  8
Layer_1
 62
1
100
AcDbSpline
 70
8
 71
3
 72
8
 73
4
 74
0
 40
0
 40
0
 40
0
 40
0
 40
1
 40
1
 40
1
 40
1
 10
106.491127
 20
53.847230
 30
0.0
 10
106.393227
 20
53.907740
 30
0.0
 10
104.530217
 20
51.037501
 30
0.0
 10
102.351117
 20
47.468912
 30
0.0
  0
LWPOLYLINE
  5
129
100
AcDbEntity
  8
Layer_1
 62
1
100
AcDbPolyline
 90
5
 70
0
 10
55.907934
 20
44.013439
 30
0.0
 10
55.492556
 20
43.366334
 30
0.0
 10
62.317359
 20
43.366334
 30
0.0
 10
69.142162
 20
43.366334
 30
0.0
 10
68.726514
 20
44.013439
 30
0.0
  0
SPLINE
  5
12a
100
AcDbEntity
  8
Layer_1
 62
1
100
AcDbSpline
 70
8
 71
3
 72
8
 73
4
 74
0
 40
0
 40
0
 40
0
 40
0
 40
1
 40
1
 40
1
 40
1
 10
102.206247
 20
34.283596
 30
0.0
 10
104.305667
 20
30.600262
 30
0.0
 10
106.040597
 20
27.610339
 30
0.0
 10
106.061647
 20
27.639324
 30
0.0
  0
SPLINE
  5
12b
100
AcDbEntity
  8
Layer_1
 62
1
100
AcDbSpline
 70
8
 71
3
 72
8
 73
4
 74
0
 40
0
 40
0
 40
0
 40
0
 40
1
 40
1
 40
1
 40
1
 10
106.061647
 20
27.639324
 30
0.0
 10
106.082747
 20
27.668304
 30
0.0
 10
107.864367
 20
30.582672
 30
0.0
 10
110.020927
 20
34.115691
 30
0.0
  0
LWPOLYLINE
  5
12c
100
AcDbEntity
  8
Layer_1
 62
1
100
AcDbPolyline
 90
3
 70
0
 10
102.351117
 20
47.468912
 30
0.0
 10
98.389117
 20
40.980571
 30
0.0
 10
102.206247
 20
34.283596
 30
0.0
  0
LWPOLYLINE
  5
12d
100
AcDbEntity
  8
Layer_1
 62
1
100
AcDbPolyline
 90
1
 70
1
 10
110.020927
 20
34.115691
 30
0.0
  0
SPLINE
  5
12e
100
AcDbEntity
  8
Layer_1
 62
1
100
AcDbSpline
 70
8
 71
3
 72
8
 73
4
 74
0
 40
0
 40
0
 40
0
 40
0
 40
1
 40
1
 40
1
 40
1
 10
84.136325
 20
38.698110
 30
0.0
 10
80.393515
 20
38.740570
 30
0.0
 10
77.282123
 20
38.726240
 30
0.0
 10
77.222127
 20
38.666230
 30
0.0
  0
SPLINE
  5
12f
100
AcDbEntity
  8
Layer_1
 62
1
100
AcDbSpline
 70
8
 71
3
 72
8
 73
4
 74
0
 40
0
 40
0
 40
0
 40
0
 40
1
 40
1
 40
1
 40
1
 10
77.222127
 20
38.666230
 30
0.0
 10
77.126187
 20
38.570290
 30
0.0
 10
78.929485
 20
35.327544
 30
0.0
 10
82.657576
 20
28.892082
 30
0.0
  0
SPLINE
  5
130
100
AcDbEntity
  8
Layer_1
 62
1
100
AcDbSpline
 70
8
 71
3
 72
8
 73
4
 74
0
 40
0
 40
0
 40
0
 40
0
 40
1
 40
1
 40
1
 40
1
 10
82.657576
 20
28.892082
 30
0.0
 10
83.283202
 20
27.812122
 30
0.0
 10
83.833227
 20
26.970886
 30
0.0
 10
83.879856
 20
27.022668
 30
0.0
  0
SPLINE
  5
131
100
AcDbEntity
  8
Layer_1
 62
1
100
AcDbSpline
 70
8
 71
3
 72
8
 73
4
 74
0
 40
0
 40
0
 40
0
 40
0
 40
1
 40
1
 40
1
 40
1
 10
83.879856
 20
27.022668
 30
0.0
 10
83.926486
 20
27.074448
 30
0.0
 10
85.534413
 20
29.705239
 30
0.0
 10
87.453036
 20
32.868862
 30
0.0
  0
LWPOLYLINE
  5
132
100
AcDbEntity
  8
Layer_1
 62
1
100
AcDbPolyline
 90
3
 70
0
 10
87.453036
 20
32.868858
 30
0.0
 10
90.941439
 20
38.620900
 30
0.0
 10
84.136325
 20
38.698110
 30
0.0
  0
SPLINE
  5
133
100
AcDbEntity
  8
Layer_1
 62
1
100
AcDbSpline
 70
8
 71
3
 72
8
 73
4
 74
0
 40
0
 40
0
 40
0
 40
0
 40
1
 40
1
 40
1
 40
1
 10
123.026509
 20
27.054919
 30
0.0
 10
122.317919
 20
28.354412
 30
0.0
 10
120.842299
 20
31.011461
 30
0.0
 10
119.747349
 20
32.959473
 30
0.0
  0
LWPOLYLINE
  5
134
100
AcDbEntity
  8
Layer_1
 62
1
100
AcDbPolyline
 90
1
 70
1
 10
87.453036
 20
32.868862
 30
0.0
  0
SPLINE
  5
135
100
AcDbEntity
  8
Layer_1
 62
1
100
AcDbSpline
 70
8
 71
3
 72
8
 73
4
 74
0
 40
0
 40
0
 40
0
 40
0
 40
1
 40
1
 40
1
 40
1
 10
114.285727
 20
30.945563
 30
0.0
 10
112.376787
 20
27.889897
 30
0.0
 10
110.740427
 20
25.195989
 30
0.0
 10
110.649387
 20
24.959102
 30
0.0
  0
SPLINE
  5
136
100
AcDbEntity
  8
Layer_1
 62
1
100
AcDbSpline
 70
8
 71
3
 72
8
 73
4
 74
0
 40
0
 40
0
 40
0
 40
0
 40
1
 40
1
 40
1
 40
1
 10
110.649387
 20
24.959102
 30
0.0
 10
110.504657
 20
24.582545
 30
0.0
 10
111.353257
 20
24.538694
 30
0.0
 10
117.399347
 20
24.610301
 30
0.0
  0
LWPOLYLINE
  5
137
100
AcDbEntity
  8
Layer_1
 62
1
100
AcDbPolyline
 90
3
 70
0
 10
119.747349
 20
32.959473
 30
0.0
 10
117.756537
 20
36.501316
 30
0.0
 10
114.285727
 20
30.945563
 30
0.0
  0
SPLINE
  5
138
100
AcDbEntity
  8
Layer_1
 62
1
100
AcDbSpline
 70
8
 71
3
 72
8
 73
4
 74
0
 40
0
 40
0
 40
0
 40
0
 40
1
 40
1
 40
1
 40
1
 10
101.230677
 20
25.606906
 30
0.0
 10
100.856037
 20
26.279176
 30
0.0
 10
99.388977
 20
28.931327
 30
0.0
 10
97.970547
 20
31.500577
 30
0.0
  0
SPLINE
  5
139
100
AcDbEntity
  8
Layer_1
 62
1
100
AcDbSpline
 70
8
 71
3
 72
8
 73
4
 74
0
 40
0
 40
0
 40
0
 40
0
 40
1
 40
1
 40
1
 40
1
 10
97.970547
 20
31.500577
 30
0.0
 10
96.552127
 20
34.069827
 30
0.0
 10
95.326887
 20
36.169650
 30
0.0
 10
95.247797
 20
36.166852
 30
0.0
  0
SPLINE
  5
13a
100
AcDbEntity
  8
Layer_1
 62
1
100
AcDbSpline
 70
8
 71
3
 72
8
 73
4
 74
0
 40
0
 40
0
 40
0
 40
0
 40
1
 40
1
 40
1
 40
1
 10
95.247797
 20
36.166852
 30
0.0
 10
95.168707
 20
36.163952
 30
0.0
 10
93.776594
 20
33.932520
 30
0.0
 10
92.154211
 20
31.207887
 30
0.0
  0
SPLINE
  5
13b
100
AcDbEntity
  8
Layer_1
 62
1
100
AcDbSpline
 70
8
 71
3
 72
8
 73
4
 74
0
 40
0
 40
0
 40
0
 40
0
 40
1
 40
1
 40
1
 40
1
 10
92.154211
 20
31.207887
 30
0.0
 10
90.531830
 20
28.483255
 30
0.0
 10
88.933715
 20
25.833392
 30
0.0
 10
88.602843
 20
25.319304
 30
0.0
  0
LWPOLYLINE
  5
13c
100
AcDbEntity
  8
Layer_1
 62
1
100
AcDbPolyline
 90
3
 70
0
 10
117.399347
 20
24.610301
 30
0.0
 10
124.314849
 20
24.692201
 30
0.0
 10
123.026509
 20
27.054919
 30
0.0
  0
SPLINE
  5
13d
100
AcDbEntity
  8
Layer_1
 62
1
100
AcDbSpline
 70
8
 71
3
 72
8
 73
4
 74
0
 40
0
 40
0
 40
0
 40
0
 40
1
 40
1
 40
1
 40
1
 10
130.140039
 20
8.017000
 30
0.0
 10
130.262435
 20
8.120300
 30
0.0
 10
130.380691
 20
8.228214
 30
0.0
 10
130.494539
 20
8.340500
 30
0.0
  0
SPLINE
  5
13e
100
AcDbEntity
  8
Layer_1
 62
1
100
AcDbSpline
 70
8
 71
3
 72
8
 73
4
 74
0
 40
0
 40
0
 40
0
 40
0
 40
1
 40
1
 40
1
 40
1
 10
130.494539
 20
8.340500
 30
0.0
 10
130.639387
 20
8.486823
 30
0.0
 10
130.776675
 20
8.640148
 30
0.0
 10
130.905889
 20
8.799900
 30
0.0
  0
SPLINE
  5
13f
100
AcDbEntity
  8
Layer_1
 62
1
100
AcDbSpline
 70
8
 71
3
 72
8
 73
4
 74
0
 40
0
 40
0
 40
0
 40
0
 40
1
 40
1
 40
1
 40
1
 10
130.905889
 20
8.799900
 30
0.0
 10
131.035370
 20
8.959574
 30
0.0
 10
131.156615
 20
9.125493
 30
0.0
 10
131.269169
 20
9.297033
 30
0.0
  0
SPLINE
  5
140
100
AcDbEntity
  8
Layer_1
 62
1
100
AcDbSpline
 70
8
 71
3
 72
8
 73
4
 74
0
 40
0
 40
0
 40
0
 40
0
 40
1
 40
1
 40
1
 40
1
 10
131.269169
 20
9.297033
 30
0.0
 10
131.381479
 20
9.468595
 30
0.0
 10
131.484961
 20
9.645549
 30
0.0
 10
131.579229
 20
9.827233
 30
0.0
  0
SPLINE
  5
141
100
AcDbEntity
  8
Layer_1
 62
1
100
AcDbSpline
 70
8
 71
3
 72
8
 73
4
 74
0
 40
0
 40
0
 40
0
 40
0
 40
1
 40
1
 40
1
 40
1
 10
131.579229
 20
9.827233
 30
0.0
 10
131.673600
 20
10.008989
 30
0.0
 10
131.758630
 20
10.195255
 30
0.0
 10
131.833999
 20
10.385333
 30
0.0
  0
SPLINE
  5
142
100
AcDbEntity
  8
Layer_1
 62
1
100
AcDbSpline
 70
8
 71
3
 72
8
 73
4
 74
0
 40
0
 40
0
 40
0
 40
0
 40
1
 40
1
 40
1
 40
1
 10
131.833999
 20
10.385333
 30
0.0
 10
131.909450
 20
10.575269
 30
0.0
 10
131.975159
 20
10.768780
 30
0.0
 10
132.030879
 20
10.965143
 30
0.0
  0
SPLINE
  5
143
100
AcDbEntity
  8
Layer_1
 62
1
100
AcDbSpline
 70
8
 71
3
 72
8
 73
4
 74
0
 40
0
 40
0
 40
0
 40
0
 40
1
 40
1
 40
1
 40
1
 10
132.030879
 20
10.965143
 30
0.0
 10
132.034746
 20
10.981328
 30
0.0
 10
132.038546
 20
10.997528
 30
0.0
 10
132.042279
 20
11.013743
 30
0.0
  0
SPLINE
  5
144
100
AcDbEntity
  8
Layer_1
 62
1
100
AcDbSpline
 70
8
 71
3
 72
8
 73
4
 74
0
 40
0
 40
0
 40
0
 40
0
 40
1
 40
1
 40
1
 40
1
 10
132.042279
 20
11.013743
 30
0.0
 10
130.729449
 20
13.624683
 30
0.0
 10
129.000929
 20
17.070683
 30
0.0
 10
128.688479
 20
17.583883
 30
0.0
  0
SPLINE
  5
145
100
AcDbEntity
  8
Layer_1
 62
1
100
AcDbSpline
 70
8
 71
3
 72
8
 73
4
 74
0
 40
0
 40
0
 40
0
 40
0
 40
1
 40
1
 40
1
 40
1
 10
128.688479
 20
17.583883
 30
0.0
 10
128.565369
 20
17.786083
 30
0.0
 10
122.857829
 20
8.519350
 30
0.0
 10
122.857829
 20
8.117280
 30
0.0
  0
SPLINE
  5
146
100
AcDbEntity
  8
Layer_1
 62
1
100
AcDbSpline
 70
8
 71
3
 72
8
 73
4
 74
0
 40
0
 40
0
 40
0
 40
0
 40
1
 40
1
 40
1
 40
1
 10
122.857829
 20
8.117280
 30
0.0
 10
122.857829
 20
8.047980
 30
0.0
 10
125.252089
 20
7.991190
 30
0.0
 10
128.178439
 20
7.991190
 30
0.0
  0
SPLINE
  5
147
100
AcDbEntity
  8
Layer_1
 62
1
100
AcDbSpline
 70
8
 71
3
 72
8
 73
4
 74
0
 40
0
 40
0
 40
0
 40
0
 40
1
 40
1
 40
1
 40
1
 10
128.178439
 20
7.991190
 30
0.0
 10
128.942319
 20
7.991190
 30
0.0
 10
129.481819
 20
8.007690
 30
0.0
 10
130.140069
 20
8.016990
 30
0.0
  0
LWPOLYLINE
  5
148
100
AcDbEntity
  8
Layer_1
 62
1
100
AcDbPolyline
 90
5
 70
0
 10
88.602843
 20
25.319304
 30
0.0
 10
88.001260
 20
24.384597
 30
0.0
 10
94.956539
 20
24.384597
 30
0.0
 10
101.911847
 20
24.384597
 30
0.0
 10
101.230677
 20
25.606906
 30
0.0
  0
LWPOLYLINE
  5
149
100
AcDbEntity
  8
Layer_1
 62
1
100
AcDbPolyline
 90
1
 70
1
 10
130.140069
 20
8.016990
 30
0.0
  0
SPLINE
  5
14a
100
AcDbEntity
  8
Layer_1
 62
1
100
AcDbSpline
 70
8
 71
3
 72
8
 73
4
 74
0
 40
0
 40
0
 40
0
 40
0
 40
1
 40
1
 40
1
 40
1
 10
117.330097
 20
19.428878
 30
0.0
 10
113.679847
 20
19.471378
 30
0.0
 10
110.647927
 20
19.460878
 30
0.0
 10
110.592497
 20
19.405378
 30
0.0
  0
SPLINE
  5
14b
100
AcDbEntity
  8
Layer_1
 62
1
100
AcDbSpline
 70
8
 71
3
 72
8
 73
4
 74
0
 40
0
 40
0
 40
0
 40
0
 40
1
 40
1
 40
1
 40
1
 10
110.592497
 20
19.405378
 30
0.0
 10
110.537097
 20
19.349978
 30
0.0
 10
111.935567
 20
16.752773
 30
0.0
 10
113.700277
 20
13.633863
 30
0.0
  0
SPLINE
  5
14c
100
AcDbEntity
  8
Layer_1
 62
1
100
AcDbSpline
 70
8
 71
3
 72
8
 73
4
 74
0
 40
0
 40
0
 40
0
 40
0
 40
1
 40
1
 40
1
 40
1
 10
113.700277
 20
13.633863
 30
0.0
 10
116.310967
 20
9.019790
 30
0.0
 10
117.013167
 20
7.979160
 30
0.0
 10
117.468757
 20
8.049100
 30
0.0
  0
SPLINE
  5
14d
100
AcDbEntity
  8
Layer_1
 62
1
100
AcDbSpline
 70
8
 71
3
 72
8
 73
4
 74
0
 40
0
 40
0
 40
0
 40
0
 40
1
 40
1
 40
1
 40
1
 10
117.468757
 20
8.049100
 30
0.0
 10
117.872107
 20
8.111000
 30
0.0
 10
118.858959
 20
9.703323
 30
0.0
 10
120.997809
 20
13.743293
 30
0.0
  0
LWPOLYLINE
  5
14e
100
AcDbEntity
  8
Layer_1
 62
1
100
AcDbPolyline
 90
3
 70
0
 10
120.997809
 20
13.743323
 30
0.0
 10
123.966929
 20
19.351578
 30
0.0
 10
117.330097
 20
19.428878
 30
0.0
  0
SPLINE
  5
14f
100
AcDbEntity
  8
Layer_1
 62
1
100
AcDbSpline
 70
8
 71
3
 72
8
 73
4
 74
0
 40
0
 40
0
 40
0
 40
0
 40
1
 40
1
 40
1
 40
1
 10
109.087027
 20
12.377213
 30
0.0
 10
107.692877
 20
14.789473
 30
0.0
 10
106.424767
 20
16.999383
 30
0.0
 10
106.269017
 20
17.288093
 30
0.0
  0
SPLINE
  5
150
100
AcDbEntity
  8
Layer_1
 62
1
100
AcDbSpline
 70
8
 71
3
 72
8
 73
4
 74
0
 40
0
 40
0
 40
0
 40
0
 40
1
 40
1
 40
1
 40
1
 10
106.269017
 20
17.288093
 30
0.0
 10
106.032487
 20
17.726523
 30
0.0
 10
105.507567
 20
17.003653
 30
0.0
 10
103.084097
 20
12.902153
 30
0.0
  0
LWPOLYLINE
  5
151
100
AcDbEntity
  8
Layer_1
 62
1
100
AcDbPolyline
 90
1
 70
1
 10
120.997809
 20
13.743293
 30
0.0
  0
SPLINE
  5
152
100
AcDbEntity
  8
Layer_1
 62
1
100
AcDbSpline
 70
8
 71
3
 72
8
 73
4
 74
0
 40
0
 40
0
 40
0
 40
0
 40
1
 40
1
 40
1
 40
1
 10
98.587817
 20
13.496443
 30
0.0
 10
100.309897
 20
16.524293
 30
0.0
 10
101.762007
 20
19.112718
 30
0.0
 10
101.814737
 20
19.248508
 30
0.0
  0
SPLINE
  5
153
100
AcDbEntity
  8
Layer_1
 62
1
100
AcDbSpline
 70
8
 71
3
 72
8
 73
4
 74
0
 40
0
 40
0
 40
0
 40
0
 40
1
 40
1
 40
1
 40
1
 10
101.814737
 20
19.248508
 30
0.0
 10
101.867437
 20
19.384278
 30
0.0
 10
98.858417
 20
19.495368
 30
0.0
 10
95.127962
 20
19.495368
 30
0.0
  0
SPLINE
  5
154
100
AcDbEntity
  8
Layer_1
 62
1
100
AcDbSpline
 70
8
 71
3
 72
8
 73
4
 74
0
 40
0
 40
0
 40
0
 40
0
 40
1
 40
1
 40
1
 40
1
 10
95.127962
 20
19.495368
 30
0.0
 10
91.397524
 20
19.495368
 30
0.0
 10
88.345347
 20
19.446368
 30
0.0
 10
88.345347
 20
19.386568
 30
0.0
  0
SPLINE
  5
155
100
AcDbEntity
  8
Layer_1
 62
1
100
AcDbSpline
 70
8
 71
3
 72
8
 73
4
 74
0
 40
0
 40
0
 40
0
 40
0
 40
1
 40
1
 40
1
 40
1
 10
88.345347
 20
19.386568
 30
0.0
 10
88.345347
 20
19.326768
 30
0.0
 10
88.906870
 20
18.259013
 30
0.0
 10
89.593178
 20
17.013853
 30
0.0
  0
SPLINE
  5
156
100
AcDbEntity
  8
Layer_1
 62
1
100
AcDbSpline
 70
8
 71
3
 72
8
 73
4
 74
0
 40
0
 40
0
 40
0
 40
0
 40
1
 40
1
 40
1
 40
1
 10
89.593178
 20
17.013853
 30
0.0
 10
90.279482
 20
15.768683
 30
0.0
 10
91.468637
 20
13.520423
 30
0.0
 10
92.235740
 20
12.017703
 30
0.0
  0
SPLINE
  5
157
100
AcDbEntity
  8
Layer_1
 62
1
100
AcDbSpline
 70
8
 71
3
 72
8
 73
4
 74
0
 40
0
 40
0
 40
0
 40
0
 40
1
 40
1
 40
1
 40
1
 10
92.235740
 20
12.017703
 30
0.0
 10
94.078154
 20
8.408490
 30
0.0
 10
94.359814
 20
7.991270
 30
0.0
 10
94.953954
 20
7.991270
 30
0.0
  0
SPLINE
  5
158
100
AcDbEntity
  8
Layer_1
 62
1
100
AcDbSpline
 70
8
 71
3
 72
8
 73
4
 74
0
 40
0
 40
0
 40
0
 40
0
 40
1
 40
1
 40
1
 40
1
 10
94.953954
 20
7.991270
 30
0.0
 10
95.306074
 20
7.991270
 30
0.0
 10
96.395137
 20
9.641163
 30
0.0
 10
98.587817
 20
13.496443
 30
0.0
  0
LWPOLYLINE
  5
159
100
AcDbEntity
  8
Layer_1
 62
1
100
AcDbPolyline
 90
6
 70
0
 10
103.084097
 20
12.902153
 30
0.0
 10
100.182367
 20
7.991270
 30
0.0
 10
105.902117
 20
7.991270
 30
0.0
 10
111.621857
 20
7.991270
 30
0.0
 10
109.087027
 20
12.377203
 30
0.0
 10
109.087027
 20
12.377213
 30
0.0
  0
SPLINE
  5
15a
100
AcDbEntity
  8
Layer_1
 62
1
100
AcDbSpline
 70
8
 71
3
 72
8
 73
4
 74
0
 40
0
 40
0
 40
0
 40
0
 40
1
 40
1
 40
1
 40
1
 10
88.345347
 20
8.153210
 30
0.0
 10
88.345347
 20
8.418210
 30
0.0
 10
83.973948
 20
16.658273
 30
0.0
 10
83.883885
 20
16.563053
 30
0.0
  0
SPLINE
  5
15b
100
AcDbEntity
  8
Layer_1
 62
1
100
AcDbSpline
 70
8
 71
3
 72
8
 73
4
 74
0
 40
0
 40
0
 40
0
 40
0
 40
1
 40
1
 40
1
 40
1
 10
83.883885
 20
16.563053
 30
0.0
 10
83.763426
 20
16.435693
 30
0.0
 10
79.588985
 20
9.402493
 30
0.0
 10
79.180326
 20
8.638380
 30
0.0
  0
LWPOLYLINE
  5
15c
100
AcDbEntity
  8
Layer_1
 62
1
100
AcDbPolyline
 90
1
 70
1
 10
98.587817
 20
13.496443
 30
0.0
  0
SPLINE
  5
15d
100
AcDbEntity
  8
Layer_1
 62
1
100
AcDbSpline
 70
8
 71
3
 72
8
 73
4
 74
0
 40
0
 40
0
 40
0
 40
0
 40
1
 40
1
 40
1
 40
1
 10
83.589795
 20
7.991280
 30
0.0
 10
86.205349
 20
7.991270
 30
0.0
 10
88.345347
 20
8.064180
 30
0.0
 10
88.345347
 20
8.153200
 30
0.0
  0
LWPOLYLINE
  5
15e
100
AcDbEntity
  8
Layer_1
 62
1
100
AcDbPolyline
 90
3
 70
0
 10
79.180326
 20
8.638380
 30
0.0
 10
78.834240
 20
7.991280
 30
0.0
 10
83.589795
 20
7.991280
 30
0.0
  0
SPLINE
  5
15f
100
AcDbEntity
  8
Layer_1
 62
1
100
AcDbSpline
 70
8
 71
3
 72
8
 73
4
 74
0
 40
0
 40
0
 40
0
 40
0
 40
1
 40
1
 40
1
 40
1
 10
84.333459
 20
103.198951
 30
0.0
 10
81.453619
 20
103.331771
 30
0.0
 10
78.738908
 20
101.879147
 30
0.0
 10
77.297061
 20
99.433821
 30
0.0
  0
SPLINE
  5
160
100
AcDbEntity
  8
Layer_1
 62
1
100
AcDbSpline
 70
8
 71
3
 72
8
 73
4
 74
0
 40
0
 40
0
 40
0
 40
0
 40
1
 40
1
 40
1
 40
1
 10
77.297061
 20
99.433821
 30
0.0
 10
77.297061
 20
99.433821
 30
0.0
 10
25.388739
 20
11.371933
 30
0.0
 10
25.388739
 20
11.371933
 30
0.0
  0
SPLINE
  5
161
100
AcDbEntity
  8
Layer_1
 62
1
100
AcDbSpline
 70
8
 71
3
 72
8
 73
4
 74
0
 40
0
 40
0
 40
0
 40
0
 40
1
 40
1
 40
1
 40
1
 10
25.388739
 20
11.371933
 30
0.0
 10
24.012681
 20
9.036538
 30
0.0
 10
24.012927
 20
6.159558
 30
0.0
 10
25.389384
 20
3.824389
 30
0.0
  0
SPLINE
  5
162
100
AcDbEntity
  8
Layer_1
 62
1
100
AcDbSpline
 70
8
 71
3
 72
8
 73
4
 74
0
 40
0
 40
0
 40
0
 40
0
 40
1
 40
1
 40
1
 40
1
 10
25.389384
 20
3.824389
 30
0.0
 10
26.765841
 20
1.489219
 30
0.0
 10
29.309470
 20
0.050496
 30
0.0
 10
32.062408
 20
0.050003
 30
0.0
  0
SPLINE
  5
163
100
AcDbEntity
  8
Layer_1
 62
1
100
AcDbSpline
 70
8
 71
3
 72
8
 73
4
 74
0
 40
0
 40
0
 40
0
 40
0
 40
1
 40
1
 40
1
 40
1
 10
32.062408
 20
0.050003
 30
0.0
 10
32.062408
 20
0.050003
 30
0.0
 10
135.879059
 20
0.050003
 30
0.0
 10
135.879059
 20
0.050003
 30
0.0
  0
SPLINE
  5
164
100
AcDbEntity
  8
Layer_1
 62
1
100
AcDbSpline
 70
8
 71
3
 72
8
 73
4
 74
0
 40
0
 40
0
 40
0
 40
0
 40
1
 40
1
 40
1
 40
1
 10
135.879059
 20
0.050003
 30
0.0
 10
138.631997
 20
0.050495
 30
0.0
 10
141.175626
 20
1.489219
 30
0.0
 10
142.552083
 20
3.824388
 30
0.0
  0
SPLINE
  5
165
100
AcDbEntity
  8
Layer_1
 62
1
100
AcDbSpline
 70
8
 71
3
 72
8
 73
4
 74
0
 40
0
 40
0
 40
0
 40
0
 40
1
 40
1
 40
1
 40
1
 10
142.552083
 20
3.824388
 30
0.0
 10
143.928540
 20
6.159558
 30
0.0
 10
143.928786
 20
9.036538
 30
0.0
 10
142.552729
 20
11.371933
 30
0.0
  0
LWPOLYLINE
  5
166
100
AcDbEntity
  8
Layer_1
 62
1
100
AcDbPolyline
 90
1
 70
1
 10
88.345347
 20
8.153200
 30
0.0
  0
SPLINE
  5
167
100
AcDbEntity
  8
Layer_1
 62
1
100
AcDbSpline
 70
8
 71
3
 72
8
 73
4
 74
0
 40
0
 40
0
 40
0
 40
0
 40
1
 40
1
 40
1
 40
1
 10
90.644403
 20
99.433821
 30
0.0
 10
89.332234
 20
101.659235
 30
0.0
 10
86.954298
 20
103.077919
 30
0.0
 10
84.333459
 20
103.198951
 30
0.0
  0
LWPOLYLINE
  5
168
100
AcDbEntity
  8
Layer_1
 62
1
100
AcDbPolyline
 90
2
 70
0
 10
142.552729
 20
11.371933
 30
0.0
 10
90.644403
 20
99.433821
 30
0.0
  0
SPLINE
  5
169
100
AcDbEntity
  8
Layer_1
 62
7
100
AcDbSpline
 70
8
 71
3
 72
8
 73
4
 74
0
 40
0
 40
0
 40
0
 40
0
 40
1
 40
1
 40
1
 40
1
 10
84.038071
 20
98.164760
 30
0.0
 10
84.038071
 20
98.079696
 30
0.0
 10
83.992691
 20
98.001095
 30
0.0
 10
83.919024
 20
97.958563
 30
0.0
  0
SPLINE
  5
16a
100
AcDbEntity
  8
Layer_1
 62
7
100
AcDbSpline
 70
8
 71
3
 72
8
 73
4
 74
0
 40
0
 40
0
 40
0
 40
0
 40
1
 40
1
 40
1
 40
1
 10
83.919024
 20
97.958563
 30
0.0
 10
83.845357
 20
97.916031
 30
0.0
 10
83.754595
 20
97.916031
 30
0.0
 10
83.680928
 20
97.958563
 30
0.0
  0
SPLINE
  5
16b
100
AcDbEntity
  8
Layer_1
 62
7
100
AcDbSpline
 70
8
 71
3
 72
8
 73
4
 74
0
 40
0
 40
0
 40
0
 40
0
 40
1
 40
1
 40
1
 40
1
 10
83.680928
 20
97.958563
 30
0.0
 10
83.607261
 20
98.001095
 30
0.0
 10
83.561881
 20
98.079696
 30
0.0
 10
83.561881
 20
98.164760
 30
0.0
  0
SPLINE
  5
16c
100
AcDbEntity
  8
Layer_1
 62
7
100
AcDbSpline
 70
8
 71
3
 72
8
 73
4
 74
0
 40
0
 40
0
 40
0
 40
0
 40
1
 40
1
 40
1
 40
1
 10
83.561881
 20
98.164760
 30
0.0
 10
83.561881
 20
98.249823
 30
0.0
 10
83.607261
 20
98.328425
 30
0.0
 10
83.680928
 20
98.370956
 30
0.0
  0
SPLINE
  5
16d
100
AcDbEntity
  8
Layer_1
 62
7
100
AcDbSpline
 70
8
 71
3
 72
8
 73
4
 74
0
 40
0
 40
0
 40
0
 40
0
 40
1
 40
1
 40
1
 40
1
 10
83.680928
 20
98.370956
 30
0.0
 10
83.754595
 20
98.413488
 30
0.0
 10
83.845357
 20
98.413488
 30
0.0
 10
83.919024
 20
98.370956
 30
0.0
  0
SPLINE
  5
16e
100
AcDbEntity
  8
Layer_1
 62
7
100
AcDbSpline
 70
8
 71
3
 72
8
 73
4
 74
0
 40
0
 40
0
 40
0
 40
0
 40
1
 40
1
 40
1
 40
1
 10
83.919024
 20
98.370956
 30
0.0
 10
83.992691
 20
98.328425
 30
0.0
 10
84.038071
 20
98.249823
 30
0.0
 10
84.038071
 20
98.164760
 30
0.0
  0
LWPOLYLINE
  5
16f
100
AcDbEntity
  8
Layer_1
 62
1
100
AcDbPolyline
 90
1
 70
1
 10
84.333459
 20
103.198951
 30
0.0
  0
SPLINE
  5
170
100
AcDbEntity
  8
Layer_1
 62
7
100
AcDbSpline
 70
8
 71
3
 72
8
 73
4
 74
0
 40
0
 40
0
 40
0
 40
0
 40
1
 40
1
 40
1
 40
1
 10
138.220174
 20
6.027133
 30
0.0
 10
138.220174
 20
5.942070
 30
0.0
 10
138.174794
 20
5.863468
 30
0.0
 10
138.101127
 20
5.820937
 30
0.0
  0
SPLINE
  5
171
100
AcDbEntity
  8
Layer_1
 62
7
100
AcDbSpline
 70
8
 71
3
 72
8
 73
4
 74
0
 40
0
 40
0
 40
0
 40
0
 40
1
 40
1
 40
1
 40
1
 10
138.101127
 20
5.820937
 30
0.0
 10
138.027460
 20
5.778405
 30
0.0
 10
137.936698
 20
5.778405
 30
0.0
 10
137.863031
 20
5.820937
 30
0.0
  0
SPLINE
  5
172
100
AcDbEntity
  8
Layer_1
 62
7
100
AcDbSpline
 70
8
 71
3
 72
8
 73
4
 74
0
 40
0
 40
0
 40
0
 40
0
 40
1
 40
1
 40
1
 40
1
 10
137.863031
 20
5.820937
 30
0.0
 10
137.789364
 20
5.863468
 30
0.0
 10
137.743984
 20
5.942070
 30
0.0
 10
137.743984
 20
6.027133
 30
0.0
  0
SPLINE
  5
173
100
AcDbEntity
  8
Layer_1
 62
7
100
AcDbSpline
 70
8
 71
3
 72
8
 73
4
 74
0
 40
0
 40
0
 40
0
 40
0
 40
1
 40
1
 40
1
 40
1
 10
137.743984
 20
6.027133
 30
0.0
 10
137.743984
 20
6.112196
 30
0.0
 10
137.789364
 20
6.190798
 30
0.0
 10
137.863031
 20
6.233330
 30
0.0
  0
SPLINE
  5
174
100
AcDbEntity
  8
Layer_1
 62
7
100
AcDbSpline
 70
8
 71
3
 72
8
 73
4
 74
0
 40
0
 40
0
 40
0
 40
0
 40
1
 40
1
 40
1
 40
1
 10
137.863031
 20
6.233330
 30
0.0
 10
137.936698
 20
6.275861
 30
0.0
 10
138.027460
 20
6.275861
 30
0.0
 10
138.101127
 20
6.233330
 30
0.0
  0
SPLINE
  5
175
100
AcDbEntity
  8
Layer_1
 62
7
100
AcDbSpline
 70
8
 71
3
 72
8
 73
4
 74
0
 40
0
 40
0
 40
0
 40
0
 40
1
 40
1
 40
1
 40
1
 10
138.101127
 20
6.233330
 30
0.0
 10
138.174794
 20
6.190798
 30
0.0
 10
138.220174
 20
6.112196
 30
0.0
 10
138.220174
 20
6.027133
 30
0.0
  0
LWPOLYLINE
  5
176
100
AcDbEntity
  8
Layer_1
 62
7
100
AcDbPolyline
 90
1
 70
1
 10
84.038071
 20
98.164760
 30
0.0
  0
SPLINE
  5
177
100
AcDbEntity
  8
Layer_1
 62
7
100
AcDbSpline
 70
8
 71
3
 72
8
 73
4
 74
0
 40
0
 40
0
 40
0
 40
0
 40
1
 40
1
 40
1
 40
1
 10
30.191097
 20
5.814623
 30
0.0
 10
30.191097
 20
5.683127
 30
0.0
 10
30.084499
 20
5.576528
 30
0.0
 10
29.953002
 20
5.576528
 30
0.0
  0
SPLINE
  5
178
100
AcDbEntity
  8
Layer_1
 62
7
100
AcDbSpline
 70
8
 71
3
 72
8
 73
4
 74
0
 40
0
 40
0
 40
0
 40
0
 40
1
 40
1
 40
1
 40
1
 10
29.953002
 20
5.576528
 30
0.0
 10
29.821506
 20
5.576528
 30
0.0
 10
29.714907
 20
5.683127
 30
0.0
 10
29.714907
 20
5.814623
 30
0.0
  0
SPLINE
  5
179
100
AcDbEntity
  8
Layer_1
 62
7
100
AcDbSpline
 70
8
 71
3
 72
8
 73
4
 74
0
 40
0
 40
0
 40
0
 40
0
 40
1
 40
1
 40
1
 40
1
 10
29.714907
 20
5.814623
 30
0.0
 10
29.714907
 20
5.899686
 30
0.0
 10
29.760288
 20
5.978288
 30
0.0
 10
29.833955
 20
6.020820
 30
0.0
  0
SPLINE
  5
17a
100
AcDbEntity
  8
Layer_1
 62
7
100
AcDbSpline
 70
8
 71
3
 72
8
 73
4
 74
0
 40
0
 40
0
 40
0
 40
0
 40
1
 40
1
 40
1
 40
1
 10
29.833955
 20
6.020820
 30
0.0
 10
29.907622
 20
6.063351
 30
0.0
 10
29.998383
 20
6.063351
 30
0.0
 10
30.072050
 20
6.020820
 30
0.0
  0
SPLINE
  5
17b
100
AcDbEntity
  8
Layer_1
 62
7
100
AcDbSpline
 70
8
 71
3
 72
8
 73
4
 74
0
 40
0
 40
0
 40
0
 40
0
 40
1
 40
1
 40
1
 40
1
 10
30.072050
 20
6.020820
 30
0.0
 10
30.145717
 20
5.978288
 30
0.0
 10
30.191097
 20
5.899686
 30
0.0
 10
30.191097
 20
5.814623
 30
0.0
  0
LWPOLYLINE
  5
17c
100
AcDbEntity
  8
Layer_1
 62
7
100
AcDbPolyline
 90
1
 70
1
 10
138.220174
 20
6.027133
 30
0.0
  0
LWPOLYLINE
  5
17d
100
AcDbEntity
  8
Layer_1
 62
7
100
AcDbPolyline
 90
1
 70
1
 10
30.191097
 20
5.814623
 30
0.0
  0
LWPOLYLINE
  5
17e
100
AcDbEntity
  8
Layer_1
 62
1
100
AcDbPolyline
 90
4
 70
1
 10
48.292017
 20
14.574523
 30
0.0
 10
39.503528
 20
9.500486
 30
0.0
 10
37.929491
 20
12.226798
 30
0.0
 10
46.717980
 20
17.300835
 30
0.0
  0
LWPOLYLINE
  5
17f
100
AcDbEntity
  8
Layer_1
 62
5
100
AcDbPolyline
 90
2
 70
0
 10
57.117821
 20
97.087863
 30
0.0
 10
57.117821
 20
102.102863
 30
0.0
  0
SPLINE
  5
180
100
AcDbEntity
  8
Layer_1
 62
1
100
AcDbSpline
 70
8
 71
3
 72
8
 73
4
 74
0
 40
0
 40
0
 40
0
 40
0
 40
1
 40
1
 40
1
 40
1
 10
41.979961
 20
99.007183
 30
0.0
 10
42.581537
 20
100.057823
 30
0.0
 10
43.182931
 20
101.108143
 30
0.0
 10
44.080541
 20
101.634313
 30
0.0
  0
SPLINE
  5
181
100
AcDbEntity
  8
Layer_1
 62
1
100
AcDbSpline
 70
8
 71
3
 72
8
 73
4
 74
0
 40
0
 40
0
 40
0
 40
0
 40
1
 40
1
 40
1
 40
1
 10
44.080541
 20
101.634313
 30
0.0
 10
44.978150
 20
102.160473
 30
0.0
 10
46.172605
 20
102.162813
 30
0.0
 10
47.366439
 20
102.165143
 30
0.0
  0
SPLINE
  5
182
100
AcDbEntity
  8
Layer_1
 62
1
100
AcDbSpline
 70
8
 71
3
 72
8
 73
4
 74
0
 40
0
 40
0
 40
0
 40
0
 40
1
 40
1
 40
1
 40
1
 10
46.128170
 20
94.487493
 30
0.0
 10
46.399454
 20
95.378023
 30
0.0
 10
46.670644
 20
96.268243
 30
0.0
 10
47.382523
 20
96.691163
 30
0.0
  0
SPLINE
  5
183
100
AcDbEntity
  8
Layer_1
 62
1
100
AcDbSpline
 70
8
 71
3
 72
8
 73
4
 74
0
 40
0
 40
0
 40
0
 40
0
 40
1
 40
1
 40
1
 40
1
 10
47.382523
 20
96.691163
 30
0.0
 10
48.094403
 20
97.114083
 30
0.0
 10
49.247636
 20
97.070003
 30
0.0
 10
50.400204
 20
97.025953
 30
0.0
  0
LWPOLYLINE
  5
184
100
AcDbEntity
  8
Layer_1
 62
1
100
AcDbPolyline
 90
6
 70
0
 10
0.120397
 20
7.078553
 30
0.0
 10
5.141408
 20
7.078553
 30
0.0
 10
5.141408
 20
4.031823
 30
0.0
 10
15.233314
 20
4.031823
 30
0.0
 10
15.233314
 20
7.065583
 30
0.0
 10
20.120396
 20
7.078583
 30
0.0
  0
LWPOLYLINE
  5
185
100
AcDbEntity
  8
Layer_1
 62
1
100
AcDbPolyline
 90
4
 70
0
 10
47.366439
 20
102.165143
 30
0.0
 10
66.941737
 20
102.158143
 30
0.0
 10
66.941737
 20
97.158143
 30
0.0
 10
50.400204
 20
97.025953
 30
0.0
  0
LWPOLYLINE
  5
186
100
AcDbEntity
  8
Layer_1
 62
1
100
AcDbPolyline
 90
2
 70
0
 10
0.120397
 20
7.078553
 30
0.0
 10
41.979961
 20
99.007183
 30
0.0
  0
LWPOLYLINE
  5
187
100
AcDbEntity
  8
Layer_1
 62
1
100
AcDbPolyline
 90
2
 70
0
 10
20.120396
 20
7.078553
 30
0.0
 10
46.128170
 20
94.487493
 30
0.0
  0
ENDSEC
  0
SECTION
  2
OBJECTS
  0
DICTIONARY
  5
C
330
0
100
AcDbDictionary
  3
ACAD_GROUP
350
D
  3
ACAD_MLINESTYLE
350
17
  0
DICTIONARY
  5
D
330
C
100
AcDbDictionary
  0
DICTIONARY
  5
1A
330
C
100
AcDbDictionary
  0
DICTIONARY
  5
17
330
C
100
AcDbDictionary
  3
STANDARD
350
18
  0
DICTIONARY
  5
19
330
C
100
AcDbDictionary
  0
ENDSEC
  0
EOF
