  0
SECTION
  2
HEADER
  9
$ACADVER
  1
AC1014
  9
$HANDSEED
  5
FFFF
  9
$MEASUREMENT
 70
     1
  0
ENDSEC
  0
SECTION
  2
TABLES
  0
TABLE
  2
VPORT
  5
8
330
0
100
AcDbSymbolTable
 70
     4
  0
VPORT
  5
2E
330
8
100
AcDbSymbolTableRecord
100
AcDbViewportTableRecord
  2
*ACTIVE
 70
     0
 10
0.0
 20
0.0
 11
1.0
 21
1.0
 12
210.0
 22
148.5
 13
0.0
 23
0.0
 14
10.0
 24
10.0
 15
10.0
 25
10.0
 16
0.0
 26
0.0
 36
1.0
 17
0.0
 27
0.0
 37
0.0
 40
341.0
 41
1.24
 42
50.0
 43
0.0
 44
0.0
 50
0.0
 51
0.0
 71
     0
 72
   100
 73
     1
 74
     3
 75
     0
 76
     0
 77
     0
 78
     0
  0
ENDTAB
  0
TABLE
  2
LTYPE
  5
5
330
0
100
AcDbSymbolTable
 70
     1
  0
LTYPE
  5
14
330
5
100
AcDbSymbolTableRecord
100
AcDbLinetypeTableRecord
  2
BYBLOCK
 70
     0
  3

 72
    65
 73
     0
 40
0.0
  0
LTYPE
  5
15
330
5
100
AcDbSymbolTableRecord
100
AcDbLinetypeTableRecord
  2
BYLAYER
 70
     0
  3

 72
    65
 73
     0
 40
0.0
  0
LTYPE
  5
16
330
5
100
AcDbSymbolTableRecord
100
AcDbLinetypeTableRecord
  2
CONTINUOUS
 70
     0
  3
Solid line
 72
    65
 73
     0
 40
0.0
  0
ENDTAB
  0
TABLE
  2
LAYER
  5
2
100
AcDbSymbolTable
 70
2
  0
LAYER
  5
50
100
AcDbSymbolTableRecord
100
AcDbLayerTableRecord
  2
0
 70
0
  6
CONTINUOUS
  0
LAYER
  5
51
100
AcDbSymbolTableRecord
100
AcDbLayerTableRecord
  2
Layer_1
 70
0
  6
CONTINUOUS
  0
ENDTAB
  0
TABLE
  2
STYLE
  5
3
330
0
100
AcDbSymbolTable
 70
     1
  0
STYLE
  5
11
330
3
100
AcDbSymbolTableRecord
100
AcDbTextStyleTableRecord
  2
STANDARD
 70
     0
 40
0.0
 41
1.0
 50
0.0
 71
     0
 42
2.5
  3
txt
  4

  0
ENDTAB
  0
TABLE
  2
VIEW
  5
6
330
0
100
AcDbSymbolTable
 70
     0
  0
ENDTAB
  0
TABLE
  2
UCS
  5
7
330
0
100
AcDbSymbolTable
 70
     0
  0
ENDTAB
  0
TABLE
  2
APPID
  5
9
330
0
100
AcDbSymbolTable
 70
     2
  0
APPID
  5
12
330
9
100
AcDbSymbolTableRecord
100
AcDbRegAppTableRecord
  2
ACAD
 70
     0
  0
ENDTAB
  0
TABLE
  2
DIMSTYLE
  5
A
330
0
100
AcDbSymbolTable
 70
     1
  0
DIMSTYLE
105
27
330
A
100
AcDbSymbolTableRecord
100
AcDbDimStyleTableRecord
  2
ISO-25
 70
     0
  3

  4

  5

  6

  7

 40
1.0
 41
2.5
 42
0.625
 43
3.75
 44
1.25
 45
0.0
 46
0.0
 47
0.0
 48
0.0
140
2.5
141
2.5
142
0.0
143
0.03937007874016
144
1.0
145
0.0
146
1.0
147
0.625
 71
     0
 72
     0
 73
     0
 74
     0
 75
     0
 76
     0
 77
     1
 78
     8
170
     0
171
     3
172
     1
173
     0
174
     0
175
     0
176
     0
177
     0
178
     0
270
     2
271
     2
272
     2
273
     2
274
     3
340
11
275
     0
280
     0
281
     0
282
     0
283
     0
284
     8
285
     0
286
     0
287
     3
288
     0
  0
ENDTAB
  0
TABLE
  2
BLOCK_RECORD
  5
1
330
0
100
AcDbSymbolTable
 70
     1
  0
BLOCK_RECORD
  5
1F
330
1
100
AcDbSymbolTableRecord
100
AcDbBlockTableRecord
  2
*MODEL_SPACE
  0
BLOCK_RECORD
  5
1B
330
1
100
AcDbSymbolTableRecord
100
AcDbBlockTableRecord
  2
*PAPER_SPACE
  0
ENDTAB
  0
ENDSEC
  0
SECTION
  2
BLOCKS
  0
BLOCK
  5
20
330
1F
100
AcDbEntity
  8
0
100
AcDbBlockBegin
  2
*MODEL_SPACE
 70
     0
 10
0.0
 20
0.0
 30
0.0
  3
*MODEL_SPACE
  1

  0
ENDBLK
  5
21
330
1F
100
AcDbEntity
  8
0
100
AcDbBlockEnd
  0
BLOCK
  5
1C
330
1B
100
AcDbEntity
 67
     1
  8
0
100
AcDbBlockBegin
  2
*PAPER_SPACE
  1

  0
ENDBLK
  5
1D
330
1B
100
AcDbEntity
 67
     1
  8
0
100
AcDbBlockEnd
  0
ENDSEC
  0
SECTION
  2
ENTITIES
  0
SPLINE
  5
100
100
AcDbEntity
  8
Layer_1
 62
3
100
AcDbSpline
 70
8
 71
3
 72
8
 73
4
 74
0
 40
0
 40
0
 40
0
 40
0
 40
1
 40
1
 40
1
 40
1
 10
26.080815
 20
-5.903122
 30
0.0
 10
26.369261
 20
-5.917061
 30
0.0
 10
26.636722
 20
-6.373435
 30
0.0
 10
26.695673
 20
-6.974580
 30
0.0
  0
LINE
  5
101
100
AcDbEntity
  8
Layer_1
 62
3
100
AcDbLine
 10
26.695673
 20
-6.974580
 30
0.0
 11
26.719069
 21
-7.213176
 31
0.0
  0
SPLINE
  5
102
100
AcDbEntity
  8
Layer_1
 62
3
100
AcDbSpline
 70
8
 71
3
 72
8
 73
4
 74
0
 40
0
 40
0
 40
0
 40
0
 40
1
 40
1
 40
1
 40
1
 10
26.719069
 20
-7.213176
 30
0.0
 10
26.781950
 20
-7.854397
 30
0.0
 10
26.583177
 20
-8.410454
 30
0.0
 10
26.273394
 20
-8.459907
 30
0.0
  0
SPLINE
  5
103
100
AcDbEntity
  8
Layer_1
 62
3
100
AcDbSpline
 70
8
 71
3
 72
8
 73
4
 74
0
 40
0
 40
0
 40
0
 40
0
 40
1
 40
1
 40
1
 40
1
 10
26.273394
 20
-8.459907
 30
0.0
 10
25.963608
 20
-8.509359
 30
0.0
 10
25.663602
 20
-8.032956
 30
0.0
 10
25.600723
 20
-7.391736
 30
0.0
  0
LINE
  5
104
100
AcDbEntity
  8
Layer_1
 62
3
100
AcDbLine
 10
25.600723
 20
-7.391736
 30
0.0
 11
25.577230
 21
-7.153043
 31
0.0
  0
SPLINE
  5
105
100
AcDbEntity
  8
Layer_1
 62
3
100
AcDbSpline
 70
8
 71
3
 72
8
 73
4
 74
0
 40
0
 40
0
 40
0
 40
0
 40
1
 40
1
 40
1
 40
1
 10
25.577230
 20
-7.153043
 30
0.0
 10
25.514351
 20
-6.511823
 30
0.0
 10
25.713126
 20
-5.955861
 30
0.0
 10
26.022906
 20
-5.906409
 30
0.0
  0
SPLINE
  5
106
100
AcDbEntity
  8
Layer_1
 62
3
100
AcDbSpline
 70
8
 71
3
 72
8
 73
4
 74
0
 40
0
 40
0
 40
0
 40
0
 40
1
 40
1
 40
1
 40
1
 10
26.022906
 20
-5.906409
 30
0.0
 10
26.042267
 20
-5.903326
 30
0.0
 10
26.061585
 20
-5.902186
 30
0.0
 10
26.080815
 20
-5.903122
 30
0.0
  0
LINE
  5
107
100
AcDbEntity
  8
Layer_1
 62
3
100
AcDbLine
 10
26.080815
 20
-5.903122
 30
0.0
 11
26.080815
 21
-5.903122
 31
0.0
  0
SPLINE
  5
108
100
AcDbEntity
  8
Layer_1
 62
3
100
AcDbSpline
 70
8
 71
3
 72
8
 73
4
 74
0
 40
0
 40
0
 40
0
 40
0
 40
1
 40
1
 40
1
 40
1
 10
13.890478
 20
-5.903122
 30
0.0
 10
13.909708
 20
-5.902187
 30
0.0
 10
13.929025
 20
-5.903328
 30
0.0
 10
13.948387
 20
-5.906409
 30
0.0
  0
SPLINE
  5
109
100
AcDbEntity
  8
Layer_1
 62
3
100
AcDbSpline
 70
8
 71
3
 72
8
 73
4
 74
0
 40
0
 40
0
 40
0
 40
0
 40
1
 40
1
 40
1
 40
1
 10
13.948387
 20
-5.906409
 30
0.0
 10
14.258166
 20
-5.955861
 30
0.0
 10
14.456944
 20
-6.511823
 30
0.0
 10
14.394062
 20
-7.153044
 30
0.0
  0
LINE
  5
10a
100
AcDbEntity
  8
Layer_1
 62
3
100
AcDbLine
 10
14.394062
 20
-7.153044
 30
0.0
 11
14.370570
 21
-7.391736
 31
0.0
  0
SPLINE
  5
10b
100
AcDbEntity
  8
Layer_1
 62
3
100
AcDbSpline
 70
8
 71
3
 72
8
 73
4
 74
0
 40
0
 40
0
 40
0
 40
0
 40
1
 40
1
 40
1
 40
1
 10
14.370570
 20
-7.391736
 30
0.0
 10
14.307690
 20
-8.032957
 30
0.0
 10
14.007684
 20
-8.509359
 30
0.0
 10
13.697900
 20
-8.459907
 30
0.0
  0
SPLINE
  5
10c
100
AcDbEntity
  8
Layer_1
 62
3
100
AcDbSpline
 70
8
 71
3
 72
8
 73
4
 74
0
 40
0
 40
0
 40
0
 40
0
 40
1
 40
1
 40
1
 40
1
 10
13.697900
 20
-8.459907
 30
0.0
 10
13.388116
 20
-8.410454
 30
0.0
 10
13.189343
 20
-7.854397
 30
0.0
 10
13.252224
 20
-7.213176
 30
0.0
  0
LINE
  5
10d
100
AcDbEntity
  8
Layer_1
 62
3
100
AcDbLine
 10
13.252224
 20
-7.213176
 30
0.0
 11
13.275620
 21
-6.974580
 31
0.0
  0
SPLINE
  5
10e
100
AcDbEntity
  8
Layer_1
 62
3
100
AcDbSpline
 70
8
 71
3
 72
8
 73
4
 74
0
 40
0
 40
0
 40
0
 40
0
 40
1
 40
1
 40
1
 40
1
 10
13.275620
 20
-6.974580
 30
0.0
 10
13.334571
 20
-6.373436
 30
0.0
 10
13.602033
 20
-5.917062
 30
0.0
 10
13.890478
 20
-5.903122
 30
0.0
  0
LINE
  5
10f
100
AcDbEntity
  8
Layer_1
 62
3
100
AcDbLine
 10
13.890478
 20
-5.903122
 30
0.0
 11
13.890478
 21
-5.903122
 31
0.0
  0
SPLINE
  5
110
100
AcDbEntity
  8
Layer_1
 62
3
100
AcDbSpline
 70
8
 71
3
 72
8
 73
4
 74
0
 40
0
 40
0
 40
0
 40
0
 40
1
 40
1
 40
1
 40
1
 10
28.500708
 20
-5.213243
 30
0.0
 10
28.789154
 20
-5.227183
 30
0.0
 10
29.056516
 20
-5.683460
 30
0.0
 10
29.115468
 20
-6.284605
 30
0.0
  0
LINE
  5
111
100
AcDbEntity
  8
Layer_1
 62
3
100
AcDbLine
 10
29.115468
 20
-6.284605
 30
0.0
 11
29.138864
 21
-6.523201
 31
0.0
  0
SPLINE
  5
112
100
AcDbEntity
  8
Layer_1
 62
3
100
AcDbSpline
 70
8
 71
3
 72
8
 73
4
 74
0
 40
0
 40
0
 40
0
 40
0
 40
1
 40
1
 40
1
 40
1
 10
29.138864
 20
-6.523201
 30
0.0
 10
29.201746
 20
-7.164421
 30
0.0
 10
29.002972
 20
-7.720479
 30
0.0
 10
28.693188
 20
-7.769932
 30
0.0
  0
SPLINE
  5
113
100
AcDbEntity
  8
Layer_1
 62
3
100
AcDbSpline
 70
8
 71
3
 72
8
 73
4
 74
0
 40
0
 40
0
 40
0
 40
0
 40
1
 40
1
 40
1
 40
1
 10
28.693188
 20
-7.769932
 30
0.0
 10
28.383403
 20
-7.819384
 30
0.0
 10
28.083400
 20
-7.342981
 30
0.0
 10
28.020519
 20
-6.701761
 30
0.0
  0
LINE
  5
114
100
AcDbEntity
  8
Layer_1
 62
3
100
AcDbLine
 10
28.020519
 20
-6.701761
 30
0.0
 11
27.997122
 21
-6.463068
 31
0.0
  0
SPLINE
  5
115
100
AcDbEntity
  8
Layer_1
 62
3
100
AcDbSpline
 70
8
 71
3
 72
8
 73
4
 74
0
 40
0
 40
0
 40
0
 40
0
 40
1
 40
1
 40
1
 40
1
 10
27.997122
 20
-6.463068
 30
0.0
 10
27.934241
 20
-5.821848
 30
0.0
 10
28.133015
 20
-5.265886
 30
0.0
 10
28.442799
 20
-5.216434
 30
0.0
  0
SPLINE
  5
116
100
AcDbEntity
  8
Layer_1
 62
3
100
AcDbSpline
 70
8
 71
3
 72
8
 73
4
 74
0
 40
0
 40
0
 40
0
 40
0
 40
1
 40
1
 40
1
 40
1
 10
28.442799
 20
-5.216434
 30
0.0
 10
28.462160
 20
-5.213339
 30
0.0
 10
28.481478
 20
-5.212305
 30
0.0
 10
28.500708
 20
-5.213240
 30
0.0
  0
LINE
  5
117
100
AcDbEntity
  8
Layer_1
 62
3
100
AcDbLine
 10
28.500708
 20
-5.213240
 30
0.0
 11
28.500708
 21
-5.213243
 31
0.0
  0
SPLINE
  5
118
100
AcDbEntity
  8
Layer_1
 62
3
100
AcDbSpline
 70
8
 71
3
 72
8
 73
4
 74
0
 40
0
 40
0
 40
0
 40
0
 40
1
 40
1
 40
1
 40
1
 10
11.470586
 20
-5.213243
 30
0.0
 10
11.489815
 20
-5.212308
 30
0.0
 10
11.509133
 20
-5.213342
 30
0.0
 10
11.528494
 20
-5.216437
 30
0.0
  0
SPLINE
  5
119
100
AcDbEntity
  8
Layer_1
 62
3
100
AcDbSpline
 70
8
 71
3
 72
8
 73
4
 74
0
 40
0
 40
0
 40
0
 40
0
 40
1
 40
1
 40
1
 40
1
 10
11.528494
 20
-5.216437
 30
0.0
 10
11.838279
 20
-5.265889
 30
0.0
 10
12.037051
 20
-5.821851
 30
0.0
 10
11.974170
 20
-6.463072
 30
0.0
  0
LINE
  5
11a
100
AcDbEntity
  8
Layer_1
 62
3
100
AcDbLine
 10
11.974170
 20
-6.463072
 30
0.0
 11
11.950774
 21
-6.701764
 31
0.0
  0
SPLINE
  5
11b
100
AcDbEntity
  8
Layer_1
 62
3
100
AcDbSpline
 70
8
 71
3
 72
8
 73
4
 74
0
 40
0
 40
0
 40
0
 40
0
 40
1
 40
1
 40
1
 40
1
 10
11.950774
 20
-6.701764
 30
0.0
 10
11.887893
 20
-7.342984
 30
0.0
 10
11.587888
 20
-7.819388
 30
0.0
 10
11.278104
 20
-7.769935
 30
0.0
  0
SPLINE
  5
11c
100
AcDbEntity
  8
Layer_1
 62
3
100
AcDbSpline
 70
8
 71
3
 72
8
 73
4
 74
0
 40
0
 40
0
 40
0
 40
0
 40
1
 40
1
 40
1
 40
1
 10
11.278104
 20
-7.769935
 30
0.0
 10
10.968320
 20
-7.720483
 30
0.0
 10
10.769548
 20
-7.164424
 30
0.0
 10
10.832428
 20
-6.523204
 30
0.0
  0
LINE
  5
11d
100
AcDbEntity
  8
Layer_1
 62
3
100
AcDbLine
 10
10.832428
 20
-6.523204
 30
0.0
 11
10.855824
 21
-6.284608
 31
0.0
  0
SPLINE
  5
11e
100
AcDbEntity
  8
Layer_1
 62
3
100
AcDbSpline
 70
8
 71
3
 72
8
 73
4
 74
0
 40
0
 40
0
 40
0
 40
0
 40
1
 40
1
 40
1
 40
1
 10
10.855824
 20
-6.284608
 30
0.0
 10
10.914775
 20
-5.683463
 30
0.0
 10
11.182140
 20
-5.227187
 30
0.0
 10
11.470586
 20
-5.213247
 30
0.0
  0
LINE
  5
11f
100
AcDbEntity
  8
Layer_1
 62
3
100
AcDbLine
 10
11.470586
 20
-5.213247
 30
0.0
 11
11.470586
 21
-5.213243
 31
0.0
  0
SPLINE
  5
120
100
AcDbEntity
  8
Layer_1
 62
3
100
AcDbSpline
 70
8
 71
3
 72
8
 73
4
 74
0
 40
0
 40
0
 40
0
 40
0
 40
1
 40
1
 40
1
 40
1
 10
30.777616
 20
-4.619267
 30
0.0
 10
31.066062
 20
-4.633206
 30
0.0
 10
31.333428
 20
-5.089484
 30
0.0
 10
31.392377
 20
-5.690629
 30
0.0
  0
LINE
  5
121
100
AcDbEntity
  8
Layer_1
 62
3
100
AcDbLine
 10
31.392377
 20
-5.690629
 30
0.0
 11
31.415773
 21
-5.929224
 31
0.0
  0
SPLINE
  5
122
100
AcDbEntity
  8
Layer_1
 62
3
100
AcDbSpline
 70
8
 71
3
 72
8
 73
4
 74
0
 40
0
 40
0
 40
0
 40
0
 40
1
 40
1
 40
1
 40
1
 10
31.415773
 20
-5.929224
 30
0.0
 10
31.478654
 20
-6.570445
 30
0.0
 10
31.279882
 20
-7.126503
 30
0.0
 10
30.970098
 20
-7.175956
 30
0.0
  0
SPLINE
  5
123
100
AcDbEntity
  8
Layer_1
 62
3
100
AcDbSpline
 70
8
 71
3
 72
8
 73
4
 74
0
 40
0
 40
0
 40
0
 40
0
 40
1
 40
1
 40
1
 40
1
 10
30.970098
 20
-7.175956
 30
0.0
 10
30.660314
 20
-7.225408
 30
0.0
 10
30.360308
 20
-6.749005
 30
0.0
 10
30.297427
 20
-6.107785
 30
0.0
  0
LINE
  5
124
100
AcDbEntity
  8
Layer_1
 62
3
100
AcDbLine
 10
30.297427
 20
-6.107785
 30
0.0
 11
30.274031
 21
-5.869092
 31
0.0
  0
SPLINE
  5
125
100
AcDbEntity
  8
Layer_1
 62
3
100
AcDbSpline
 70
8
 71
3
 72
8
 73
4
 74
0
 40
0
 40
0
 40
0
 40
0
 40
1
 40
1
 40
1
 40
1
 10
30.274031
 20
-5.869092
 30
0.0
 10
30.211152
 20
-5.227872
 30
0.0
 10
30.409923
 20
-4.671910
 30
0.0
 10
30.719707
 20
-4.622457
 30
0.0
  0
SPLINE
  5
126
100
AcDbEntity
  8
Layer_1
 62
3
100
AcDbSpline
 70
8
 71
3
 72
8
 73
4
 74
0
 40
0
 40
0
 40
0
 40
0
 40
1
 40
1
 40
1
 40
1
 10
30.719707
 20
-4.622457
 30
0.0
 10
30.739070
 20
-4.619363
 30
0.0
 10
30.758386
 20
-4.618329
 30
0.0
 10
30.777616
 20
-4.619264
 30
0.0
  0
LINE
  5
127
100
AcDbEntity
  8
Layer_1
 62
3
100
AcDbLine
 10
30.777616
 20
-4.619264
 30
0.0
 11
30.777616
 21
-4.619267
 31
0.0
  0
SPLINE
  5
128
100
AcDbEntity
  8
Layer_1
 62
3
100
AcDbSpline
 70
8
 71
3
 72
8
 73
4
 74
0
 40
0
 40
0
 40
0
 40
0
 40
1
 40
1
 40
1
 40
1
 10
9.193677
 20
-4.619267
 30
0.0
 10
9.212907
 20
-4.618332
 30
0.0
 10
9.232224
 20
-4.619366
 30
0.0
 10
9.251585
 20
-4.622461
 30
0.0
  0
SPLINE
  5
129
100
AcDbEntity
  8
Layer_1
 62
3
100
AcDbSpline
 70
8
 71
3
 72
8
 73
4
 74
0
 40
0
 40
0
 40
0
 40
0
 40
1
 40
1
 40
1
 40
1
 10
9.251585
 20
-4.622461
 30
0.0
 10
9.561370
 20
-4.671913
 30
0.0
 10
9.760142
 20
-5.227875
 30
0.0
 10
9.697261
 20
-5.869095
 30
0.0
  0
LINE
  5
12a
100
AcDbEntity
  8
Layer_1
 62
3
100
AcDbLine
 10
9.697261
 20
-5.869095
 30
0.0
 11
9.673865
 21
-6.107788
 31
0.0
  0
SPLINE
  5
12b
100
AcDbEntity
  8
Layer_1
 62
3
100
AcDbSpline
 70
8
 71
3
 72
8
 73
4
 74
0
 40
0
 40
0
 40
0
 40
0
 40
1
 40
1
 40
1
 40
1
 10
9.673865
 20
-6.107788
 30
0.0
 10
9.610985
 20
-6.749008
 30
0.0
 10
9.310979
 20
-7.225411
 30
0.0
 10
9.001195
 20
-7.175959
 30
0.0
  0
SPLINE
  5
12c
100
AcDbEntity
  8
Layer_1
 62
3
100
AcDbSpline
 70
8
 71
3
 72
8
 73
4
 74
0
 40
0
 40
0
 40
0
 40
0
 40
1
 40
1
 40
1
 40
1
 10
9.001195
 20
-7.175959
 30
0.0
 10
8.691411
 20
-7.126506
 30
0.0
 10
8.492639
 20
-6.570448
 30
0.0
 10
8.555520
 20
-5.929228
 30
0.0
  0
LINE
  5
12d
100
AcDbEntity
  8
Layer_1
 62
3
100
AcDbLine
 10
8.555520
 20
-5.929228
 30
0.0
 11
8.578915
 21
-5.690632
 31
0.0
  0
SPLINE
  5
12e
100
AcDbEntity
  8
Layer_1
 62
3
100
AcDbSpline
 70
8
 71
3
 72
8
 73
4
 74
0
 40
0
 40
0
 40
0
 40
0
 40
1
 40
1
 40
1
 40
1
 10
8.578915
 20
-5.690632
 30
0.0
 10
8.637866
 20
-5.089487
 30
0.0
 10
8.905231
 20
-4.633210
 30
0.0
 10
9.193677
 20
-4.619270
 30
0.0
  0
LINE
  5
12f
100
AcDbEntity
  8
Layer_1
 62
3
100
AcDbLine
 10
9.193677
 20
-4.619270
 30
0.0
 11
9.193677
 21
-4.619267
 31
0.0
  0
SPLINE
  5
130
100
AcDbEntity
  8
Layer_1
 62
3
100
AcDbSpline
 70
8
 71
3
 72
8
 73
4
 74
0
 40
0
 40
0
 40
0
 40
0
 40
1
 40
1
 40
1
 40
1
 10
32.984145
 20
-3.969316
 30
0.0
 10
33.272591
 20
-3.983255
 30
0.0
 10
33.539955
 20
-4.439532
 30
0.0
 10
33.598906
 20
-5.040677
 30
0.0
  0
LINE
  5
131
100
AcDbEntity
  8
Layer_1
 62
3
100
AcDbLine
 10
33.598906
 20
-5.040677
 30
0.0
 11
33.622302
 21
-5.279273
 31
0.0
  0
SPLINE
  5
132
100
AcDbEntity
  8
Layer_1
 62
3
100
AcDbSpline
 70
8
 71
3
 72
8
 73
4
 74
0
 40
0
 40
0
 40
0
 40
0
 40
1
 40
1
 40
1
 40
1
 10
33.622302
 20
-5.279273
 30
0.0
 10
33.685183
 20
-5.920493
 30
0.0
 10
33.486411
 20
-6.476552
 30
0.0
 10
33.176627
 20
-6.526004
 30
0.0
  0
SPLINE
  5
133
100
AcDbEntity
  8
Layer_1
 62
3
100
AcDbSpline
 70
8
 71
3
 72
8
 73
4
 74
0
 40
0
 40
0
 40
0
 40
0
 40
1
 40
1
 40
1
 40
1
 10
33.176627
 20
-6.526004
 30
0.0
 10
32.866843
 20
-6.575457
 30
0.0
 10
32.566839
 20
-6.099053
 30
0.0
 10
32.503956
 20
-5.457833
 30
0.0
  0
LINE
  5
134
100
AcDbEntity
  8
Layer_1
 62
3
100
AcDbLine
 10
32.503956
 20
-5.457833
 30
0.0
 11
32.480560
 21
-5.219237
 31
0.0
  0
SPLINE
  5
135
100
AcDbEntity
  8
Layer_1
 62
3
100
AcDbSpline
 70
8
 71
3
 72
8
 73
4
 74
0
 40
0
 40
0
 40
0
 40
0
 40
1
 40
1
 40
1
 40
1
 10
32.480560
 20
-5.219237
 30
0.0
 10
32.417679
 20
-4.578017
 30
0.0
 10
32.616452
 20
-4.021958
 30
0.0
 10
32.926236
 20
-3.972506
 30
0.0
  0
SPLINE
  5
136
100
AcDbEntity
  8
Layer_1
 62
3
100
AcDbSpline
 70
8
 71
3
 72
8
 73
4
 74
0
 40
0
 40
0
 40
0
 40
0
 40
1
 40
1
 40
1
 40
1
 10
32.926236
 20
-3.972506
 30
0.0
 10
32.945599
 20
-3.969417
 30
0.0
 10
32.964915
 20
-3.968383
 30
0.0
 10
32.984145
 20
-3.969318
 30
0.0
  0
LINE
  5
137
100
AcDbEntity
  8
Layer_1
 62
3
100
AcDbLine
 10
32.984145
 20
-3.969318
 30
0.0
 11
32.984145
 21
-3.969316
 31
0.0
  0
SPLINE
  5
138
100
AcDbEntity
  8
Layer_1
 62
3
100
AcDbSpline
 70
8
 71
3
 72
8
 73
4
 74
0
 40
0
 40
0
 40
0
 40
0
 40
1
 40
1
 40
1
 40
1
 10
6.987148
 20
-3.969316
 30
0.0
 10
7.006378
 20
-3.968380
 30
0.0
 10
7.025695
 20
-3.969415
 30
0.0
 10
7.045057
 20
-3.972504
 30
0.0
  0
SPLINE
  5
139
100
AcDbEntity
  8
Layer_1
 62
3
100
AcDbSpline
 70
8
 71
3
 72
8
 73
4
 74
0
 40
0
 40
0
 40
0
 40
0
 40
1
 40
1
 40
1
 40
1
 10
7.045057
 20
-3.972504
 30
0.0
 10
7.354841
 20
-4.021956
 30
0.0
 10
7.553614
 20
-4.578014
 30
0.0
 10
7.490732
 20
-5.219235
 30
0.0
  0
LINE
  5
13a
100
AcDbEntity
  8
Layer_1
 62
3
100
AcDbLine
 10
7.490732
 20
-5.219235
 30
0.0
 11
7.467337
 21
-5.457831
 31
0.0
  0
SPLINE
  5
13b
100
AcDbEntity
  8
Layer_1
 62
3
100
AcDbSpline
 70
8
 71
3
 72
8
 73
4
 74
0
 40
0
 40
0
 40
0
 40
0
 40
1
 40
1
 40
1
 40
1
 10
7.467337
 20
-5.457831
 30
0.0
 10
7.404456
 20
-6.099051
 30
0.0
 10
7.104450
 20
-6.575454
 30
0.0
 10
6.794666
 20
-6.526002
 30
0.0
  0
SPLINE
  5
13c
100
AcDbEntity
  8
Layer_1
 62
3
100
AcDbSpline
 70
8
 71
3
 72
8
 73
4
 74
0
 40
0
 40
0
 40
0
 40
0
 40
1
 40
1
 40
1
 40
1
 10
6.794666
 20
-6.526002
 30
0.0
 10
6.484883
 20
-6.476549
 30
0.0
 10
6.286110
 20
-5.920491
 30
0.0
 10
6.348991
 20
-5.279271
 30
0.0
  0
LINE
  5
13d
100
AcDbEntity
  8
Layer_1
 62
3
100
AcDbLine
 10
6.348991
 20
-5.279271
 30
0.0
 11
6.372386
 21
-5.040675
 31
0.0
  0
SPLINE
  5
13e
100
AcDbEntity
  8
Layer_1
 62
3
100
AcDbSpline
 70
8
 71
3
 72
8
 73
4
 74
0
 40
0
 40
0
 40
0
 40
0
 40
1
 40
1
 40
1
 40
1
 10
6.372386
 20
-5.040675
 30
0.0
 10
6.431338
 20
-4.439530
 30
0.0
 10
6.698702
 20
-3.983253
 30
0.0
 10
6.987148
 20
-3.969313
 30
0.0
  0
LINE
  5
13f
100
AcDbEntity
  8
Layer_1
 62
3
100
AcDbLine
 10
6.987148
 20
-3.969313
 30
0.0
 11
6.987148
 21
-3.969316
 31
0.0
  0
SPLINE
  5
140
100
AcDbEntity
  8
Layer_1
 62
3
100
AcDbSpline
 70
8
 71
3
 72
8
 73
4
 74
0
 40
0
 40
0
 40
0
 40
0
 40
1
 40
1
 40
1
 40
1
 10
6.552784
 20
-0.647051
 30
0.0
 10
6.273937
 20
-0.642414
 30
0.0
 10
6.022152
 20
-0.772762
 30
0.0
 10
5.929998
 20
-0.993150
 30
0.0
  0
LINE
  5
141
100
AcDbEntity
  8
Layer_1
 62
3
100
AcDbLine
 10
5.929998
 20
-0.993150
 30
0.0
 11
5.884947
 21
-1.100751
 31
0.0
  0
SPLINE
  5
142
100
AcDbEntity
  8
Layer_1
 62
3
100
AcDbSpline
 70
8
 71
3
 72
8
 73
4
 74
0
 40
0
 40
0
 40
0
 40
0
 40
1
 40
1
 40
1
 40
1
 10
5.884947
 20
-1.100751
 30
0.0
 10
5.827767
 20
-1.249595
 30
0.0
 10
5.843235
 20
-1.419288
 30
0.0
 10
5.953103
 20
-1.574655
 30
0.0
  0
SPLINE
  5
143
100
AcDbEntity
  8
Layer_1
 62
3
100
AcDbSpline
 70
8
 71
3
 72
8
 73
4
 74
0
 40
0
 40
0
 40
0
 40
0
 40
1
 40
1
 40
1
 40
1
 10
5.953103
 20
-1.574655
 30
0.0
 10
5.958733
 20
-1.644707
 30
0.0
 10
5.949227
 20
-1.715691
 30
0.0
 10
5.920524
 20
-1.784346
 30
0.0
  0
LINE
  5
144
100
AcDbEntity
  8
Layer_1
 62
3
100
AcDbLine
 10
5.920524
 20
-1.784346
 30
0.0
 11
5.875473
 21
-1.891946
 31
0.0
  0
SPLINE
  5
145
100
AcDbEntity
  8
Layer_1
 62
3
100
AcDbSpline
 70
8
 71
3
 72
8
 73
4
 74
0
 40
0
 40
0
 40
0
 40
0
 40
1
 40
1
 40
1
 40
1
 10
5.875473
 20
-1.891946
 30
0.0
 10
4.431153
 20
-5.586170
 30
0.0
 10
5.683951
 20
-5.481333
 30
0.0
 10
4.991662
 20
-7.953423
 30
0.0
  0
LINE
  5
146
100
AcDbEntity
  8
Layer_1
 62
3
100
AcDbLine
 10
4.991662
 20
-7.953423
 30
0.0
 11
4.946612
 21
-8.061023
 31
0.0
  0
SPLINE
  5
147
100
AcDbEntity
  8
Layer_1
 62
3
100
AcDbSpline
 70
8
 71
3
 72
8
 73
4
 74
0
 40
0
 40
0
 40
0
 40
0
 40
1
 40
1
 40
1
 40
1
 10
4.946612
 20
-8.061023
 30
0.0
 10
4.894080
 20
-8.184555
 30
0.0
 10
4.827951
 20
-8.255799
 30
0.0
 10
4.662094
 20
-8.338579
 30
0.0
  0
SPLINE
  5
148
100
AcDbEntity
  8
Layer_1
 62
3
100
AcDbSpline
 70
8
 71
3
 72
8
 73
4
 74
0
 40
0
 40
0
 40
0
 40
0
 40
1
 40
1
 40
1
 40
1
 10
4.662094
 20
-8.338579
 30
0.0
 10
4.628225
 20
-8.377459
 30
0.0
 10
4.600358
 20
-8.420950
 30
0.0
 10
4.580307
 20
-8.468898
 30
0.0
  0
LINE
  5
149
100
AcDbEntity
  8
Layer_1
 62
3
100
AcDbLine
 10
4.580307
 20
-8.468898
 30
0.0
 11
4.535352
 21
-8.576498
 31
0.0
  0
SPLINE
  5
14a
100
AcDbEntity
  8
Layer_1
 62
3
100
AcDbSpline
 70
8
 71
3
 72
8
 73
4
 74
0
 40
0
 40
0
 40
0
 40
0
 40
1
 40
1
 40
1
 40
1
 10
4.535352
 20
-8.576498
 30
0.0
 10
4.414370
 20
-8.865831
 30
0.0
 10
4.615800
 20
-9.197575
 30
0.0
 10
4.987022
 20
-9.320321
 30
0.0
  0
SPLINE
  5
14b
100
AcDbEntity
  8
Layer_1
 62
3
100
AcDbSpline
 70
8
 71
3
 72
8
 73
4
 74
0
 40
0
 40
0
 40
0
 40
0
 40
1
 40
1
 40
1
 40
1
 10
4.987022
 20
-9.320321
 30
0.0
 10
5.010217
 20
-9.328029
 30
0.0
 10
5.033493
 20
-9.334764
 30
0.0
 10
5.056822
 20
-9.340430
 30
0.0
  0
SPLINE
  5
14c
100
AcDbEntity
  8
Layer_1
 62
3
100
AcDbSpline
 70
8
 71
3
 72
8
 73
4
 74
0
 40
0
 40
0
 40
0
 40
0
 40
1
 40
1
 40
1
 40
1
 10
5.056822
 20
-9.340430
 30
0.0
 10
5.406680
 20
-9.425770
 30
0.0
 10
5.762053
 20
-9.290907
 30
0.0
 10
5.875473
 20
-9.019661
 30
0.0
  0
LINE
  5
14d
100
AcDbEntity
  8
Layer_1
 62
3
100
AcDbLine
 10
5.875473
 20
-9.019661
 30
0.0
 11
5.920524
 21
-8.912060
 31
0.0
  0
SPLINE
  5
14e
100
AcDbEntity
  8
Layer_1
 62
3
100
AcDbSpline
 70
8
 71
3
 72
8
 73
4
 74
0
 40
0
 40
0
 40
0
 40
0
 40
1
 40
1
 40
1
 40
1
 10
5.920524
 20
-8.912060
 30
0.0
 10
5.949227
 20
-8.843406
 30
0.0
 10
5.958733
 20
-8.772421
 30
0.0
 10
5.953103
 20
-8.702371
 30
0.0
  0
SPLINE
  5
14f
100
AcDbEntity
  8
Layer_1
 62
3
100
AcDbSpline
 70
8
 71
3
 72
8
 73
4
 74
0
 40
0
 40
0
 40
0
 40
0
 40
1
 40
1
 40
1
 40
1
 10
5.953103
 20
-8.702371
 30
0.0
 10
5.843235
 20
-8.547004
 30
0.0
 10
5.827767
 20
-8.377312
 30
0.0
 10
5.884947
 20
-8.228465
 30
0.0
  0
LINE
  5
150
100
AcDbEntity
  8
Layer_1
 62
3
100
AcDbLine
 10
5.884947
 20
-8.228465
 30
0.0
 11
5.929998
 21
-8.120865
 31
0.0
  0
SPLINE
  5
151
100
AcDbEntity
  8
Layer_1
 62
3
100
AcDbSpline
 70
8
 71
3
 72
8
 73
4
 74
0
 40
0
 40
0
 40
0
 40
0
 40
1
 40
1
 40
1
 40
1
 10
5.929998
 20
-8.120865
 30
0.0
 10
6.043419
 20
-7.849617
 30
0.0
 10
6.398694
 20
-7.714757
 30
0.0
 10
6.748552
 20
-7.800094
 30
0.0
  0
SPLINE
  5
152
100
AcDbEntity
  8
Layer_1
 62
3
100
AcDbSpline
 70
8
 71
3
 72
8
 73
4
 74
0
 40
0
 40
0
 40
0
 40
0
 40
1
 40
1
 40
1
 40
1
 10
6.748552
 20
-7.800094
 30
0.0
 10
6.771881
 20
-7.805757
 30
0.0
 10
6.795222
 20
-7.812530
 30
0.0
 10
6.818449
 20
-7.820107
 30
0.0
  0
SPLINE
  5
153
100
AcDbEntity
  8
Layer_1
 62
3
100
AcDbSpline
 70
8
 71
3
 72
8
 73
4
 74
0
 40
0
 40
0
 40
0
 40
0
 40
1
 40
1
 40
1
 40
1
 10
6.818449
 20
-7.820107
 30
0.0
 10
7.189673
 20
-7.942853
 30
0.0
 10
7.391100
 20
-8.274605
 30
0.0
 10
7.270118
 20
-8.563930
 30
0.0
  0
LINE
  5
154
100
AcDbEntity
  8
Layer_1
 62
3
100
AcDbLine
 10
7.270118
 20
-8.563930
 30
0.0
 11
7.225067
 21
-8.671628
 31
0.0
  0
SPLINE
  5
155
100
AcDbEntity
  8
Layer_1
 62
3
100
AcDbSpline
 70
8
 71
3
 72
8
 73
4
 74
0
 40
0
 40
0
 40
0
 40
0
 40
1
 40
1
 40
1
 40
1
 10
7.225067
 20
-8.671628
 30
0.0
 10
7.172521
 20
-8.795194
 30
0.0
 10
7.106587
 20
-8.866196
 30
0.0
 10
6.940647
 20
-8.949087
 30
0.0
  0
SPLINE
  5
156
100
AcDbEntity
  8
Layer_1
 62
3
100
AcDbSpline
 70
8
 71
3
 72
8
 73
4
 74
0
 40
0
 40
0
 40
0
 40
0
 40
1
 40
1
 40
1
 40
1
 10
6.940647
 20
-8.949087
 30
0.0
 10
6.906768
 20
-8.987957
 30
0.0
 10
6.878914
 20
-9.031449
 30
0.0
 10
6.858859
 20
-9.079406
 30
0.0
  0
LINE
  5
157
100
AcDbEntity
  8
Layer_1
 62
3
100
AcDbLine
 10
6.858859
 20
-9.079406
 30
0.0
 11
6.813905
 21
-9.187102
 31
0.0
  0
SPLINE
  5
158
100
AcDbEntity
  8
Layer_1
 62
3
100
AcDbSpline
 70
8
 71
3
 72
8
 73
4
 74
0
 40
0
 40
0
 40
0
 40
0
 40
1
 40
1
 40
1
 40
1
 10
6.813905
 20
-9.187102
 30
0.0
 10
6.692923
 20
-9.476437
 30
0.0
 10
6.894350
 20
-9.808181
 30
0.0
 10
7.265574
 20
-9.930927
 30
0.0
  0
SPLINE
  5
159
100
AcDbEntity
  8
Layer_1
 62
3
100
AcDbSpline
 70
8
 71
3
 72
8
 73
4
 74
0
 40
0
 40
0
 40
0
 40
0
 40
1
 40
1
 40
1
 40
1
 10
7.265574
 20
-9.930927
 30
0.0
 10
7.288777
 20
-9.938597
 30
0.0
 10
7.312046
 20
-9.945276
 30
0.0
 10
7.335374
 20
-9.950939
 30
0.0
  0
SPLINE
  5
15a
100
AcDbEntity
  8
Layer_1
 62
3
100
AcDbSpline
 70
8
 71
3
 72
8
 73
4
 74
0
 40
0
 40
0
 40
0
 40
0
 40
1
 40
1
 40
1
 40
1
 10
7.335374
 20
-9.950939
 30
0.0
 10
7.685231
 20
-10.036279
 30
0.0
 10
8.040604
 20
-9.901417
 30
0.0
 10
8.154025
 20
-9.630167
 30
0.0
  0
LINE
  5
15b
100
AcDbEntity
  8
Layer_1
 62
3
100
AcDbLine
 10
8.154025
 20
-9.630167
 30
0.0
 11
8.198979
 21
-9.522567
 31
0.0
  0
SPLINE
  5
15c
100
AcDbEntity
  8
Layer_1
 62
3
100
AcDbSpline
 70
8
 71
3
 72
8
 73
4
 74
0
 40
0
 40
0
 40
0
 40
0
 40
1
 40
1
 40
1
 40
1
 10
8.198979
 20
-9.522567
 30
0.0
 10
8.227698
 20
-9.453877
 30
0.0
 10
8.237215
 20
-9.382858
 30
0.0
 10
8.231559
 20
-9.312782
 30
0.0
  0
SPLINE
  5
15d
100
AcDbEntity
  8
Layer_1
 62
3
100
AcDbSpline
 70
8
 71
3
 72
8
 73
4
 74
0
 40
0
 40
0
 40
0
 40
0
 40
1
 40
1
 40
1
 40
1
 10
8.231559
 20
-9.312782
 30
0.0
 10
8.121640
 20
-9.157284
 30
0.0
 10
8.106268
 20
-8.987850
 30
0.0
 10
8.163499
 20
-8.838974
 30
0.0
  0
LINE
  5
15e
100
AcDbEntity
  8
Layer_1
 62
3
100
AcDbLine
 10
8.163499
 20
-8.838974
 30
0.0
 11
8.208453
 21
-8.731374
 31
0.0
  0
SPLINE
  5
15f
100
AcDbEntity
  8
Layer_1
 62
3
100
AcDbSpline
 70
8
 71
3
 72
8
 73
4
 74
0
 40
0
 40
0
 40
0
 40
0
 40
1
 40
1
 40
1
 40
1
 10
8.208453
 20
-8.731374
 30
0.0
 10
8.321874
 20
-8.460124
 30
0.0
 10
8.677251
 20
-8.325246
 30
0.0
 10
9.027104
 20
-8.410602
 30
0.0
  0
SPLINE
  5
160
100
AcDbEntity
  8
Layer_1
 62
3
100
AcDbSpline
 70
8
 71
3
 72
8
 73
4
 74
0
 40
0
 40
0
 40
0
 40
0
 40
1
 40
1
 40
1
 40
1
 10
9.027104
 20
-8.410602
 30
0.0
 10
9.050434
 20
-8.416271
 30
0.0
 10
9.073678
 20
-8.423043
 30
0.0
 10
9.096904
 20
-8.430614
 30
0.0
  0
SPLINE
  5
161
100
AcDbEntity
  8
Layer_1
 62
3
100
AcDbSpline
 70
8
 71
3
 72
8
 73
4
 74
0
 40
0
 40
0
 40
0
 40
0
 40
1
 40
1
 40
1
 40
1
 10
9.096904
 20
-8.430614
 30
0.0
 10
9.468128
 20
-8.553362
 30
0.0
 10
9.669653
 20
-8.885106
 30
0.0
 10
9.548671
 20
-9.174439
 30
0.0
  0
LINE
  5
162
100
AcDbEntity
  8
Layer_1
 62
3
100
AcDbLine
 10
9.548671
 20
-9.174439
 30
0.0
 11
9.503619
 21
-9.282135
 31
0.0
  0
SPLINE
  5
163
100
AcDbEntity
  8
Layer_1
 62
3
100
AcDbSpline
 70
8
 71
3
 72
8
 73
4
 74
0
 40
0
 40
0
 40
0
 40
0
 40
1
 40
1
 40
1
 40
1
 10
9.503619
 20
-9.282135
 30
0.0
 10
9.451096
 20
-9.405650
 30
0.0
 10
9.385117
 20
-9.476706
 30
0.0
 10
9.219296
 20
-9.559595
 30
0.0
  0
SPLINE
  5
164
100
AcDbEntity
  8
Layer_1
 62
3
100
AcDbSpline
 70
8
 71
3
 72
8
 73
4
 74
0
 40
0
 40
0
 40
0
 40
0
 40
1
 40
1
 40
1
 40
1
 10
9.219296
 20
-9.559595
 30
0.0
 10
9.185406
 20
-9.598489
 30
0.0
 10
9.157475
 20
-9.641929
 30
0.0
 10
9.137411
 20
-9.689913
 30
0.0
  0
LINE
  5
165
100
AcDbEntity
  8
Layer_1
 62
3
100
AcDbLine
 10
9.137411
 20
-9.689913
 30
0.0
 11
9.092264
 21
-9.797513
 31
0.0
  0
SPLINE
  5
166
100
AcDbEntity
  8
Layer_1
 62
3
100
AcDbSpline
 70
8
 71
3
 72
8
 73
4
 74
0
 40
0
 40
0
 40
0
 40
0
 40
1
 40
1
 40
1
 40
1
 10
9.092264
 20
-9.797513
 30
0.0
 10
8.971281
 20
-10.086846
 30
0.0
 10
9.172708
 20
-10.418594
 30
0.0
 10
9.543933
 20
-10.541338
 30
0.0
  0
SPLINE
  5
167
100
AcDbEntity
  8
Layer_1
 62
3
100
AcDbSpline
 70
8
 71
3
 72
8
 73
4
 74
0
 40
0
 40
0
 40
0
 40
0
 40
1
 40
1
 40
1
 40
1
 10
9.543933
 20
-10.541338
 30
0.0
 10
9.567134
 20
-10.549008
 30
0.0
 10
9.590501
 20
-10.555781
 30
0.0
 10
9.613830
 20
-10.561445
 30
0.0
  0
LINE
  5
168
100
AcDbEntity
  8
Layer_1
 62
3
100
AcDbLine
 10
9.613830
 20
-10.561445
 30
0.0
 11
9.613929
 21
-10.561445
 31
0.0
  0
SPLINE
  5
169
100
AcDbEntity
  8
Layer_1
 62
3
100
AcDbSpline
 70
8
 71
3
 72
8
 73
4
 74
0
 40
0
 40
0
 40
0
 40
0
 40
1
 40
1
 40
1
 40
1
 10
9.613929
 20
-10.561445
 30
0.0
 10
9.963785
 20
-10.646785
 30
0.0
 10
10.319158
 20
-10.511924
 30
0.0
 10
10.432579
 20
-10.240676
 30
0.0
  0
LINE
  5
16a
100
AcDbEntity
  8
Layer_1
 62
3
100
AcDbLine
 10
10.432579
 20
-10.240676
 30
0.0
 11
10.477533
 21
-10.133075
 31
0.0
  0
SPLINE
  5
16b
100
AcDbEntity
  8
Layer_1
 62
3
100
AcDbSpline
 70
8
 71
3
 72
8
 73
4
 74
0
 40
0
 40
0
 40
0
 40
0
 40
1
 40
1
 40
1
 40
1
 10
10.477533
 20
-10.133075
 30
0.0
 10
10.506255
 20
-10.064385
 30
0.0
 10
10.515672
 20
-9.993365
 30
0.0
 10
10.510017
 20
-9.923289
 30
0.0
  0
SPLINE
  5
16c
100
AcDbEntity
  8
Layer_1
 62
3
100
AcDbSpline
 70
8
 71
3
 72
8
 73
4
 74
0
 40
0
 40
0
 40
0
 40
0
 40
1
 40
1
 40
1
 40
1
 10
10.510017
 20
-9.923289
 30
0.0
 10
10.400098
 20
-9.767790
 30
0.0
 10
10.384822
 20
-9.598360
 30
0.0
 10
10.442053
 20
-9.449481
 30
0.0
  0
LINE
  5
16d
100
AcDbEntity
  8
Layer_1
 62
3
100
AcDbLine
 10
10.442053
 20
-9.449481
 30
0.0
 11
10.487008
 21
-9.341880
 31
0.0
  0
SPLINE
  5
16e
100
AcDbEntity
  8
Layer_1
 62
3
100
AcDbSpline
 70
8
 71
3
 72
8
 73
4
 74
0
 40
0
 40
0
 40
0
 40
0
 40
1
 40
1
 40
1
 40
1
 10
10.487008
 20
-9.341880
 30
0.0
 10
10.600429
 20
-9.070631
 30
0.0
 10
10.955802
 20
-8.935773
 30
0.0
 10
11.305659
 20
-9.021111
 30
0.0
  0
SPLINE
  5
16f
100
AcDbEntity
  8
Layer_1
 62
3
100
AcDbSpline
 70
8
 71
3
 72
8
 73
4
 74
0
 40
0
 40
0
 40
0
 40
0
 40
1
 40
1
 40
1
 40
1
 10
11.305659
 20
-9.021111
 30
0.0
 10
11.328988
 20
-9.026779
 30
0.0
 10
11.352232
 20
-9.033551
 30
0.0
 10
11.375459
 20
-9.041123
 30
0.0
  0
SPLINE
  5
170
100
AcDbEntity
  8
Layer_1
 62
3
100
AcDbSpline
 70
8
 71
3
 72
8
 73
4
 74
0
 40
0
 40
0
 40
0
 40
0
 40
1
 40
1
 40
1
 40
1
 10
11.375459
 20
-9.041123
 30
0.0
 10
11.746683
 20
-9.163869
 30
0.0
 10
11.948111
 20
-9.495613
 30
0.0
 10
11.827128
 20
-9.784945
 30
0.0
  0
LINE
  5
171
100
AcDbEntity
  8
Layer_1
 62
3
100
AcDbLine
 10
11.827128
 20
-9.784945
 30
0.0
 11
11.782173
 21
-9.892643
 31
0.0
  0
SPLINE
  5
172
100
AcDbEntity
  8
Layer_1
 62
3
100
AcDbSpline
 70
8
 71
3
 72
8
 73
4
 74
0
 40
0
 40
0
 40
0
 40
0
 40
1
 40
1
 40
1
 40
1
 10
11.782173
 20
-9.892643
 30
0.0
 10
11.729658
 20
-10.016134
 30
0.0
 10
11.663645
 20
-10.087235
 30
0.0
 10
11.497850
 20
-10.170005
 30
0.0
  0
SPLINE
  5
173
100
AcDbEntity
  8
Layer_1
 62
3
100
AcDbSpline
 70
8
 71
3
 72
8
 73
4
 74
0
 40
0
 40
0
 40
0
 40
0
 40
1
 40
1
 40
1
 40
1
 10
11.497850
 20
-10.170005
 30
0.0
 10
11.463942
 20
-10.208913
 30
0.0
 10
11.436039
 20
-10.252419
 30
0.0
 10
11.415966
 20
-10.300421
 30
0.0
  0
LINE
  5
174
100
AcDbEntity
  8
Layer_1
 62
3
100
AcDbLine
 10
11.415966
 20
-10.300421
 30
0.0
 11
11.370915
 21
-10.408119
 31
0.0
  0
SPLINE
  5
175
100
AcDbEntity
  8
Layer_1
 62
3
100
AcDbSpline
 70
8
 71
3
 72
8
 73
4
 74
0
 40
0
 40
0
 40
0
 40
0
 40
1
 40
1
 40
1
 40
1
 10
11.370915
 20
-10.408119
 30
0.0
 10
11.249934
 20
-10.697446
 30
0.0
 10
11.451362
 20
-11.029196
 30
0.0
 10
11.822584
 20
-11.151942
 30
0.0
  0
SPLINE
  5
176
100
AcDbEntity
  8
Layer_1
 62
3
100
AcDbSpline
 70
8
 71
3
 72
8
 73
4
 74
0
 40
0
 40
0
 40
0
 40
0
 40
1
 40
1
 40
1
 40
1
 10
11.822584
 20
-11.151942
 30
0.0
 10
11.845785
 20
-11.159612
 30
0.0
 10
11.869152
 20
-11.166291
 30
0.0
 10
11.892481
 20
-11.171954
 30
0.0
  0
SPLINE
  5
177
100
AcDbEntity
  8
Layer_1
 62
3
100
AcDbSpline
 70
8
 71
3
 72
8
 73
4
 74
0
 40
0
 40
0
 40
0
 40
0
 40
1
 40
1
 40
1
 40
1
 10
11.892481
 20
-11.171954
 30
0.0
 10
12.242339
 20
-11.257294
 30
0.0
 10
12.597615
 20
-11.122430
 30
0.0
 10
12.711035
 20
-10.851184
 30
0.0
  0
LINE
  5
178
100
AcDbEntity
  8
Layer_1
 62
3
100
AcDbLine
 10
12.711035
 20
-10.851184
 30
0.0
 11
12.756086
 21
-10.743584
 31
0.0
  0
SPLINE
  5
179
100
AcDbEntity
  8
Layer_1
 62
3
100
AcDbSpline
 70
8
 71
3
 72
8
 73
4
 74
0
 40
0
 40
0
 40
0
 40
0
 40
1
 40
1
 40
1
 40
1
 10
12.756086
 20
-10.743584
 30
0.0
 10
12.784771
 20
-10.674982
 30
0.0
 10
12.794291
 20
-10.604083
 30
0.0
 10
12.788666
 20
-10.534087
 30
0.0
  0
SPLINE
  5
17a
100
AcDbEntity
  8
Layer_1
 62
3
100
AcDbSpline
 70
8
 71
3
 72
8
 73
4
 74
0
 40
0
 40
0
 40
0
 40
0
 40
1
 40
1
 40
1
 40
1
 10
12.788666
 20
-10.534087
 30
0.0
 10
12.678631
 20
-10.378564
 30
0.0
 10
12.663272
 20
-10.208919
 30
0.0
 10
12.720509
 20
-10.059989
 30
0.0
  0
LINE
  5
17b
100
AcDbEntity
  8
Layer_1
 62
3
100
AcDbLine
 10
12.720509
 20
-10.059989
 30
0.0
 11
12.765464
 21
-9.952389
 31
0.0
  0
SPLINE
  5
17c
100
AcDbEntity
  8
Layer_1
 62
3
100
AcDbSpline
 70
8
 71
3
 72
8
 73
4
 74
0
 40
0
 40
0
 40
0
 40
0
 40
1
 40
1
 40
1
 40
1
 10
12.765464
 20
-9.952389
 30
0.0
 10
12.878884
 20
-9.681139
 30
0.0
 10
13.234353
 20
-9.546277
 30
0.0
 10
13.584211
 20
-9.631619
 30
0.0
  0
SPLINE
  5
17d
100
AcDbEntity
  8
Layer_1
 62
3
100
AcDbSpline
 70
8
 71
3
 72
8
 73
4
 74
0
 40
0
 40
0
 40
0
 40
0
 40
1
 40
1
 40
1
 40
1
 10
13.584211
 20
-9.631619
 30
0.0
 10
13.607539
 20
-9.637288
 30
0.0
 10
13.630687
 20
-9.644153
 30
0.0
 10
13.653914
 20
-9.651726
 30
0.0
  0
SPLINE
  5
17e
100
AcDbEntity
  8
Layer_1
 62
3
100
AcDbSpline
 70
8
 71
3
 72
8
 73
4
 74
0
 40
0
 40
0
 40
0
 40
0
 40
1
 40
1
 40
1
 40
1
 10
13.653914
 20
-9.651726
 30
0.0
 10
14.025138
 20
-9.774475
 30
0.0
 10
14.226663
 20
-10.106220
 30
0.0
 10
14.105680
 20
-10.395551
 30
0.0
  0
LINE
  5
17f
100
AcDbEntity
  8
Layer_1
 62
3
100
AcDbLine
 10
14.105680
 20
-10.395551
 30
0.0
 11
14.060726
 21
-10.503151
 31
0.0
  0
SPLINE
  5
180
100
AcDbEntity
  8
Layer_1
 62
3
100
AcDbSpline
 70
8
 71
3
 72
8
 73
4
 74
0
 40
0
 40
0
 40
0
 40
0
 40
1
 40
1
 40
1
 40
1
 10
14.060726
 20
-10.503151
 30
0.0
 10
14.008192
 20
-10.626691
 30
0.0
 10
13.942063
 20
-10.697912
 30
0.0
 10
13.776209
 20
-10.780706
 30
0.0
  0
SPLINE
  5
181
100
AcDbEntity
  8
Layer_1
 62
3
100
AcDbSpline
 70
8
 71
3
 72
8
 73
4
 74
0
 40
0
 40
0
 40
0
 40
0
 40
1
 40
1
 40
1
 40
1
 10
13.776209
 20
-10.780706
 30
0.0
 10
13.742344
 20
-10.819585
 30
0.0
 10
13.714474
 20
-10.863066
 30
0.0
 10
13.694421
 20
-10.911025
 30
0.0
  0
LINE
  5
182
100
AcDbEntity
  8
Layer_1
 62
3
100
AcDbLine
 10
13.694421
 20
-10.911025
 30
0.0
 11
13.649370
 21
-11.018626
 31
0.0
  0
SPLINE
  5
183
100
AcDbEntity
  8
Layer_1
 62
3
100
AcDbSpline
 70
8
 71
3
 72
8
 73
4
 74
0
 40
0
 40
0
 40
0
 40
0
 40
1
 40
1
 40
1
 40
1
 10
13.649370
 20
-11.018626
 30
0.0
 10
13.528389
 20
-11.307958
 30
0.0
 10
13.903828
 20
-11.697240
 30
0.0
 10
14.101040
 20
-11.762450
 30
0.0
  0
SPLINE
  5
184
100
AcDbEntity
  8
Layer_1
 62
3
100
AcDbSpline
 70
8
 71
3
 72
8
 73
4
 74
0
 40
0
 40
0
 40
0
 40
0
 40
1
 40
1
 40
1
 40
1
 10
14.101040
 20
-11.762450
 30
0.0
 10
14.298252
 20
-11.827660
 30
0.0
 10
14.147607
 20
-11.776893
 30
0.0
 10
14.170937
 20
-11.782559
 30
0.0
  0
SPLINE
  5
185
100
AcDbEntity
  8
Layer_1
 62
3
100
AcDbSpline
 70
8
 71
3
 72
8
 73
4
 74
0
 40
0
 40
0
 40
0
 40
0
 40
1
 40
1
 40
1
 40
1
 10
14.170937
 20
-11.782559
 30
0.0
 10
18.527821
 20
-12.671932
 30
0.0
 10
21.545334
 20
-12.737187
 30
0.0
 10
25.800361
 20
-11.782559
 30
0.0
  0
SPLINE
  5
186
100
AcDbEntity
  8
Layer_1
 62
3
100
AcDbSpline
 70
8
 71
3
 72
8
 73
4
 74
0
 40
0
 40
0
 40
0
 40
0
 40
1
 40
1
 40
1
 40
1
 10
25.800361
 20
-11.782559
 30
0.0
 10
25.823691
 20
-11.776891
 30
0.0
 10
25.673044
 20
-11.827660
 30
0.0
 10
25.870257
 20
-11.762450
 30
0.0
  0
SPLINE
  5
187
100
AcDbEntity
  8
Layer_1
 62
3
100
AcDbSpline
 70
8
 71
3
 72
8
 73
4
 74
0
 40
0
 40
0
 40
0
 40
0
 40
1
 40
1
 40
1
 40
1
 10
25.870257
 20
-11.762450
 30
0.0
 10
26.067469
 20
-11.697240
 30
0.0
 10
26.442908
 20
-11.307958
 30
0.0
 10
26.321926
 20
-11.018626
 30
0.0
  0
LINE
  5
188
100
AcDbEntity
  8
Layer_1
 62
3
100
AcDbLine
 10
26.321926
 20
-11.018626
 30
0.0
 11
26.276876
 21
-10.911025
 31
0.0
  0
SPLINE
  5
189
100
AcDbEntity
  8
Layer_1
 62
3
100
AcDbSpline
 70
8
 71
3
 72
8
 73
4
 74
0
 40
0
 40
0
 40
0
 40
0
 40
1
 40
1
 40
1
 40
1
 10
26.276876
 20
-10.911025
 30
0.0
 10
26.256823
 20
-10.863066
 30
0.0
 10
26.228953
 20
-10.819585
 30
0.0
 10
26.195088
 20
-10.780706
 30
0.0
  0
SPLINE
  5
18a
100
AcDbEntity
  8
Layer_1
 62
3
100
AcDbSpline
 70
8
 71
3
 72
8
 73
4
 74
0
 40
0
 40
0
 40
0
 40
0
 40
1
 40
1
 40
1
 40
1
 10
26.195088
 20
-10.780706
 30
0.0
 10
26.029235
 20
-10.697912
 30
0.0
 10
25.963105
 20
-10.626691
 30
0.0
 10
25.910571
 20
-10.503151
 30
0.0
  0
LINE
  5
18b
100
AcDbEntity
  8
Layer_1
 62
3
100
AcDbLine
 10
25.910571
 20
-10.503151
 30
0.0
 11
25.865616
 21
-10.395551
 31
0.0
  0
SPLINE
  5
18c
100
AcDbEntity
  8
Layer_1
 62
3
100
AcDbSpline
 70
8
 71
3
 72
8
 73
4
 74
0
 40
0
 40
0
 40
0
 40
0
 40
1
 40
1
 40
1
 40
1
 10
25.865616
 20
-10.395551
 30
0.0
 10
25.744634
 20
-10.106220
 30
0.0
 10
25.946159
 20
-9.774475
 30
0.0
 10
26.317382
 20
-9.651726
 30
0.0
  0
SPLINE
  5
18d
100
AcDbEntity
  8
Layer_1
 62
3
100
AcDbSpline
 70
8
 71
3
 72
8
 73
4
 74
0
 40
0
 40
0
 40
0
 40
0
 40
1
 40
1
 40
1
 40
1
 10
26.317382
 20
-9.651726
 30
0.0
 10
26.340610
 20
-9.644150
 30
0.0
 10
26.363757
 20
-9.637284
 30
0.0
 10
26.387086
 20
-9.631619
 30
0.0
  0
SPLINE
  5
18e
100
AcDbEntity
  8
Layer_1
 62
3
100
AcDbSpline
 70
8
 71
3
 72
8
 73
4
 74
0
 40
0
 40
0
 40
0
 40
0
 40
1
 40
1
 40
1
 40
1
 10
26.387086
 20
-9.631619
 30
0.0
 10
26.736943
 20
-9.546277
 30
0.0
 10
27.092413
 20
-9.681139
 30
0.0
 10
27.205834
 20
-9.952389
 30
0.0
  0
LINE
  5
18f
100
AcDbEntity
  8
Layer_1
 62
3
100
AcDbLine
 10
27.205834
 20
-9.952389
 30
0.0
 11
27.250787
 21
-10.059989
 31
0.0
  0
SPLINE
  5
190
100
AcDbEntity
  8
Layer_1
 62
3
100
AcDbSpline
 70
8
 71
3
 72
8
 73
4
 74
0
 40
0
 40
0
 40
0
 40
0
 40
1
 40
1
 40
1
 40
1
 10
27.250787
 20
-10.059989
 30
0.0
 10
27.308024
 20
-10.208919
 30
0.0
 10
27.292667
 20
-10.378564
 30
0.0
 10
27.182630
 20
-10.534087
 30
0.0
  0
SPLINE
  5
191
100
AcDbEntity
  8
Layer_1
 62
3
100
AcDbSpline
 70
8
 71
3
 72
8
 73
4
 74
0
 40
0
 40
0
 40
0
 40
0
 40
1
 40
1
 40
1
 40
1
 10
27.182630
 20
-10.534087
 30
0.0
 10
27.176999
 20
-10.604083
 30
0.0
 10
27.186522
 20
-10.674982
 30
0.0
 10
27.215210
 20
-10.743584
 30
0.0
  0
LINE
  5
192
100
AcDbEntity
  8
Layer_1
 62
3
100
AcDbLine
 10
27.215210
 20
-10.743584
 30
0.0
 11
27.260263
 21
-10.851184
 31
0.0
  0
SPLINE
  5
193
100
AcDbEntity
  8
Layer_1
 62
3
100
AcDbSpline
 70
8
 71
3
 72
8
 73
4
 74
0
 40
0
 40
0
 40
0
 40
0
 40
1
 40
1
 40
1
 40
1
 10
27.260263
 20
-10.851184
 30
0.0
 10
27.373681
 20
-11.122430
 30
0.0
 10
27.728958
 20
-11.257294
 30
0.0
 10
28.078816
 20
-11.171954
 30
0.0
  0
SPLINE
  5
194
100
AcDbEntity
  8
Layer_1
 62
3
100
AcDbSpline
 70
8
 71
3
 72
8
 73
4
 74
0
 40
0
 40
0
 40
0
 40
0
 40
1
 40
1
 40
1
 40
1
 10
28.078816
 20
-11.171954
 30
0.0
 10
28.102145
 20
-11.166285
 30
0.0
 10
28.125513
 20
-11.159607
 30
0.0
 10
28.148713
 20
-11.151942
 30
0.0
  0
SPLINE
  5
195
100
AcDbEntity
  8
Layer_1
 62
3
100
AcDbSpline
 70
8
 71
3
 72
8
 73
4
 74
0
 40
0
 40
0
 40
0
 40
0
 40
1
 40
1
 40
1
 40
1
 10
28.148713
 20
-11.151942
 30
0.0
 10
28.519936
 20
-11.029196
 30
0.0
 10
28.721364
 20
-10.697446
 30
0.0
 10
28.600382
 20
-10.408119
 30
0.0
  0
LINE
  5
196
100
AcDbEntity
  8
Layer_1
 62
3
100
AcDbLine
 10
28.600382
 20
-10.408119
 30
0.0
 11
28.555331
 21
-10.300421
 31
0.0
  0
SPLINE
  5
197
100
AcDbEntity
  8
Layer_1
 62
3
100
AcDbSpline
 70
8
 71
3
 72
8
 73
4
 74
0
 40
0
 40
0
 40
0
 40
0
 40
1
 40
1
 40
1
 40
1
 10
28.555331
 20
-10.300421
 30
0.0
 10
28.535257
 20
-10.252419
 30
0.0
 10
28.507355
 20
-10.208913
 30
0.0
 10
28.473447
 20
-10.170005
 30
0.0
  0
SPLINE
  5
198
100
AcDbEntity
  8
Layer_1
 62
3
100
AcDbSpline
 70
8
 71
3
 72
8
 73
4
 74
0
 40
0
 40
0
 40
0
 40
0
 40
1
 40
1
 40
1
 40
1
 10
28.473447
 20
-10.170005
 30
0.0
 10
28.307651
 20
-10.087235
 30
0.0
 10
28.241639
 20
-10.016134
 30
0.0
 10
28.189124
 20
-9.892643
 30
0.0
  0
LINE
  5
199
100
AcDbEntity
  8
Layer_1
 62
3
100
AcDbLine
 10
28.189124
 20
-9.892643
 30
0.0
 11
28.144169
 21
-9.784945
 31
0.0
  0
SPLINE
  5
19a
100
AcDbEntity
  8
Layer_1
 62
3
100
AcDbSpline
 70
8
 71
3
 72
8
 73
4
 74
0
 40
0
 40
0
 40
0
 40
0
 40
1
 40
1
 40
1
 40
1
 10
28.144169
 20
-9.784945
 30
0.0
 10
28.023186
 20
-9.495613
 30
0.0
 10
28.224613
 20
-9.163869
 30
0.0
 10
28.595839
 20
-9.041123
 30
0.0
  0
SPLINE
  5
19b
100
AcDbEntity
  8
Layer_1
 62
3
100
AcDbSpline
 70
8
 71
3
 72
8
 73
4
 74
0
 40
0
 40
0
 40
0
 40
0
 40
1
 40
1
 40
1
 40
1
 10
28.595839
 20
-9.041123
 30
0.0
 10
28.619065
 20
-9.033546
 30
0.0
 10
28.642310
 20
-9.026774
 30
0.0
 10
28.665638
 20
-9.021111
 30
0.0
  0
SPLINE
  5
19c
100
AcDbEntity
  8
Layer_1
 62
3
100
AcDbSpline
 70
8
 71
3
 72
8
 73
4
 74
0
 40
0
 40
0
 40
0
 40
0
 40
1
 40
1
 40
1
 40
1
 10
28.665638
 20
-9.021111
 30
0.0
 10
29.015495
 20
-8.935773
 30
0.0
 10
29.370869
 20
-9.070631
 30
0.0
 10
29.484289
 20
-9.341880
 30
0.0
  0
LINE
  5
19d
100
AcDbEntity
  8
Layer_1
 62
3
100
AcDbLine
 10
29.484289
 20
-9.341880
 30
0.0
 11
29.529243
 21
-9.449481
 31
0.0
  0
SPLINE
  5
19e
100
AcDbEntity
  8
Layer_1
 62
3
100
AcDbSpline
 70
8
 71
3
 72
8
 73
4
 74
0
 40
0
 40
0
 40
0
 40
0
 40
1
 40
1
 40
1
 40
1
 10
29.529243
 20
-9.449481
 30
0.0
 10
29.586474
 20
-9.598360
 30
0.0
 10
29.571199
 20
-9.767790
 30
0.0
 10
29.461280
 20
-9.923289
 30
0.0
  0
SPLINE
  5
19f
100
AcDbEntity
  8
Layer_1
 62
3
100
AcDbSpline
 70
8
 71
3
 72
8
 73
4
 74
0
 40
0
 40
0
 40
0
 40
0
 40
1
 40
1
 40
1
 40
1
 10
29.461280
 20
-9.923289
 30
0.0
 10
29.455631
 20
-9.993365
 30
0.0
 10
29.465041
 20
-10.064385
 30
0.0
 10
29.493763
 20
-10.133075
 30
0.0
  0
LINE
  5
1a0
100
AcDbEntity
  8
Layer_1
 62
3
100
AcDbLine
 10
29.493763
 20
-10.133075
 30
0.0
 11
29.538718
 21
-10.240676
 31
0.0
  0
SPLINE
  5
1a1
100
AcDbEntity
  8
Layer_1
 62
3
100
AcDbSpline
 70
8
 71
3
 72
8
 73
4
 74
0
 40
0
 40
0
 40
0
 40
0
 40
1
 40
1
 40
1
 40
1
 10
29.538718
 20
-10.240676
 30
0.0
 10
29.652139
 20
-10.511924
 30
0.0
 10
30.007512
 20
-10.646785
 30
0.0
 10
30.357369
 20
-10.561445
 30
0.0
  0
LINE
  5
1a2
100
AcDbEntity
  8
Layer_1
 62
3
100
AcDbLine
 10
30.357369
 20
-10.561445
 30
0.0
 11
30.357468
 21
-10.561445
 31
0.0
  0
SPLINE
  5
1a3
100
AcDbEntity
  8
Layer_1
 62
3
100
AcDbSpline
 70
8
 71
3
 72
8
 73
4
 74
0
 40
0
 40
0
 40
0
 40
0
 40
1
 40
1
 40
1
 40
1
 10
30.357468
 20
-10.561445
 30
0.0
 10
30.380797
 20
-10.555777
 30
0.0
 10
30.404163
 20
-10.549005
 30
0.0
 10
30.427364
 20
-10.541338
 30
0.0
  0
SPLINE
  5
1a4
100
AcDbEntity
  8
Layer_1
 62
3
100
AcDbSpline
 70
8
 71
3
 72
8
 73
4
 74
0
 40
0
 40
0
 40
0
 40
0
 40
1
 40
1
 40
1
 40
1
 10
30.427364
 20
-10.541338
 30
0.0
 10
30.798589
 20
-10.418594
 30
0.0
 10
31.000016
 20
-10.086846
 30
0.0
 10
30.879033
 20
-9.797513
 30
0.0
  0
LINE
  5
1a5
100
AcDbEntity
  8
Layer_1
 62
3
100
AcDbLine
 10
30.879033
 20
-9.797513
 30
0.0
 11
30.833886
 21
-9.689913
 31
0.0
  0
SPLINE
  5
1a6
100
AcDbEntity
  8
Layer_1
 62
3
100
AcDbSpline
 70
8
 71
3
 72
8
 73
4
 74
0
 40
0
 40
0
 40
0
 40
0
 40
1
 40
1
 40
1
 40
1
 10
30.833886
 20
-9.689913
 30
0.0
 10
30.813821
 20
-9.641929
 30
0.0
 10
30.785890
 20
-9.598489
 30
0.0
 10
30.752001
 20
-9.559595
 30
0.0
  0
SPLINE
  5
1a7
100
AcDbEntity
  8
Layer_1
 62
3
100
AcDbSpline
 70
8
 71
3
 72
8
 73
4
 74
0
 40
0
 40
0
 40
0
 40
0
 40
1
 40
1
 40
1
 40
1
 10
30.752001
 20
-9.559595
 30
0.0
 10
30.586180
 20
-9.476706
 30
0.0
 10
30.520203
 20
-9.405650
 30
0.0
 10
30.467678
 20
-9.282135
 30
0.0
  0
LINE
  5
1a8
100
AcDbEntity
  8
Layer_1
 62
3
100
AcDbLine
 10
30.467678
 20
-9.282135
 30
0.0
 11
30.422628
 21
-9.174439
 31
0.0
  0
SPLINE
  5
1a9
100
AcDbEntity
  8
Layer_1
 62
3
100
AcDbSpline
 70
8
 71
3
 72
8
 73
4
 74
0
 40
0
 40
0
 40
0
 40
0
 40
1
 40
1
 40
1
 40
1
 10
30.422628
 20
-9.174439
 30
0.0
 10
30.301645
 20
-8.885106
 30
0.0
 10
30.503169
 20
-8.553362
 30
0.0
 10
30.874394
 20
-8.430614
 30
0.0
  0
SPLINE
  5
1aa
100
AcDbEntity
  8
Layer_1
 62
3
100
AcDbSpline
 70
8
 71
3
 72
8
 73
4
 74
0
 40
0
 40
0
 40
0
 40
0
 40
1
 40
1
 40
1
 40
1
 10
30.874394
 20
-8.430614
 30
0.0
 10
30.897620
 20
-8.423037
 30
0.0
 10
30.920864
 20
-8.416265
 30
0.0
 10
30.944193
 20
-8.410602
 30
0.0
  0
SPLINE
  5
1ab
100
AcDbEntity
  8
Layer_1
 62
3
100
AcDbSpline
 70
8
 71
3
 72
8
 73
4
 74
0
 40
0
 40
0
 40
0
 40
0
 40
1
 40
1
 40
1
 40
1
 10
30.944193
 20
-8.410602
 30
0.0
 10
31.294046
 20
-8.325246
 30
0.0
 10
31.649423
 20
-8.460124
 30
0.0
 10
31.762844
 20
-8.731374
 30
0.0
  0
LINE
  5
1ac
100
AcDbEntity
  8
Layer_1
 62
3
100
AcDbLine
 10
31.762844
 20
-8.731374
 30
0.0
 11
31.807797
 21
-8.838974
 31
0.0
  0
SPLINE
  5
1ad
100
AcDbEntity
  8
Layer_1
 62
3
100
AcDbSpline
 70
8
 71
3
 72
8
 73
4
 74
0
 40
0
 40
0
 40
0
 40
0
 40
1
 40
1
 40
1
 40
1
 10
31.807797
 20
-8.838974
 30
0.0
 10
31.865028
 20
-8.987850
 30
0.0
 10
31.849658
 20
-9.157284
 30
0.0
 10
31.739738
 20
-9.312782
 30
0.0
  0
SPLINE
  5
1ae
100
AcDbEntity
  8
Layer_1
 62
3
100
AcDbSpline
 70
8
 71
3
 72
8
 73
4
 74
0
 40
0
 40
0
 40
0
 40
0
 40
1
 40
1
 40
1
 40
1
 10
31.739738
 20
-9.312782
 30
0.0
 10
31.734088
 20
-9.382858
 30
0.0
 10
31.743591
 20
-9.453877
 30
0.0
 10
31.772317
 20
-9.522567
 30
0.0
  0
LINE
  5
1af
100
AcDbEntity
  8
Layer_1
 62
3
100
AcDbLine
 10
31.772317
 20
-9.522567
 30
0.0
 11
31.817273
 21
-9.630167
 31
0.0
  0
SPLINE
  5
1b0
100
AcDbEntity
  8
Layer_1
 62
3
100
AcDbSpline
 70
8
 71
3
 72
8
 73
4
 74
0
 40
0
 40
0
 40
0
 40
0
 40
1
 40
1
 40
1
 40
1
 10
31.817273
 20
-9.630167
 30
0.0
 10
31.930693
 20
-9.901417
 30
0.0
 10
32.286067
 20
-10.036279
 30
0.0
 10
32.635923
 20
-9.950939
 30
0.0
  0
SPLINE
  5
1b1
100
AcDbEntity
  8
Layer_1
 62
3
100
AcDbSpline
 70
8
 71
3
 72
8
 73
4
 74
0
 40
0
 40
0
 40
0
 40
0
 40
1
 40
1
 40
1
 40
1
 10
32.635923
 20
-9.950939
 30
0.0
 10
32.659252
 20
-9.945270
 30
0.0
 10
32.682521
 20
-9.938592
 30
0.0
 10
32.705723
 20
-9.930927
 30
0.0
  0
SPLINE
  5
1b2
100
AcDbEntity
  8
Layer_1
 62
3
100
AcDbSpline
 70
8
 71
3
 72
8
 73
4
 74
0
 40
0
 40
0
 40
0
 40
0
 40
1
 40
1
 40
1
 40
1
 10
32.705723
 20
-9.930927
 30
0.0
 10
33.076947
 20
-9.808181
 30
0.0
 10
33.278376
 20
-9.476437
 30
0.0
 10
33.157393
 20
-9.187102
 30
0.0
  0
LINE
  5
1b3
100
AcDbEntity
  8
Layer_1
 62
3
100
AcDbLine
 10
33.157393
 20
-9.187102
 30
0.0
 11
33.112438
 21
-9.079406
 31
0.0
  0
SPLINE
  5
1b4
100
AcDbEntity
  8
Layer_1
 62
3
100
AcDbSpline
 70
8
 71
3
 72
8
 73
4
 74
0
 40
0
 40
0
 40
0
 40
0
 40
1
 40
1
 40
1
 40
1
 10
33.112438
 20
-9.079406
 30
0.0
 10
33.092383
 20
-9.031449
 30
0.0
 10
33.064529
 20
-8.987957
 30
0.0
 10
33.030651
 20
-8.949087
 30
0.0
  0
SPLINE
  5
1b5
100
AcDbEntity
  8
Layer_1
 62
3
100
AcDbSpline
 70
8
 71
3
 72
8
 73
4
 74
0
 40
0
 40
0
 40
0
 40
0
 40
1
 40
1
 40
1
 40
1
 10
33.030651
 20
-8.949087
 30
0.0
 10
32.864710
 20
-8.866196
 30
0.0
 10
32.798776
 20
-8.795194
 30
0.0
 10
32.746231
 20
-8.671628
 30
0.0
  0
LINE
  5
1b6
100
AcDbEntity
  8
Layer_1
 62
3
100
AcDbLine
 10
32.746231
 20
-8.671628
 30
0.0
 11
32.701178
 21
-8.563930
 31
0.0
  0
SPLINE
  5
1b7
100
AcDbEntity
  8
Layer_1
 62
3
100
AcDbSpline
 70
8
 71
3
 72
8
 73
4
 74
0
 40
0
 40
0
 40
0
 40
0
 40
1
 40
1
 40
1
 40
1
 10
32.701178
 20
-8.563930
 30
0.0
 10
32.580194
 20
-8.274605
 30
0.0
 10
32.781624
 20
-7.942853
 30
0.0
 10
33.152849
 20
-7.820107
 30
0.0
  0
SPLINE
  5
1b8
100
AcDbEntity
  8
Layer_1
 62
3
100
AcDbSpline
 70
8
 71
3
 72
8
 73
4
 74
0
 40
0
 40
0
 40
0
 40
0
 40
1
 40
1
 40
1
 40
1
 10
33.152849
 20
-7.820107
 30
0.0
 10
33.176075
 20
-7.812530
 30
0.0
 10
33.199417
 20
-7.805758
 30
0.0
 10
33.222746
 20
-7.800094
 30
0.0
  0
SPLINE
  5
1b9
100
AcDbEntity
  8
Layer_1
 62
3
100
AcDbSpline
 70
8
 71
3
 72
8
 73
4
 74
0
 40
0
 40
0
 40
0
 40
0
 40
1
 40
1
 40
1
 40
1
 10
33.222746
 20
-7.800094
 30
0.0
 10
33.572602
 20
-7.714757
 30
0.0
 10
33.927879
 20
-7.849617
 30
0.0
 10
34.041299
 20
-8.120865
 30
0.0
  0
LINE
  5
1ba
100
AcDbEntity
  8
Layer_1
 62
3
100
AcDbLine
 10
34.041299
 20
-8.120865
 30
0.0
 11
34.086350
 21
-8.228465
 31
0.0
  0
SPLINE
  5
1bb
100
AcDbEntity
  8
Layer_1
 62
3
100
AcDbSpline
 70
8
 71
3
 72
8
 73
4
 74
0
 40
0
 40
0
 40
0
 40
0
 40
1
 40
1
 40
1
 40
1
 10
34.086350
 20
-8.228465
 30
0.0
 10
34.143530
 20
-8.377312
 30
0.0
 10
34.128061
 20
-8.547004
 30
0.0
 10
34.018193
 20
-8.702371
 30
0.0
  0
SPLINE
  5
1bc
100
AcDbEntity
  8
Layer_1
 62
3
100
AcDbSpline
 70
8
 71
3
 72
8
 73
4
 74
0
 40
0
 40
0
 40
0
 40
0
 40
1
 40
1
 40
1
 40
1
 10
34.018193
 20
-8.702371
 30
0.0
 10
34.012562
 20
-8.772421
 30
0.0
 10
34.022084
 20
-8.843406
 30
0.0
 10
34.050775
 20
-8.912060
 30
0.0
  0
LINE
  5
1bd
100
AcDbEntity
  8
Layer_1
 62
3
100
AcDbLine
 10
34.050775
 20
-8.912060
 30
0.0
 11
34.095825
 21
-9.019661
 31
0.0
  0
SPLINE
  5
1be
100
AcDbEntity
  8
Layer_1
 62
3
100
AcDbSpline
 70
8
 71
3
 72
8
 73
4
 74
0
 40
0
 40
0
 40
0
 40
0
 40
1
 40
1
 40
1
 40
1
 10
34.095825
 20
-9.019661
 30
0.0
 10
34.209244
 20
-9.290907
 30
0.0
 10
34.564617
 20
-9.425770
 30
0.0
 10
34.914476
 20
-9.340430
 30
0.0
  0
SPLINE
  5
1bf
100
AcDbEntity
  8
Layer_1
 62
3
100
AcDbSpline
 70
8
 71
3
 72
8
 73
4
 74
0
 40
0
 40
0
 40
0
 40
0
 40
1
 40
1
 40
1
 40
1
 10
34.914476
 20
-9.340430
 30
0.0
 10
34.937805
 20
-9.334762
 30
0.0
 10
34.961079
 20
-9.328027
 30
0.0
 10
34.984275
 20
-9.320321
 30
0.0
  0
SPLINE
  5
1c0
100
AcDbEntity
  8
Layer_1
 62
3
100
AcDbSpline
 70
8
 71
3
 72
8
 73
4
 74
0
 40
0
 40
0
 40
0
 40
0
 40
1
 40
1
 40
1
 40
1
 10
34.984275
 20
-9.320321
 30
0.0
 10
35.355496
 20
-9.197575
 30
0.0
 10
35.556928
 20
-8.865831
 30
0.0
 10
35.435944
 20
-8.576498
 30
0.0
  0
LINE
  5
1c1
100
AcDbEntity
  8
Layer_1
 62
3
100
AcDbLine
 10
35.435944
 20
-8.576498
 30
0.0
 11
35.390991
 21
-8.468898
 31
0.0
  0
SPLINE
  5
1c2
100
AcDbEntity
  8
Layer_1
 62
3
100
AcDbSpline
 70
8
 71
3
 72
8
 73
4
 74
0
 40
0
 40
0
 40
0
 40
0
 40
1
 40
1
 40
1
 40
1
 10
35.390991
 20
-8.468898
 30
0.0
 10
35.370940
 20
-8.420950
 30
0.0
 10
35.343072
 20
-8.377459
 30
0.0
 10
35.309202
 20
-8.338579
 30
0.0
  0
SPLINE
  5
1c3
100
AcDbEntity
  8
Layer_1
 62
3
100
AcDbSpline
 70
8
 71
3
 72
8
 73
4
 74
0
 40
0
 40
0
 40
0
 40
0
 40
1
 40
1
 40
1
 40
1
 10
35.309202
 20
-8.338579
 30
0.0
 10
35.143347
 20
-8.255799
 30
0.0
 10
35.077218
 20
-8.184555
 30
0.0
 10
35.024686
 20
-8.061023
 30
0.0
  0
LINE
  5
1c4
100
AcDbEntity
  8
Layer_1
 62
3
100
AcDbLine
 10
35.024686
 20
-8.061023
 30
0.0
 11
34.979636
 21
-7.953423
 31
0.0
  0
SPLINE
  5
1c5
100
AcDbEntity
  8
Layer_1
 62
3
100
AcDbSpline
 70
8
 71
3
 72
8
 73
4
 74
0
 40
0
 40
0
 40
0
 40
0
 40
1
 40
1
 40
1
 40
1
 10
34.979636
 20
-7.953423
 30
0.0
 10
34.287346
 20
-5.481333
 30
0.0
 10
35.540145
 20
-5.586170
 30
0.0
 10
34.095825
 20
-1.891946
 30
0.0
  0
LINE
  5
1c6
100
AcDbEntity
  8
Layer_1
 62
3
100
AcDbLine
 10
34.095825
 20
-1.891946
 30
0.0
 11
34.050775
 21
-1.784346
 31
0.0
  0
SPLINE
  5
1c7
100
AcDbEntity
  8
Layer_1
 62
3
100
AcDbSpline
 70
8
 71
3
 72
8
 73
4
 74
0
 40
0
 40
0
 40
0
 40
0
 40
1
 40
1
 40
1
 40
1
 10
34.050775
 20
-1.784346
 30
0.0
 10
34.022067
 20
-1.715691
 30
0.0
 10
34.012564
 20
-1.644707
 30
0.0
 10
34.018193
 20
-1.574655
 30
0.0
  0
SPLINE
  5
1c8
100
AcDbEntity
  8
Layer_1
 62
3
100
AcDbSpline
 70
8
 71
3
 72
8
 73
4
 74
0
 40
0
 40
0
 40
0
 40
0
 40
1
 40
1
 40
1
 40
1
 10
34.018193
 20
-1.574655
 30
0.0
 10
34.128061
 20
-1.419288
 30
0.0
 10
34.143530
 20
-1.249595
 30
0.0
 10
34.086350
 20
-1.100751
 30
0.0
  0
LINE
  5
1c9
100
AcDbEntity
  8
Layer_1
 62
3
100
AcDbLine
 10
34.086350
 20
-1.100751
 30
0.0
 11
34.041299
 21
-0.993150
 31
0.0
  0
SPLINE
  5
1ca
100
AcDbEntity
  8
Layer_1
 62
3
100
AcDbSpline
 70
8
 71
3
 72
8
 73
4
 74
0
 40
0
 40
0
 40
0
 40
0
 40
1
 40
1
 40
1
 40
1
 10
34.041299
 20
-0.993150
 30
0.0
 10
33.949146
 20
-0.772762
 30
0.0
 10
33.697360
 20
-0.642411
 30
0.0
 10
33.418515
 20
-0.647051
 30
0.0
  0
SPLINE
  5
1cb
100
AcDbEntity
  8
Layer_1
 62
3
100
AcDbSpline
 70
8
 71
3
 72
8
 73
4
 74
0
 40
0
 40
0
 40
0
 40
0
 40
1
 40
1
 40
1
 40
1
 10
33.418515
 20
-0.647051
 30
0.0
 10
33.354165
 20
-0.648118
 30
0.0
 10
33.288343
 20
-0.656379
 30
0.0
 10
33.222746
 20
-0.672380
 30
0.0
  0
SPLINE
  5
1cc
100
AcDbEntity
  8
Layer_1
 62
3
100
AcDbSpline
 70
8
 71
3
 72
8
 73
4
 74
0
 40
0
 40
0
 40
0
 40
0
 40
1
 40
1
 40
1
 40
1
 10
33.222746
 20
-0.672380
 30
0.0
 10
33.199417
 20
-0.678050
 30
0.0
 10
33.176075
 20
-0.684813
 30
0.0
 10
33.152849
 20
-0.692392
 30
0.0
  0
SPLINE
  5
1cd
100
AcDbEntity
  8
Layer_1
 62
3
100
AcDbSpline
 70
8
 71
3
 72
8
 73
4
 74
0
 40
0
 40
0
 40
0
 40
0
 40
1
 40
1
 40
1
 40
1
 10
33.152849
 20
-0.692392
 30
0.0
 10
32.781624
 20
-0.815138
 30
0.0
 10
32.580194
 20
-1.146893
 30
0.0
 10
32.701178
 20
-1.436216
 30
0.0
  0
LINE
  5
1ce
100
AcDbEntity
  8
Layer_1
 62
3
100
AcDbLine
 10
32.701178
 20
-1.436216
 30
0.0
 11
32.746231
 21
-1.543913
 31
0.0
  0
SPLINE
  5
1cf
100
AcDbEntity
  8
Layer_1
 62
3
100
AcDbSpline
 70
8
 71
3
 72
8
 73
4
 74
0
 40
0
 40
0
 40
0
 40
0
 40
1
 40
1
 40
1
 40
1
 10
32.746231
 20
-1.543913
 30
0.0
 10
32.798778
 20
-1.667480
 30
0.0
 10
32.864710
 20
-1.738482
 30
0.0
 10
33.030651
 20
-1.821372
 30
0.0
  0
SPLINE
  5
1d0
100
AcDbEntity
  8
Layer_1
 62
3
100
AcDbSpline
 70
8
 71
3
 72
8
 73
4
 74
0
 40
0
 40
0
 40
0
 40
0
 40
1
 40
1
 40
1
 40
1
 10
33.030651
 20
-1.821372
 30
0.0
 10
33.064529
 20
-1.860240
 30
0.0
 10
33.092383
 20
-1.903734
 30
0.0
 10
33.112438
 20
-1.951691
 30
0.0
  0
LINE
  5
1d1
100
AcDbEntity
  8
Layer_1
 62
3
100
AcDbLine
 10
33.112438
 20
-1.951691
 30
0.0
 11
33.157393
 21
-2.059388
 31
0.0
  0
SPLINE
  5
1d2
100
AcDbEntity
  8
Layer_1
 62
3
100
AcDbSpline
 70
8
 71
3
 72
8
 73
4
 74
0
 40
0
 40
0
 40
0
 40
0
 40
1
 40
1
 40
1
 40
1
 10
33.157393
 20
-2.059388
 30
0.0
 10
33.278376
 20
-2.348722
 30
0.0
 10
33.076947
 20
-2.680467
 30
0.0
 10
32.705723
 20
-2.803212
 30
0.0
  0
SPLINE
  5
1d3
100
AcDbEntity
  8
Layer_1
 62
3
100
AcDbSpline
 70
8
 71
3
 72
8
 73
4
 74
0
 40
0
 40
0
 40
0
 40
0
 40
1
 40
1
 40
1
 40
1
 10
32.705723
 20
-2.803212
 30
0.0
 10
32.682521
 20
-2.810886
 30
0.0
 10
32.659252
 20
-2.817553
 30
0.0
 10
32.635923
 20
-2.823224
 30
0.0
  0
SPLINE
  5
1d4
100
AcDbEntity
  8
Layer_1
 62
3
100
AcDbSpline
 70
8
 71
3
 72
8
 73
4
 74
0
 40
0
 40
0
 40
0
 40
0
 40
1
 40
1
 40
1
 40
1
 10
32.635923
 20
-2.823224
 30
0.0
 10
32.286067
 20
-2.908566
 30
0.0
 10
31.930693
 20
-2.773702
 30
0.0
 10
31.817273
 20
-2.502453
 30
0.0
  0
LINE
  5
1d5
100
AcDbEntity
  8
Layer_1
 62
3
100
AcDbLine
 10
31.817273
 20
-2.502453
 30
0.0
 11
31.772317
 21
-2.394853
 31
0.0
  0
SPLINE
  5
1d6
100
AcDbEntity
  8
Layer_1
 62
3
100
AcDbSpline
 70
8
 71
3
 72
8
 73
4
 74
0
 40
0
 40
0
 40
0
 40
0
 40
1
 40
1
 40
1
 40
1
 10
31.772317
 20
-2.394853
 30
0.0
 10
31.743593
 20
-2.326163
 30
0.0
 10
31.734088
 20
-2.255143
 30
0.0
 10
31.739738
 20
-2.185067
 30
0.0
  0
SPLINE
  5
1d7
100
AcDbEntity
  8
Layer_1
 62
3
100
AcDbSpline
 70
8
 71
3
 72
8
 73
4
 74
0
 40
0
 40
0
 40
0
 40
0
 40
1
 40
1
 40
1
 40
1
 10
31.739738
 20
-2.185067
 30
0.0
 10
31.849656
 20
-2.029568
 30
0.0
 10
31.865028
 20
-1.860135
 30
0.0
 10
31.807797
 20
-1.711259
 30
0.0
  0
LINE
  5
1d8
100
AcDbEntity
  8
Layer_1
 62
3
100
AcDbLine
 10
31.807797
 20
-1.711259
 30
0.0
 11
31.762844
 21
-1.603658
 31
0.0
  0
SPLINE
  5
1d9
100
AcDbEntity
  8
Layer_1
 62
3
100
AcDbSpline
 70
8
 71
3
 72
8
 73
4
 74
0
 40
0
 40
0
 40
0
 40
0
 40
1
 40
1
 40
1
 40
1
 10
31.762844
 20
-1.603658
 30
0.0
 10
31.649425
 20
-1.332410
 30
0.0
 10
31.294048
 20
-1.197532
 30
0.0
 10
30.944193
 20
-1.282888
 30
0.0
  0
SPLINE
  5
1da
100
AcDbEntity
  8
Layer_1
 62
3
100
AcDbSpline
 70
8
 71
3
 72
8
 73
4
 74
0
 40
0
 40
0
 40
0
 40
0
 40
1
 40
1
 40
1
 40
1
 10
30.944193
 20
-1.282888
 30
0.0
 10
30.920864
 20
-1.288558
 30
0.0
 10
30.897620
 20
-1.295321
 30
0.0
 10
30.874394
 20
-1.302900
 30
0.0
  0
SPLINE
  5
1db
100
AcDbEntity
  8
Layer_1
 62
3
100
AcDbSpline
 70
8
 71
3
 72
8
 73
4
 74
0
 40
0
 40
0
 40
0
 40
0
 40
1
 40
1
 40
1
 40
1
 10
30.874394
 20
-1.302900
 30
0.0
 10
30.503171
 20
-1.425647
 30
0.0
 10
30.301645
 20
-1.757390
 30
0.0
 10
30.422628
 20
-2.046724
 30
0.0
  0
LINE
  5
1dc
100
AcDbEntity
  8
Layer_1
 62
3
100
AcDbLine
 10
30.422628
 20
-2.046724
 30
0.0
 11
30.467678
 21
-2.154420
 31
0.0
  0
SPLINE
  5
1dd
100
AcDbEntity
  8
Layer_1
 62
3
100
AcDbSpline
 70
8
 71
3
 72
8
 73
4
 74
0
 40
0
 40
0
 40
0
 40
0
 40
1
 40
1
 40
1
 40
1
 10
30.467678
 20
-2.154420
 30
0.0
 10
30.520203
 20
-2.277936
 30
0.0
 10
30.586180
 20
-2.348993
 30
0.0
 10
30.752001
 20
-2.431880
 30
0.0
  0
SPLINE
  5
1de
100
AcDbEntity
  8
Layer_1
 62
3
100
AcDbSpline
 70
8
 71
3
 72
8
 73
4
 74
0
 40
0
 40
0
 40
0
 40
0
 40
1
 40
1
 40
1
 40
1
 10
30.752001
 20
-2.431880
 30
0.0
 10
30.785890
 20
-2.470776
 30
0.0
 10
30.813821
 20
-2.514215
 30
0.0
 10
30.833886
 20
-2.562199
 30
0.0
  0
LINE
  5
1df
100
AcDbEntity
  8
Layer_1
 62
3
100
AcDbLine
 10
30.833886
 20
-2.562199
 30
0.0
 11
30.879033
 21
-2.669799
 31
0.0
  0
SPLINE
  5
1e0
100
AcDbEntity
  8
Layer_1
 62
3
100
AcDbSpline
 70
8
 71
3
 72
8
 73
4
 74
0
 40
0
 40
0
 40
0
 40
0
 40
1
 40
1
 40
1
 40
1
 10
30.879033
 20
-2.669799
 30
0.0
 10
31.000016
 20
-2.959130
 30
0.0
 10
30.798589
 20
-3.290878
 30
0.0
 10
30.427364
 20
-3.413623
 30
0.0
  0
SPLINE
  5
1e1
100
AcDbEntity
  8
Layer_1
 62
3
100
AcDbSpline
 70
8
 71
3
 72
8
 73
4
 74
0
 40
0
 40
0
 40
0
 40
0
 40
1
 40
1
 40
1
 40
1
 10
30.427364
 20
-3.413623
 30
0.0
 10
30.404165
 20
-3.421297
 30
0.0
 10
30.380797
 20
-3.428061
 30
0.0
 10
30.357468
 20
-3.433731
 30
0.0
  0
LINE
  5
1e2
100
AcDbEntity
  8
Layer_1
 62
3
100
AcDbLine
 10
30.357468
 20
-3.433731
 30
0.0
 11
30.357369
 21
-3.433731
 31
0.0
  0
SPLINE
  5
1e3
100
AcDbEntity
  8
Layer_1
 62
3
100
AcDbSpline
 70
8
 71
3
 72
8
 73
4
 74
0
 40
0
 40
0
 40
0
 40
0
 40
1
 40
1
 40
1
 40
1
 10
30.357369
 20
-3.433731
 30
0.0
 10
30.007512
 20
-3.519071
 30
0.0
 10
29.652140
 20
-3.384210
 30
0.0
 10
29.538718
 20
-3.112961
 30
0.0
  0
LINE
  5
1e4
100
AcDbEntity
  8
Layer_1
 62
3
100
AcDbLine
 10
29.538718
 20
-3.112961
 30
0.0
 11
29.493763
 21
-3.005361
 31
0.0
  0
SPLINE
  5
1e5
100
AcDbEntity
  8
Layer_1
 62
3
100
AcDbSpline
 70
8
 71
3
 72
8
 73
4
 74
0
 40
0
 40
0
 40
0
 40
0
 40
1
 40
1
 40
1
 40
1
 10
29.493763
 20
-3.005361
 30
0.0
 10
29.465039
 20
-2.936670
 30
0.0
 10
29.455631
 20
-2.865650
 30
0.0
 10
29.461280
 20
-2.795575
 30
0.0
  0
SPLINE
  5
1e6
100
AcDbEntity
  8
Layer_1
 62
3
100
AcDbSpline
 70
8
 71
3
 72
8
 73
4
 74
0
 40
0
 40
0
 40
0
 40
0
 40
1
 40
1
 40
1
 40
1
 10
29.461280
 20
-2.795575
 30
0.0
 10
29.571199
 20
-2.640076
 30
0.0
 10
29.586474
 20
-2.470645
 30
0.0
 10
29.529243
 20
-2.321766
 30
0.0
  0
LINE
  5
1e7
100
AcDbEntity
  8
Layer_1
 62
3
100
AcDbLine
 10
29.529243
 20
-2.321766
 30
0.0
 11
29.484289
 21
-2.214166
 31
0.0
  0
SPLINE
  5
1e8
100
AcDbEntity
  8
Layer_1
 62
3
100
AcDbSpline
 70
8
 71
3
 72
8
 73
4
 74
0
 40
0
 40
0
 40
0
 40
0
 40
1
 40
1
 40
1
 40
1
 10
29.484289
 20
-2.214166
 30
0.0
 10
29.370869
 20
-1.942916
 30
0.0
 10
29.015495
 20
-1.808057
 30
0.0
 10
28.665638
 20
-1.893396
 30
0.0
  0
SPLINE
  5
1e9
100
AcDbEntity
  8
Layer_1
 62
3
100
AcDbSpline
 70
8
 71
3
 72
8
 73
4
 74
0
 40
0
 40
0
 40
0
 40
0
 40
1
 40
1
 40
1
 40
1
 10
28.665638
 20
-1.893396
 30
0.0
 10
28.642310
 20
-1.899066
 30
0.0
 10
28.619065
 20
-1.905829
 30
0.0
 10
28.595839
 20
-1.913408
 30
0.0
  0
SPLINE
  5
1ea
100
AcDbEntity
  8
Layer_1
 62
3
100
AcDbSpline
 70
8
 71
3
 72
8
 73
4
 74
0
 40
0
 40
0
 40
0
 40
0
 40
1
 40
1
 40
1
 40
1
 10
28.595839
 20
-1.913408
 30
0.0
 10
28.224613
 20
-2.036155
 30
0.0
 10
28.023184
 20
-2.367898
 30
0.0
 10
28.144169
 20
-2.657231
 30
0.0
  0
LINE
  5
1eb
100
AcDbEntity
  8
Layer_1
 62
3
100
AcDbLine
 10
28.144169
 20
-2.657231
 30
0.0
 11
28.189124
 21
-2.764928
 31
0.0
  0
SPLINE
  5
1ec
100
AcDbEntity
  8
Layer_1
 62
3
100
AcDbSpline
 70
8
 71
3
 72
8
 73
4
 74
0
 40
0
 40
0
 40
0
 40
0
 40
1
 40
1
 40
1
 40
1
 10
28.189124
 20
-2.764928
 30
0.0
 10
28.241641
 20
-2.888419
 30
0.0
 10
28.307651
 20
-2.959521
 30
0.0
 10
28.473447
 20
-3.042291
 30
0.0
  0
SPLINE
  5
1ed
100
AcDbEntity
  8
Layer_1
 62
3
100
AcDbSpline
 70
8
 71
3
 72
8
 73
4
 74
0
 40
0
 40
0
 40
0
 40
0
 40
1
 40
1
 40
1
 40
1
 10
28.473447
 20
-3.042291
 30
0.0
 10
28.507355
 20
-3.081199
 30
0.0
 10
28.535259
 20
-3.124703
 30
0.0
 10
28.555331
 20
-3.172707
 30
0.0
  0
LINE
  5
1ee
100
AcDbEntity
  8
Layer_1
 62
3
100
AcDbLine
 10
28.555331
 20
-3.172707
 30
0.0
 11
28.600382
 21
-3.280404
 31
0.0
  0
SPLINE
  5
1ef
100
AcDbEntity
  8
Layer_1
 62
3
100
AcDbSpline
 70
8
 71
3
 72
8
 73
4
 74
0
 40
0
 40
0
 40
0
 40
0
 40
1
 40
1
 40
1
 40
1
 10
28.600382
 20
-3.280404
 30
0.0
 10
28.721362
 20
-3.569736
 30
0.0
 10
28.519936
 20
-3.901480
 30
0.0
 10
28.148713
 20
-4.024227
 30
0.0
  0
SPLINE
  5
1f0
100
AcDbEntity
  8
Layer_1
 62
3
100
AcDbSpline
 70
8
 71
3
 72
8
 73
4
 74
0
 40
0
 40
0
 40
0
 40
0
 40
1
 40
1
 40
1
 40
1
 10
28.148713
 20
-4.024227
 30
0.0
 10
28.125513
 20
-4.031901
 30
0.0
 10
28.102145
 20
-4.038569
 30
0.0
 10
28.078816
 20
-4.044239
 30
0.0
  0
SPLINE
  5
1f1
100
AcDbEntity
  8
Layer_1
 62
3
100
AcDbSpline
 70
8
 71
3
 72
8
 73
4
 74
0
 40
0
 40
0
 40
0
 40
0
 40
1
 40
1
 40
1
 40
1
 10
28.078816
 20
-4.044239
 30
0.0
 10
27.728960
 20
-4.129579
 30
0.0
 10
27.373681
 20
-3.994717
 30
0.0
 10
27.260263
 20
-3.723469
 30
0.0
  0
LINE
  5
1f2
100
AcDbEntity
  8
Layer_1
 62
3
100
AcDbLine
 10
27.260263
 20
-3.723469
 30
0.0
 11
27.215210
 21
-3.615869
 31
0.0
  0
SPLINE
  5
1f3
100
AcDbEntity
  8
Layer_1
 62
3
100
AcDbSpline
 70
8
 71
3
 72
8
 73
4
 74
0
 40
0
 40
0
 40
0
 40
0
 40
1
 40
1
 40
1
 40
1
 10
27.215210
 20
-3.615869
 30
0.0
 10
27.186522
 20
-3.547267
 30
0.0
 10
27.176999
 20
-3.476366
 30
0.0
 10
27.182630
 20
-3.406372
 30
0.0
  0
SPLINE
  5
1f4
100
AcDbEntity
  8
Layer_1
 62
3
100
AcDbSpline
 70
8
 71
3
 72
8
 73
4
 74
0
 40
0
 40
0
 40
0
 40
0
 40
1
 40
1
 40
1
 40
1
 10
27.182630
 20
-3.406372
 30
0.0
 10
27.292665
 20
-3.250850
 30
0.0
 10
27.308024
 20
-3.081202
 30
0.0
 10
27.250787
 20
-2.932274
 30
0.0
  0
LINE
  5
1f5
100
AcDbEntity
  8
Layer_1
 62
3
100
AcDbLine
 10
27.250787
 20
-2.932274
 30
0.0
 11
27.205834
 21
-2.824674
 31
0.0
  0
SPLINE
  5
1f6
100
AcDbEntity
  8
Layer_1
 62
3
100
AcDbSpline
 70
8
 71
3
 72
8
 73
4
 74
0
 40
0
 40
0
 40
0
 40
0
 40
1
 40
1
 40
1
 40
1
 10
27.205834
 20
-2.824674
 30
0.0
 10
27.092413
 20
-2.553424
 30
0.0
 10
26.736943
 20
-2.418565
 30
0.0
 10
26.387086
 20
-2.503904
 30
0.0
  0
SPLINE
  5
1f7
100
AcDbEntity
  8
Layer_1
 62
3
100
AcDbSpline
 70
8
 71
3
 72
8
 73
4
 74
0
 40
0
 40
0
 40
0
 40
0
 40
1
 40
1
 40
1
 40
1
 10
26.387086
 20
-2.503904
 30
0.0
 10
26.363757
 20
-2.509572
 30
0.0
 10
26.340608
 20
-2.516434
 30
0.0
 10
26.317382
 20
-2.524012
 30
0.0
  0
SPLINE
  5
1f8
100
AcDbEntity
  8
Layer_1
 62
3
100
AcDbSpline
 70
8
 71
3
 72
8
 73
4
 74
0
 40
0
 40
0
 40
0
 40
0
 40
1
 40
1
 40
1
 40
1
 10
26.317382
 20
-2.524012
 30
0.0
 10
25.946157
 20
-2.646759
 30
0.0
 10
25.744634
 20
-2.978502
 30
0.0
 10
25.865616
 20
-3.267836
 30
0.0
  0
LINE
  5
1f9
100
AcDbEntity
  8
Layer_1
 62
3
100
AcDbLine
 10
25.865616
 20
-3.267836
 30
0.0
 11
25.910571
 21
-3.375436
 31
0.0
  0
SPLINE
  5
1fa
100
AcDbEntity
  8
Layer_1
 62
3
100
AcDbSpline
 70
8
 71
3
 72
8
 73
4
 74
0
 40
0
 40
0
 40
0
 40
0
 40
1
 40
1
 40
1
 40
1
 10
25.910571
 20
-3.375436
 30
0.0
 10
25.963105
 20
-3.498976
 30
0.0
 10
26.029235
 20
-3.570200
 30
0.0
 10
26.195088
 20
-3.652992
 30
0.0
  0
SPLINE
  5
1fb
100
AcDbEntity
  8
Layer_1
 62
3
100
AcDbSpline
 70
8
 71
3
 72
8
 73
4
 74
0
 40
0
 40
0
 40
0
 40
0
 40
1
 40
1
 40
1
 40
1
 10
26.195088
 20
-3.652992
 30
0.0
 10
26.228953
 20
-3.691871
 30
0.0
 10
26.256823
 20
-3.735353
 30
0.0
 10
26.276876
 20
-3.783311
 30
0.0
  0
LINE
  5
1fc
100
AcDbEntity
  8
Layer_1
 62
3
100
AcDbLine
 10
26.276876
 20
-3.783311
 30
0.0
 11
26.321926
 21
-3.890911
 31
0.0
  0
SPLINE
  5
1fd
100
AcDbEntity
  8
Layer_1
 62
3
100
AcDbSpline
 70
8
 71
3
 72
8
 73
4
 74
0
 40
0
 40
0
 40
0
 40
0
 40
1
 40
1
 40
1
 40
1
 10
26.321926
 20
-3.890911
 30
0.0
 10
26.442907
 20
-4.180246
 30
0.0
 10
26.067471
 20
-4.569525
 30
0.0
 10
25.870257
 20
-4.634735
 30
0.0
  0
SPLINE
  5
1fe
100
AcDbEntity
  8
Layer_1
 62
3
100
AcDbSpline
 70
8
 71
3
 72
8
 73
4
 74
0
 40
0
 40
0
 40
0
 40
0
 40
1
 40
1
 40
1
 40
1
 10
25.870257
 20
-4.634735
 30
0.0
 10
25.673044
 20
-4.699946
 30
0.0
 10
25.823690
 20
-4.649174
 30
0.0
 10
25.800361
 20
-4.654844
 30
0.0
  0
SPLINE
  5
1ff
100
AcDbEntity
  8
Layer_1
 62
3
100
AcDbSpline
 70
8
 71
3
 72
8
 73
4
 74
0
 40
0
 40
0
 40
0
 40
0
 40
1
 40
1
 40
1
 40
1
 10
25.800361
 20
-4.654844
 30
0.0
 10
24.691535
 20
-4.907398
 30
0.0
 10
23.629289
 20
-5.091484
 30
0.0
 10
22.588403
 20
-5.206283
 30
0.0
  0
LINE
  5
200
100
AcDbEntity
  8
Layer_1
 62
3
100
AcDbLine
 10
22.588403
 20
-5.206283
 30
0.0
 11
22.588403
 21
-5.183564
 31
0.0
  0
SPLINE
  5
201
100
AcDbEntity
  8
Layer_1
 62
3
100
AcDbSpline
 70
8
 71
3
 72
8
 73
4
 74
0
 40
0
 40
0
 40
0
 40
0
 40
1
 40
1
 40
1
 40
1
 10
22.588403
 20
-5.183564
 30
0.0
 10
20.857672
 20
-5.405914
 30
0.0
 10
19.069897
 20
-5.382474
 30
0.0
 10
17.382894
 20
-5.183564
 30
0.0
  0
LINE
  5
202
100
AcDbEntity
  8
Layer_1
 62
3
100
AcDbLine
 10
17.382894
 20
-5.183564
 30
0.0
 11
17.382894
 21
-5.206283
 31
0.0
  0
SPLINE
  5
203
100
AcDbEntity
  8
Layer_1
 62
3
100
AcDbSpline
 70
8
 71
3
 72
8
 73
4
 74
0
 40
0
 40
0
 40
0
 40
0
 40
1
 40
1
 40
1
 40
1
 10
17.382894
 20
-5.206283
 30
0.0
 10
16.342008
 20
-5.091484
 30
0.0
 10
15.279761
 20
-4.907398
 30
0.0
 10
14.170937
 20
-4.654844
 30
0.0
  0
SPLINE
  5
204
100
AcDbEntity
  8
Layer_1
 62
3
100
AcDbSpline
 70
8
 71
3
 72
8
 73
4
 74
0
 40
0
 40
0
 40
0
 40
0
 40
1
 40
1
 40
1
 40
1
 10
14.170937
 20
-4.654844
 30
0.0
 10
14.147608
 20
-4.649173
 30
0.0
 10
14.298252
 20
-4.699946
 30
0.0
 10
14.101040
 20
-4.634735
 30
0.0
  0
SPLINE
  5
205
100
AcDbEntity
  8
Layer_1
 62
3
100
AcDbSpline
 70
8
 71
3
 72
8
 73
4
 74
0
 40
0
 40
0
 40
0
 40
0
 40
1
 40
1
 40
1
 40
1
 10
14.101040
 20
-4.634735
 30
0.0
 10
13.903827
 20
-4.569525
 30
0.0
 10
13.528389
 20
-4.180246
 30
0.0
 10
13.649370
 20
-3.890911
 30
0.0
  0
LINE
  5
206
100
AcDbEntity
  8
Layer_1
 62
3
100
AcDbLine
 10
13.649370
 20
-3.890911
 30
0.0
 11
13.694421
 21
-3.783311
 31
0.0
  0
SPLINE
  5
207
100
AcDbEntity
  8
Layer_1
 62
3
100
AcDbSpline
 70
8
 71
3
 72
8
 73
4
 74
0
 40
0
 40
0
 40
0
 40
0
 40
1
 40
1
 40
1
 40
1
 10
13.694421
 20
-3.783311
 30
0.0
 10
13.714474
 20
-3.735353
 30
0.0
 10
13.742344
 20
-3.691871
 30
0.0
 10
13.776209
 20
-3.652992
 30
0.0
  0
SPLINE
  5
208
100
AcDbEntity
  8
Layer_1
 62
3
100
AcDbSpline
 70
8
 71
3
 72
8
 73
4
 74
0
 40
0
 40
0
 40
0
 40
0
 40
1
 40
1
 40
1
 40
1
 10
13.776209
 20
-3.652992
 30
0.0
 10
13.942063
 20
-3.570200
 30
0.0
 10
14.008192
 20
-3.498976
 30
0.0
 10
14.060726
 20
-3.375436
 30
0.0
  0
LINE
  5
209
100
AcDbEntity
  8
Layer_1
 62
3
100
AcDbLine
 10
14.060726
 20
-3.375436
 30
0.0
 11
14.105680
 21
-3.267836
 31
0.0
  0
SPLINE
  5
20a
100
AcDbEntity
  8
Layer_1
 62
3
100
AcDbSpline
 70
8
 71
3
 72
8
 73
4
 74
0
 40
0
 40
0
 40
0
 40
0
 40
1
 40
1
 40
1
 40
1
 10
14.105680
 20
-3.267836
 30
0.0
 10
14.226663
 20
-2.978502
 30
0.0
 10
14.025138
 20
-2.646759
 30
0.0
 10
13.653914
 20
-2.524012
 30
0.0
  0
SPLINE
  5
20b
100
AcDbEntity
  8
Layer_1
 62
3
100
AcDbSpline
 70
8
 71
3
 72
8
 73
4
 74
0
 40
0
 40
0
 40
0
 40
0
 40
1
 40
1
 40
1
 40
1
 10
13.653914
 20
-2.524012
 30
0.0
 10
13.630687
 20
-2.516434
 30
0.0
 10
13.607540
 20
-2.509573
 30
0.0
 10
13.584211
 20
-2.503904
 30
0.0
  0
SPLINE
  5
20c
100
AcDbEntity
  8
Layer_1
 62
3
100
AcDbSpline
 70
8
 71
3
 72
8
 73
4
 74
0
 40
0
 40
0
 40
0
 40
0
 40
1
 40
1
 40
1
 40
1
 10
13.584211
 20
-2.503904
 30
0.0
 10
13.234353
 20
-2.418565
 30
0.0
 10
12.878884
 20
-2.553424
 30
0.0
 10
12.765464
 20
-2.824674
 30
0.0
  0
LINE
  5
20d
100
AcDbEntity
  8
Layer_1
 62
3
100
AcDbLine
 10
12.765464
 20
-2.824674
 30
0.0
 11
12.720509
 21
-2.932274
 31
0.0
  0
SPLINE
  5
20e
100
AcDbEntity
  8
Layer_1
 62
3
100
AcDbSpline
 70
8
 71
3
 72
8
 73
4
 74
0
 40
0
 40
0
 40
0
 40
0
 40
1
 40
1
 40
1
 40
1
 10
12.720509
 20
-2.932274
 30
0.0
 10
12.663272
 20
-3.081202
 30
0.0
 10
12.678631
 20
-3.250850
 30
0.0
 10
12.788666
 20
-3.406372
 30
0.0
  0
SPLINE
  5
20f
100
AcDbEntity
  8
Layer_1
 62
3
100
AcDbSpline
 70
8
 71
3
 72
8
 73
4
 74
0
 40
0
 40
0
 40
0
 40
0
 40
1
 40
1
 40
1
 40
1
 10
12.788666
 20
-3.406372
 30
0.0
 10
12.794291
 20
-3.476366
 30
0.0
 10
12.784771
 20
-3.547267
 30
0.0
 10
12.756086
 20
-3.615869
 30
0.0
  0
LINE
  5
210
100
AcDbEntity
  8
Layer_1
 62
3
100
AcDbLine
 10
12.756086
 20
-3.615869
 30
0.0
 11
12.711035
 21
-3.723469
 31
0.0
  0
SPLINE
  5
211
100
AcDbEntity
  8
Layer_1
 62
3
100
AcDbSpline
 70
8
 71
3
 72
8
 73
4
 74
0
 40
0
 40
0
 40
0
 40
0
 40
1
 40
1
 40
1
 40
1
 10
12.711035
 20
-3.723469
 30
0.0
 10
12.597615
 20
-3.994717
 30
0.0
 10
12.242339
 20
-4.129579
 30
0.0
 10
11.892481
 20
-4.044239
 30
0.0
  0
SPLINE
  5
212
100
AcDbEntity
  8
Layer_1
 62
3
100
AcDbSpline
 70
8
 71
3
 72
8
 73
4
 74
0
 40
0
 40
0
 40
0
 40
0
 40
1
 40
1
 40
1
 40
1
 10
11.892481
 20
-4.044239
 30
0.0
 10
11.869152
 20
-4.038569
 30
0.0
 10
11.845785
 20
-4.031901
 30
0.0
 10
11.822584
 20
-4.024227
 30
0.0
  0
SPLINE
  5
213
100
AcDbEntity
  8
Layer_1
 62
3
100
AcDbSpline
 70
8
 71
3
 72
8
 73
4
 74
0
 40
0
 40
0
 40
0
 40
0
 40
1
 40
1
 40
1
 40
1
 10
11.822584
 20
-4.024227
 30
0.0
 10
11.451362
 20
-3.901480
 30
0.0
 10
11.249934
 20
-3.569736
 30
0.0
 10
11.370915
 20
-3.280404
 30
0.0
  0
LINE
  5
214
100
AcDbEntity
  8
Layer_1
 62
3
100
AcDbLine
 10
11.370915
 20
-3.280404
 30
0.0
 11
11.415966
 21
-3.172707
 31
0.0
  0
SPLINE
  5
215
100
AcDbEntity
  8
Layer_1
 62
3
100
AcDbSpline
 70
8
 71
3
 72
8
 73
4
 74
0
 40
0
 40
0
 40
0
 40
0
 40
1
 40
1
 40
1
 40
1
 10
11.415966
 20
-3.172707
 30
0.0
 10
11.436039
 20
-3.124703
 30
0.0
 10
11.463942
 20
-3.081199
 30
0.0
 10
11.497850
 20
-3.042291
 30
0.0
  0
SPLINE
  5
216
100
AcDbEntity
  8
Layer_1
 62
3
100
AcDbSpline
 70
8
 71
3
 72
8
 73
4
 74
0
 40
0
 40
0
 40
0
 40
0
 40
1
 40
1
 40
1
 40
1
 10
11.497850
 20
-3.042291
 30
0.0
 10
11.663645
 20
-2.959521
 30
0.0
 10
11.729658
 20
-2.888419
 30
0.0
 10
11.782173
 20
-2.764928
 30
0.0
  0
LINE
  5
217
100
AcDbEntity
  8
Layer_1
 62
3
100
AcDbLine
 10
11.782173
 20
-2.764928
 30
0.0
 11
11.827128
 21
-2.657231
 31
0.0
  0
SPLINE
  5
218
100
AcDbEntity
  8
Layer_1
 62
3
100
AcDbSpline
 70
8
 71
3
 72
8
 73
4
 74
0
 40
0
 40
0
 40
0
 40
0
 40
1
 40
1
 40
1
 40
1
 10
11.827128
 20
-2.657231
 30
0.0
 10
11.948111
 20
-2.367898
 30
0.0
 10
11.746683
 20
-2.036155
 30
0.0
 10
11.375459
 20
-1.913408
 30
0.0
  0
SPLINE
  5
219
100
AcDbEntity
  8
Layer_1
 62
3
100
AcDbSpline
 70
8
 71
3
 72
8
 73
4
 74
0
 40
0
 40
0
 40
0
 40
0
 40
1
 40
1
 40
1
 40
1
 10
11.375459
 20
-1.913408
 30
0.0
 10
11.352232
 20
-1.905829
 30
0.0
 10
11.328988
 20
-1.899066
 30
0.0
 10
11.305659
 20
-1.893396
 30
0.0
  0
SPLINE
  5
21a
100
AcDbEntity
  8
Layer_1
 62
3
100
AcDbSpline
 70
8
 71
3
 72
8
 73
4
 74
0
 40
0
 40
0
 40
0
 40
0
 40
1
 40
1
 40
1
 40
1
 10
11.305659
 20
-1.893396
 30
0.0
 10
10.955802
 20
-1.808057
 30
0.0
 10
10.600429
 20
-1.942916
 30
0.0
 10
10.487008
 20
-2.214166
 30
0.0
  0
LINE
  5
21b
100
AcDbEntity
  8
Layer_1
 62
3
100
AcDbLine
 10
10.487008
 20
-2.214166
 30
0.0
 11
10.442053
 21
-2.321766
 31
0.0
  0
SPLINE
  5
21c
100
AcDbEntity
  8
Layer_1
 62
3
100
AcDbSpline
 70
8
 71
3
 72
8
 73
4
 74
0
 40
0
 40
0
 40
0
 40
0
 40
1
 40
1
 40
1
 40
1
 10
10.442053
 20
-2.321766
 30
0.0
 10
10.384822
 20
-2.470645
 30
0.0
 10
10.400098
 20
-2.640076
 30
0.0
 10
10.510017
 20
-2.795575
 30
0.0
  0
SPLINE
  5
21d
100
AcDbEntity
  8
Layer_1
 62
3
100
AcDbSpline
 70
8
 71
3
 72
8
 73
4
 74
0
 40
0
 40
0
 40
0
 40
0
 40
1
 40
1
 40
1
 40
1
 10
10.510017
 20
-2.795575
 30
0.0
 10
10.515672
 20
-2.865650
 30
0.0
 10
10.506254
 20
-2.936670
 30
0.0
 10
10.477533
 20
-3.005361
 30
0.0
  0
LINE
  5
21e
100
AcDbEntity
  8
Layer_1
 62
3
100
AcDbLine
 10
10.477533
 20
-3.005361
 30
0.0
 11
10.432579
 21
-3.112961
 31
0.0
  0
SPLINE
  5
21f
100
AcDbEntity
  8
Layer_1
 62
3
100
AcDbSpline
 70
8
 71
3
 72
8
 73
4
 74
0
 40
0
 40
0
 40
0
 40
0
 40
1
 40
1
 40
1
 40
1
 10
10.432579
 20
-3.112961
 30
0.0
 10
10.319158
 20
-3.384210
 30
0.0
 10
9.963785
 20
-3.519071
 30
0.0
 10
9.613929
 20
-3.433731
 30
0.0
  0
LINE
  5
220
100
AcDbEntity
  8
Layer_1
 62
3
100
AcDbLine
 10
9.613929
 20
-3.433731
 30
0.0
 11
9.613830
 21
-3.433731
 31
0.0
  0
SPLINE
  5
221
100
AcDbEntity
  8
Layer_1
 62
3
100
AcDbSpline
 70
8
 71
3
 72
8
 73
4
 74
0
 40
0
 40
0
 40
0
 40
0
 40
1
 40
1
 40
1
 40
1
 10
9.613830
 20
-3.433731
 30
0.0
 10
9.590501
 20
-3.428061
 30
0.0
 10
9.567134
 20
-3.421296
 30
0.0
 10
9.543933
 20
-3.413623
 30
0.0
  0
SPLINE
  5
222
100
AcDbEntity
  8
Layer_1
 62
3
100
AcDbSpline
 70
8
 71
3
 72
8
 73
4
 74
0
 40
0
 40
0
 40
0
 40
0
 40
1
 40
1
 40
1
 40
1
 10
9.543933
 20
-3.413623
 30
0.0
 10
9.172708
 20
-3.290878
 30
0.0
 10
8.971281
 20
-2.959130
 30
0.0
 10
9.092264
 20
-2.669799
 30
0.0
  0
LINE
  5
223
100
AcDbEntity
  8
Layer_1
 62
3
100
AcDbLine
 10
9.092264
 20
-2.669799
 30
0.0
 11
9.137411
 21
-2.562199
 31
0.0
  0
SPLINE
  5
224
100
AcDbEntity
  8
Layer_1
 62
3
100
AcDbSpline
 70
8
 71
3
 72
8
 73
4
 74
0
 40
0
 40
0
 40
0
 40
0
 40
1
 40
1
 40
1
 40
1
 10
9.137411
 20
-2.562199
 30
0.0
 10
9.157475
 20
-2.514215
 30
0.0
 10
9.185406
 20
-2.470776
 30
0.0
 10
9.219296
 20
-2.431880
 30
0.0
  0
SPLINE
  5
225
100
AcDbEntity
  8
Layer_1
 62
3
100
AcDbSpline
 70
8
 71
3
 72
8
 73
4
 74
0
 40
0
 40
0
 40
0
 40
0
 40
1
 40
1
 40
1
 40
1
 10
9.219296
 20
-2.431880
 30
0.0
 10
9.385117
 20
-2.348993
 30
0.0
 10
9.451096
 20
-2.277936
 30
0.0
 10
9.503619
 20
-2.154420
 30
0.0
  0
LINE
  5
226
100
AcDbEntity
  8
Layer_1
 62
3
100
AcDbLine
 10
9.503619
 20
-2.154420
 30
0.0
 11
9.548671
 21
-2.046724
 31
0.0
  0
SPLINE
  5
227
100
AcDbEntity
  8
Layer_1
 62
3
100
AcDbSpline
 70
8
 71
3
 72
8
 73
4
 74
0
 40
0
 40
0
 40
0
 40
0
 40
1
 40
1
 40
1
 40
1
 10
9.548671
 20
-2.046724
 30
0.0
 10
9.669653
 20
-1.757390
 30
0.0
 10
9.468128
 20
-1.425647
 30
0.0
 10
9.096904
 20
-1.302900
 30
0.0
  0
SPLINE
  5
228
100
AcDbEntity
  8
Layer_1
 62
3
100
AcDbSpline
 70
8
 71
3
 72
8
 73
4
 74
0
 40
0
 40
0
 40
0
 40
0
 40
1
 40
1
 40
1
 40
1
 10
9.096904
 20
-1.302900
 30
0.0
 10
9.073678
 20
-1.295321
 30
0.0
 10
9.050433
 20
-1.288559
 30
0.0
 10
9.027104
 20
-1.282888
 30
0.0
  0
SPLINE
  5
229
100
AcDbEntity
  8
Layer_1
 62
3
100
AcDbSpline
 70
8
 71
3
 72
8
 73
4
 74
0
 40
0
 40
0
 40
0
 40
0
 40
1
 40
1
 40
1
 40
1
 10
9.027104
 20
-1.282888
 30
0.0
 10
8.677250
 20
-1.197532
 30
0.0
 10
8.321874
 20
-1.332410
 30
0.0
 10
8.208453
 20
-1.603658
 30
0.0
  0
LINE
  5
22a
100
AcDbEntity
  8
Layer_1
 62
3
100
AcDbLine
 10
8.208453
 20
-1.603658
 30
0.0
 11
8.163499
 21
-1.711259
 31
0.0
  0
SPLINE
  5
22b
100
AcDbEntity
  8
Layer_1
 62
3
100
AcDbSpline
 70
8
 71
3
 72
8
 73
4
 74
0
 40
0
 40
0
 40
0
 40
0
 40
1
 40
1
 40
1
 40
1
 10
8.163499
 20
-1.711259
 30
0.0
 10
8.106268
 20
-1.860135
 30
0.0
 10
8.121640
 20
-2.029568
 30
0.0
 10
8.231559
 20
-2.185067
 30
0.0
  0
SPLINE
  5
22c
100
AcDbEntity
  8
Layer_1
 62
3
100
AcDbSpline
 70
8
 71
3
 72
8
 73
4
 74
0
 40
0
 40
0
 40
0
 40
0
 40
1
 40
1
 40
1
 40
1
 10
8.231559
 20
-2.185067
 30
0.0
 10
8.237214
 20
-2.255143
 30
0.0
 10
8.227698
 20
-2.326163
 30
0.0
 10
8.198979
 20
-2.394853
 30
0.0
  0
LINE
  5
22d
100
AcDbEntity
  8
Layer_1
 62
3
100
AcDbLine
 10
8.198979
 20
-2.394853
 30
0.0
 11
8.154025
 21
-2.502453
 31
0.0
  0
SPLINE
  5
22e
100
AcDbEntity
  8
Layer_1
 62
3
100
AcDbSpline
 70
8
 71
3
 72
8
 73
4
 74
0
 40
0
 40
0
 40
0
 40
0
 40
1
 40
1
 40
1
 40
1
 10
8.154025
 20
-2.502453
 30
0.0
 10
8.040604
 20
-2.773702
 30
0.0
 10
7.685231
 20
-2.908566
 30
0.0
 10
7.335374
 20
-2.823224
 30
0.0
  0
SPLINE
  5
22f
100
AcDbEntity
  8
Layer_1
 62
3
100
AcDbSpline
 70
8
 71
3
 72
8
 73
4
 74
0
 40
0
 40
0
 40
0
 40
0
 40
1
 40
1
 40
1
 40
1
 10
7.335374
 20
-2.823224
 30
0.0
 10
7.312046
 20
-2.817553
 30
0.0
 10
7.288776
 20
-2.810886
 30
0.0
 10
7.265574
 20
-2.803212
 30
0.0
  0
SPLINE
  5
230
100
AcDbEntity
  8
Layer_1
 62
3
100
AcDbSpline
 70
8
 71
3
 72
8
 73
4
 74
0
 40
0
 40
0
 40
0
 40
0
 40
1
 40
1
 40
1
 40
1
 10
7.265574
 20
-2.803212
 30
0.0
 10
6.894350
 20
-2.680467
 30
0.0
 10
6.692923
 20
-2.348722
 30
0.0
 10
6.813905
 20
-2.059388
 30
0.0
  0
LINE
  5
231
100
AcDbEntity
  8
Layer_1
 62
3
100
AcDbLine
 10
6.813905
 20
-2.059388
 30
0.0
 11
6.858859
 21
-1.951691
 31
0.0
  0
SPLINE
  5
232
100
AcDbEntity
  8
Layer_1
 62
3
100
AcDbSpline
 70
8
 71
3
 72
8
 73
4
 74
0
 40
0
 40
0
 40
0
 40
0
 40
1
 40
1
 40
1
 40
1
 10
6.858859
 20
-1.951691
 30
0.0
 10
6.878914
 20
-1.903734
 30
0.0
 10
6.906768
 20
-1.860240
 30
0.0
 10
6.940647
 20
-1.821372
 30
0.0
  0
SPLINE
  5
233
100
AcDbEntity
  8
Layer_1
 62
3
100
AcDbSpline
 70
8
 71
3
 72
8
 73
4
 74
0
 40
0
 40
0
 40
0
 40
0
 40
1
 40
1
 40
1
 40
1
 10
6.940647
 20
-1.821372
 30
0.0
 10
7.106587
 20
-1.738482
 30
0.0
 10
7.172521
 20
-1.667480
 30
0.0
 10
7.225067
 20
-1.543913
 30
0.0
  0
LINE
  5
234
100
AcDbEntity
  8
Layer_1
 62
3
100
AcDbLine
 10
7.225067
 20
-1.543913
 30
0.0
 11
7.270118
 21
-1.436216
 31
0.0
  0
SPLINE
  5
235
100
AcDbEntity
  8
Layer_1
 62
3
100
AcDbSpline
 70
8
 71
3
 72
8
 73
4
 74
0
 40
0
 40
0
 40
0
 40
0
 40
1
 40
1
 40
1
 40
1
 10
7.270118
 20
-1.436216
 30
0.0
 10
7.391103
 20
-1.146893
 30
0.0
 10
7.189673
 20
-0.815138
 30
0.0
 10
6.818449
 20
-0.692392
 30
0.0
  0
SPLINE
  5
236
100
AcDbEntity
  8
Layer_1
 62
3
100
AcDbSpline
 70
8
 71
3
 72
8
 73
4
 74
0
 40
0
 40
0
 40
0
 40
0
 40
1
 40
1
 40
1
 40
1
 10
6.818449
 20
-0.692392
 30
0.0
 10
6.795222
 20
-0.684813
 30
0.0
 10
6.771881
 20
-0.678051
 30
0.0
 10
6.748552
 20
-0.672380
 30
0.0
  0
SPLINE
  5
237
100
AcDbEntity
  8
Layer_1
 62
3
100
AcDbSpline
 70
8
 71
3
 72
8
 73
4
 74
0
 40
0
 40
0
 40
0
 40
0
 40
1
 40
1
 40
1
 40
1
 10
6.748552
 20
-0.672380
 30
0.0
 10
6.682954
 20
-0.656379
 30
0.0
 10
6.617133
 20
-0.648122
 30
0.0
 10
6.552784
 20
-0.647051
 30
0.0
  0
LINE
  5
238
100
AcDbEntity
  8
Layer_1
 62
3
100
AcDbLine
 10
6.552784
 20
-0.647051
 30
0.0
 11
6.552784
 21
-0.647051
 31
0.0
  0
SPLINE
  5
239
100
AcDbEntity
  8
Layer_1
 62
3
100
AcDbSpline
 70
8
 71
3
 72
8
 73
4
 74
0
 40
0
 40
0
 40
0
 40
0
 40
1
 40
1
 40
1
 40
1
 10
15.948374
 20
-6.566676
 30
0.0
 10
16.151239
 20
-6.349706
 30
0.0
 10
16.453934
 20
-6.224234
 30
0.0
 10
16.621228
 20
-6.435758
 30
0.0
  0
SPLINE
  5
23a
100
AcDbEntity
  8
Layer_1
 62
3
100
AcDbSpline
 70
8
 71
3
 72
8
 73
4
 74
0
 40
0
 40
0
 40
0
 40
0
 40
1
 40
1
 40
1
 40
1
 10
16.621228
 20
-6.435758
 30
0.0
 10
16.788521
 20
-6.647282
 30
0.0
 10
16.172894
 20
-10.229030
 30
0.0
 10
16.124628
 20
-10.622061
 30
0.0
  0
SPLINE
  5
23b
100
AcDbEntity
  8
Layer_1
 62
3
100
AcDbSpline
 70
8
 71
3
 72
8
 73
4
 74
0
 40
0
 40
0
 40
0
 40
0
 40
1
 40
1
 40
1
 40
1
 10
16.124628
 20
-10.622061
 30
0.0
 10
16.069554
 20
-11.070523
 30
0.0
 10
15.377622
 20
-11.052025
 30
0.0
 10
15.441724
 20
-10.610537
 30
0.0
  0
SPLINE
  5
23c
100
AcDbEntity
  8
Layer_1
 62
3
100
AcDbSpline
 70
8
 71
3
 72
8
 73
4
 74
0
 40
0
 40
0
 40
0
 40
0
 40
1
 40
1
 40
1
 40
1
 10
15.441724
 20
-10.610537
 30
0.0
 10
15.505826
 20
-10.169036
 30
0.0
 10
15.745510
 20
-6.783658
 30
0.0
 10
15.948374
 20
-6.566688
 30
0.0
  0
LINE
  5
23d
100
AcDbEntity
  8
Layer_1
 62
3
100
AcDbLine
 10
15.948374
 20
-6.566688
 30
0.0
 11
15.948374
 21
-6.566676
 31
0.0
  0
SPLINE
  5
23e
100
AcDbEntity
  8
Layer_1
 62
3
100
AcDbSpline
 70
8
 71
3
 72
8
 73
4
 74
0
 40
0
 40
0
 40
0
 40
0
 40
1
 40
1
 40
1
 40
1
 10
18.409974
 20
-6.646559
 30
0.0
 10
18.699541
 20
-6.642780
 30
0.0
 10
19.222425
 20
-7.410850
 30
0.0
 10
19.276059
 20
-7.893721
 30
0.0
  0
SPLINE
  5
23f
100
AcDbEntity
  8
Layer_1
 62
3
100
AcDbSpline
 70
8
 71
3
 72
8
 73
4
 74
0
 40
0
 40
0
 40
0
 40
0
 40
1
 40
1
 40
1
 40
1
 10
19.276059
 20
-7.893721
 30
0.0
 10
19.329692
 20
-8.376591
 30
0.0
 10
18.882074
 20
-8.212685
 30
0.0
 10
18.798034
 20
-7.913855
 30
0.0
  0
SPLINE
  5
240
100
AcDbEntity
  8
Layer_1
 62
3
100
AcDbSpline
 70
8
 71
3
 72
8
 73
4
 74
0
 40
0
 40
0
 40
0
 40
0
 40
1
 40
1
 40
1
 40
1
 10
18.798034
 20
-7.913855
 30
0.0
 10
18.713994
 20
-7.615024
 30
0.0
 10
18.280703
 20
-7.200838
 30
0.0
 10
18.089452
 20
-7.771900
 30
0.0
  0
SPLINE
  5
241
100
AcDbEntity
  8
Layer_1
 62
3
100
AcDbSpline
 70
8
 71
3
 72
8
 73
4
 74
0
 40
0
 40
0
 40
0
 40
0
 40
1
 40
1
 40
1
 40
1
 10
18.089452
 20
-7.771900
 30
0.0
 10
17.871576
 20
-8.321362
 30
0.0
 10
17.880876
 20
-9.397933
 30
0.0
 10
18.107936
 20
-9.916619
 30
0.0
  0
SPLINE
  5
242
100
AcDbEntity
  8
Layer_1
 62
3
100
AcDbSpline
 70
8
 71
3
 72
8
 73
4
 74
0
 40
0
 40
0
 40
0
 40
0
 40
1
 40
1
 40
1
 40
1
 10
18.107936
 20
-9.916619
 30
0.0
 10
18.291490
 20
-10.400542
 30
0.0
 10
18.672237
 20
-10.160041
 30
0.0
 10
18.764150
 20
-9.810484
 30
0.0
  0
SPLINE
  5
243
100
AcDbEntity
  8
Layer_1
 62
3
100
AcDbSpline
 70
8
 71
3
 72
8
 73
4
 74
0
 40
0
 40
0
 40
0
 40
0
 40
1
 40
1
 40
1
 40
1
 10
18.764150
 20
-9.810484
 30
0.0
 10
18.856064
 20
-9.460926
 30
0.0
 10
19.316825
 20
-9.206109
 30
0.0
 10
19.237928
 20
-9.795929
 30
0.0
  0
SPLINE
  5
244
100
AcDbEntity
  8
Layer_1
 62
3
100
AcDbSpline
 70
8
 71
3
 72
8
 73
4
 74
0
 40
0
 40
0
 40
0
 40
0
 40
1
 40
1
 40
1
 40
1
 10
19.237928
 20
-9.795929
 30
0.0
 10
19.154210
 20
-10.382134
 30
0.0
 10
18.057931
 20
-11.363194
 30
0.0
 10
17.701031
 20
-10.624815
 30
0.0
  0
SPLINE
  5
245
100
AcDbEntity
  8
Layer_1
 62
3
100
AcDbSpline
 70
8
 71
3
 72
8
 73
4
 74
0
 40
0
 40
0
 40
0
 40
0
 40
1
 40
1
 40
1
 40
1
 10
17.701031
 20
-10.624815
 30
0.0
 10
17.443146
 20
-10.132587
 30
0.0
 10
17.308571
 20
-9.188526
 30
0.0
 10
17.380131
 20
-8.325973
 30
0.0
  0
SPLINE
  5
246
100
AcDbEntity
  8
Layer_1
 62
3
100
AcDbSpline
 70
8
 71
3
 72
8
 73
4
 74
0
 40
0
 40
0
 40
0
 40
0
 40
1
 40
1
 40
1
 40
1
 10
17.380131
 20
-8.325973
 30
0.0
 10
17.452154
 20
-7.384568
 30
0.0
 10
18.067102
 20
-6.621587
 30
0.0
 10
18.409965
 20
-6.646567
 30
0.0
  0
LINE
  5
247
100
AcDbEntity
  8
Layer_1
 62
3
100
AcDbLine
 10
18.409965
 20
-6.646567
 30
0.0
 11
18.409974
 21
-6.646559
 31
0.0
  0
SPLINE
  5
248
100
AcDbEntity
  8
Layer_1
 62
3
100
AcDbSpline
 70
8
 71
3
 72
8
 73
4
 74
0
 40
0
 40
0
 40
0
 40
0
 40
1
 40
1
 40
1
 40
1
 10
20.193975
 20
-6.694623
 30
0.0
 10
20.689769
 20
-6.579252
 30
0.0
 10
21.733584
 20
-6.592156
 30
0.0
 10
22.017789
 20
-6.757408
 30
0.0
  0
SPLINE
  5
249
100
AcDbEntity
  8
Layer_1
 62
3
100
AcDbSpline
 70
8
 71
3
 72
8
 73
4
 74
0
 40
0
 40
0
 40
0
 40
0
 40
1
 40
1
 40
1
 40
1
 10
22.017789
 20
-6.757408
 30
0.0
 10
22.301994
 20
-6.922661
 30
0.0
 10
22.264835
 20
-7.405218
 30
0.0
 10
22.034832
 20
-7.506327
 30
0.0
  0
SPLINE
  5
24a
100
AcDbEntity
  8
Layer_1
 62
3
100
AcDbSpline
 70
8
 71
3
 72
8
 73
4
 74
0
 40
0
 40
0
 40
0
 40
0
 40
1
 40
1
 40
1
 40
1
 10
22.034832
 20
-7.506327
 30
0.0
 10
21.804830
 20
-7.607435
 30
0.0
 10
21.388910
 20
-6.881327
 30
0.0
 10
21.327162
 20
-7.515667
 30
0.0
  0
SPLINE
  5
24b
100
AcDbEntity
  8
Layer_1
 62
3
100
AcDbSpline
 70
8
 71
3
 72
8
 73
4
 74
0
 40
0
 40
0
 40
0
 40
0
 40
1
 40
1
 40
1
 40
1
 10
21.327162
 20
-7.515667
 30
0.0
 10
21.265415
 20
-8.150008
 30
0.0
 10
21.366930
 20
-10.294135
 30
0.0
 10
21.305774
 20
-10.928036
 30
0.0
  0
SPLINE
  5
24c
100
AcDbEntity
  8
Layer_1
 62
3
100
AcDbSpline
 70
8
 71
3
 72
8
 73
4
 74
0
 40
0
 40
0
 40
0
 40
0
 40
1
 40
1
 40
1
 40
1
 10
21.305774
 20
-10.928036
 30
0.0
 10
21.277194
 20
-11.224285
 30
0.0
 10
21.194361
 20
-11.202156
 30
0.0
 10
21.094327
 20
-11.223215
 30
0.0
  0
SPLINE
  5
24d
100
AcDbEntity
  8
Layer_1
 62
3
100
AcDbSpline
 70
8
 71
3
 72
8
 73
4
 74
0
 40
0
 40
0
 40
0
 40
0
 40
1
 40
1
 40
1
 40
1
 10
21.094327
 20
-11.223215
 30
0.0
 10
20.980312
 20
-11.247218
 30
0.0
 10
20.846962
 20
-11.273135
 30
0.0
 10
20.799072
 20
-10.937315
 30
0.0
  0
SPLINE
  5
24e
100
AcDbEntity
  8
Layer_1
 62
3
100
AcDbSpline
 70
8
 71
3
 72
8
 73
4
 74
0
 40
0
 40
0
 40
0
 40
0
 40
1
 40
1
 40
1
 40
1
 10
20.799072
 20
-10.937315
 30
0.0
 10
20.709163
 20
-10.306853
 30
0.0
 10
20.810764
 20
-8.154999
 30
0.0
 10
20.721466
 20
-7.524947
 30
0.0
  0
SPLINE
  5
24f
100
AcDbEntity
  8
Layer_1
 62
3
100
AcDbSpline
 70
8
 71
3
 72
8
 73
4
 74
0
 40
0
 40
0
 40
0
 40
0
 40
1
 40
1
 40
1
 40
1
 10
20.721466
 20
-7.524947
 30
0.0
 10
20.632167
 20
-6.894895
 30
0.0
 10
20.257392
 20
-7.756340
 30
0.0
 10
20.019747
 20
-7.534151
 30
0.0
  0
SPLINE
  5
250
100
AcDbEntity
  8
Layer_1
 62
3
100
AcDbSpline
 70
8
 71
3
 72
8
 73
4
 74
0
 40
0
 40
0
 40
0
 40
0
 40
1
 40
1
 40
1
 40
1
 10
20.019747
 20
-7.534151
 30
0.0
 10
19.782102
 20
-7.311962
 30
0.0
 10
19.890546
 20
-6.875833
 30
0.0
 10
20.193975
 20
-6.694623
 30
0.0
  0
LINE
  5
251
100
AcDbEntity
  8
Layer_1
 62
3
100
AcDbLine
 10
20.193975
 20
-6.694623
 30
0.0
 11
20.193975
 21
-6.694623
 31
0.0
  0
SPLINE
  5
252
100
AcDbEntity
  8
Layer_1
 62
3
100
AcDbSpline
 70
8
 71
3
 72
8
 73
4
 74
0
 40
0
 40
0
 40
0
 40
0
 40
1
 40
1
 40
1
 40
1
 10
23.152662
 20
-6.548313
 30
0.0
 10
23.242927
 20
-6.513611
 30
0.0
 10
23.490719
 20
-6.417486
 30
0.0
 10
23.720295
 20
-6.511039
 30
0.0
  0
SPLINE
  5
253
100
AcDbEntity
  8
Layer_1
 62
3
100
AcDbSpline
 70
8
 71
3
 72
8
 73
4
 74
0
 40
0
 40
0
 40
0
 40
0
 40
1
 40
1
 40
1
 40
1
 10
23.720295
 20
-6.511039
 30
0.0
 10
23.949871
 20
-6.604592
 30
0.0
 10
24.446574
 20
-7.400938
 30
0.0
 10
24.494818
 20
-8.105680
 30
0.0
  0
SPLINE
  5
254
100
AcDbEntity
  8
Layer_1
 62
3
100
AcDbSpline
 70
8
 71
3
 72
8
 73
4
 74
0
 40
0
 40
0
 40
0
 40
0
 40
1
 40
1
 40
1
 40
1
 10
24.494818
 20
-8.105680
 30
0.0
 10
24.543062
 20
-8.810422
 30
0.0
 10
24.317933
 20
-9.161328
 30
0.0
 10
24.086542
 20
-9.154070
 30
0.0
  0
SPLINE
  5
255
100
AcDbEntity
  8
Layer_1
 62
3
100
AcDbSpline
 70
8
 71
3
 72
8
 73
4
 74
0
 40
0
 40
0
 40
0
 40
0
 40
1
 40
1
 40
1
 40
1
 10
24.086542
 20
-9.154070
 30
0.0
 10
23.945649
 20
-9.149655
 30
0.0
 10
23.747214
 20
-9.031234
 30
0.0
 10
23.759812
 20
-9.342615
 30
0.0
  0
SPLINE
  5
256
100
AcDbEntity
  8
Layer_1
 62
3
100
AcDbSpline
 70
8
 71
3
 72
8
 73
4
 74
0
 40
0
 40
0
 40
0
 40
0
 40
1
 40
1
 40
1
 40
1
 10
23.759812
 20
-9.342615
 30
0.0
 10
23.772403
 20
-9.653996
 30
0.0
 10
23.941973
 20
-10.608647
 30
0.0
 10
23.935453
 20
-10.938778
 30
0.0
  0
SPLINE
  5
257
100
AcDbEntity
  8
Layer_1
 62
3
100
AcDbSpline
 70
8
 71
3
 72
8
 73
4
 74
0
 40
0
 40
0
 40
0
 40
0
 40
1
 40
1
 40
1
 40
1
 10
23.935453
 20
-10.938778
 30
0.0
 10
23.928943
 20
-11.268909
 30
0.0
 10
23.513930
 20
-10.974785
 30
0.0
 10
23.469224
 20
-10.981988
 30
0.0
  0
SPLINE
  5
258
100
AcDbEntity
  8
Layer_1
 62
3
100
AcDbSpline
 70
8
 71
3
 72
8
 73
4
 74
0
 40
0
 40
0
 40
0
 40
0
 40
1
 40
1
 40
1
 40
1
 10
23.469224
 20
-10.981988
 30
0.0
 10
23.424518
 20
-10.989191
 30
0.0
 10
22.882213
 20
-7.538039
 30
0.0
 10
22.870790
 20
-7.109430
 30
0.0
  0
SPLINE
  5
259
100
AcDbEntity
  8
Layer_1
 62
3
100
AcDbSpline
 70
8
 71
3
 72
8
 73
4
 74
0
 40
0
 40
0
 40
0
 40
0
 40
1
 40
1
 40
1
 40
1
 10
22.870790
 20
-7.109430
 30
0.0
 10
22.859359
 20
-6.680821
 30
0.0
 10
23.152662
 20
-6.548313
 30
0.0
 10
23.152662
 20
-6.548313
 30
0.0
  0
LINE
  5
25a
100
AcDbEntity
  8
Layer_1
 62
3
100
AcDbLine
 10
23.152662
 20
-6.548313
 30
0.0
 11
23.152662
 21
-6.548313
 31
0.0
  0
ENDSEC
  0
SECTION
  2
OBJECTS
  0
DICTIONARY
  5
C
330
0
100
AcDbDictionary
  3
ACAD_GROUP
350
D
  3
ACAD_MLINESTYLE
350
17
  0
DICTIONARY
  5
D
330
C
100
AcDbDictionary
  0
DICTIONARY
  5
1A
330
C
100
AcDbDictionary
  0
DICTIONARY
  5
17
330
C
100
AcDbDictionary
  3
STANDARD
350
18
  0
DICTIONARY
  5
19
330
C
100
AcDbDictionary
  0
ENDSEC
  0
EOF
