  0
SECTION
  2
BLOCKS
  0
ENDSEC
  0
SECTION
  2
ENTITIES
  0
LINE
  8
0
 10
633.748
 20
209.639
 11
641.174
 21
209.981
  0
LINE
  8
0
 10
641.174
 20
209.981
 11
648.457
 21
210.548
  0
LINE
  8
0
 10
648.457
 20
210.548
 11
655.525
 21
211.333
  0
LINE
  8
0
 10
655.525
 20
211.333
 11
662.312
 21
212.329
  0
LINE
  8
0
 10
662.312
 20
212.329
 11
668.751
 21
213.528
  0
LINE
  8
0
 10
668.751
 20
213.528
 11
674.781
 21
214.916
  0
LINE
  8
0
 10
674.781
 20
214.916
 11
680.344
 21
216.481
  0
LINE
  8
0
 10
680.344
 20
216.481
 11
685.385
 21
218.208
  0
LINE
  8
0
 10
685.385
 20
218.208
 11
689.857
 21
220.08
  0
LINE
  8
0
 10
689.857
 20
220.08
 11
693.717
 21
222.079
  0
LINE
  8
0
 10
693.717
 20
222.079
 11
696.927
 21
224.186
  0
LINE
  8
0
 10
696.927
 20
224.186
 11
699.456
 21
226.381
  0
LINE
  8
0
 10
699.456
 20
226.381
 11
700.917
 21
228.192
  0
LINE
  8
0
 10
700.917
 20
228.192
 11
701.25
 21
228.275
  0
LINE
  8
0
 10
701.25
 20
228.275
 11
701.25
 21
233.275
  0
LINE
  8
0
 10
701.25
 20
233.275
 11
651.25
 21
233.275
  0
LINE
  8
0
 10
651.25
 20
233.275
 11
651.25
 21
238.275
  0
LINE
  8
0
 10
651.25
 20
238.275
 11
701.25
 21
238.275
  0
LINE
  8
0
 10
701.25
 20
238.275
 11
701.25
 21
250.15
  0
LINE
  8
0
 10
701.25
 20
250.15
 11
626.25
 21
250.15
  0
LINE
  8
0
 10
626.25
 20
250.15
 11
626.25
 21
209.525
  0
LINE
  8
0
 10
626.25
 20
209.525
 11
633.748
 21
209.639
  0
LINE
  8
0
 10
800.02
 20
75
 11
800.02
 21
250
  0
LINE
  8
0
 10
800.02
 20
250
 11
725.02
 21
250
  0
LINE
  8
0
 10
725.02
 20
250
 11
550.02
 21
75
  0
LINE
  8
0
 10
550.02
 20
75
 11
550.02
 21
3.05193
  0
LINE
  8
0
 10
550.02
 20
3.05193
 11
569.065
 21
16.3873
  0
LINE
  8
0
 10
569.065
 20
16.3873
 11
571.933
 21
12.2915
  0
LINE
  8
0
 10
571.933
 20
12.2915
 11
554.379
 21
0
  0
LINE
  8
0
 10
554.379
 20
0
 11
725.02
 21
0
  0
LINE
  8
0
 10
725.02
 20
0
 11
800.02
 21
75
  0
LINE
  8
0
 10
729.532
 20
237.548
 11
729.063
 21
237.69
  0
LINE
  8
0
 10
729.063
 20
237.69
 11
728.631
 21
237.921
  0
LINE
  8
0
 10
728.631
 20
237.921
 11
728.252
 21
238.232
  0
LINE
  8
0
 10
728.252
 20
238.232
 11
727.941
 21
238.611
  0
LINE
  8
0
 10
727.941
 20
238.611
 11
727.71
 21
239.043
  0
LINE
  8
0
 10
727.71
 20
239.043
 11
727.568
 21
239.512
  0
LINE
  8
0
 10
727.568
 20
239.512
 11
727.52
 21
240
  0
LINE
  8
0
 10
727.52
 20
240
 11
727.568
 21
240.488
  0
LINE
  8
0
 10
727.568
 20
240.488
 11
727.71
 21
240.957
  0
LINE
  8
0
 10
727.71
 20
240.957
 11
727.941
 21
241.389
  0
LINE
  8
0
 10
727.941
 20
241.389
 11
728.252
 21
241.768
  0
LINE
  8
0
 10
728.252
 20
241.768
 11
728.631
 21
242.079
  0
LINE
  8
0
 10
728.631
 20
242.079
 11
729.063
 21
242.31
  0
LINE
  8
0
 10
729.063
 20
242.31
 11
729.532
 21
242.452
  0
LINE
  8
0
 10
729.532
 20
242.452
 11
730.02
 21
242.5
  0
LINE
  8
0
 10
730.02
 20
242.5
 11
730.508
 21
242.452
  0
LINE
  8
0
 10
730.508
 20
242.452
 11
730.977
 21
242.31
  0
LINE
  8
0
 10
730.977
 20
242.31
 11
731.409
 21
242.079
  0
LINE
  8
0
 10
731.409
 20
242.079
 11
731.788
 21
241.768
  0
LINE
  8
0
 10
731.788
 20
241.768
 11
732.099
 21
241.389
  0
LINE
  8
0
 10
732.099
 20
241.389
 11
732.33
 21
240.957
  0
LINE
  8
0
 10
732.33
 20
240.957
 11
732.472
 21
240.488
  0
LINE
  8
0
 10
732.472
 20
240.488
 11
732.52
 21
240
  0
LINE
  8
0
 10
732.52
 20
240
 11
732.472
 21
239.512
  0
LINE
  8
0
 10
732.472
 20
239.512
 11
732.33
 21
239.043
  0
LINE
  8
0
 10
732.33
 20
239.043
 11
732.099
 21
238.611
  0
LINE
  8
0
 10
732.099
 20
238.611
 11
731.788
 21
238.232
  0
LINE
  8
0
 10
731.788
 20
238.232
 11
731.409
 21
237.921
  0
LINE
  8
0
 10
731.409
 20
237.921
 11
730.977
 21
237.69
  0
LINE
  8
0
 10
730.977
 20
237.69
 11
730.508
 21
237.548
  0
LINE
  8
0
 10
730.508
 20
237.548
 11
730.02
 21
237.5
  0
LINE
  8
0
 10
730.02
 20
237.5
 11
729.532
 21
237.548
  0
LINE
  8
0
 10
779.532
 20
237.548
 11
779.063
 21
237.69
  0
LINE
  8
0
 10
779.063
 20
237.69
 11
778.631
 21
237.921
  0
LINE
  8
0
 10
778.631
 20
237.921
 11
778.252
 21
238.232
  0
LINE
  8
0
 10
778.252
 20
238.232
 11
777.941
 21
238.611
  0
LINE
  8
0
 10
777.941
 20
238.611
 11
777.71
 21
239.043
  0
LINE
  8
0
 10
777.71
 20
239.043
 11
777.568
 21
239.512
  0
LINE
  8
0
 10
777.568
 20
239.512
 11
777.52
 21
240
  0
LINE
  8
0
 10
777.52
 20
240
 11
777.568
 21
240.488
  0
LINE
  8
0
 10
777.568
 20
240.488
 11
777.71
 21
240.957
  0
LINE
  8
0
 10
777.71
 20
240.957
 11
777.941
 21
241.389
  0
LINE
  8
0
 10
777.941
 20
241.389
 11
778.252
 21
241.768
  0
LINE
  8
0
 10
778.252
 20
241.768
 11
778.631
 21
242.079
  0
LINE
  8
0
 10
778.631
 20
242.079
 11
779.063
 21
242.31
  0
LINE
  8
0
 10
779.063
 20
242.31
 11
779.532
 21
242.452
  0
LINE
  8
0
 10
779.532
 20
242.452
 11
780.02
 21
242.5
  0
LINE
  8
0
 10
780.02
 20
242.5
 11
780.508
 21
242.452
  0
LINE
  8
0
 10
780.508
 20
242.452
 11
780.977
 21
242.31
  0
LINE
  8
0
 10
780.977
 20
242.31
 11
781.409
 21
242.079
  0
LINE
  8
0
 10
781.409
 20
242.079
 11
781.788
 21
241.768
  0
LINE
  8
0
 10
781.788
 20
241.768
 11
782.099
 21
241.389
  0
LINE
  8
0
 10
782.099
 20
241.389
 11
782.33
 21
240.957
  0
LINE
  8
0
 10
782.33
 20
240.957
 11
782.472
 21
240.488
  0
LINE
  8
0
 10
782.472
 20
240.488
 11
782.52
 21
240
  0
LINE
  8
0
 10
782.52
 20
240
 11
782.472
 21
239.512
  0
LINE
  8
0
 10
782.472
 20
239.512
 11
782.33
 21
239.043
  0
LINE
  8
0
 10
782.33
 20
239.043
 11
782.099
 21
238.611
  0
LINE
  8
0
 10
782.099
 20
238.611
 11
781.788
 21
238.232
  0
LINE
  8
0
 10
781.788
 20
238.232
 11
781.409
 21
237.921
  0
LINE
  8
0
 10
781.409
 20
237.921
 11
780.977
 21
237.69
  0
LINE
  8
0
 10
780.977
 20
237.69
 11
780.508
 21
237.548
  0
LINE
  8
0
 10
780.508
 20
237.548
 11
780.02
 21
237.5
  0
LINE
  8
0
 10
780.02
 20
237.5
 11
779.532
 21
237.548
  0
LINE
  8
0
 10
559.532
 20
67.548
 11
559.063
 21
67.6903
  0
LINE
  8
0
 10
559.063
 20
67.6903
 11
558.631
 21
67.9213
  0
LINE
  8
0
 10
558.631
 20
67.9213
 11
558.252
 21
68.2322
  0
LINE
  8
0
 10
558.252
 20
68.2322
 11
557.941
 21
68.6111
  0
LINE
  8
0
 10
557.941
 20
68.6111
 11
557.71
 21
69.0433
  0
LINE
  8
0
 10
557.71
 20
69.0433
 11
557.568
 21
69.5123
  0
LINE
  8
0
 10
557.568
 20
69.5123
 11
557.52
 21
70
  0
LINE
  8
0
 10
557.52
 20
70
 11
557.568
 21
70.4877
  0
LINE
  8
0
 10
557.568
 20
70.4877
 11
557.71
 21
70.9567
  0
LINE
  8
0
 10
557.71
 20
70.9567
 11
557.941
 21
71.3889
  0
LINE
  8
0
 10
557.941
 20
71.3889
 11
558.252
 21
71.7678
  0
LINE
  8
0
 10
558.252
 20
71.7678
 11
558.631
 21
72.0787
  0
LINE
  8
0
 10
558.631
 20
72.0787
 11
559.063
 21
72.3097
  0
LINE
  8
0
 10
559.063
 20
72.3097
 11
559.532
 21
72.452
  0
LINE
  8
0
 10
559.532
 20
72.452
 11
560.02
 21
72.5
  0
LINE
  8
0
 10
560.02
 20
72.5
 11
560.508
 21
72.452
  0
LINE
  8
0
 10
560.508
 20
72.452
 11
560.977
 21
72.3097
  0
LINE
  8
0
 10
560.977
 20
72.3097
 11
561.409
 21
72.0787
  0
LINE
  8
0
 10
561.409
 20
72.0787
 11
561.788
 21
71.7678
  0
LINE
  8
0
 10
561.788
 20
71.7678
 11
562.099
 21
71.3889
  0
LINE
  8
0
 10
562.099
 20
71.3889
 11
562.33
 21
70.9567
  0
LINE
  8
0
 10
562.33
 20
70.9567
 11
562.472
 21
70.4877
  0
LINE
  8
0
 10
562.472
 20
70.4877
 11
562.52
 21
70
  0
LINE
  8
0
 10
562.52
 20
70
 11
562.472
 21
69.5123
  0
LINE
  8
0
 10
562.472
 20
69.5123
 11
562.33
 21
69.0433
  0
LINE
  8
0
 10
562.33
 20
69.0433
 11
562.099
 21
68.6111
  0
LINE
  8
0
 10
562.099
 20
68.6111
 11
561.788
 21
68.2322
  0
LINE
  8
0
 10
561.788
 20
68.2322
 11
561.409
 21
67.9213
  0
LINE
  8
0
 10
561.409
 20
67.9213
 11
560.977
 21
67.6903
  0
LINE
  8
0
 10
560.977
 20
67.6903
 11
560.508
 21
67.548
  0
LINE
  8
0
 10
560.508
 20
67.548
 11
560.02
 21
67.5
  0
LINE
  8
0
 10
560.02
 20
67.5
 11
559.532
 21
67.548
  0
LINE
  8
0
 10
752.032
 20
45.048
 11
751.563
 21
45.1903
  0
LINE
  8
0
 10
751.563
 20
45.1903
 11
751.131
 21
45.4213
  0
LINE
  8
0
 10
751.131
 20
45.4213
 11
750.752
 21
45.7322
  0
LINE
  8
0
 10
750.752
 20
45.7322
 11
750.441
 21
46.1111
  0
LINE
  8
0
 10
750.441
 20
46.1111
 11
750.21
 21
46.5433
  0
LINE
  8
0
 10
750.21
 20
46.5433
 11
750.068
 21
47.0123
  0
LINE
  8
0
 10
750.068
 20
47.0123
 11
750.02
 21
47.5
  0
LINE
  8
0
 10
750.02
 20
47.5
 11
750.068
 21
47.9877
  0
LINE
  8
0
 10
750.068
 20
47.9877
 11
750.21
 21
48.4567
  0
LINE
  8
0
 10
750.21
 20
48.4567
 11
750.441
 21
48.8889
  0
LINE
  8
0
 10
750.441
 20
48.8889
 11
750.752
 21
49.2678
  0
LINE
  8
0
 10
750.752
 20
49.2678
 11
751.131
 21
49.5787
  0
LINE
  8
0
 10
751.131
 20
49.5787
 11
751.563
 21
49.8097
  0
LINE
  8
0
 10
751.563
 20
49.8097
 11
752.032
 21
49.952
  0
LINE
  8
0
 10
752.032
 20
49.952
 11
752.52
 21
50
  0
LINE
  8
0
 10
752.52
 20
50
 11
753.008
 21
49.952
  0
LINE
  8
0
 10
753.008
 20
49.952
 11
753.477
 21
49.8097
  0
LINE
  8
0
 10
753.477
 20
49.8097
 11
753.909
 21
49.5787
  0
LINE
  8
0
 10
753.909
 20
49.5787
 11
754.288
 21
49.2678
  0
LINE
  8
0
 10
754.288
 20
49.2678
 11
754.599
 21
48.8889
  0
LINE
  8
0
 10
754.599
 20
48.8889
 11
754.83
 21
48.4567
  0
LINE
  8
0
 10
754.83
 20
48.4567
 11
754.972
 21
47.9877
  0
LINE
  8
0
 10
754.972
 20
47.9877
 11
755.02
 21
47.5
  0
LINE
  8
0
 10
755.02
 20
47.5
 11
754.972
 21
47.0123
  0
LINE
  8
0
 10
754.972
 20
47.0123
 11
754.83
 21
46.5433
  0
LINE
  8
0
 10
754.83
 20
46.5433
 11
754.599
 21
46.1111
  0
LINE
  8
0
 10
754.599
 20
46.1111
 11
754.288
 21
45.7322
  0
LINE
  8
0
 10
754.288
 20
45.7322
 11
753.909
 21
45.4213
  0
LINE
  8
0
 10
753.909
 20
45.4213
 11
753.477
 21
45.1903
  0
LINE
  8
0
 10
753.477
 20
45.1903
 11
753.008
 21
45.048
  0
LINE
  8
0
 10
753.008
 20
45.048
 11
752.52
 21
45
  0
LINE
  8
0
 10
752.52
 20
45
 11
752.032
 21
45.048
  0
LINE
  8
0
 10
559.532
 20
17.548
 11
559.063
 21
17.6903
  0
LINE
  8
0
 10
559.063
 20
17.6903
 11
558.631
 21
17.9213
  0
LINE
  8
0
 10
558.631
 20
17.9213
 11
558.252
 21
18.2322
  0
LINE
  8
0
 10
558.252
 20
18.2322
 11
557.941
 21
18.6111
  0
LINE
  8
0
 10
557.941
 20
18.6111
 11
557.71
 21
19.0433
  0
LINE
  8
0
 10
557.71
 20
19.0433
 11
557.568
 21
19.5123
  0
LINE
  8
0
 10
557.568
 20
19.5123
 11
557.52
 21
20
  0
LINE
  8
0
 10
557.52
 20
20
 11
557.568
 21
20.4877
  0
LINE
  8
0
 10
557.568
 20
20.4877
 11
557.71
 21
20.9567
  0
LINE
  8
0
 10
557.71
 20
20.9567
 11
557.941
 21
21.3889
  0
LINE
  8
0
 10
557.941
 20
21.3889
 11
558.252
 21
21.7678
  0
LINE
  8
0
 10
558.252
 20
21.7678
 11
558.631
 21
22.0787
  0
LINE
  8
0
 10
558.631
 20
22.0787
 11
559.063
 21
22.3097
  0
LINE
  8
0
 10
559.063
 20
22.3097
 11
559.532
 21
22.452
  0
LINE
  8
0
 10
559.532
 20
22.452
 11
560.02
 21
22.5
  0
LINE
  8
0
 10
560.02
 20
22.5
 11
560.508
 21
22.452
  0
LINE
  8
0
 10
560.508
 20
22.452
 11
560.977
 21
22.3097
  0
LINE
  8
0
 10
560.977
 20
22.3097
 11
561.409
 21
22.0787
  0
LINE
  8
0
 10
561.409
 20
22.0787
 11
561.788
 21
21.7678
  0
LINE
  8
0
 10
561.788
 20
21.7678
 11
562.099
 21
21.3889
  0
LINE
  8
0
 10
562.099
 20
21.3889
 11
562.33
 21
20.9567
  0
LINE
  8
0
 10
562.33
 20
20.9567
 11
562.472
 21
20.4877
  0
LINE
  8
0
 10
562.472
 20
20.4877
 11
562.52
 21
20
  0
LINE
  8
0
 10
562.52
 20
20
 11
562.472
 21
19.5123
  0
LINE
  8
0
 10
562.472
 20
19.5123
 11
562.33
 21
19.0433
  0
LINE
  8
0
 10
562.33
 20
19.0433
 11
562.099
 21
18.6111
  0
LINE
  8
0
 10
562.099
 20
18.6111
 11
561.788
 21
18.2322
  0
LINE
  8
0
 10
561.788
 20
18.2322
 11
561.409
 21
17.9213
  0
LINE
  8
0
 10
561.409
 20
17.9213
 11
560.977
 21
17.6903
  0
LINE
  8
0
 10
560.977
 20
17.6903
 11
560.508
 21
17.548
  0
LINE
  8
0
 10
560.508
 20
17.548
 11
560.02
 21
17.5
  0
LINE
  8
0
 10
560.02
 20
17.5
 11
559.532
 21
17.548
  0
LINE
  8
0
 10
335
 20
250
 11
327
 21
250
  0
LINE
  8
0
 10
327
 20
250
 11
327
 21
225
  0
LINE
  8
0
 10
327
 20
225
 11
335
 21
225
  0
LINE
  8
0
 10
335
 20
225
 11
335
 21
250
  0
LINE
  8
0
 10
330.512
 20
242.548
 11
330.043
 21
242.69
  0
LINE
  8
0
 10
330.043
 20
242.69
 11
329.611
 21
242.921
  0
LINE
  8
0
 10
329.611
 20
242.921
 11
329.232
 21
243.232
  0
LINE
  8
0
 10
329.232
 20
243.232
 11
328.921
 21
243.611
  0
LINE
  8
0
 10
328.921
 20
243.611
 11
328.69
 21
244.043
  0
LINE
  8
0
 10
328.69
 20
244.043
 11
328.548
 21
244.512
  0
LINE
  8
0
 10
328.548
 20
244.512
 11
328.5
 21
245
  0
LINE
  8
0
 10
328.5
 20
245
 11
328.548
 21
245.488
  0
LINE
  8
0
 10
328.548
 20
245.488
 11
328.69
 21
245.957
  0
LINE
  8
0
 10
328.69
 20
245.957
 11
328.921
 21
246.389
  0
LINE
  8
0
 10
328.921
 20
246.389
 11
329.232
 21
246.768
  0
LINE
  8
0
 10
329.232
 20
246.768
 11
329.611
 21
247.079
  0
LINE
  8
0
 10
329.611
 20
247.079
 11
330.043
 21
247.31
  0
LINE
  8
0
 10
330.043
 20
247.31
 11
330.512
 21
247.452
  0
LINE
  8
0
 10
330.512
 20
247.452
 11
331
 21
247.5
  0
LINE
  8
0
 10
331
 20
247.5
 11
331.488
 21
247.452
  0
LINE
  8
0
 10
331.488
 20
247.452
 11
331.957
 21
247.31
  0
LINE
  8
0
 10
331.957
 20
247.31
 11
332.389
 21
247.079
  0
LINE
  8
0
 10
332.389
 20
247.079
 11
332.768
 21
246.768
  0
LINE
  8
0
 10
332.768
 20
246.768
 11
333.079
 21
246.389
  0
LINE
  8
0
 10
333.079
 20
246.389
 11
333.31
 21
245.957
  0
LINE
  8
0
 10
333.31
 20
245.957
 11
333.452
 21
245.488
  0
LINE
  8
0
 10
333.452
 20
245.488
 11
333.5
 21
245
  0
LINE
  8
0
 10
333.5
 20
245
 11
333.452
 21
244.512
  0
LINE
  8
0
 10
333.452
 20
244.512
 11
333.31
 21
244.043
  0
LINE
  8
0
 10
333.31
 20
244.043
 11
333.079
 21
243.611
  0
LINE
  8
0
 10
333.079
 20
243.611
 11
332.768
 21
243.232
  0
LINE
  8
0
 10
332.768
 20
243.232
 11
332.389
 21
242.921
  0
LINE
  8
0
 10
332.389
 20
242.921
 11
331.957
 21
242.69
  0
LINE
  8
0
 10
331.957
 20
242.69
 11
331.488
 21
242.548
  0
LINE
  8
0
 10
331.488
 20
242.548
 11
331
 21
242.5
  0
LINE
  8
0
 10
331
 20
242.5
 11
330.512
 21
242.548
  0
LINE
  8
0
 10
330.512
 20
235.048
 11
330.043
 21
235.19
  0
LINE
  8
0
 10
330.043
 20
235.19
 11
329.611
 21
235.421
  0
LINE
  8
0
 10
329.611
 20
235.421
 11
329.232
 21
235.732
  0
LINE
  8
0
 10
329.232
 20
235.732
 11
328.921
 21
236.111
  0
LINE
  8
0
 10
328.921
 20
236.111
 11
328.69
 21
236.543
  0
LINE
  8
0
 10
328.69
 20
236.543
 11
328.548
 21
237.012
  0
LINE
  8
0
 10
328.548
 20
237.012
 11
328.5
 21
237.5
  0
LINE
  8
0
 10
328.5
 20
237.5
 11
328.548
 21
237.988
  0
LINE
  8
0
 10
328.548
 20
237.988
 11
328.69
 21
238.457
  0
LINE
  8
0
 10
328.69
 20
238.457
 11
328.921
 21
238.889
  0
LINE
  8
0
 10
328.921
 20
238.889
 11
329.232
 21
239.268
  0
LINE
  8
0
 10
329.232
 20
239.268
 11
329.611
 21
239.579
  0
LINE
  8
0
 10
329.611
 20
239.579
 11
330.043
 21
239.81
  0
LINE
  8
0
 10
330.043
 20
239.81
 11
330.512
 21
239.952
  0
LINE
  8
0
 10
330.512
 20
239.952
 11
331
 21
240
  0
LINE
  8
0
 10
331
 20
240
 11
331.488
 21
239.952
  0
LINE
  8
0
 10
331.488
 20
239.952
 11
331.957
 21
239.81
  0
LINE
  8
0
 10
331.957
 20
239.81
 11
332.389
 21
239.579
  0
LINE
  8
0
 10
332.389
 20
239.579
 11
332.768
 21
239.268
  0
LINE
  8
0
 10
332.768
 20
239.268
 11
333.079
 21
238.889
  0
LINE
  8
0
 10
333.079
 20
238.889
 11
333.31
 21
238.457
  0
LINE
  8
0
 10
333.31
 20
238.457
 11
333.452
 21
237.988
  0
LINE
  8
0
 10
333.452
 20
237.988
 11
333.5
 21
237.5
  0
LINE
  8
0
 10
333.5
 20
237.5
 11
333.452
 21
237.012
  0
LINE
  8
0
 10
333.452
 20
237.012
 11
333.31
 21
236.543
  0
LINE
  8
0
 10
333.31
 20
236.543
 11
333.079
 21
236.111
  0
LINE
  8
0
 10
333.079
 20
236.111
 11
332.768
 21
235.732
  0
LINE
  8
0
 10
332.768
 20
235.732
 11
332.389
 21
235.421
  0
LINE
  8
0
 10
332.389
 20
235.421
 11
331.957
 21
235.19
  0
LINE
  8
0
 10
331.957
 20
235.19
 11
331.488
 21
235.048
  0
LINE
  8
0
 10
331.488
 20
235.048
 11
331
 21
235
  0
LINE
  8
0
 10
331
 20
235
 11
330.512
 21
235.048
  0
LINE
  8
0
 10
330.512
 20
227.548
 11
330.043
 21
227.69
  0
LINE
  8
0
 10
330.043
 20
227.69
 11
329.611
 21
227.921
  0
LINE
  8
0
 10
329.611
 20
227.921
 11
329.232
 21
228.232
  0
LINE
  8
0
 10
329.232
 20
228.232
 11
328.921
 21
228.611
  0
LINE
  8
0
 10
328.921
 20
228.611
 11
328.69
 21
229.043
  0
LINE
  8
0
 10
328.69
 20
229.043
 11
328.548
 21
229.512
  0
LINE
  8
0
 10
328.548
 20
229.512
 11
328.5
 21
230
  0
LINE
  8
0
 10
328.5
 20
230
 11
328.548
 21
230.488
  0
LINE
  8
0
 10
328.548
 20
230.488
 11
328.69
 21
230.957
  0
LINE
  8
0
 10
328.69
 20
230.957
 11
328.921
 21
231.389
  0
LINE
  8
0
 10
328.921
 20
231.389
 11
329.232
 21
231.768
  0
LINE
  8
0
 10
329.232
 20
231.768
 11
329.611
 21
232.079
  0
LINE
  8
0
 10
329.611
 20
232.079
 11
330.043
 21
232.31
  0
LINE
  8
0
 10
330.043
 20
232.31
 11
330.512
 21
232.452
  0
LINE
  8
0
 10
330.512
 20
232.452
 11
331
 21
232.5
  0
LINE
  8
0
 10
331
 20
232.5
 11
331.488
 21
232.452
  0
LINE
  8
0
 10
331.488
 20
232.452
 11
331.957
 21
232.31
  0
LINE
  8
0
 10
331.957
 20
232.31
 11
332.389
 21
232.079
  0
LINE
  8
0
 10
332.389
 20
232.079
 11
332.768
 21
231.768
  0
LINE
  8
0
 10
332.768
 20
231.768
 11
333.079
 21
231.389
  0
LINE
  8
0
 10
333.079
 20
231.389
 11
333.31
 21
230.957
  0
LINE
  8
0
 10
333.31
 20
230.957
 11
333.452
 21
230.488
  0
LINE
  8
0
 10
333.452
 20
230.488
 11
333.5
 21
230
  0
LINE
  8
0
 10
333.5
 20
230
 11
333.452
 21
229.512
  0
LINE
  8
0
 10
333.452
 20
229.512
 11
333.31
 21
229.043
  0
LINE
  8
0
 10
333.31
 20
229.043
 11
333.079
 21
228.611
  0
LINE
  8
0
 10
333.079
 20
228.611
 11
332.768
 21
228.232
  0
LINE
  8
0
 10
332.768
 20
228.232
 11
332.389
 21
227.921
  0
LINE
  8
0
 10
332.389
 20
227.921
 11
331.957
 21
227.69
  0
LINE
  8
0
 10
331.957
 20
227.69
 11
331.488
 21
227.548
  0
LINE
  8
0
 10
331.488
 20
227.548
 11
331
 21
227.5
  0
LINE
  8
0
 10
331
 20
227.5
 11
330.512
 21
227.548
  0
LINE
  8
0
 10
549.98
 20
175
 11
549.98
 21
246.948
  0
LINE
  8
0
 10
549.98
 20
246.948
 11
530.935
 21
233.613
  0
LINE
  8
0
 10
530.935
 20
233.613
 11
528.067
 21
237.708
  0
LINE
  8
0
 10
528.067
 20
237.708
 11
545.621
 21
250
  0
LINE
  8
0
 10
545.621
 20
250
 11
374.98
 21
250
  0
LINE
  8
0
 10
374.98
 20
250
 11
339.148
 21
214.168
  0
LINE
  8
0
 10
339.148
 20
214.168
 11
356.825
 21
196.49
  0
LINE
  8
0
 10
356.825
 20
196.49
 11
353.29
 21
192.955
  0
LINE
  8
0
 10
353.29
 20
192.955
 11
335.612
 21
210.632
  0
LINE
  8
0
 10
335.612
 20
210.632
 11
299.98
 21
175
  0
LINE
  8
0
 10
299.98
 20
175
 11
299.98
 21
4.3586
  0
LINE
  8
0
 10
299.98
 20
4.3586
 11
312.272
 21
21.9127
  0
LINE
  8
0
 10
312.272
 20
21.9127
 11
316.367
 21
19.0448
  0
LINE
  8
0
 10
316.367
 20
19.0448
 11
303.032
 21
0
  0
LINE
  8
0
 10
303.032
 20
0
 11
374.98
 21
0
  0
LINE
  8
0
 10
374.98
 20
0
 11
549.98
 21
175
  0
LINE
  8
0
 10
381.992
 20
235.048
 11
381.523
 21
235.19
  0
LINE
  8
0
 10
381.523
 20
235.19
 11
381.091
 21
235.421
  0
LINE
  8
0
 10
381.091
 20
235.421
 11
380.712
 21
235.732
  0
LINE
  8
0
 10
380.712
 20
235.732
 11
380.401
 21
236.111
  0
LINE
  8
0
 10
380.401
 20
236.111
 11
380.17
 21
236.543
  0
LINE
  8
0
 10
380.17
 20
236.543
 11
380.028
 21
237.012
  0
LINE
  8
0
 10
380.028
 20
237.012
 11
379.98
 21
237.5
  0
LINE
  8
0
 10
379.98
 20
237.5
 11
380.028
 21
237.988
  0
LINE
  8
0
 10
380.028
 20
237.988
 11
380.17
 21
238.457
  0
LINE
  8
0
 10
380.17
 20
238.457
 11
380.401
 21
238.889
  0
LINE
  8
0
 10
380.401
 20
238.889
 11
380.712
 21
239.268
  0
LINE
  8
0
 10
380.712
 20
239.268
 11
381.091
 21
239.579
  0
LINE
  8
0
 10
381.091
 20
239.579
 11
381.523
 21
239.81
  0
LINE
  8
0
 10
381.523
 20
239.81
 11
381.992
 21
239.952
  0
LINE
  8
0
 10
381.992
 20
239.952
 11
382.48
 21
240
  0
LINE
  8
0
 10
382.48
 20
240
 11
382.968
 21
239.952
  0
LINE
  8
0
 10
382.968
 20
239.952
 11
383.437
 21
239.81
  0
LINE
  8
0
 10
383.437
 20
239.81
 11
383.869
 21
239.579
  0
LINE
  8
0
 10
383.869
 20
239.579
 11
384.248
 21
239.268
  0
LINE
  8
0
 10
384.248
 20
239.268
 11
384.559
 21
238.889
  0
LINE
  8
0
 10
384.559
 20
238.889
 11
384.79
 21
238.457
  0
LINE
  8
0
 10
384.79
 20
238.457
 11
384.932
 21
237.988
  0
LINE
  8
0
 10
384.932
 20
237.988
 11
384.98
 21
237.5
  0
LINE
  8
0
 10
384.98
 20
237.5
 11
384.932
 21
237.012
  0
LINE
  8
0
 10
384.932
 20
237.012
 11
384.79
 21
236.543
  0
LINE
  8
0
 10
384.79
 20
236.543
 11
384.559
 21
236.111
  0
LINE
  8
0
 10
384.559
 20
236.111
 11
384.248
 21
235.732
  0
LINE
  8
0
 10
384.248
 20
235.732
 11
383.869
 21
235.421
  0
LINE
  8
0
 10
383.869
 20
235.421
 11
383.437
 21
235.19
  0
LINE
  8
0
 10
383.437
 20
235.19
 11
382.968
 21
235.048
  0
LINE
  8
0
 10
382.968
 20
235.048
 11
382.48
 21
235
  0
LINE
  8
0
 10
382.48
 20
235
 11
381.992
 21
235.048
  0
LINE
  8
0
 10
539.492
 20
202.548
 11
539.023
 21
202.69
  0
LINE
  8
0
 10
539.023
 20
202.69
 11
538.591
 21
202.921
  0
LINE
  8
0
 10
538.591
 20
202.921
 11
538.212
 21
203.232
  0
LINE
  8
0
 10
538.212
 20
203.232
 11
537.901
 21
203.611
  0
LINE
  8
0
 10
537.901
 20
203.611
 11
537.67
 21
204.043
  0
LINE
  8
0
 10
537.67
 20
204.043
 11
537.528
 21
204.512
  0
LINE
  8
0
 10
537.528
 20
204.512
 11
537.48
 21
205
  0
LINE
  8
0
 10
537.48
 20
205
 11
537.528
 21
205.488
  0
LINE
  8
0
 10
537.528
 20
205.488
 11
537.67
 21
205.957
  0
LINE
  8
0
 10
537.67
 20
205.957
 11
537.901
 21
206.389
  0
LINE
  8
0
 10
537.901
 20
206.389
 11
538.212
 21
206.768
  0
LINE
  8
0
 10
538.212
 20
206.768
 11
538.591
 21
207.079
  0
LINE
  8
0
 10
538.591
 20
207.079
 11
539.023
 21
207.31
  0
LINE
  8
0
 10
539.023
 20
207.31
 11
539.492
 21
207.452
  0
LINE
  8
0
 10
539.492
 20
207.452
 11
539.98
 21
207.5
  0
LINE
  8
0
 10
539.98
 20
207.5
 11
540.468
 21
207.452
  0
LINE
  8
0
 10
540.468
 20
207.452
 11
540.937
 21
207.31
  0
LINE
  8
0
 10
540.937
 20
207.31
 11
541.369
 21
207.079
  0
LINE
  8
0
 10
541.369
 20
207.079
 11
541.748
 21
206.768
  0
LINE
  8
0
 10
541.748
 20
206.768
 11
542.059
 21
206.389
  0
LINE
  8
0
 10
542.059
 20
206.389
 11
542.29
 21
205.957
  0
LINE
  8
0
 10
542.29
 20
205.957
 11
542.432
 21
205.488
  0
LINE
  8
0
 10
542.432
 20
205.488
 11
542.48
 21
205
  0
LINE
  8
0
 10
542.48
 20
205
 11
542.432
 21
204.512
  0
LINE
  8
0
 10
542.432
 20
204.512
 11
542.29
 21
204.043
  0
LINE
  8
0
 10
542.29
 20
204.043
 11
542.059
 21
203.611
  0
LINE
  8
0
 10
542.059
 20
203.611
 11
541.748
 21
203.232
  0
LINE
  8
0
 10
541.748
 20
203.232
 11
541.369
 21
202.921
  0
LINE
  8
0
 10
541.369
 20
202.921
 11
540.937
 21
202.69
  0
LINE
  8
0
 10
540.937
 20
202.69
 11
540.468
 21
202.548
  0
LINE
  8
0
 10
540.468
 20
202.548
 11
539.98
 21
202.5
  0
LINE
  8
0
 10
539.98
 20
202.5
 11
539.492
 21
202.548
  0
LINE
  8
0
 10
311.992
 20
165.048
 11
311.523
 21
165.19
  0
LINE
  8
0
 10
311.523
 20
165.19
 11
311.091
 21
165.421
  0
LINE
  8
0
 10
311.091
 20
165.421
 11
310.712
 21
165.732
  0
LINE
  8
0
 10
310.712
 20
165.732
 11
310.401
 21
166.111
  0
LINE
  8
0
 10
310.401
 20
166.111
 11
310.17
 21
166.543
  0
LINE
  8
0
 10
310.17
 20
166.543
 11
310.028
 21
167.012
  0
LINE
  8
0
 10
310.028
 20
167.012
 11
309.98
 21
167.5
  0
LINE
  8
0
 10
309.98
 20
167.5
 11
310.028
 21
167.988
  0
LINE
  8
0
 10
310.028
 20
167.988
 11
310.17
 21
168.457
  0
LINE
  8
0
 10
310.17
 20
168.457
 11
310.401
 21
168.889
  0
LINE
  8
0
 10
310.401
 20
168.889
 11
310.712
 21
169.268
  0
LINE
  8
0
 10
310.712
 20
169.268
 11
311.091
 21
169.579
  0
LINE
  8
0
 10
311.091
 20
169.579
 11
311.523
 21
169.81
  0
LINE
  8
0
 10
311.523
 20
169.81
 11
311.992
 21
169.952
  0
LINE
  8
0
 10
311.992
 20
169.952
 11
312.48
 21
170
  0
LINE
  8
0
 10
312.48
 20
170
 11
312.968
 21
169.952
  0
LINE
  8
0
 10
312.968
 20
169.952
 11
313.437
 21
169.81
  0
LINE
  8
0
 10
313.437
 20
169.81
 11
313.869
 21
169.579
  0
LINE
  8
0
 10
313.869
 20
169.579
 11
314.248
 21
169.268
  0
LINE
  8
0
 10
314.248
 20
169.268
 11
314.559
 21
168.889
  0
LINE
  8
0
 10
314.559
 20
168.889
 11
314.79
 21
168.457
  0
LINE
  8
0
 10
314.79
 20
168.457
 11
314.932
 21
167.988
  0
LINE
  8
0
 10
314.932
 20
167.988
 11
314.98
 21
167.5
  0
LINE
  8
0
 10
314.98
 20
167.5
 11
314.932
 21
167.012
  0
LINE
  8
0
 10
314.932
 20
167.012
 11
314.79
 21
166.543
  0
LINE
  8
0
 10
314.79
 20
166.543
 11
314.559
 21
166.111
  0
LINE
  8
0
 10
314.559
 20
166.111
 11
314.248
 21
165.732
  0
LINE
  8
0
 10
314.248
 20
165.732
 11
313.869
 21
165.421
  0
LINE
  8
0
 10
313.869
 20
165.421
 11
313.437
 21
165.19
  0
LINE
  8
0
 10
313.437
 20
165.19
 11
312.968
 21
165.048
  0
LINE
  8
0
 10
312.968
 20
165.048
 11
312.48
 21
165
  0
LINE
  8
0
 10
312.48
 20
165
 11
311.992
 21
165.048
  0
LINE
  8
0
 10
344.492
 20
7.54803
 11
344.023
 21
7.69029
  0
LINE
  8
0
 10
344.023
 20
7.69029
 11
343.591
 21
7.92133
  0
LINE
  8
0
 10
343.591
 20
7.92133
 11
343.212
 21
8.23222
  0
LINE
  8
0
 10
343.212
 20
8.23222
 11
342.901
 21
8.61107
  0
LINE
  8
0
 10
342.901
 20
8.61107
 11
342.67
 21
9.04329
  0
LINE
  8
0
 10
342.67
 20
9.04329
 11
342.528
 21
9.51227
  0
LINE
  8
0
 10
342.528
 20
9.51227
 11
342.48
 21
10
  0
LINE
  8
0
 10
342.48
 20
10
 11
342.528
 21
10.4877
  0
LINE
  8
0
 10
342.528
 20
10.4877
 11
342.67
 21
10.9567
  0
LINE
  8
0
 10
342.67
 20
10.9567
 11
342.901
 21
11.3889
  0
LINE
  8
0
 10
342.901
 20
11.3889
 11
343.212
 21
11.7678
  0
LINE
  8
0
 10
343.212
 20
11.7678
 11
343.591
 21
12.0787
  0
LINE
  8
0
 10
343.591
 20
12.0787
 11
344.023
 21
12.3097
  0
LINE
  8
0
 10
344.023
 20
12.3097
 11
344.492
 21
12.452
  0
LINE
  8
0
 10
344.492
 20
12.452
 11
344.98
 21
12.5
  0
LINE
  8
0
 10
344.98
 20
12.5
 11
345.468
 21
12.452
  0
LINE
  8
0
 10
345.468
 20
12.452
 11
345.937
 21
12.3097
  0
LINE
  8
0
 10
345.937
 20
12.3097
 11
346.369
 21
12.0787
  0
LINE
  8
0
 10
346.369
 20
12.0787
 11
346.748
 21
11.7678
  0
LINE
  8
0
 10
346.748
 20
11.7678
 11
347.059
 21
11.3889
  0
LINE
  8
0
 10
347.059
 20
11.3889
 11
347.29
 21
10.9567
  0
LINE
  8
0
 10
347.29
 20
10.9567
 11
347.432
 21
10.4877
  0
LINE
  8
0
 10
347.432
 20
10.4877
 11
347.48
 21
10
  0
LINE
  8
0
 10
347.48
 20
10
 11
347.432
 21
9.51227
  0
LINE
  8
0
 10
347.432
 20
9.51227
 11
347.29
 21
9.04329
  0
LINE
  8
0
 10
347.29
 20
9.04329
 11
347.059
 21
8.61107
  0
LINE
  8
0
 10
347.059
 20
8.61107
 11
346.748
 21
8.23222
  0
LINE
  8
0
 10
346.748
 20
8.23222
 11
346.369
 21
7.92133
  0
LINE
  8
0
 10
346.369
 20
7.92133
 11
345.937
 21
7.69029
  0
LINE
  8
0
 10
345.937
 20
7.69029
 11
345.468
 21
7.54803
  0
LINE
  8
0
 10
345.468
 20
7.54803
 11
344.98
 21
7.5
  0
LINE
  8
0
 10
344.98
 20
7.5
 11
344.492
 21
7.54803
  0
LINE
  8
0
 10
326
 20
250
 11
318
 21
250
  0
LINE
  8
0
 10
318
 20
250
 11
318
 21
225
  0
LINE
  8
0
 10
318
 20
225
 11
326
 21
225
  0
LINE
  8
0
 10
326
 20
225
 11
326
 21
250
  0
LINE
  8
0
 10
321.512
 20
242.548
 11
321.043
 21
242.69
  0
LINE
  8
0
 10
321.043
 20
242.69
 11
320.611
 21
242.921
  0
LINE
  8
0
 10
320.611
 20
242.921
 11
320.232
 21
243.232
  0
LINE
  8
0
 10
320.232
 20
243.232
 11
319.921
 21
243.611
  0
LINE
  8
0
 10
319.921
 20
243.611
 11
319.69
 21
244.043
  0
LINE
  8
0
 10
319.69
 20
244.043
 11
319.548
 21
244.512
  0
LINE
  8
0
 10
319.548
 20
244.512
 11
319.5
 21
245
  0
LINE
  8
0
 10
319.5
 20
245
 11
319.548
 21
245.488
  0
LINE
  8
0
 10
319.548
 20
245.488
 11
319.69
 21
245.957
  0
LINE
  8
0
 10
319.69
 20
245.957
 11
319.921
 21
246.389
  0
LINE
  8
0
 10
319.921
 20
246.389
 11
320.232
 21
246.768
  0
LINE
  8
0
 10
320.232
 20
246.768
 11
320.611
 21
247.079
  0
LINE
  8
0
 10
320.611
 20
247.079
 11
321.043
 21
247.31
  0
LINE
  8
0
 10
321.043
 20
247.31
 11
321.512
 21
247.452
  0
LINE
  8
0
 10
321.512
 20
247.452
 11
322
 21
247.5
  0
LINE
  8
0
 10
322
 20
247.5
 11
322.488
 21
247.452
  0
LINE
  8
0
 10
322.488
 20
247.452
 11
322.957
 21
247.31
  0
LINE
  8
0
 10
322.957
 20
247.31
 11
323.389
 21
247.079
  0
LINE
  8
0
 10
323.389
 20
247.079
 11
323.768
 21
246.768
  0
LINE
  8
0
 10
323.768
 20
246.768
 11
324.079
 21
246.389
  0
LINE
  8
0
 10
324.079
 20
246.389
 11
324.31
 21
245.957
  0
LINE
  8
0
 10
324.31
 20
245.957
 11
324.452
 21
245.488
  0
LINE
  8
0
 10
324.452
 20
245.488
 11
324.5
 21
245
  0
LINE
  8
0
 10
324.5
 20
245
 11
324.452
 21
244.512
  0
LINE
  8
0
 10
324.452
 20
244.512
 11
324.31
 21
244.043
  0
LINE
  8
0
 10
324.31
 20
244.043
 11
324.079
 21
243.611
  0
LINE
  8
0
 10
324.079
 20
243.611
 11
323.768
 21
243.232
  0
LINE
  8
0
 10
323.768
 20
243.232
 11
323.389
 21
242.921
  0
LINE
  8
0
 10
323.389
 20
242.921
 11
322.957
 21
242.69
  0
LINE
  8
0
 10
322.957
 20
242.69
 11
322.488
 21
242.548
  0
LINE
  8
0
 10
322.488
 20
242.548
 11
322
 21
242.5
  0
LINE
  8
0
 10
322
 20
242.5
 11
321.512
 21
242.548
  0
LINE
  8
0
 10
321.512
 20
235.048
 11
321.043
 21
235.19
  0
LINE
  8
0
 10
321.043
 20
235.19
 11
320.611
 21
235.421
  0
LINE
  8
0
 10
320.611
 20
235.421
 11
320.232
 21
235.732
  0
LINE
  8
0
 10
320.232
 20
235.732
 11
319.921
 21
236.111
  0
LINE
  8
0
 10
319.921
 20
236.111
 11
319.69
 21
236.543
  0
LINE
  8
0
 10
319.69
 20
236.543
 11
319.548
 21
237.012
  0
LINE
  8
0
 10
319.548
 20
237.012
 11
319.5
 21
237.5
  0
LINE
  8
0
 10
319.5
 20
237.5
 11
319.548
 21
237.988
  0
LINE
  8
0
 10
319.548
 20
237.988
 11
319.69
 21
238.457
  0
LINE
  8
0
 10
319.69
 20
238.457
 11
319.921
 21
238.889
  0
LINE
  8
0
 10
319.921
 20
238.889
 11
320.232
 21
239.268
  0
LINE
  8
0
 10
320.232
 20
239.268
 11
320.611
 21
239.579
  0
LINE
  8
0
 10
320.611
 20
239.579
 11
321.043
 21
239.81
  0
LINE
  8
0
 10
321.043
 20
239.81
 11
321.512
 21
239.952
  0
LINE
  8
0
 10
321.512
 20
239.952
 11
322
 21
240
  0
LINE
  8
0
 10
322
 20
240
 11
322.488
 21
239.952
  0
LINE
  8
0
 10
322.488
 20
239.952
 11
322.957
 21
239.81
  0
LINE
  8
0
 10
322.957
 20
239.81
 11
323.389
 21
239.579
  0
LINE
  8
0
 10
323.389
 20
239.579
 11
323.768
 21
239.268
  0
LINE
  8
0
 10
323.768
 20
239.268
 11
324.079
 21
238.889
  0
LINE
  8
0
 10
324.079
 20
238.889
 11
324.31
 21
238.457
  0
LINE
  8
0
 10
324.31
 20
238.457
 11
324.452
 21
237.988
  0
LINE
  8
0
 10
324.452
 20
237.988
 11
324.5
 21
237.5
  0
LINE
  8
0
 10
324.5
 20
237.5
 11
324.452
 21
237.012
  0
LINE
  8
0
 10
324.452
 20
237.012
 11
324.31
 21
236.543
  0
LINE
  8
0
 10
324.31
 20
236.543
 11
324.079
 21
236.111
  0
LINE
  8
0
 10
324.079
 20
236.111
 11
323.768
 21
235.732
  0
LINE
  8
0
 10
323.768
 20
235.732
 11
323.389
 21
235.421
  0
LINE
  8
0
 10
323.389
 20
235.421
 11
322.957
 21
235.19
  0
LINE
  8
0
 10
322.957
 20
235.19
 11
322.488
 21
235.048
  0
LINE
  8
0
 10
322.488
 20
235.048
 11
322
 21
235
  0
LINE
  8
0
 10
322
 20
235
 11
321.512
 21
235.048
  0
LINE
  8
0
 10
321.512
 20
227.548
 11
321.043
 21
227.69
  0
LINE
  8
0
 10
321.043
 20
227.69
 11
320.611
 21
227.921
  0
LINE
  8
0
 10
320.611
 20
227.921
 11
320.232
 21
228.232
  0
LINE
  8
0
 10
320.232
 20
228.232
 11
319.921
 21
228.611
  0
LINE
  8
0
 10
319.921
 20
228.611
 11
319.69
 21
229.043
  0
LINE
  8
0
 10
319.69
 20
229.043
 11
319.548
 21
229.512
  0
LINE
  8
0
 10
319.548
 20
229.512
 11
319.5
 21
230
  0
LINE
  8
0
 10
319.5
 20
230
 11
319.548
 21
230.488
  0
LINE
  8
0
 10
319.548
 20
230.488
 11
319.69
 21
230.957
  0
LINE
  8
0
 10
319.69
 20
230.957
 11
319.921
 21
231.389
  0
LINE
  8
0
 10
319.921
 20
231.389
 11
320.232
 21
231.768
  0
LINE
  8
0
 10
320.232
 20
231.768
 11
320.611
 21
232.079
  0
LINE
  8
0
 10
320.611
 20
232.079
 11
321.043
 21
232.31
  0
LINE
  8
0
 10
321.043
 20
232.31
 11
321.512
 21
232.452
  0
LINE
  8
0
 10
321.512
 20
232.452
 11
322
 21
232.5
  0
LINE
  8
0
 10
322
 20
232.5
 11
322.488
 21
232.452
  0
LINE
  8
0
 10
322.488
 20
232.452
 11
322.957
 21
232.31
  0
LINE
  8
0
 10
322.957
 20
232.31
 11
323.389
 21
232.079
  0
LINE
  8
0
 10
323.389
 20
232.079
 11
323.768
 21
231.768
  0
LINE
  8
0
 10
323.768
 20
231.768
 11
324.079
 21
231.389
  0
LINE
  8
0
 10
324.079
 20
231.389
 11
324.31
 21
230.957
  0
LINE
  8
0
 10
324.31
 20
230.957
 11
324.452
 21
230.488
  0
LINE
  8
0
 10
324.452
 20
230.488
 11
324.5
 21
230
  0
LINE
  8
0
 10
324.5
 20
230
 11
324.452
 21
229.512
  0
LINE
  8
0
 10
324.452
 20
229.512
 11
324.31
 21
229.043
  0
LINE
  8
0
 10
324.31
 20
229.043
 11
324.079
 21
228.611
  0
LINE
  8
0
 10
324.079
 20
228.611
 11
323.768
 21
228.232
  0
LINE
  8
0
 10
323.768
 20
228.232
 11
323.389
 21
227.921
  0
LINE
  8
0
 10
323.389
 20
227.921
 11
322.957
 21
227.69
  0
LINE
  8
0
 10
322.957
 20
227.69
 11
322.488
 21
227.548
  0
LINE
  8
0
 10
322.488
 20
227.548
 11
322
 21
227.5
  0
LINE
  8
0
 10
322
 20
227.5
 11
321.512
 21
227.548
  0
LINE
  8
0
 10
317
 20
250
 11
309
 21
250
  0
LINE
  8
0
 10
309
 20
250
 11
309
 21
225
  0
LINE
  8
0
 10
309
 20
225
 11
317
 21
225
  0
LINE
  8
0
 10
317
 20
225
 11
317
 21
250
  0
LINE
  8
0
 10
312.512
 20
242.548
 11
312.043
 21
242.69
  0
LINE
  8
0
 10
312.043
 20
242.69
 11
311.611
 21
242.921
  0
LINE
  8
0
 10
311.611
 20
242.921
 11
311.232
 21
243.232
  0
LINE
  8
0
 10
311.232
 20
243.232
 11
310.921
 21
243.611
  0
LINE
  8
0
 10
310.921
 20
243.611
 11
310.69
 21
244.043
  0
LINE
  8
0
 10
310.69
 20
244.043
 11
310.548
 21
244.512
  0
LINE
  8
0
 10
310.548
 20
244.512
 11
310.5
 21
245
  0
LINE
  8
0
 10
310.5
 20
245
 11
310.548
 21
245.488
  0
LINE
  8
0
 10
310.548
 20
245.488
 11
310.69
 21
245.957
  0
LINE
  8
0
 10
310.69
 20
245.957
 11
310.921
 21
246.389
  0
LINE
  8
0
 10
310.921
 20
246.389
 11
311.232
 21
246.768
  0
LINE
  8
0
 10
311.232
 20
246.768
 11
311.611
 21
247.079
  0
LINE
  8
0
 10
311.611
 20
247.079
 11
312.043
 21
247.31
  0
LINE
  8
0
 10
312.043
 20
247.31
 11
312.512
 21
247.452
  0
LINE
  8
0
 10
312.512
 20
247.452
 11
313
 21
247.5
  0
LINE
  8
0
 10
313
 20
247.5
 11
313.488
 21
247.452
  0
LINE
  8
0
 10
313.488
 20
247.452
 11
313.957
 21
247.31
  0
LINE
  8
0
 10
313.957
 20
247.31
 11
314.389
 21
247.079
  0
LINE
  8
0
 10
314.389
 20
247.079
 11
314.768
 21
246.768
  0
LINE
  8
0
 10
314.768
 20
246.768
 11
315.079
 21
246.389
  0
LINE
  8
0
 10
315.079
 20
246.389
 11
315.31
 21
245.957
  0
LINE
  8
0
 10
315.31
 20
245.957
 11
315.452
 21
245.488
  0
LINE
  8
0
 10
315.452
 20
245.488
 11
315.5
 21
245
  0
LINE
  8
0
 10
315.5
 20
245
 11
315.452
 21
244.512
  0
LINE
  8
0
 10
315.452
 20
244.512
 11
315.31
 21
244.043
  0
LINE
  8
0
 10
315.31
 20
244.043
 11
315.079
 21
243.611
  0
LINE
  8
0
 10
315.079
 20
243.611
 11
314.768
 21
243.232
  0
LINE
  8
0
 10
314.768
 20
243.232
 11
314.389
 21
242.921
  0
LINE
  8
0
 10
314.389
 20
242.921
 11
313.957
 21
242.69
  0
LINE
  8
0
 10
313.957
 20
242.69
 11
313.488
 21
242.548
  0
LINE
  8
0
 10
313.488
 20
242.548
 11
313
 21
242.5
  0
LINE
  8
0
 10
313
 20
242.5
 11
312.512
 21
242.548
  0
LINE
  8
0
 10
312.512
 20
235.048
 11
312.043
 21
235.19
  0
LINE
  8
0
 10
312.043
 20
235.19
 11
311.611
 21
235.421
  0
LINE
  8
0
 10
311.611
 20
235.421
 11
311.232
 21
235.732
  0
LINE
  8
0
 10
311.232
 20
235.732
 11
310.921
 21
236.111
  0
LINE
  8
0
 10
310.921
 20
236.111
 11
310.69
 21
236.543
  0
LINE
  8
0
 10
310.69
 20
236.543
 11
310.548
 21
237.012
  0
LINE
  8
0
 10
310.548
 20
237.012
 11
310.5
 21
237.5
  0
LINE
  8
0
 10
310.5
 20
237.5
 11
310.548
 21
237.988
  0
LINE
  8
0
 10
310.548
 20
237.988
 11
310.69
 21
238.457
  0
LINE
  8
0
 10
310.69
 20
238.457
 11
310.921
 21
238.889
  0
LINE
  8
0
 10
310.921
 20
238.889
 11
311.232
 21
239.268
  0
LINE
  8
0
 10
311.232
 20
239.268
 11
311.611
 21
239.579
  0
LINE
  8
0
 10
311.611
 20
239.579
 11
312.043
 21
239.81
  0
LINE
  8
0
 10
312.043
 20
239.81
 11
312.512
 21
239.952
  0
LINE
  8
0
 10
312.512
 20
239.952
 11
313
 21
240
  0
LINE
  8
0
 10
313
 20
240
 11
313.488
 21
239.952
  0
LINE
  8
0
 10
313.488
 20
239.952
 11
313.957
 21
239.81
  0
LINE
  8
0
 10
313.957
 20
239.81
 11
314.389
 21
239.579
  0
LINE
  8
0
 10
314.389
 20
239.579
 11
314.768
 21
239.268
  0
LINE
  8
0
 10
314.768
 20
239.268
 11
315.079
 21
238.889
  0
LINE
  8
0
 10
315.079
 20
238.889
 11
315.31
 21
238.457
  0
LINE
  8
0
 10
315.31
 20
238.457
 11
315.452
 21
237.988
  0
LINE
  8
0
 10
315.452
 20
237.988
 11
315.5
 21
237.5
  0
LINE
  8
0
 10
315.5
 20
237.5
 11
315.452
 21
237.012
  0
LINE
  8
0
 10
315.452
 20
237.012
 11
315.31
 21
236.543
  0
LINE
  8
0
 10
315.31
 20
236.543
 11
315.079
 21
236.111
  0
LINE
  8
0
 10
315.079
 20
236.111
 11
314.768
 21
235.732
  0
LINE
  8
0
 10
314.768
 20
235.732
 11
314.389
 21
235.421
  0
LINE
  8
0
 10
314.389
 20
235.421
 11
313.957
 21
235.19
  0
LINE
  8
0
 10
313.957
 20
235.19
 11
313.488
 21
235.048
  0
LINE
  8
0
 10
313.488
 20
235.048
 11
313
 21
235
  0
LINE
  8
0
 10
313
 20
235
 11
312.512
 21
235.048
  0
LINE
  8
0
 10
312.512
 20
227.548
 11
312.043
 21
227.69
  0
LINE
  8
0
 10
312.043
 20
227.69
 11
311.611
 21
227.921
  0
LINE
  8
0
 10
311.611
 20
227.921
 11
311.232
 21
228.232
  0
LINE
  8
0
 10
311.232
 20
228.232
 11
310.921
 21
228.611
  0
LINE
  8
0
 10
310.921
 20
228.611
 11
310.69
 21
229.043
  0
LINE
  8
0
 10
310.69
 20
229.043
 11
310.548
 21
229.512
  0
LINE
  8
0
 10
310.548
 20
229.512
 11
310.5
 21
230
  0
LINE
  8
0
 10
310.5
 20
230
 11
310.548
 21
230.488
  0
LINE
  8
0
 10
310.548
 20
230.488
 11
310.69
 21
230.957
  0
LINE
  8
0
 10
310.69
 20
230.957
 11
310.921
 21
231.389
  0
LINE
  8
0
 10
310.921
 20
231.389
 11
311.232
 21
231.768
  0
LINE
  8
0
 10
311.232
 20
231.768
 11
311.611
 21
232.079
  0
LINE
  8
0
 10
311.611
 20
232.079
 11
312.043
 21
232.31
  0
LINE
  8
0
 10
312.043
 20
232.31
 11
312.512
 21
232.452
  0
LINE
  8
0
 10
312.512
 20
232.452
 11
313
 21
232.5
  0
LINE
  8
0
 10
313
 20
232.5
 11
313.488
 21
232.452
  0
LINE
  8
0
 10
313.488
 20
232.452
 11
313.957
 21
232.31
  0
LINE
  8
0
 10
313.957
 20
232.31
 11
314.389
 21
232.079
  0
LINE
  8
0
 10
314.389
 20
232.079
 11
314.768
 21
231.768
  0
LINE
  8
0
 10
314.768
 20
231.768
 11
315.079
 21
231.389
  0
LINE
  8
0
 10
315.079
 20
231.389
 11
315.31
 21
230.957
  0
LINE
  8
0
 10
315.31
 20
230.957
 11
315.452
 21
230.488
  0
LINE
  8
0
 10
315.452
 20
230.488
 11
315.5
 21
230
  0
LINE
  8
0
 10
315.5
 20
230
 11
315.452
 21
229.512
  0
LINE
  8
0
 10
315.452
 20
229.512
 11
315.31
 21
229.043
  0
LINE
  8
0
 10
315.31
 20
229.043
 11
315.079
 21
228.611
  0
LINE
  8
0
 10
315.079
 20
228.611
 11
314.768
 21
228.232
  0
LINE
  8
0
 10
314.768
 20
228.232
 11
314.389
 21
227.921
  0
LINE
  8
0
 10
314.389
 20
227.921
 11
313.957
 21
227.69
  0
LINE
  8
0
 10
313.957
 20
227.69
 11
313.488
 21
227.548
  0
LINE
  8
0
 10
313.488
 20
227.548
 11
313
 21
227.5
  0
LINE
  8
0
 10
313
 20
227.5
 11
312.512
 21
227.548
  0
LINE
  8
0
 10
468.546
 20
54.6377
 11
471.365
 21
55.4928
  0
LINE
  8
0
 10
471.365
 20
55.4928
 11
473.963
 21
56.8813
  0
LINE
  8
0
 10
473.963
 20
56.8813
 11
476.24
 21
58.75
  0
LINE
  8
0
 10
476.24
 20
58.75
 11
597.49
 21
175
  0
LINE
  8
0
 10
597.49
 20
175
 11
597.49
 21
225
  0
LINE
  8
0
 10
597.49
 20
225
 11
602.49
 21
225
  0
LINE
  8
0
 10
602.49
 20
225
 11
602.49
 21
175
  0
LINE
  8
0
 10
602.49
 20
175
 11
606.49
 21
175
  0
LINE
  8
0
 10
606.49
 20
175
 11
606.573
 21
175.333
  0
LINE
  8
0
 10
606.573
 20
175.333
 11
608.384
 21
176.794
  0
LINE
  8
0
 10
608.384
 20
176.794
 11
610.579
 21
179.323
  0
LINE
  8
0
 10
610.579
 20
179.323
 11
612.686
 21
182.533
  0
LINE
  8
0
 10
612.686
 20
182.533
 11
614.685
 21
186.393
  0
LINE
  8
0
 10
614.685
 20
186.393
 11
616.557
 21
190.865
  0
LINE
  8
0
 10
616.557
 20
190.865
 11
618.284
 21
195.906
  0
LINE
  8
0
 10
618.284
 20
195.906
 11
619.849
 21
201.469
  0
LINE
  8
0
 10
619.849
 20
201.469
 11
621.237
 21
207.499
  0
LINE
  8
0
 10
621.237
 20
207.499
 11
622.436
 21
213.938
  0
LINE
  8
0
 10
622.436
 20
213.938
 11
623.432
 21
220.725
  0
LINE
  8
0
 10
623.432
 20
220.725
 11
624.217
 21
227.793
  0
LINE
  8
0
 10
624.217
 20
227.793
 11
624.784
 21
235.076
  0
LINE
  8
0
 10
624.784
 20
235.076
 11
625.126
 21
242.502
  0
LINE
  8
0
 10
625.126
 20
242.502
 11
625.24
 21
250
  0
LINE
  8
0
 10
625.24
 20
250
 11
549.99
 21
250
  0
LINE
  8
0
 10
549.99
 20
250
 11
549.99
 21
175
  0
LINE
  8
0
 10
549.99
 20
175
 11
454.99
 21
80
  0
LINE
  8
0
 10
454.99
 20
80
 11
453.121
 21
77.723
  0
LINE
  8
0
 10
453.121
 20
77.723
 11
451.733
 21
75.1252
  0
LINE
  8
0
 10
451.733
 20
75.1252
 11
450.878
 21
72.3064
  0
LINE
  8
0
 10
450.878
 20
72.3064
 11
450.858
 21
72.1015
  0
LINE
  8
0
 10
450.858
 20
72.1015
 11
450.858
 21
72.1014
  0
LINE
  8
0
 10
450.858
 20
72.1014
 11
450.955
 21
72.0918
  0
LINE
  8
0
 10
450.955
 20
72.0918
 11
450.956
 21
72.0916
  0
LINE
  8
0
 10
450.956
 20
72.0916
 11
451.053
 21
72.082
  0
LINE
  8
0
 10
451.053
 20
72.082
 11
451.054
 21
72.0818
  0
LINE
  8
0
 10
451.054
 20
72.0818
 11
451.151
 21
72.0722
  0
LINE
  8
0
 10
451.151
 20
72.0722
 11
451.152
 21
72.0719
  0
LINE
  8
0
 10
451.152
 20
72.0719
 11
451.25
 21
72.0624
  0
LINE
  8
0
 10
451.25
 20
72.0624
 11
451.25
 21
72.0621
  0
LINE
  8
0
 10
451.25
 20
72.0621
 11
451.348
 21
72.0526
  0
LINE
  8
0
 10
451.348
 20
72.0526
 11
451.348
 21
72.0523
  0
LINE
  8
0
 10
451.348
 20
72.0523
 11
451.446
 21
72.0427
  0
LINE
  8
0
 10
451.446
 20
72.0427
 11
451.446
 21
72.0425
  0
LINE
  8
0
 10
451.446
 20
72.0425
 11
451.544
 21
72.0329
  0
LINE
  8
0
 10
451.544
 20
72.0329
 11
451.544
 21
72.0327
  0
LINE
  8
0
 10
451.544
 20
72.0327
 11
451.642
 21
72.0231
  0
LINE
  8
0
 10
451.642
 20
72.0231
 11
451.643
 21
72.0229
  0
LINE
  8
0
 10
451.643
 20
72.0229
 11
451.74
 21
72.0133
  0
LINE
  8
0
 10
451.74
 20
72.0133
 11
451.741
 21
72.0131
  0
LINE
  8
0
 10
451.741
 20
72.0131
 11
451.838
 21
72.0035
  0
LINE
  8
0
 10
451.838
 20
72.0035
 11
451.839
 21
72.0033
  0
LINE
  8
0
 10
451.839
 20
72.0033
 11
451.936
 21
71.9937
  0
LINE
  8
0
 10
451.936
 20
71.9937
 11
451.937
 21
71.9935
  0
LINE
  8
0
 10
451.937
 20
71.9935
 11
452.034
 21
71.9839
  0
LINE
  8
0
 10
452.034
 20
71.9839
 11
452.035
 21
71.9837
  0
LINE
  8
0
 10
452.035
 20
71.9837
 11
452.132
 21
71.9741
  0
LINE
  8
0
 10
452.132
 20
71.9741
 11
452.133
 21
71.9739
  0
LINE
  8
0
 10
452.133
 20
71.9739
 11
452.23
 21
71.9643
  0
LINE
  8
0
 10
452.23
 20
71.9643
 11
452.231
 21
71.9641
  0
LINE
  8
0
 10
452.231
 20
71.9641
 11
452.328
 21
71.9545
  0
LINE
  8
0
 10
452.328
 20
71.9545
 11
452.329
 21
71.9543
  0
LINE
  8
0
 10
452.329
 20
71.9543
 11
452.426
 21
71.9447
  0
LINE
  8
0
 10
452.426
 20
71.9447
 11
452.427
 21
71.9444
  0
LINE
  8
0
 10
452.427
 20
71.9444
 11
452.524
 21
71.9349
  0
LINE
  8
0
 10
452.524
 20
71.9349
 11
452.525
 21
71.9346
  0
LINE
  8
0
 10
452.525
 20
71.9346
 11
452.622
 21
71.925
  0
LINE
  8
0
 10
452.622
 20
71.925
 11
452.623
 21
71.9248
  0
LINE
  8
0
 10
452.623
 20
71.9248
 11
452.72
 21
71.9152
  0
LINE
  8
0
 10
452.72
 20
71.9152
 11
452.721
 21
71.915
  0
LINE
  8
0
 10
452.721
 20
71.915
 11
452.818
 21
71.9054
  0
LINE
  8
0
 10
452.818
 20
71.9054
 11
452.819
 21
71.9052
  0
LINE
  8
0
 10
452.819
 20
71.9052
 11
452.916
 21
71.8956
  0
LINE
  8
0
 10
452.916
 20
71.8956
 11
452.917
 21
71.8954
  0
LINE
  8
0
 10
452.917
 20
71.8954
 11
453.014
 21
71.8858
  0
LINE
  8
0
 10
453.014
 20
71.8858
 11
453.015
 21
71.8856
  0
LINE
  8
0
 10
453.015
 20
71.8856
 11
453.112
 21
71.876
  0
LINE
  8
0
 10
453.112
 20
71.876
 11
453.113
 21
71.8758
  0
LINE
  8
0
 10
453.113
 20
71.8758
 11
453.211
 21
71.8662
  0
LINE
  8
0
 10
453.211
 20
71.8662
 11
453.211
 21
71.866
  0
LINE
  8
0
 10
453.211
 20
71.866
 11
453.309
 21
71.8564
  0
LINE
  8
0
 10
453.309
 20
71.8564
 11
453.309
 21
71.8562
  0
LINE
  8
0
 10
453.309
 20
71.8562
 11
453.407
 21
71.8466
  0
LINE
  8
0
 10
453.407
 20
71.8466
 11
453.407
 21
71.8464
  0
LINE
  8
0
 10
453.407
 20
71.8464
 11
453.505
 21
71.8368
  0
LINE
  8
0
 10
453.505
 20
71.8368
 11
453.505
 21
71.8365
  0
LINE
  8
0
 10
453.505
 20
71.8365
 11
453.603
 21
71.827
  0
LINE
  8
0
 10
453.603
 20
71.827
 11
453.603
 21
71.8268
  0
LINE
  8
0
 10
453.603
 20
71.8268
 11
453.701
 21
71.8172
  0
LINE
  8
0
 10
453.701
 20
71.8172
 11
453.702
 21
71.8169
  0
LINE
  8
0
 10
453.702
 20
71.8169
 11
453.799
 21
71.8074
  0
LINE
  8
0
 10
453.799
 20
71.8074
 11
453.8
 21
71.8071
  0
LINE
  8
0
 10
453.8
 20
71.8071
 11
453.897
 21
71.7975
  0
LINE
  8
0
 10
453.897
 20
71.7975
 11
453.898
 21
71.7973
  0
LINE
  8
0
 10
453.898
 20
71.7973
 11
453.995
 21
71.7877
  0
LINE
  8
0
 10
453.995
 20
71.7877
 11
453.996
 21
71.7875
  0
LINE
  8
0
 10
453.996
 20
71.7875
 11
454.093
 21
71.7779
  0
LINE
  8
0
 10
454.093
 20
71.7779
 11
454.094
 21
71.7777
  0
LINE
  8
0
 10
454.094
 20
71.7777
 11
454.191
 21
71.7681
  0
LINE
  8
0
 10
454.191
 20
71.7681
 11
454.192
 21
71.7679
  0
LINE
  8
0
 10
454.192
 20
71.7679
 11
454.289
 21
71.7583
  0
LINE
  8
0
 10
454.289
 20
71.7583
 11
454.29
 21
71.7581
  0
LINE
  8
0
 10
454.29
 20
71.7581
 11
454.387
 21
71.7485
  0
LINE
  8
0
 10
454.387
 20
71.7485
 11
454.388
 21
71.7483
  0
LINE
  8
0
 10
454.388
 20
71.7483
 11
454.485
 21
71.7387
  0
LINE
  8
0
 10
454.485
 20
71.7387
 11
454.486
 21
71.7385
  0
LINE
  8
0
 10
454.486
 20
71.7385
 11
454.583
 21
71.7289
  0
LINE
  8
0
 10
454.583
 20
71.7289
 11
454.584
 21
71.7287
  0
LINE
  8
0
 10
454.584
 20
71.7287
 11
454.681
 21
71.7191
  0
LINE
  8
0
 10
454.681
 20
71.7191
 11
454.682
 21
71.7189
  0
LINE
  8
0
 10
454.682
 20
71.7189
 11
454.779
 21
71.7093
  0
LINE
  8
0
 10
454.779
 20
71.7093
 11
454.78
 21
71.709
  0
LINE
  8
0
 10
454.78
 20
71.709
 11
454.877
 21
71.6995
  0
LINE
  8
0
 10
454.877
 20
71.6995
 11
454.878
 21
71.6992
  0
LINE
  8
0
 10
454.878
 20
71.6992
 11
454.975
 21
71.6897
  0
LINE
  8
0
 10
454.975
 20
71.6897
 11
454.976
 21
71.6894
  0
LINE
  8
0
 10
454.976
 20
71.6894
 11
455.073
 21
71.6799
  0
LINE
  8
0
 10
455.073
 20
71.6799
 11
455.074
 21
71.6796
  0
LINE
  8
0
 10
455.074
 20
71.6796
 11
455.172
 21
71.67
  0
LINE
  8
0
 10
455.172
 20
71.67
 11
455.172
 21
71.6698
  0
LINE
  8
0
 10
455.172
 20
71.6698
 11
455.27
 21
71.6602
  0
LINE
  8
0
 10
455.27
 20
71.6602
 11
455.27
 21
71.66
  0
LINE
  8
0
 10
455.27
 20
71.66
 11
455.368
 21
71.6504
  0
LINE
  8
0
 10
455.368
 20
71.6504
 11
455.368
 21
71.6502
  0
LINE
  8
0
 10
455.368
 20
71.6502
 11
455.466
 21
71.6406
  0
LINE
  8
0
 10
455.466
 20
71.6406
 11
455.466
 21
71.6404
  0
LINE
  8
0
 10
455.466
 20
71.6404
 11
455.564
 21
71.6308
  0
LINE
  8
0
 10
455.564
 20
71.6308
 11
455.564
 21
71.6306
  0
LINE
  8
0
 10
455.564
 20
71.6306
 11
455.662
 21
71.621
  0
LINE
  8
0
 10
455.662
 20
71.621
 11
455.662
 21
71.6208
  0
LINE
  8
0
 10
455.662
 20
71.6208
 11
455.76
 21
71.6112
  0
LINE
  8
0
 10
455.76
 20
71.6112
 11
455.76
 21
71.611
  0
LINE
  8
0
 10
455.76
 20
71.611
 11
455.858
 21
71.6014
  0
LINE
  8
0
 10
455.858
 20
71.6014
 11
455.859
 21
71.6012
  0
LINE
  8
0
 10
455.859
 20
71.6012
 11
455.956
 21
71.5916
  0
LINE
  8
0
 10
455.956
 20
71.5916
 11
455.957
 21
71.5914
  0
LINE
  8
0
 10
455.957
 20
71.5914
 11
456.054
 21
71.5818
  0
LINE
  8
0
 10
456.054
 20
71.5818
 11
456.055
 21
71.5815
  0
LINE
  8
0
 10
456.055
 20
71.5815
 11
456.152
 21
71.572
  0
LINE
  8
0
 10
456.152
 20
71.572
 11
456.153
 21
71.5718
  0
LINE
  8
0
 10
456.153
 20
71.5718
 11
456.25
 21
71.5622
  0
LINE
  8
0
 10
456.25
 20
71.5622
 11
456.251
 21
71.5619
  0
LINE
  8
0
 10
456.251
 20
71.5619
 11
456.348
 21
71.5524
  0
LINE
  8
0
 10
456.348
 20
71.5524
 11
456.349
 21
71.5521
  0
LINE
  8
0
 10
456.349
 20
71.5521
 11
456.446
 21
71.5425
  0
LINE
  8
0
 10
456.446
 20
71.5425
 11
456.447
 21
71.5423
  0
LINE
  8
0
 10
456.447
 20
71.5423
 11
456.544
 21
71.5327
  0
LINE
  8
0
 10
456.544
 20
71.5327
 11
456.545
 21
71.5325
  0
LINE
  8
0
 10
456.545
 20
71.5325
 11
456.642
 21
71.5229
  0
LINE
  8
0
 10
456.642
 20
71.5229
 11
456.643
 21
71.5227
  0
LINE
  8
0
 10
456.643
 20
71.5227
 11
456.74
 21
71.5131
  0
LINE
  8
0
 10
456.74
 20
71.5131
 11
456.741
 21
71.5129
  0
LINE
  8
0
 10
456.741
 20
71.5129
 11
456.838
 21
71.5033
  0
LINE
  8
0
 10
456.838
 20
71.5033
 11
456.839
 21
71.5031
  0
LINE
  8
0
 10
456.839
 20
71.5031
 11
456.936
 21
71.4935
  0
LINE
  8
0
 10
456.936
 20
71.4935
 11
456.937
 21
71.4933
  0
LINE
  8
0
 10
456.937
 20
71.4933
 11
457.034
 21
71.4837
  0
LINE
  8
0
 10
457.034
 20
71.4837
 11
457.035
 21
71.4835
  0
LINE
  8
0
 10
457.035
 20
71.4835
 11
457.132
 21
71.4739
  0
LINE
  8
0
 10
457.132
 20
71.4739
 11
457.133
 21
71.4737
  0
LINE
  8
0
 10
457.133
 20
71.4737
 11
457.231
 21
71.4641
  0
LINE
  8
0
 10
457.231
 20
71.4641
 11
457.231
 21
71.4639
  0
LINE
  8
0
 10
457.231
 20
71.4639
 11
457.329
 21
71.4543
  0
LINE
  8
0
 10
457.329
 20
71.4543
 11
457.329
 21
71.454
  0
LINE
  8
0
 10
457.329
 20
71.454
 11
457.427
 21
71.4445
  0
LINE
  8
0
 10
457.427
 20
71.4445
 11
457.427
 21
71.4442
  0
LINE
  8
0
 10
457.427
 20
71.4442
 11
457.525
 21
71.4347
  0
LINE
  8
0
 10
457.525
 20
71.4347
 11
457.525
 21
71.4344
  0
LINE
  8
0
 10
457.525
 20
71.4344
 11
457.623
 21
71.4249
  0
LINE
  8
0
 10
457.623
 20
71.4249
 11
457.624
 21
71.4246
  0
LINE
  8
0
 10
457.624
 20
71.4246
 11
457.721
 21
71.415
  0
LINE
  8
0
 10
457.721
 20
71.415
 11
457.722
 21
71.4148
  0
LINE
  8
0
 10
457.722
 20
71.4148
 11
457.819
 21
71.4052
  0
LINE
  8
0
 10
457.819
 20
71.4052
 11
457.82
 21
71.405
  0
LINE
  8
0
 10
457.82
 20
71.405
 11
457.917
 21
71.3954
  0
LINE
  8
0
 10
457.917
 20
71.3954
 11
457.918
 21
71.3952
  0
LINE
  8
0
 10
457.918
 20
71.3952
 11
458.015
 21
71.3856
  0
LINE
  8
0
 10
458.015
 20
71.3856
 11
458.016
 21
71.3854
  0
LINE
  8
0
 10
458.016
 20
71.3854
 11
458.113
 21
71.3758
  0
LINE
  8
0
 10
458.113
 20
71.3758
 11
458.114
 21
71.3756
  0
LINE
  8
0
 10
458.114
 20
71.3756
 11
458.211
 21
71.366
  0
LINE
  8
0
 10
458.211
 20
71.366
 11
458.212
 21
71.3658
  0
LINE
  8
0
 10
458.212
 20
71.3658
 11
458.309
 21
71.3562
  0
LINE
  8
0
 10
458.309
 20
71.3562
 11
458.31
 21
71.356
  0
LINE
  8
0
 10
458.31
 20
71.356
 11
458.407
 21
71.3464
  0
LINE
  8
0
 10
458.407
 20
71.3464
 11
458.408
 21
71.3462
  0
LINE
  8
0
 10
458.408
 20
71.3462
 11
458.505
 21
71.3366
  0
LINE
  8
0
 10
458.505
 20
71.3366
 11
458.506
 21
71.3363
  0
LINE
  8
0
 10
458.506
 20
71.3363
 11
458.603
 21
71.3268
  0
LINE
  8
0
 10
458.603
 20
71.3268
 11
458.604
 21
71.3265
  0
LINE
  8
0
 10
458.604
 20
71.3265
 11
458.701
 21
71.317
  0
LINE
  8
0
 10
458.701
 20
71.317
 11
458.702
 21
71.3167
  0
LINE
  8
0
 10
458.702
 20
71.3167
 11
458.799
 21
71.3072
  0
LINE
  8
0
 10
458.799
 20
71.3072
 11
458.8
 21
71.3069
  0
LINE
  8
0
 10
458.8
 20
71.3069
 11
458.897
 21
71.2973
  0
LINE
  8
0
 10
458.897
 20
71.2973
 11
458.898
 21
71.2971
  0
LINE
  8
0
 10
458.898
 20
71.2971
 11
458.995
 21
71.2875
  0
LINE
  8
0
 10
458.995
 20
71.2875
 11
458.996
 21
71.2873
  0
LINE
  8
0
 10
458.996
 20
71.2873
 11
459.093
 21
71.2777
  0
LINE
  8
0
 10
459.093
 20
71.2777
 11
459.094
 21
71.2775
  0
LINE
  8
0
 10
459.094
 20
71.2775
 11
459.192
 21
71.2679
  0
LINE
  8
0
 10
459.192
 20
71.2679
 11
459.192
 21
71.2677
  0
LINE
  8
0
 10
459.192
 20
71.2677
 11
459.29
 21
71.2581
  0
LINE
  8
0
 10
459.29
 20
71.2581
 11
459.29
 21
71.2579
  0
LINE
  8
0
 10
459.29
 20
71.2579
 11
459.388
 21
71.2483
  0
LINE
  8
0
 10
459.388
 20
71.2483
 11
459.388
 21
71.2481
  0
LINE
  8
0
 10
459.388
 20
71.2481
 11
459.486
 21
71.2385
  0
LINE
  8
0
 10
459.486
 20
71.2385
 11
459.486
 21
71.2383
  0
LINE
  8
0
 10
459.486
 20
71.2383
 11
459.584
 21
71.2287
  0
LINE
  8
0
 10
459.584
 20
71.2287
 11
459.584
 21
71.2285
  0
LINE
  8
0
 10
459.584
 20
71.2285
 11
459.682
 21
71.2189
  0
LINE
  8
0
 10
459.682
 20
71.2189
 11
459.683
 21
71.2187
  0
LINE
  8
0
 10
459.683
 20
71.2187
 11
459.78
 21
71.2091
  0
LINE
  8
0
 10
459.78
 20
71.2091
 11
459.781
 21
71.2088
  0
LINE
  8
0
 10
459.781
 20
71.2088
 11
459.878
 21
71.1993
  0
LINE
  8
0
 10
459.878
 20
71.1993
 11
459.879
 21
71.199
  0
LINE
  8
0
 10
459.879
 20
71.199
 11
459.976
 21
71.1895
  0
LINE
  8
0
 10
459.976
 20
71.1895
 11
459.977
 21
71.1892
  0
LINE
  8
0
 10
459.977
 20
71.1892
 11
460.074
 21
71.1797
  0
LINE
  8
0
 10
460.074
 20
71.1797
 11
460.075
 21
71.1794
  0
LINE
  8
0
 10
460.075
 20
71.1794
 11
460.172
 21
71.1698
  0
LINE
  8
0
 10
460.172
 20
71.1698
 11
460.173
 21
71.1696
  0
LINE
  8
0
 10
460.173
 20
71.1696
 11
460.27
 21
71.16
  0
LINE
  8
0
 10
460.27
 20
71.16
 11
460.271
 21
71.1598
  0
LINE
  8
0
 10
460.271
 20
71.1598
 11
460.368
 21
71.1502
  0
LINE
  8
0
 10
460.368
 20
71.1502
 11
460.369
 21
71.15
  0
LINE
  8
0
 10
460.369
 20
71.15
 11
460.466
 21
71.1404
  0
LINE
  8
0
 10
460.466
 20
71.1404
 11
460.467
 21
71.1402
  0
LINE
  8
0
 10
460.467
 20
71.1402
 11
460.564
 21
71.1306
  0
LINE
  8
0
 10
460.564
 20
71.1306
 11
460.565
 21
71.1304
  0
LINE
  8
0
 10
460.565
 20
71.1304
 11
460.662
 21
71.1208
  0
LINE
  8
0
 10
460.662
 20
71.1208
 11
460.663
 21
71.1206
  0
LINE
  8
0
 10
460.663
 20
71.1206
 11
460.76
 21
71.111
  0
LINE
  8
0
 10
460.76
 20
71.111
 11
460.761
 21
71.1108
  0
LINE
  8
0
 10
460.761
 20
71.1108
 11
460.858
 21
71.1012
  0
LINE
  8
0
 10
460.858
 20
71.1012
 11
460.859
 21
71.101
  0
LINE
  8
0
 10
460.859
 20
71.101
 11
460.956
 21
71.0914
  0
LINE
  8
0
 10
460.956
 20
71.0914
 11
460.957
 21
71.0912
  0
LINE
  8
0
 10
460.957
 20
71.0912
 11
461.054
 21
71.0816
  0
LINE
  8
0
 10
461.054
 20
71.0816
 11
461.055
 21
71.0813
  0
LINE
  8
0
 10
461.055
 20
71.0813
 11
461.153
 21
71.0718
  0
LINE
  8
0
 10
461.153
 20
71.0718
 11
461.153
 21
71.0715
  0
LINE
  8
0
 10
461.153
 20
71.0715
 11
461.251
 21
71.062
  0
LINE
  8
0
 10
461.251
 20
71.062
 11
461.251
 21
71.0617
  0
LINE
  8
0
 10
461.251
 20
71.0617
 11
461.349
 21
71.0522
  0
LINE
  8
0
 10
461.349
 20
71.0522
 11
461.349
 21
71.0519
  0
LINE
  8
0
 10
461.349
 20
71.0519
 11
461.447
 21
71.0423
  0
LINE
  8
0
 10
461.447
 20
71.0423
 11
461.447
 21
71.0421
  0
LINE
  8
0
 10
461.447
 20
71.0421
 11
461.545
 21
71.0325
  0
LINE
  8
0
 10
461.545
 20
71.0325
 11
461.545
 21
71.0323
  0
LINE
  8
0
 10
461.545
 20
71.0323
 11
461.643
 21
71.0227
  0
LINE
  8
0
 10
461.643
 20
71.0227
 11
461.643
 21
71.0225
  0
LINE
  8
0
 10
461.643
 20
71.0225
 11
461.741
 21
71.0129
  0
LINE
  8
0
 10
461.741
 20
71.0129
 11
461.742
 21
71.0127
  0
LINE
  8
0
 10
461.742
 20
71.0127
 11
461.839
 21
71.0031
  0
LINE
  8
0
 10
461.839
 20
71.0031
 11
461.84
 21
71.0029
  0
LINE
  8
0
 10
461.84
 20
71.0029
 11
461.937
 21
70.9933
  0
LINE
  8
0
 10
461.937
 20
70.9933
 11
461.938
 21
70.9931
  0
LINE
  8
0
 10
461.938
 20
70.9931
 11
462.035
 21
70.9835
  0
LINE
  8
0
 10
462.035
 20
70.9835
 11
462.036
 21
70.9833
  0
LINE
  8
0
 10
462.036
 20
70.9833
 11
462.133
 21
70.9737
  0
LINE
  8
0
 10
462.133
 20
70.9737
 11
462.134
 21
70.9735
  0
LINE
  8
0
 10
462.134
 20
70.9735
 11
462.231
 21
70.9639
  0
LINE
  8
0
 10
462.231
 20
70.9639
 11
462.232
 21
70.9637
  0
LINE
  8
0
 10
462.232
 20
70.9637
 11
462.329
 21
70.9541
  0
LINE
  8
0
 10
462.329
 20
70.9541
 11
462.33
 21
70.9538
  0
LINE
  8
0
 10
462.33
 20
70.9538
 11
462.427
 21
70.9443
  0
LINE
  8
0
 10
462.427
 20
70.9443
 11
462.428
 21
70.944
  0
LINE
  8
0
 10
462.428
 20
70.944
 11
462.525
 21
70.9345
  0
LINE
  8
0
 10
462.525
 20
70.9345
 11
462.526
 21
70.9342
  0
LINE
  8
0
 10
462.526
 20
70.9342
 11
462.623
 21
70.9247
  0
LINE
  8
0
 10
462.623
 20
70.9247
 11
462.624
 21
70.9244
  0
LINE
  8
0
 10
462.624
 20
70.9244
 11
462.721
 21
70.9148
  0
LINE
  8
0
 10
462.721
 20
70.9148
 11
462.722
 21
70.9146
  0
LINE
  8
0
 10
462.722
 20
70.9146
 11
462.819
 21
70.905
  0
LINE
  8
0
 10
462.819
 20
70.905
 11
462.82
 21
70.9048
  0
LINE
  8
0
 10
462.82
 20
70.9048
 11
462.917
 21
70.8952
  0
LINE
  8
0
 10
462.917
 20
70.8952
 11
462.918
 21
70.895
  0
LINE
  8
0
 10
462.918
 20
70.895
 11
463.015
 21
70.8854
  0
LINE
  8
0
 10
463.015
 20
70.8854
 11
463.016
 21
70.8852
  0
LINE
  8
0
 10
463.016
 20
70.8852
 11
463.113
 21
70.8756
  0
LINE
  8
0
 10
463.113
 20
70.8756
 11
463.114
 21
70.8754
  0
LINE
  8
0
 10
463.114
 20
70.8754
 11
463.212
 21
70.8658
  0
LINE
  8
0
 10
463.212
 20
70.8658
 11
463.212
 21
70.8656
  0
LINE
  8
0
 10
463.212
 20
70.8656
 11
463.31
 21
70.856
  0
LINE
  8
0
 10
463.31
 20
70.856
 11
463.31
 21
70.8558
  0
LINE
  8
0
 10
463.31
 20
70.8558
 11
463.408
 21
70.8462
  0
LINE
  8
0
 10
463.408
 20
70.8462
 11
463.408
 21
70.846
  0
LINE
  8
0
 10
463.408
 20
70.846
 11
463.506
 21
70.8364
  0
LINE
  8
0
 10
463.506
 20
70.8364
 11
463.506
 21
70.8362
  0
LINE
  8
0
 10
463.506
 20
70.8362
 11
463.589
 21
70.828
  0
LINE
  8
0
 10
463.589
 20
70.828
 11
463.847
 21
71.1428
  0
LINE
  8
0
 10
463.847
 20
71.1428
 11
464.226
 21
71.4537
  0
LINE
  8
0
 10
464.226
 20
71.4537
 11
464.658
 21
71.6847
  0
LINE
  8
0
 10
464.658
 20
71.6847
 11
465.127
 21
71.827
  0
LINE
  8
0
 10
465.127
 20
71.827
 11
465.615
 21
71.875
  0
LINE
  8
0
 10
465.615
 20
71.875
 11
466.103
 21
71.827
  0
LINE
  8
0
 10
466.103
 20
71.827
 11
466.572
 21
71.6847
  0
LINE
  8
0
 10
466.572
 20
71.6847
 11
467.004
 21
71.4537
  0
LINE
  8
0
 10
467.004
 20
71.4537
 11
467.383
 21
71.1428
  0
LINE
  8
0
 10
467.383
 20
71.1428
 11
467.694
 21
70.7639
  0
LINE
  8
0
 10
467.694
 20
70.7639
 11
467.925
 21
70.3317
  0
LINE
  8
0
 10
467.925
 20
70.3317
 11
468.067
 21
69.8627
  0
LINE
  8
0
 10
468.067
 20
69.8627
 11
468.115
 21
69.375
  0
LINE
  8
0
 10
468.115
 20
69.375
 11
468.067
 21
68.8873
  0
LINE
  8
0
 10
468.067
 20
68.8873
 11
467.925
 21
68.4183
  0
LINE
  8
0
 10
467.925
 20
68.4183
 11
467.694
 21
67.9861
  0
LINE
  8
0
 10
467.694
 20
67.9861
 11
467.383
 21
67.6072
  0
LINE
  8
0
 10
467.383
 20
67.6072
 11
467.004
 21
67.2963
  0
LINE
  8
0
 10
467.004
 20
67.2963
 11
466.572
 21
67.0653
  0
LINE
  8
0
 10
466.572
 20
67.0653
 11
466.103
 21
66.923
  0
LINE
  8
0
 10
466.103
 20
66.923
 11
465.615
 21
66.875
  0
LINE
  8
0
 10
465.615
 20
66.875
 11
465.127
 21
66.923
  0
LINE
  8
0
 10
465.127
 20
66.923
 11
464.658
 21
67.0653
  0
LINE
  8
0
 10
464.658
 20
67.0653
 11
464.226
 21
67.2963
  0
LINE
  8
0
 10
464.226
 20
67.2963
 11
463.847
 21
67.6072
  0
LINE
  8
0
 10
463.847
 20
67.6072
 11
463.589
 21
67.922
  0
LINE
  8
0
 10
463.589
 20
67.922
 11
463.506
 21
67.9139
  0
LINE
  8
0
 10
463.506
 20
67.9139
 11
463.506
 21
67.9136
  0
LINE
  8
0
 10
463.506
 20
67.9136
 11
463.408
 21
67.9041
  0
LINE
  8
0
 10
463.408
 20
67.9041
 11
463.408
 21
67.9038
  0
LINE
  8
0
 10
463.408
 20
67.9038
 11
463.31
 21
67.8942
  0
LINE
  8
0
 10
463.31
 20
67.8942
 11
463.31
 21
67.894
  0
LINE
  8
0
 10
463.31
 20
67.894
 11
463.212
 21
67.8844
  0
LINE
  8
0
 10
463.212
 20
67.8844
 11
463.212
 21
67.8842
  0
LINE
  8
0
 10
463.212
 20
67.8842
 11
463.114
 21
67.8746
  0
LINE
  8
0
 10
463.114
 20
67.8746
 11
463.113
 21
67.8744
  0
LINE
  8
0
 10
463.113
 20
67.8744
 11
463.016
 21
67.8648
  0
LINE
  8
0
 10
463.016
 20
67.8648
 11
463.015
 21
67.8646
  0
LINE
  8
0
 10
463.015
 20
67.8646
 11
462.918
 21
67.855
  0
LINE
  8
0
 10
462.918
 20
67.855
 11
462.917
 21
67.8548
  0
LINE
  8
0
 10
462.917
 20
67.8548
 11
462.82
 21
67.8452
  0
LINE
  8
0
 10
462.82
 20
67.8452
 11
462.819
 21
67.845
  0
LINE
  8
0
 10
462.819
 20
67.845
 11
462.722
 21
67.8354
  0
LINE
  8
0
 10
462.722
 20
67.8354
 11
462.721
 21
67.8352
  0
LINE
  8
0
 10
462.721
 20
67.8352
 11
462.624
 21
67.8256
  0
LINE
  8
0
 10
462.624
 20
67.8256
 11
462.623
 21
67.8254
  0
LINE
  8
0
 10
462.623
 20
67.8254
 11
462.526
 21
67.8158
  0
LINE
  8
0
 10
462.526
 20
67.8158
 11
462.525
 21
67.8156
  0
LINE
  8
0
 10
462.525
 20
67.8156
 11
462.428
 21
67.806
  0
LINE
  8
0
 10
462.428
 20
67.806
 11
462.427
 21
67.8058
  0
LINE
  8
0
 10
462.427
 20
67.8058
 11
462.33
 21
67.7962
  0
LINE
  8
0
 10
462.33
 20
67.7962
 11
462.329
 21
67.7959
  0
LINE
  8
0
 10
462.329
 20
67.7959
 11
462.232
 21
67.7864
  0
LINE
  8
0
 10
462.232
 20
67.7864
 11
462.231
 21
67.7861
  0
LINE
  8
0
 10
462.231
 20
67.7861
 11
462.134
 21
67.7766
  0
LINE
  8
0
 10
462.134
 20
67.7766
 11
462.133
 21
67.7763
  0
LINE
  8
0
 10
462.133
 20
67.7763
 11
462.036
 21
67.7667
  0
LINE
  8
0
 10
462.036
 20
67.7667
 11
462.035
 21
67.7665
  0
LINE
  8
0
 10
462.035
 20
67.7665
 11
461.938
 21
67.7569
  0
LINE
  8
0
 10
461.938
 20
67.7569
 11
461.937
 21
67.7567
  0
LINE
  8
0
 10
461.937
 20
67.7567
 11
461.84
 21
67.7471
  0
LINE
  8
0
 10
461.84
 20
67.7471
 11
461.839
 21
67.7469
  0
LINE
  8
0
 10
461.839
 20
67.7469
 11
461.742
 21
67.7373
  0
LINE
  8
0
 10
461.742
 20
67.7373
 11
461.741
 21
67.7371
  0
LINE
  8
0
 10
461.741
 20
67.7371
 11
461.643
 21
67.7275
  0
LINE
  8
0
 10
461.643
 20
67.7275
 11
461.643
 21
67.7273
  0
LINE
  8
0
 10
461.643
 20
67.7273
 11
461.545
 21
67.7177
  0
LINE
  8
0
 10
461.545
 20
67.7177
 11
461.545
 21
67.7175
  0
LINE
  8
0
 10
461.545
 20
67.7175
 11
461.447
 21
67.7079
  0
LINE
  8
0
 10
461.447
 20
67.7079
 11
461.447
 21
67.7077
  0
LINE
  8
0
 10
461.447
 20
67.7077
 11
461.349
 21
67.6981
  0
LINE
  8
0
 10
461.349
 20
67.6981
 11
461.349
 21
67.6979
  0
LINE
  8
0
 10
461.349
 20
67.6979
 11
461.251
 21
67.6883
  0
LINE
  8
0
 10
461.251
 20
67.6883
 11
461.251
 21
67.6881
  0
LINE
  8
0
 10
461.251
 20
67.6881
 11
461.153
 21
67.6785
  0
LINE
  8
0
 10
461.153
 20
67.6785
 11
461.153
 21
67.6783
  0
LINE
  8
0
 10
461.153
 20
67.6783
 11
461.055
 21
67.6687
  0
LINE
  8
0
 10
461.055
 20
67.6687
 11
461.054
 21
67.6684
  0
LINE
  8
0
 10
461.054
 20
67.6684
 11
460.957
 21
67.6589
  0
LINE
  8
0
 10
460.957
 20
67.6589
 11
460.956
 21
67.6586
  0
LINE
  8
0
 10
460.956
 20
67.6586
 11
460.859
 21
67.649
  0
LINE
  8
0
 10
460.859
 20
67.649
 11
460.858
 21
67.6488
  0
LINE
  8
0
 10
460.858
 20
67.6488
 11
460.761
 21
67.6392
  0
LINE
  8
0
 10
460.761
 20
67.6392
 11
460.76
 21
67.639
  0
LINE
  8
0
 10
460.76
 20
67.639
 11
460.663
 21
67.6294
  0
LINE
  8
0
 10
460.663
 20
67.6294
 11
460.662
 21
67.6292
  0
LINE
  8
0
 10
460.662
 20
67.6292
 11
460.565
 21
67.6196
  0
LINE
  8
0
 10
460.565
 20
67.6196
 11
460.564
 21
67.6194
  0
LINE
  8
0
 10
460.564
 20
67.6194
 11
460.467
 21
67.6098
  0
LINE
  8
0
 10
460.467
 20
67.6098
 11
460.466
 21
67.6096
  0
LINE
  8
0
 10
460.466
 20
67.6096
 11
460.369
 21
67.6
  0
LINE
  8
0
 10
460.369
 20
67.6
 11
460.368
 21
67.5998
  0
LINE
  8
0
 10
460.368
 20
67.5998
 11
460.271
 21
67.5902
  0
LINE
  8
0
 10
460.271
 20
67.5902
 11
460.27
 21
67.59
  0
LINE
  8
0
 10
460.27
 20
67.59
 11
460.173
 21
67.5804
  0
LINE
  8
0
 10
460.173
 20
67.5804
 11
460.172
 21
67.5802
  0
LINE
  8
0
 10
460.172
 20
67.5802
 11
460.075
 21
67.5706
  0
LINE
  8
0
 10
460.075
 20
67.5706
 11
460.074
 21
67.5704
  0
LINE
  8
0
 10
460.074
 20
67.5704
 11
459.977
 21
67.5608
  0
LINE
  8
0
 10
459.977
 20
67.5608
 11
459.976
 21
67.5606
  0
LINE
  8
0
 10
459.976
 20
67.5606
 11
459.879
 21
67.551
  0
LINE
  8
0
 10
459.879
 20
67.551
 11
459.878
 21
67.5508
  0
LINE
  8
0
 10
459.878
 20
67.5508
 11
459.781
 21
67.5412
  0
LINE
  8
0
 10
459.781
 20
67.5412
 11
459.78
 21
67.5409
  0
LINE
  8
0
 10
459.78
 20
67.5409
 11
459.683
 21
67.5314
  0
LINE
  8
0
 10
459.683
 20
67.5314
 11
459.682
 21
67.5311
  0
LINE
  8
0
 10
459.682
 20
67.5311
 11
459.584
 21
67.5215
  0
LINE
  8
0
 10
459.584
 20
67.5215
 11
459.584
 21
67.5213
  0
LINE
  8
0
 10
459.584
 20
67.5213
 11
459.486
 21
67.5117
  0
LINE
  8
0
 10
459.486
 20
67.5117
 11
459.486
 21
67.5115
  0
LINE
  8
0
 10
459.486
 20
67.5115
 11
459.388
 21
67.5019
  0
LINE
  8
0
 10
459.388
 20
67.5019
 11
459.388
 21
67.5017
  0
LINE
  8
0
 10
459.388
 20
67.5017
 11
459.29
 21
67.4921
  0
LINE
  8
0
 10
459.29
 20
67.4921
 11
459.29
 21
67.4919
  0
LINE
  8
0
 10
459.29
 20
67.4919
 11
459.192
 21
67.4823
  0
LINE
  8
0
 10
459.192
 20
67.4823
 11
459.192
 21
67.4821
  0
LINE
  8
0
 10
459.192
 20
67.4821
 11
459.094
 21
67.4725
  0
LINE
  8
0
 10
459.094
 20
67.4725
 11
459.093
 21
67.4723
  0
LINE
  8
0
 10
459.093
 20
67.4723
 11
458.996
 21
67.4627
  0
LINE
  8
0
 10
458.996
 20
67.4627
 11
458.995
 21
67.4625
  0
LINE
  8
0
 10
458.995
 20
67.4625
 11
458.898
 21
67.4529
  0
LINE
  8
0
 10
458.898
 20
67.4529
 11
458.897
 21
67.4527
  0
LINE
  8
0
 10
458.897
 20
67.4527
 11
458.8
 21
67.4431
  0
LINE
  8
0
 10
458.8
 20
67.4431
 11
458.799
 21
67.4429
  0
LINE
  8
0
 10
458.799
 20
67.4429
 11
458.702
 21
67.4333
  0
LINE
  8
0
 10
458.702
 20
67.4333
 11
458.701
 21
67.4331
  0
LINE
  8
0
 10
458.701
 20
67.4331
 11
458.604
 21
67.4235
  0
LINE
  8
0
 10
458.604
 20
67.4235
 11
458.603
 21
67.4232
  0
LINE
  8
0
 10
458.603
 20
67.4232
 11
458.506
 21
67.4137
  0
LINE
  8
0
 10
458.506
 20
67.4137
 11
458.505
 21
67.4134
  0
LINE
  8
0
 10
458.505
 20
67.4134
 11
458.408
 21
67.4039
  0
LINE
  8
0
 10
458.408
 20
67.4039
 11
458.407
 21
67.4036
  0
LINE
  8
0
 10
458.407
 20
67.4036
 11
458.31
 21
67.394
  0
LINE
  8
0
 10
458.31
 20
67.394
 11
458.309
 21
67.3938
  0
LINE
  8
0
 10
458.309
 20
67.3938
 11
458.212
 21
67.3842
  0
LINE
  8
0
 10
458.212
 20
67.3842
 11
458.211
 21
67.384
  0
LINE
  8
0
 10
458.211
 20
67.384
 11
458.114
 21
67.3744
  0
LINE
  8
0
 10
458.114
 20
67.3744
 11
458.113
 21
67.3742
  0
LINE
  8
0
 10
458.113
 20
67.3742
 11
458.016
 21
67.3646
  0
LINE
  8
0
 10
458.016
 20
67.3646
 11
458.015
 21
67.3644
  0
LINE
  8
0
 10
458.015
 20
67.3644
 11
457.918
 21
67.3548
  0
LINE
  8
0
 10
457.918
 20
67.3548
 11
457.917
 21
67.3546
  0
LINE
  8
0
 10
457.917
 20
67.3546
 11
457.82
 21
67.345
  0
LINE
  8
0
 10
457.82
 20
67.345
 11
457.819
 21
67.3448
  0
LINE
  8
0
 10
457.819
 20
67.3448
 11
457.722
 21
67.3352
  0
LINE
  8
0
 10
457.722
 20
67.3352
 11
457.721
 21
67.335
  0
LINE
  8
0
 10
457.721
 20
67.335
 11
457.624
 21
67.3254
  0
LINE
  8
0
 10
457.624
 20
67.3254
 11
457.623
 21
67.3252
  0
LINE
  8
0
 10
457.623
 20
67.3252
 11
457.525
 21
67.3156
  0
LINE
  8
0
 10
457.525
 20
67.3156
 11
457.525
 21
67.3154
  0
LINE
  8
0
 10
457.525
 20
67.3154
 11
457.427
 21
67.3058
  0
LINE
  8
0
 10
457.427
 20
67.3058
 11
457.427
 21
67.3056
  0
LINE
  8
0
 10
457.427
 20
67.3056
 11
457.329
 21
67.296
  0
LINE
  8
0
 10
457.329
 20
67.296
 11
457.329
 21
67.2957
  0
LINE
  8
0
 10
457.329
 20
67.2957
 11
457.231
 21
67.2862
  0
LINE
  8
0
 10
457.231
 20
67.2862
 11
457.231
 21
67.2859
  0
LINE
  8
0
 10
457.231
 20
67.2859
 11
457.133
 21
67.2764
  0
LINE
  8
0
 10
457.133
 20
67.2764
 11
457.132
 21
67.2761
  0
LINE
  8
0
 10
457.132
 20
67.2761
 11
457.035
 21
67.2665
  0
LINE
  8
0
 10
457.035
 20
67.2665
 11
457.034
 21
67.2663
  0
LINE
  8
0
 10
457.034
 20
67.2663
 11
456.937
 21
67.2567
  0
LINE
  8
0
 10
456.937
 20
67.2567
 11
456.936
 21
67.2565
  0
LINE
  8
0
 10
456.936
 20
67.2565
 11
456.839
 21
67.2469
  0
LINE
  8
0
 10
456.839
 20
67.2469
 11
456.838
 21
67.2467
  0
LINE
  8
0
 10
456.838
 20
67.2467
 11
456.741
 21
67.2371
  0
LINE
  8
0
 10
456.741
 20
67.2371
 11
456.74
 21
67.2369
  0
LINE
  8
0
 10
456.74
 20
67.2369
 11
456.643
 21
67.2273
  0
LINE
  8
0
 10
456.643
 20
67.2273
 11
456.642
 21
67.2271
  0
LINE
  8
0
 10
456.642
 20
67.2271
 11
456.545
 21
67.2175
  0
LINE
  8
0
 10
456.545
 20
67.2175
 11
456.544
 21
67.2173
  0
LINE
  8
0
 10
456.544
 20
67.2173
 11
456.447
 21
67.2077
  0
LINE
  8
0
 10
456.447
 20
67.2077
 11
456.446
 21
67.2075
  0
LINE
  8
0
 10
456.446
 20
67.2075
 11
456.349
 21
67.1979
  0
LINE
  8
0
 10
456.349
 20
67.1979
 11
456.348
 21
67.1977
  0
LINE
  8
0
 10
456.348
 20
67.1977
 11
456.251
 21
67.1881
  0
LINE
  8
0
 10
456.251
 20
67.1881
 11
456.25
 21
67.1879
  0
LINE
  8
0
 10
456.25
 20
67.1879
 11
456.153
 21
67.1783
  0
LINE
  8
0
 10
456.153
 20
67.1783
 11
456.152
 21
67.1781
  0
LINE
  8
0
 10
456.152
 20
67.1781
 11
456.055
 21
67.1685
  0
LINE
  8
0
 10
456.055
 20
67.1685
 11
456.054
 21
67.1682
  0
LINE
  8
0
 10
456.054
 20
67.1682
 11
455.957
 21
67.1587
  0
LINE
  8
0
 10
455.957
 20
67.1587
 11
455.956
 21
67.1584
  0
LINE
  8
0
 10
455.956
 20
67.1584
 11
455.859
 21
67.1488
  0
LINE
  8
0
 10
455.859
 20
67.1488
 11
455.858
 21
67.1486
  0
LINE
  8
0
 10
455.858
 20
67.1486
 11
455.76
 21
67.139
  0
LINE
  8
0
 10
455.76
 20
67.139
 11
455.76
 21
67.1388
  0
LINE
  8
0
 10
455.76
 20
67.1388
 11
455.662
 21
67.1292
  0
LINE
  8
0
 10
455.662
 20
67.1292
 11
455.662
 21
67.129
  0
LINE
  8
0
 10
455.662
 20
67.129
 11
455.564
 21
67.1194
  0
LINE
  8
0
 10
455.564
 20
67.1194
 11
455.564
 21
67.1192
  0
LINE
  8
0
 10
455.564
 20
67.1192
 11
455.466
 21
67.1096
  0
LINE
  8
0
 10
455.466
 20
67.1096
 11
455.466
 21
67.1094
  0
LINE
  8
0
 10
455.466
 20
67.1094
 11
455.368
 21
67.0998
  0
LINE
  8
0
 10
455.368
 20
67.0998
 11
455.368
 21
67.0996
  0
LINE
  8
0
 10
455.368
 20
67.0996
 11
455.27
 21
67.09
  0
LINE
  8
0
 10
455.27
 20
67.09
 11
455.27
 21
67.0898
  0
LINE
  8
0
 10
455.27
 20
67.0898
 11
455.172
 21
67.0802
  0
LINE
  8
0
 10
455.172
 20
67.0802
 11
455.172
 21
67.08
  0
LINE
  8
0
 10
455.172
 20
67.08
 11
455.074
 21
67.0704
  0
LINE
  8
0
 10
455.074
 20
67.0704
 11
455.073
 21
67.0702
  0
LINE
  8
0
 10
455.073
 20
67.0702
 11
454.976
 21
67.0606
  0
LINE
  8
0
 10
454.976
 20
67.0606
 11
454.975
 21
67.0603
  0
LINE
  8
0
 10
454.975
 20
67.0603
 11
454.878
 21
67.0508
  0
LINE
  8
0
 10
454.878
 20
67.0508
 11
454.877
 21
67.0506
  0
LINE
  8
0
 10
454.877
 20
67.0506
 11
454.78
 21
67.041
  0
LINE
  8
0
 10
454.78
 20
67.041
 11
454.779
 21
67.0407
  0
LINE
  8
0
 10
454.779
 20
67.0407
 11
454.682
 21
67.0312
  0
LINE
  8
0
 10
454.682
 20
67.0312
 11
454.681
 21
67.0309
  0
LINE
  8
0
 10
454.681
 20
67.0309
 11
454.584
 21
67.0213
  0
LINE
  8
0
 10
454.584
 20
67.0213
 11
454.583
 21
67.0211
  0
LINE
  8
0
 10
454.583
 20
67.0211
 11
454.486
 21
67.0115
  0
LINE
  8
0
 10
454.486
 20
67.0115
 11
454.485
 21
67.0113
  0
LINE
  8
0
 10
454.485
 20
67.0113
 11
454.388
 21
67.0017
  0
LINE
  8
0
 10
454.388
 20
67.0017
 11
454.387
 21
67.0015
  0
LINE
  8
0
 10
454.387
 20
67.0015
 11
454.29
 21
66.9919
  0
LINE
  8
0
 10
454.29
 20
66.9919
 11
454.289
 21
66.9917
  0
LINE
  8
0
 10
454.289
 20
66.9917
 11
454.192
 21
66.9821
  0
LINE
  8
0
 10
454.192
 20
66.9821
 11
454.191
 21
66.9819
  0
LINE
  8
0
 10
454.191
 20
66.9819
 11
454.094
 21
66.9723
  0
LINE
  8
0
 10
454.094
 20
66.9723
 11
454.093
 21
66.9721
  0
LINE
  8
0
 10
454.093
 20
66.9721
 11
453.996
 21
66.9625
  0
LINE
  8
0
 10
453.996
 20
66.9625
 11
453.995
 21
66.9623
  0
LINE
  8
0
 10
453.995
 20
66.9623
 11
453.898
 21
66.9527
  0
LINE
  8
0
 10
453.898
 20
66.9527
 11
453.897
 21
66.9525
  0
LINE
  8
0
 10
453.897
 20
66.9525
 11
453.8
 21
66.9429
  0
LINE
  8
0
 10
453.8
 20
66.9429
 11
453.799
 21
66.9427
  0
LINE
  8
0
 10
453.799
 20
66.9427
 11
453.702
 21
66.9331
  0
LINE
  8
0
 10
453.702
 20
66.9331
 11
453.701
 21
66.9328
  0
LINE
  8
0
 10
453.701
 20
66.9328
 11
453.603
 21
66.9233
  0
LINE
  8
0
 10
453.603
 20
66.9233
 11
453.603
 21
66.923
  0
LINE
  8
0
 10
453.603
 20
66.923
 11
453.505
 21
66.9135
  0
LINE
  8
0
 10
453.505
 20
66.9135
 11
453.505
 21
66.9132
  0
LINE
  8
0
 10
453.505
 20
66.9132
 11
453.407
 21
66.9037
  0
LINE
  8
0
 10
453.407
 20
66.9037
 11
453.407
 21
66.9034
  0
LINE
  8
0
 10
453.407
 20
66.9034
 11
453.309
 21
66.8938
  0
LINE
  8
0
 10
453.309
 20
66.8938
 11
453.309
 21
66.8936
  0
LINE
  8
0
 10
453.309
 20
66.8936
 11
453.211
 21
66.884
  0
LINE
  8
0
 10
453.211
 20
66.884
 11
453.211
 21
66.8838
  0
LINE
  8
0
 10
453.211
 20
66.8838
 11
453.113
 21
66.8742
  0
LINE
  8
0
 10
453.113
 20
66.8742
 11
453.112
 21
66.874
  0
LINE
  8
0
 10
453.112
 20
66.874
 11
453.015
 21
66.8644
  0
LINE
  8
0
 10
453.015
 20
66.8644
 11
453.014
 21
66.8642
  0
LINE
  8
0
 10
453.014
 20
66.8642
 11
452.917
 21
66.8546
  0
LINE
  8
0
 10
452.917
 20
66.8546
 11
452.916
 21
66.8544
  0
LINE
  8
0
 10
452.916
 20
66.8544
 11
452.819
 21
66.8448
  0
LINE
  8
0
 10
452.819
 20
66.8448
 11
452.818
 21
66.8446
  0
LINE
  8
0
 10
452.818
 20
66.8446
 11
452.721
 21
66.835
  0
LINE
  8
0
 10
452.721
 20
66.835
 11
452.72
 21
66.8348
  0
LINE
  8
0
 10
452.72
 20
66.8348
 11
452.623
 21
66.8252
  0
LINE
  8
0
 10
452.623
 20
66.8252
 11
452.622
 21
66.825
  0
LINE
  8
0
 10
452.622
 20
66.825
 11
452.525
 21
66.8154
  0
LINE
  8
0
 10
452.525
 20
66.8154
 11
452.524
 21
66.8152
  0
LINE
  8
0
 10
452.524
 20
66.8152
 11
452.427
 21
66.8056
  0
LINE
  8
0
 10
452.427
 20
66.8056
 11
452.426
 21
66.8053
  0
LINE
  8
0
 10
452.426
 20
66.8053
 11
452.329
 21
66.7958
  0
LINE
  8
0
 10
452.329
 20
66.7958
 11
452.328
 21
66.7955
  0
LINE
  8
0
 10
452.328
 20
66.7955
 11
452.231
 21
66.786
  0
LINE
  8
0
 10
452.231
 20
66.786
 11
452.23
 21
66.7857
  0
LINE
  8
0
 10
452.23
 20
66.7857
 11
452.133
 21
66.7762
  0
LINE
  8
0
 10
452.133
 20
66.7762
 11
452.132
 21
66.7759
  0
LINE
  8
0
 10
452.132
 20
66.7759
 11
452.035
 21
66.7663
  0
LINE
  8
0
 10
452.035
 20
66.7663
 11
452.034
 21
66.7661
  0
LINE
  8
0
 10
452.034
 20
66.7661
 11
451.937
 21
66.7565
  0
LINE
  8
0
 10
451.937
 20
66.7565
 11
451.936
 21
66.7563
  0
LINE
  8
0
 10
451.936
 20
66.7563
 11
451.839
 21
66.7467
  0
LINE
  8
0
 10
451.839
 20
66.7467
 11
451.838
 21
66.7465
  0
LINE
  8
0
 10
451.838
 20
66.7465
 11
451.741
 21
66.7369
  0
LINE
  8
0
 10
451.741
 20
66.7369
 11
451.74
 21
66.7367
  0
LINE
  8
0
 10
451.74
 20
66.7367
 11
451.643
 21
66.7271
  0
LINE
  8
0
 10
451.643
 20
66.7271
 11
451.642
 21
66.7269
  0
LINE
  8
0
 10
451.642
 20
66.7269
 11
451.544
 21
66.7173
  0
LINE
  8
0
 10
451.544
 20
66.7173
 11
451.544
 21
66.7171
  0
LINE
  8
0
 10
451.544
 20
66.7171
 11
451.446
 21
66.7075
  0
LINE
  8
0
 10
451.446
 20
66.7075
 11
451.446
 21
66.7073
  0
LINE
  8
0
 10
451.446
 20
66.7073
 11
451.348
 21
66.6977
  0
LINE
  8
0
 10
451.348
 20
66.6977
 11
451.348
 21
66.6975
  0
LINE
  8
0
 10
451.348
 20
66.6975
 11
451.25
 21
66.6879
  0
LINE
  8
0
 10
451.25
 20
66.6879
 11
451.25
 21
66.6877
  0
LINE
  8
0
 10
451.25
 20
66.6877
 11
451.152
 21
66.6781
  0
LINE
  8
0
 10
451.152
 20
66.6781
 11
451.151
 21
66.6778
  0
LINE
  8
0
 10
451.151
 20
66.6778
 11
451.054
 21
66.6683
  0
LINE
  8
0
 10
451.054
 20
66.6683
 11
451.053
 21
66.668
  0
LINE
  8
0
 10
451.053
 20
66.668
 11
450.956
 21
66.6585
  0
LINE
  8
0
 10
450.956
 20
66.6585
 11
450.955
 21
66.6582
  0
LINE
  8
0
 10
450.955
 20
66.6582
 11
450.858
 21
66.6487
  0
LINE
  8
0
 10
450.858
 20
66.6487
 11
450.858
 21
66.6485
  0
LINE
  8
0
 10
450.858
 20
66.6485
 11
450.878
 21
66.4436
  0
LINE
  8
0
 10
450.878
 20
66.4436
 11
451.733
 21
63.6248
  0
LINE
  8
0
 10
451.733
 20
63.6248
 11
453.121
 21
61.027
  0
LINE
  8
0
 10
453.121
 20
61.027
 11
454.99
 21
58.75
  0
LINE
  8
0
 10
454.99
 20
58.75
 11
457.267
 21
56.8813
  0
LINE
  8
0
 10
457.267
 20
56.8813
 11
459.865
 21
55.4928
  0
LINE
  8
0
 10
459.865
 20
55.4928
 11
462.684
 21
54.6377
  0
LINE
  8
0
 10
462.684
 20
54.6377
 11
465.615
 21
54.349
  0
LINE
  8
0
 10
465.615
 20
54.349
 11
468.546
 21
54.6377
  0
LINE
  8
0
 10
308
 20
250
 11
300
 21
250
  0
LINE
  8
0
 10
300
 20
250
 11
300
 21
225
  0
LINE
  8
0
 10
300
 20
225
 11
308
 21
225
  0
LINE
  8
0
 10
308
 20
225
 11
308
 21
250
  0
LINE
  8
0
 10
303.512
 20
242.548
 11
303.043
 21
242.69
  0
LINE
  8
0
 10
303.043
 20
242.69
 11
302.611
 21
242.921
  0
LINE
  8
0
 10
302.611
 20
242.921
 11
302.232
 21
243.232
  0
LINE
  8
0
 10
302.232
 20
243.232
 11
301.921
 21
243.611
  0
LINE
  8
0
 10
301.921
 20
243.611
 11
301.69
 21
244.043
  0
LINE
  8
0
 10
301.69
 20
244.043
 11
301.548
 21
244.512
  0
LINE
  8
0
 10
301.548
 20
244.512
 11
301.5
 21
245
  0
LINE
  8
0
 10
301.5
 20
245
 11
301.548
 21
245.488
  0
LINE
  8
0
 10
301.548
 20
245.488
 11
301.69
 21
245.957
  0
LINE
  8
0
 10
301.69
 20
245.957
 11
301.921
 21
246.389
  0
LINE
  8
0
 10
301.921
 20
246.389
 11
302.232
 21
246.768
  0
LINE
  8
0
 10
302.232
 20
246.768
 11
302.611
 21
247.079
  0
LINE
  8
0
 10
302.611
 20
247.079
 11
303.043
 21
247.31
  0
LINE
  8
0
 10
303.043
 20
247.31
 11
303.512
 21
247.452
  0
LINE
  8
0
 10
303.512
 20
247.452
 11
304
 21
247.5
  0
LINE
  8
0
 10
304
 20
247.5
 11
304.488
 21
247.452
  0
LINE
  8
0
 10
304.488
 20
247.452
 11
304.957
 21
247.31
  0
LINE
  8
0
 10
304.957
 20
247.31
 11
305.389
 21
247.079
  0
LINE
  8
0
 10
305.389
 20
247.079
 11
305.768
 21
246.768
  0
LINE
  8
0
 10
305.768
 20
246.768
 11
306.079
 21
246.389
  0
LINE
  8
0
 10
306.079
 20
246.389
 11
306.31
 21
245.957
  0
LINE
  8
0
 10
306.31
 20
245.957
 11
306.452
 21
245.488
  0
LINE
  8
0
 10
306.452
 20
245.488
 11
306.5
 21
245
  0
LINE
  8
0
 10
306.5
 20
245
 11
306.452
 21
244.512
  0
LINE
  8
0
 10
306.452
 20
244.512
 11
306.31
 21
244.043
  0
LINE
  8
0
 10
306.31
 20
244.043
 11
306.079
 21
243.611
  0
LINE
  8
0
 10
306.079
 20
243.611
 11
305.768
 21
243.232
  0
LINE
  8
0
 10
305.768
 20
243.232
 11
305.389
 21
242.921
  0
LINE
  8
0
 10
305.389
 20
242.921
 11
304.957
 21
242.69
  0
LINE
  8
0
 10
304.957
 20
242.69
 11
304.488
 21
242.548
  0
LINE
  8
0
 10
304.488
 20
242.548
 11
304
 21
242.5
  0
LINE
  8
0
 10
304
 20
242.5
 11
303.512
 21
242.548
  0
LINE
  8
0
 10
303.512
 20
235.048
 11
303.043
 21
235.19
  0
LINE
  8
0
 10
303.043
 20
235.19
 11
302.611
 21
235.421
  0
LINE
  8
0
 10
302.611
 20
235.421
 11
302.232
 21
235.732
  0
LINE
  8
0
 10
302.232
 20
235.732
 11
301.921
 21
236.111
  0
LINE
  8
0
 10
301.921
 20
236.111
 11
301.69
 21
236.543
  0
LINE
  8
0
 10
301.69
 20
236.543
 11
301.548
 21
237.012
  0
LINE
  8
0
 10
301.548
 20
237.012
 11
301.5
 21
237.5
  0
LINE
  8
0
 10
301.5
 20
237.5
 11
301.548
 21
237.988
  0
LINE
  8
0
 10
301.548
 20
237.988
 11
301.69
 21
238.457
  0
LINE
  8
0
 10
301.69
 20
238.457
 11
301.921
 21
238.889
  0
LINE
  8
0
 10
301.921
 20
238.889
 11
302.232
 21
239.268
  0
LINE
  8
0
 10
302.232
 20
239.268
 11
302.611
 21
239.579
  0
LINE
  8
0
 10
302.611
 20
239.579
 11
303.043
 21
239.81
  0
LINE
  8
0
 10
303.043
 20
239.81
 11
303.512
 21
239.952
  0
LINE
  8
0
 10
303.512
 20
239.952
 11
304
 21
240
  0
LINE
  8
0
 10
304
 20
240
 11
304.488
 21
239.952
  0
LINE
  8
0
 10
304.488
 20
239.952
 11
304.957
 21
239.81
  0
LINE
  8
0
 10
304.957
 20
239.81
 11
305.389
 21
239.579
  0
LINE
  8
0
 10
305.389
 20
239.579
 11
305.768
 21
239.268
  0
LINE
  8
0
 10
305.768
 20
239.268
 11
306.079
 21
238.889
  0
LINE
  8
0
 10
306.079
 20
238.889
 11
306.31
 21
238.457
  0
LINE
  8
0
 10
306.31
 20
238.457
 11
306.452
 21
237.988
  0
LINE
  8
0
 10
306.452
 20
237.988
 11
306.5
 21
237.5
  0
LINE
  8
0
 10
306.5
 20
237.5
 11
306.452
 21
237.012
  0
LINE
  8
0
 10
306.452
 20
237.012
 11
306.31
 21
236.543
  0
LINE
  8
0
 10
306.31
 20
236.543
 11
306.079
 21
236.111
  0
LINE
  8
0
 10
306.079
 20
236.111
 11
305.768
 21
235.732
  0
LINE
  8
0
 10
305.768
 20
235.732
 11
305.389
 21
235.421
  0
LINE
  8
0
 10
305.389
 20
235.421
 11
304.957
 21
235.19
  0
LINE
  8
0
 10
304.957
 20
235.19
 11
304.488
 21
235.048
  0
LINE
  8
0
 10
304.488
 20
235.048
 11
304
 21
235
  0
LINE
  8
0
 10
304
 20
235
 11
303.512
 21
235.048
  0
LINE
  8
0
 10
303.512
 20
227.548
 11
303.043
 21
227.69
  0
LINE
  8
0
 10
303.043
 20
227.69
 11
302.611
 21
227.921
  0
LINE
  8
0
 10
302.611
 20
227.921
 11
302.232
 21
228.232
  0
LINE
  8
0
 10
302.232
 20
228.232
 11
301.921
 21
228.611
  0
LINE
  8
0
 10
301.921
 20
228.611
 11
301.69
 21
229.043
  0
LINE
  8
0
 10
301.69
 20
229.043
 11
301.548
 21
229.512
  0
LINE
  8
0
 10
301.548
 20
229.512
 11
301.5
 21
230
  0
LINE
  8
0
 10
301.5
 20
230
 11
301.548
 21
230.488
  0
LINE
  8
0
 10
301.548
 20
230.488
 11
301.69
 21
230.957
  0
LINE
  8
0
 10
301.69
 20
230.957
 11
301.921
 21
231.389
  0
LINE
  8
0
 10
301.921
 20
231.389
 11
302.232
 21
231.768
  0
LINE
  8
0
 10
302.232
 20
231.768
 11
302.611
 21
232.079
  0
LINE
  8
0
 10
302.611
 20
232.079
 11
303.043
 21
232.31
  0
LINE
  8
0
 10
303.043
 20
232.31
 11
303.512
 21
232.452
  0
LINE
  8
0
 10
303.512
 20
232.452
 11
304
 21
232.5
  0
LINE
  8
0
 10
304
 20
232.5
 11
304.488
 21
232.452
  0
LINE
  8
0
 10
304.488
 20
232.452
 11
304.957
 21
232.31
  0
LINE
  8
0
 10
304.957
 20
232.31
 11
305.389
 21
232.079
  0
LINE
  8
0
 10
305.389
 20
232.079
 11
305.768
 21
231.768
  0
LINE
  8
0
 10
305.768
 20
231.768
 11
306.079
 21
231.389
  0
LINE
  8
0
 10
306.079
 20
231.389
 11
306.31
 21
230.957
  0
LINE
  8
0
 10
306.31
 20
230.957
 11
306.452
 21
230.488
  0
LINE
  8
0
 10
306.452
 20
230.488
 11
306.5
 21
230
  0
LINE
  8
0
 10
306.5
 20
230
 11
306.452
 21
229.512
  0
LINE
  8
0
 10
306.452
 20
229.512
 11
306.31
 21
229.043
  0
LINE
  8
0
 10
306.31
 20
229.043
 11
306.079
 21
228.611
  0
LINE
  8
0
 10
306.079
 20
228.611
 11
305.768
 21
228.232
  0
LINE
  8
0
 10
305.768
 20
228.232
 11
305.389
 21
227.921
  0
LINE
  8
0
 10
305.389
 20
227.921
 11
304.957
 21
227.69
  0
LINE
  8
0
 10
304.957
 20
227.69
 11
304.488
 21
227.548
  0
LINE
  8
0
 10
304.488
 20
227.548
 11
304
 21
227.5
  0
LINE
  8
0
 10
304
 20
227.5
 11
303.512
 21
227.548
  0
LINE
  8
0
 10
344
 20
250
 11
336
 21
250
  0
LINE
  8
0
 10
336
 20
250
 11
336
 21
225
  0
LINE
  8
0
 10
336
 20
225
 11
344
 21
225
  0
LINE
  8
0
 10
344
 20
225
 11
344
 21
250
  0
LINE
  8
0
 10
339.512
 20
242.548
 11
339.043
 21
242.69
  0
LINE
  8
0
 10
339.043
 20
242.69
 11
338.611
 21
242.921
  0
LINE
  8
0
 10
338.611
 20
242.921
 11
338.232
 21
243.232
  0
LINE
  8
0
 10
338.232
 20
243.232
 11
337.921
 21
243.611
  0
LINE
  8
0
 10
337.921
 20
243.611
 11
337.69
 21
244.043
  0
LINE
  8
0
 10
337.69
 20
244.043
 11
337.548
 21
244.512
  0
LINE
  8
0
 10
337.548
 20
244.512
 11
337.5
 21
245
  0
LINE
  8
0
 10
337.5
 20
245
 11
337.548
 21
245.488
  0
LINE
  8
0
 10
337.548
 20
245.488
 11
337.69
 21
245.957
  0
LINE
  8
0
 10
337.69
 20
245.957
 11
337.921
 21
246.389
  0
LINE
  8
0
 10
337.921
 20
246.389
 11
338.232
 21
246.768
  0
LINE
  8
0
 10
338.232
 20
246.768
 11
338.611
 21
247.079
  0
LINE
  8
0
 10
338.611
 20
247.079
 11
339.043
 21
247.31
  0
LINE
  8
0
 10
339.043
 20
247.31
 11
339.512
 21
247.452
  0
LINE
  8
0
 10
339.512
 20
247.452
 11
340
 21
247.5
  0
LINE
  8
0
 10
340
 20
247.5
 11
340.488
 21
247.452
  0
LINE
  8
0
 10
340.488
 20
247.452
 11
340.957
 21
247.31
  0
LINE
  8
0
 10
340.957
 20
247.31
 11
341.389
 21
247.079
  0
LINE
  8
0
 10
341.389
 20
247.079
 11
341.768
 21
246.768
  0
LINE
  8
0
 10
341.768
 20
246.768
 11
342.079
 21
246.389
  0
LINE
  8
0
 10
342.079
 20
246.389
 11
342.31
 21
245.957
  0
LINE
  8
0
 10
342.31
 20
245.957
 11
342.452
 21
245.488
  0
LINE
  8
0
 10
342.452
 20
245.488
 11
342.5
 21
245
  0
LINE
  8
0
 10
342.5
 20
245
 11
342.452
 21
244.512
  0
LINE
  8
0
 10
342.452
 20
244.512
 11
342.31
 21
244.043
  0
LINE
  8
0
 10
342.31
 20
244.043
 11
342.079
 21
243.611
  0
LINE
  8
0
 10
342.079
 20
243.611
 11
341.768
 21
243.232
  0
LINE
  8
0
 10
341.768
 20
243.232
 11
341.389
 21
242.921
  0
LINE
  8
0
 10
341.389
 20
242.921
 11
340.957
 21
242.69
  0
LINE
  8
0
 10
340.957
 20
242.69
 11
340.488
 21
242.548
  0
LINE
  8
0
 10
340.488
 20
242.548
 11
340
 21
242.5
  0
LINE
  8
0
 10
340
 20
242.5
 11
339.512
 21
242.548
  0
LINE
  8
0
 10
339.512
 20
235.048
 11
339.043
 21
235.19
  0
LINE
  8
0
 10
339.043
 20
235.19
 11
338.611
 21
235.421
  0
LINE
  8
0
 10
338.611
 20
235.421
 11
338.232
 21
235.732
  0
LINE
  8
0
 10
338.232
 20
235.732
 11
337.921
 21
236.111
  0
LINE
  8
0
 10
337.921
 20
236.111
 11
337.69
 21
236.543
  0
LINE
  8
0
 10
337.69
 20
236.543
 11
337.548
 21
237.012
  0
LINE
  8
0
 10
337.548
 20
237.012
 11
337.5
 21
237.5
  0
LINE
  8
0
 10
337.5
 20
237.5
 11
337.548
 21
237.988
  0
LINE
  8
0
 10
337.548
 20
237.988
 11
337.69
 21
238.457
  0
LINE
  8
0
 10
337.69
 20
238.457
 11
337.921
 21
238.889
  0
LINE
  8
0
 10
337.921
 20
238.889
 11
338.232
 21
239.268
  0
LINE
  8
0
 10
338.232
 20
239.268
 11
338.611
 21
239.579
  0
LINE
  8
0
 10
338.611
 20
239.579
 11
339.043
 21
239.81
  0
LINE
  8
0
 10
339.043
 20
239.81
 11
339.512
 21
239.952
  0
LINE
  8
0
 10
339.512
 20
239.952
 11
340
 21
240
  0
LINE
  8
0
 10
340
 20
240
 11
340.488
 21
239.952
  0
LINE
  8
0
 10
340.488
 20
239.952
 11
340.957
 21
239.81
  0
LINE
  8
0
 10
340.957
 20
239.81
 11
341.389
 21
239.579
  0
LINE
  8
0
 10
341.389
 20
239.579
 11
341.768
 21
239.268
  0
LINE
  8
0
 10
341.768
 20
239.268
 11
342.079
 21
238.889
  0
LINE
  8
0
 10
342.079
 20
238.889
 11
342.31
 21
238.457
  0
LINE
  8
0
 10
342.31
 20
238.457
 11
342.452
 21
237.988
  0
LINE
  8
0
 10
342.452
 20
237.988
 11
342.5
 21
237.5
  0
LINE
  8
0
 10
342.5
 20
237.5
 11
342.452
 21
237.012
  0
LINE
  8
0
 10
342.452
 20
237.012
 11
342.31
 21
236.543
  0
LINE
  8
0
 10
342.31
 20
236.543
 11
342.079
 21
236.111
  0
LINE
  8
0
 10
342.079
 20
236.111
 11
341.768
 21
235.732
  0
LINE
  8
0
 10
341.768
 20
235.732
 11
341.389
 21
235.421
  0
LINE
  8
0
 10
341.389
 20
235.421
 11
340.957
 21
235.19
  0
LINE
  8
0
 10
340.957
 20
235.19
 11
340.488
 21
235.048
  0
LINE
  8
0
 10
340.488
 20
235.048
 11
340
 21
235
  0
LINE
  8
0
 10
340
 20
235
 11
339.512
 21
235.048
  0
LINE
  8
0
 10
339.512
 20
227.548
 11
339.043
 21
227.69
  0
LINE
  8
0
 10
339.043
 20
227.69
 11
338.611
 21
227.921
  0
LINE
  8
0
 10
338.611
 20
227.921
 11
338.232
 21
228.232
  0
LINE
  8
0
 10
338.232
 20
228.232
 11
337.921
 21
228.611
  0
LINE
  8
0
 10
337.921
 20
228.611
 11
337.69
 21
229.043
  0
LINE
  8
0
 10
337.69
 20
229.043
 11
337.548
 21
229.512
  0
LINE
  8
0
 10
337.548
 20
229.512
 11
337.5
 21
230
  0
LINE
  8
0
 10
337.5
 20
230
 11
337.548
 21
230.488
  0
LINE
  8
0
 10
337.548
 20
230.488
 11
337.69
 21
230.957
  0
LINE
  8
0
 10
337.69
 20
230.957
 11
337.921
 21
231.389
  0
LINE
  8
0
 10
337.921
 20
231.389
 11
338.232
 21
231.768
  0
LINE
  8
0
 10
338.232
 20
231.768
 11
338.611
 21
232.079
  0
LINE
  8
0
 10
338.611
 20
232.079
 11
339.043
 21
232.31
  0
LINE
  8
0
 10
339.043
 20
232.31
 11
339.512
 21
232.452
  0
LINE
  8
0
 10
339.512
 20
232.452
 11
340
 21
232.5
  0
LINE
  8
0
 10
340
 20
232.5
 11
340.488
 21
232.452
  0
LINE
  8
0
 10
340.488
 20
232.452
 11
340.957
 21
232.31
  0
LINE
  8
0
 10
340.957
 20
232.31
 11
341.389
 21
232.079
  0
LINE
  8
0
 10
341.389
 20
232.079
 11
341.768
 21
231.768
  0
LINE
  8
0
 10
341.768
 20
231.768
 11
342.079
 21
231.389
  0
LINE
  8
0
 10
342.079
 20
231.389
 11
342.31
 21
230.957
  0
LINE
  8
0
 10
342.31
 20
230.957
 11
342.452
 21
230.488
  0
LINE
  8
0
 10
342.452
 20
230.488
 11
342.5
 21
230
  0
LINE
  8
0
 10
342.5
 20
230
 11
342.452
 21
229.512
  0
LINE
  8
0
 10
342.452
 20
229.512
 11
342.31
 21
229.043
  0
LINE
  8
0
 10
342.31
 20
229.043
 11
342.079
 21
228.611
  0
LINE
  8
0
 10
342.079
 20
228.611
 11
341.768
 21
228.232
  0
LINE
  8
0
 10
341.768
 20
228.232
 11
341.389
 21
227.921
  0
LINE
  8
0
 10
341.389
 20
227.921
 11
340.957
 21
227.69
  0
LINE
  8
0
 10
340.957
 20
227.69
 11
340.488
 21
227.548
  0
LINE
  8
0
 10
340.488
 20
227.548
 11
340
 21
227.5
  0
LINE
  8
0
 10
340
 20
227.5
 11
339.512
 21
227.548
  0
LINE
  8
0
 10
317
 20
222
 11
309
 21
222
  0
LINE
  8
0
 10
309
 20
222
 11
309
 21
197
  0
LINE
  8
0
 10
309
 20
197
 11
317
 21
197
  0
LINE
  8
0
 10
317
 20
197
 11
317
 21
222
  0
LINE
  8
0
 10
312.512
 20
214.548
 11
312.043
 21
214.69
  0
LINE
  8
0
 10
312.043
 20
214.69
 11
311.611
 21
214.921
  0
LINE
  8
0
 10
311.611
 20
214.921
 11
311.232
 21
215.232
  0
LINE
  8
0
 10
311.232
 20
215.232
 11
310.921
 21
215.611
  0
LINE
  8
0
 10
310.921
 20
215.611
 11
310.69
 21
216.043
  0
LINE
  8
0
 10
310.69
 20
216.043
 11
310.548
 21
216.512
  0
LINE
  8
0
 10
310.548
 20
216.512
 11
310.5
 21
217
  0
LINE
  8
0
 10
310.5
 20
217
 11
310.548
 21
217.488
  0
LINE
  8
0
 10
310.548
 20
217.488
 11
310.69
 21
217.957
  0
LINE
  8
0
 10
310.69
 20
217.957
 11
310.921
 21
218.389
  0
LINE
  8
0
 10
310.921
 20
218.389
 11
311.232
 21
218.768
  0
LINE
  8
0
 10
311.232
 20
218.768
 11
311.611
 21
219.079
  0
LINE
  8
0
 10
311.611
 20
219.079
 11
312.043
 21
219.31
  0
LINE
  8
0
 10
312.043
 20
219.31
 11
312.512
 21
219.452
  0
LINE
  8
0
 10
312.512
 20
219.452
 11
313
 21
219.5
  0
LINE
  8
0
 10
313
 20
219.5
 11
313.488
 21
219.452
  0
LINE
  8
0
 10
313.488
 20
219.452
 11
313.957
 21
219.31
  0
LINE
  8
0
 10
313.957
 20
219.31
 11
314.389
 21
219.079
  0
LINE
  8
0
 10
314.389
 20
219.079
 11
314.768
 21
218.768
  0
LINE
  8
0
 10
314.768
 20
218.768
 11
315.079
 21
218.389
  0
LINE
  8
0
 10
315.079
 20
218.389
 11
315.31
 21
217.957
  0
LINE
  8
0
 10
315.31
 20
217.957
 11
315.452
 21
217.488
  0
LINE
  8
0
 10
315.452
 20
217.488
 11
315.5
 21
217
  0
LINE
  8
0
 10
315.5
 20
217
 11
315.452
 21
216.512
  0
LINE
  8
0
 10
315.452
 20
216.512
 11
315.31
 21
216.043
  0
LINE
  8
0
 10
315.31
 20
216.043
 11
315.079
 21
215.611
  0
LINE
  8
0
 10
315.079
 20
215.611
 11
314.768
 21
215.232
  0
LINE
  8
0
 10
314.768
 20
215.232
 11
314.389
 21
214.921
  0
LINE
  8
0
 10
314.389
 20
214.921
 11
313.957
 21
214.69
  0
LINE
  8
0
 10
313.957
 20
214.69
 11
313.488
 21
214.548
  0
LINE
  8
0
 10
313.488
 20
214.548
 11
313
 21
214.5
  0
LINE
  8
0
 10
313
 20
214.5
 11
312.512
 21
214.548
  0
LINE
  8
0
 10
312.512
 20
207.048
 11
312.043
 21
207.19
  0
LINE
  8
0
 10
312.043
 20
207.19
 11
311.611
 21
207.421
  0
LINE
  8
0
 10
311.611
 20
207.421
 11
311.232
 21
207.732
  0
LINE
  8
0
 10
311.232
 20
207.732
 11
310.921
 21
208.111
  0
LINE
  8
0
 10
310.921
 20
208.111
 11
310.69
 21
208.543
  0
LINE
  8
0
 10
310.69
 20
208.543
 11
310.548
 21
209.012
  0
LINE
  8
0
 10
310.548
 20
209.012
 11
310.5
 21
209.5
  0
LINE
  8
0
 10
310.5
 20
209.5
 11
310.548
 21
209.988
  0
LINE
  8
0
 10
310.548
 20
209.988
 11
310.69
 21
210.457
  0
LINE
  8
0
 10
310.69
 20
210.457
 11
310.921
 21
210.889
  0
LINE
  8
0
 10
310.921
 20
210.889
 11
311.232
 21
211.268
  0
LINE
  8
0
 10
311.232
 20
211.268
 11
311.611
 21
211.579
  0
LINE
  8
0
 10
311.611
 20
211.579
 11
312.043
 21
211.81
  0
LINE
  8
0
 10
312.043
 20
211.81
 11
312.512
 21
211.952
  0
LINE
  8
0
 10
312.512
 20
211.952
 11
313
 21
212
  0
LINE
  8
0
 10
313
 20
212
 11
313.488
 21
211.952
  0
LINE
  8
0
 10
313.488
 20
211.952
 11
313.957
 21
211.81
  0
LINE
  8
0
 10
313.957
 20
211.81
 11
314.389
 21
211.579
  0
LINE
  8
0
 10
314.389
 20
211.579
 11
314.768
 21
211.268
  0
LINE
  8
0
 10
314.768
 20
211.268
 11
315.079
 21
210.889
  0
LINE
  8
0
 10
315.079
 20
210.889
 11
315.31
 21
210.457
  0
LINE
  8
0
 10
315.31
 20
210.457
 11
315.452
 21
209.988
  0
LINE
  8
0
 10
315.452
 20
209.988
 11
315.5
 21
209.5
  0
LINE
  8
0
 10
315.5
 20
209.5
 11
315.452
 21
209.012
  0
LINE
  8
0
 10
315.452
 20
209.012
 11
315.31
 21
208.543
  0
LINE
  8
0
 10
315.31
 20
208.543
 11
315.079
 21
208.111
  0
LINE
  8
0
 10
315.079
 20
208.111
 11
314.768
 21
207.732
  0
LINE
  8
0
 10
314.768
 20
207.732
 11
314.389
 21
207.421
  0
LINE
  8
0
 10
314.389
 20
207.421
 11
313.957
 21
207.19
  0
LINE
  8
0
 10
313.957
 20
207.19
 11
313.488
 21
207.048
  0
LINE
  8
0
 10
313.488
 20
207.048
 11
313
 21
207
  0
LINE
  8
0
 10
313
 20
207
 11
312.512
 21
207.048
  0
LINE
  8
0
 10
312.512
 20
199.548
 11
312.043
 21
199.69
  0
LINE
  8
0
 10
312.043
 20
199.69
 11
311.611
 21
199.921
  0
LINE
  8
0
 10
311.611
 20
199.921
 11
311.232
 21
200.232
  0
LINE
  8
0
 10
311.232
 20
200.232
 11
310.921
 21
200.611
  0
LINE
  8
0
 10
310.921
 20
200.611
 11
310.69
 21
201.043
  0
LINE
  8
0
 10
310.69
 20
201.043
 11
310.548
 21
201.512
  0
LINE
  8
0
 10
310.548
 20
201.512
 11
310.5
 21
202
  0
LINE
  8
0
 10
310.5
 20
202
 11
310.548
 21
202.488
  0
LINE
  8
0
 10
310.548
 20
202.488
 11
310.69
 21
202.957
  0
LINE
  8
0
 10
310.69
 20
202.957
 11
310.921
 21
203.389
  0
LINE
  8
0
 10
310.921
 20
203.389
 11
311.232
 21
203.768
  0
LINE
  8
0
 10
311.232
 20
203.768
 11
311.611
 21
204.079
  0
LINE
  8
0
 10
311.611
 20
204.079
 11
312.043
 21
204.31
  0
LINE
  8
0
 10
312.043
 20
204.31
 11
312.512
 21
204.452
  0
LINE
  8
0
 10
312.512
 20
204.452
 11
313
 21
204.5
  0
LINE
  8
0
 10
313
 20
204.5
 11
313.488
 21
204.452
  0
LINE
  8
0
 10
313.488
 20
204.452
 11
313.957
 21
204.31
  0
LINE
  8
0
 10
313.957
 20
204.31
 11
314.389
 21
204.079
  0
LINE
  8
0
 10
314.389
 20
204.079
 11
314.768
 21
203.768
  0
LINE
  8
0
 10
314.768
 20
203.768
 11
315.079
 21
203.389
  0
LINE
  8
0
 10
315.079
 20
203.389
 11
315.31
 21
202.957
  0
LINE
  8
0
 10
315.31
 20
202.957
 11
315.452
 21
202.488
  0
LINE
  8
0
 10
315.452
 20
202.488
 11
315.5
 21
202
  0
LINE
  8
0
 10
315.5
 20
202
 11
315.452
 21
201.512
  0
LINE
  8
0
 10
315.452
 20
201.512
 11
315.31
 21
201.043
  0
LINE
  8
0
 10
315.31
 20
201.043
 11
315.079
 21
200.611
  0
LINE
  8
0
 10
315.079
 20
200.611
 11
314.768
 21
200.232
  0
LINE
  8
0
 10
314.768
 20
200.232
 11
314.389
 21
199.921
  0
LINE
  8
0
 10
314.389
 20
199.921
 11
313.957
 21
199.69
  0
LINE
  8
0
 10
313.957
 20
199.69
 11
313.488
 21
199.548
  0
LINE
  8
0
 10
313.488
 20
199.548
 11
313
 21
199.5
  0
LINE
  8
0
 10
313
 20
199.5
 11
312.512
 21
199.548
  0
LINE
  8
0
 10
308
 20
222
 11
300
 21
222
  0
LINE
  8
0
 10
300
 20
222
 11
300
 21
197
  0
LINE
  8
0
 10
300
 20
197
 11
308
 21
197
  0
LINE
  8
0
 10
308
 20
197
 11
308
 21
222
  0
LINE
  8
0
 10
303.512
 20
214.548
 11
303.043
 21
214.69
  0
LINE
  8
0
 10
303.043
 20
214.69
 11
302.611
 21
214.921
  0
LINE
  8
0
 10
302.611
 20
214.921
 11
302.232
 21
215.232
  0
LINE
  8
0
 10
302.232
 20
215.232
 11
301.921
 21
215.611
  0
LINE
  8
0
 10
301.921
 20
215.611
 11
301.69
 21
216.043
  0
LINE
  8
0
 10
301.69
 20
216.043
 11
301.548
 21
216.512
  0
LINE
  8
0
 10
301.548
 20
216.512
 11
301.5
 21
217
  0
LINE
  8
0
 10
301.5
 20
217
 11
301.548
 21
217.488
  0
LINE
  8
0
 10
301.548
 20
217.488
 11
301.69
 21
217.957
  0
LINE
  8
0
 10
301.69
 20
217.957
 11
301.921
 21
218.389
  0
LINE
  8
0
 10
301.921
 20
218.389
 11
302.232
 21
218.768
  0
LINE
  8
0
 10
302.232
 20
218.768
 11
302.611
 21
219.079
  0
LINE
  8
0
 10
302.611
 20
219.079
 11
303.043
 21
219.31
  0
LINE
  8
0
 10
303.043
 20
219.31
 11
303.512
 21
219.452
  0
LINE
  8
0
 10
303.512
 20
219.452
 11
304
 21
219.5
  0
LINE
  8
0
 10
304
 20
219.5
 11
304.488
 21
219.452
  0
LINE
  8
0
 10
304.488
 20
219.452
 11
304.957
 21
219.31
  0
LINE
  8
0
 10
304.957
 20
219.31
 11
305.389
 21
219.079
  0
LINE
  8
0
 10
305.389
 20
219.079
 11
305.768
 21
218.768
  0
LINE
  8
0
 10
305.768
 20
218.768
 11
306.079
 21
218.389
  0
LINE
  8
0
 10
306.079
 20
218.389
 11
306.31
 21
217.957
  0
LINE
  8
0
 10
306.31
 20
217.957
 11
306.452
 21
217.488
  0
LINE
  8
0
 10
306.452
 20
217.488
 11
306.5
 21
217
  0
LINE
  8
0
 10
306.5
 20
217
 11
306.452
 21
216.512
  0
LINE
  8
0
 10
306.452
 20
216.512
 11
306.31
 21
216.043
  0
LINE
  8
0
 10
306.31
 20
216.043
 11
306.079
 21
215.611
  0
LINE
  8
0
 10
306.079
 20
215.611
 11
305.768
 21
215.232
  0
LINE
  8
0
 10
305.768
 20
215.232
 11
305.389
 21
214.921
  0
LINE
  8
0
 10
305.389
 20
214.921
 11
304.957
 21
214.69
  0
LINE
  8
0
 10
304.957
 20
214.69
 11
304.488
 21
214.548
  0
LINE
  8
0
 10
304.488
 20
214.548
 11
304
 21
214.5
  0
LINE
  8
0
 10
304
 20
214.5
 11
303.512
 21
214.548
  0
LINE
  8
0
 10
303.512
 20
207.048
 11
303.043
 21
207.19
  0
LINE
  8
0
 10
303.043
 20
207.19
 11
302.611
 21
207.421
  0
LINE
  8
0
 10
302.611
 20
207.421
 11
302.232
 21
207.732
  0
LINE
  8
0
 10
302.232
 20
207.732
 11
301.921
 21
208.111
  0
LINE
  8
0
 10
301.921
 20
208.111
 11
301.69
 21
208.543
  0
LINE
  8
0
 10
301.69
 20
208.543
 11
301.548
 21
209.012
  0
LINE
  8
0
 10
301.548
 20
209.012
 11
301.5
 21
209.5
  0
LINE
  8
0
 10
301.5
 20
209.5
 11
301.548
 21
209.988
  0
LINE
  8
0
 10
301.548
 20
209.988
 11
301.69
 21
210.457
  0
LINE
  8
0
 10
301.69
 20
210.457
 11
301.921
 21
210.889
  0
LINE
  8
0
 10
301.921
 20
210.889
 11
302.232
 21
211.268
  0
LINE
  8
0
 10
302.232
 20
211.268
 11
302.611
 21
211.579
  0
LINE
  8
0
 10
302.611
 20
211.579
 11
303.043
 21
211.81
  0
LINE
  8
0
 10
303.043
 20
211.81
 11
303.512
 21
211.952
  0
LINE
  8
0
 10
303.512
 20
211.952
 11
304
 21
212
  0
LINE
  8
0
 10
304
 20
212
 11
304.488
 21
211.952
  0
LINE
  8
0
 10
304.488
 20
211.952
 11
304.957
 21
211.81
  0
LINE
  8
0
 10
304.957
 20
211.81
 11
305.389
 21
211.579
  0
LINE
  8
0
 10
305.389
 20
211.579
 11
305.768
 21
211.268
  0
LINE
  8
0
 10
305.768
 20
211.268
 11
306.079
 21
210.889
  0
LINE
  8
0
 10
306.079
 20
210.889
 11
306.31
 21
210.457
  0
LINE
  8
0
 10
306.31
 20
210.457
 11
306.452
 21
209.988
  0
LINE
  8
0
 10
306.452
 20
209.988
 11
306.5
 21
209.5
  0
LINE
  8
0
 10
306.5
 20
209.5
 11
306.452
 21
209.012
  0
LINE
  8
0
 10
306.452
 20
209.012
 11
306.31
 21
208.543
  0
LINE
  8
0
 10
306.31
 20
208.543
 11
306.079
 21
208.111
  0
LINE
  8
0
 10
306.079
 20
208.111
 11
305.768
 21
207.732
  0
LINE
  8
0
 10
305.768
 20
207.732
 11
305.389
 21
207.421
  0
LINE
  8
0
 10
305.389
 20
207.421
 11
304.957
 21
207.19
  0
LINE
  8
0
 10
304.957
 20
207.19
 11
304.488
 21
207.048
  0
LINE
  8
0
 10
304.488
 20
207.048
 11
304
 21
207
  0
LINE
  8
0
 10
304
 20
207
 11
303.512
 21
207.048
  0
LINE
  8
0
 10
303.512
 20
199.548
 11
303.043
 21
199.69
  0
LINE
  8
0
 10
303.043
 20
199.69
 11
302.611
 21
199.921
  0
LINE
  8
0
 10
302.611
 20
199.921
 11
302.232
 21
200.232
  0
LINE
  8
0
 10
302.232
 20
200.232
 11
301.921
 21
200.611
  0
LINE
  8
0
 10
301.921
 20
200.611
 11
301.69
 21
201.043
  0
LINE
  8
0
 10
301.69
 20
201.043
 11
301.548
 21
201.512
  0
LINE
  8
0
 10
301.548
 20
201.512
 11
301.5
 21
202
  0
LINE
  8
0
 10
301.5
 20
202
 11
301.548
 21
202.488
  0
LINE
  8
0
 10
301.548
 20
202.488
 11
301.69
 21
202.957
  0
LINE
  8
0
 10
301.69
 20
202.957
 11
301.921
 21
203.389
  0
LINE
  8
0
 10
301.921
 20
203.389
 11
302.232
 21
203.768
  0
LINE
  8
0
 10
302.232
 20
203.768
 11
302.611
 21
204.079
  0
LINE
  8
0
 10
302.611
 20
204.079
 11
303.043
 21
204.31
  0
LINE
  8
0
 10
303.043
 20
204.31
 11
303.512
 21
204.452
  0
LINE
  8
0
 10
303.512
 20
204.452
 11
304
 21
204.5
  0
LINE
  8
0
 10
304
 20
204.5
 11
304.488
 21
204.452
  0
LINE
  8
0
 10
304.488
 20
204.452
 11
304.957
 21
204.31
  0
LINE
  8
0
 10
304.957
 20
204.31
 11
305.389
 21
204.079
  0
LINE
  8
0
 10
305.389
 20
204.079
 11
305.768
 21
203.768
  0
LINE
  8
0
 10
305.768
 20
203.768
 11
306.079
 21
203.389
  0
LINE
  8
0
 10
306.079
 20
203.389
 11
306.31
 21
202.957
  0
LINE
  8
0
 10
306.31
 20
202.957
 11
306.452
 21
202.488
  0
LINE
  8
0
 10
306.452
 20
202.488
 11
306.5
 21
202
  0
LINE
  8
0
 10
306.5
 20
202
 11
306.452
 21
201.512
  0
LINE
  8
0
 10
306.452
 20
201.512
 11
306.31
 21
201.043
  0
LINE
  8
0
 10
306.31
 20
201.043
 11
306.079
 21
200.611
  0
LINE
  8
0
 10
306.079
 20
200.611
 11
305.768
 21
200.232
  0
LINE
  8
0
 10
305.768
 20
200.232
 11
305.389
 21
199.921
  0
LINE
  8
0
 10
305.389
 20
199.921
 11
304.957
 21
199.69
  0
LINE
  8
0
 10
304.957
 20
199.69
 11
304.488
 21
199.548
  0
LINE
  8
0
 10
304.488
 20
199.548
 11
304
 21
199.5
  0
LINE
  8
0
 10
304
 20
199.5
 11
303.512
 21
199.548
  0
LINE
  8
0
 10
550.01
 20
75
 11
645.01
 21
170
  0
LINE
  8
0
 10
645.01
 20
170
 11
646.879
 21
172.277
  0
LINE
  8
0
 10
646.879
 20
172.277
 11
648.267
 21
174.875
  0
LINE
  8
0
 10
648.267
 20
174.875
 11
649.122
 21
177.694
  0
LINE
  8
0
 10
649.122
 20
177.694
 11
649.142
 21
177.898
  0
LINE
  8
0
 10
649.142
 20
177.898
 11
649.142
 21
177.899
  0
LINE
  8
0
 10
649.142
 20
177.899
 11
649.045
 21
177.908
  0
LINE
  8
0
 10
649.045
 20
177.908
 11
649.044
 21
177.908
  0
LINE
  8
0
 10
649.044
 20
177.908
 11
648.947
 21
177.918
  0
LINE
  8
0
 10
648.947
 20
177.918
 11
648.946
 21
177.918
  0
LINE
  8
0
 10
648.946
 20
177.918
 11
648.848
 21
177.928
  0
LINE
  8
0
 10
648.848
 20
177.928
 11
648.848
 21
177.928
  0
LINE
  8
0
 10
648.848
 20
177.928
 11
648.75
 21
177.938
  0
LINE
  8
0
 10
648.75
 20
177.938
 11
648.75
 21
177.938
  0
LINE
  8
0
 10
648.75
 20
177.938
 11
648.652
 21
177.947
  0
LINE
  8
0
 10
648.652
 20
177.947
 11
648.652
 21
177.948
  0
LINE
  8
0
 10
648.652
 20
177.948
 11
648.554
 21
177.957
  0
LINE
  8
0
 10
648.554
 20
177.957
 11
648.554
 21
177.957
  0
LINE
  8
0
 10
648.554
 20
177.957
 11
648.456
 21
177.967
  0
LINE
  8
0
 10
648.456
 20
177.967
 11
648.456
 21
177.967
  0
LINE
  8
0
 10
648.456
 20
177.967
 11
648.358
 21
177.977
  0
LINE
  8
0
 10
648.358
 20
177.977
 11
648.357
 21
177.977
  0
LINE
  8
0
 10
648.357
 20
177.977
 11
648.26
 21
177.987
  0
LINE
  8
0
 10
648.26
 20
177.987
 11
648.259
 21
177.987
  0
LINE
  8
0
 10
648.259
 20
177.987
 11
648.162
 21
177.996
  0
LINE
  8
0
 10
648.162
 20
177.996
 11
648.161
 21
177.997
  0
LINE
  8
0
 10
648.161
 20
177.997
 11
648.064
 21
178.006
  0
LINE
  8
0
 10
648.064
 20
178.006
 11
648.063
 21
178.007
  0
LINE
  8
0
 10
648.063
 20
178.007
 11
647.966
 21
178.016
  0
LINE
  8
0
 10
647.966
 20
178.016
 11
647.965
 21
178.016
  0
LINE
  8
0
 10
647.965
 20
178.016
 11
647.868
 21
178.026
  0
LINE
  8
0
 10
647.868
 20
178.026
 11
647.867
 21
178.026
  0
LINE
  8
0
 10
647.867
 20
178.026
 11
647.77
 21
178.036
  0
LINE
  8
0
 10
647.77
 20
178.036
 11
647.769
 21
178.036
  0
LINE
  8
0
 10
647.769
 20
178.036
 11
647.672
 21
178.046
  0
LINE
  8
0
 10
647.672
 20
178.046
 11
647.671
 21
178.046
  0
LINE
  8
0
 10
647.671
 20
178.046
 11
647.574
 21
178.055
  0
LINE
  8
0
 10
647.574
 20
178.055
 11
647.573
 21
178.056
  0
LINE
  8
0
 10
647.573
 20
178.056
 11
647.476
 21
178.065
  0
LINE
  8
0
 10
647.476
 20
178.065
 11
647.475
 21
178.065
  0
LINE
  8
0
 10
647.475
 20
178.065
 11
647.378
 21
178.075
  0
LINE
  8
0
 10
647.378
 20
178.075
 11
647.377
 21
178.075
  0
LINE
  8
0
 10
647.377
 20
178.075
 11
647.28
 21
178.085
  0
LINE
  8
0
 10
647.28
 20
178.085
 11
647.279
 21
178.085
  0
LINE
  8
0
 10
647.279
 20
178.085
 11
647.182
 21
178.095
  0
LINE
  8
0
 10
647.182
 20
178.095
 11
647.181
 21
178.095
  0
LINE
  8
0
 10
647.181
 20
178.095
 11
647.084
 21
178.104
  0
LINE
  8
0
 10
647.084
 20
178.104
 11
647.083
 21
178.105
  0
LINE
  8
0
 10
647.083
 20
178.105
 11
646.986
 21
178.114
  0
LINE
  8
0
 10
646.986
 20
178.114
 11
646.985
 21
178.114
  0
LINE
  8
0
 10
646.985
 20
178.114
 11
646.888
 21
178.124
  0
LINE
  8
0
 10
646.888
 20
178.124
 11
646.887
 21
178.124
  0
LINE
  8
0
 10
646.887
 20
178.124
 11
646.789
 21
178.134
  0
LINE
  8
0
 10
646.789
 20
178.134
 11
646.789
 21
178.134
  0
LINE
  8
0
 10
646.789
 20
178.134
 11
646.691
 21
178.144
  0
LINE
  8
0
 10
646.691
 20
178.144
 11
646.691
 21
178.144
  0
LINE
  8
0
 10
646.691
 20
178.144
 11
646.593
 21
178.153
  0
LINE
  8
0
 10
646.593
 20
178.153
 11
646.593
 21
178.154
  0
LINE
  8
0
 10
646.593
 20
178.154
 11
646.495
 21
178.163
  0
LINE
  8
0
 10
646.495
 20
178.163
 11
646.495
 21
178.163
  0
LINE
  8
0
 10
646.495
 20
178.163
 11
646.397
 21
178.173
  0
LINE
  8
0
 10
646.397
 20
178.173
 11
646.397
 21
178.173
  0
LINE
  8
0
 10
646.397
 20
178.173
 11
646.299
 21
178.183
  0
LINE
  8
0
 10
646.299
 20
178.183
 11
646.298
 21
178.183
  0
LINE
  8
0
 10
646.298
 20
178.183
 11
646.201
 21
178.193
  0
LINE
  8
0
 10
646.201
 20
178.193
 11
646.2
 21
178.193
  0
LINE
  8
0
 10
646.2
 20
178.193
 11
646.103
 21
178.202
  0
LINE
  8
0
 10
646.103
 20
178.202
 11
646.102
 21
178.203
  0
LINE
  8
0
 10
646.102
 20
178.203
 11
646.005
 21
178.212
  0
LINE
  8
0
 10
646.005
 20
178.212
 11
646.004
 21
178.212
  0
LINE
  8
0
 10
646.004
 20
178.212
 11
645.907
 21
178.222
  0
LINE
  8
0
 10
645.907
 20
178.222
 11
645.906
 21
178.222
  0
LINE
  8
0
 10
645.906
 20
178.222
 11
645.809
 21
178.232
  0
LINE
  8
0
 10
645.809
 20
178.232
 11
645.808
 21
178.232
  0
LINE
  8
0
 10
645.808
 20
178.232
 11
645.711
 21
178.242
  0
LINE
  8
0
 10
645.711
 20
178.242
 11
645.71
 21
178.242
  0
LINE
  8
0
 10
645.71
 20
178.242
 11
645.613
 21
178.251
  0
LINE
  8
0
 10
645.613
 20
178.251
 11
645.612
 21
178.252
  0
LINE
  8
0
 10
645.612
 20
178.252
 11
645.515
 21
178.261
  0
LINE
  8
0
 10
645.515
 20
178.261
 11
645.514
 21
178.262
  0
LINE
  8
0
 10
645.514
 20
178.262
 11
645.417
 21
178.271
  0
LINE
  8
0
 10
645.417
 20
178.271
 11
645.416
 21
178.271
  0
LINE
  8
0
 10
645.416
 20
178.271
 11
645.319
 21
178.281
  0
LINE
  8
0
 10
645.319
 20
178.281
 11
645.318
 21
178.281
  0
LINE
  8
0
 10
645.318
 20
178.281
 11
645.221
 21
178.291
  0
LINE
  8
0
 10
645.221
 20
178.291
 11
645.22
 21
178.291
  0
LINE
  8
0
 10
645.22
 20
178.291
 11
645.123
 21
178.301
  0
LINE
  8
0
 10
645.123
 20
178.301
 11
645.122
 21
178.301
  0
LINE
  8
0
 10
645.122
 20
178.301
 11
645.025
 21
178.31
  0
LINE
  8
0
 10
645.025
 20
178.31
 11
645.024
 21
178.311
  0
LINE
  8
0
 10
645.024
 20
178.311
 11
644.927
 21
178.32
  0
LINE
  8
0
 10
644.927
 20
178.32
 11
644.926
 21
178.32
  0
LINE
  8
0
 10
644.926
 20
178.32
 11
644.828
 21
178.33
  0
LINE
  8
0
 10
644.828
 20
178.33
 11
644.828
 21
178.33
  0
LINE
  8
0
 10
644.828
 20
178.33
 11
644.73
 21
178.34
  0
LINE
  8
0
 10
644.73
 20
178.34
 11
644.73
 21
178.34
  0
LINE
  8
0
 10
644.73
 20
178.34
 11
644.632
 21
178.35
  0
LINE
  8
0
 10
644.632
 20
178.35
 11
644.632
 21
178.35
  0
LINE
  8
0
 10
644.632
 20
178.35
 11
644.534
 21
178.359
  0
LINE
  8
0
 10
644.534
 20
178.359
 11
644.534
 21
178.36
  0
LINE
  8
0
 10
644.534
 20
178.36
 11
644.436
 21
178.369
  0
LINE
  8
0
 10
644.436
 20
178.369
 11
644.436
 21
178.369
  0
LINE
  8
0
 10
644.436
 20
178.369
 11
644.338
 21
178.379
  0
LINE
  8
0
 10
644.338
 20
178.379
 11
644.337
 21
178.379
  0
LINE
  8
0
 10
644.337
 20
178.379
 11
644.24
 21
178.389
  0
LINE
  8
0
 10
644.24
 20
178.389
 11
644.239
 21
178.389
  0
LINE
  8
0
 10
644.239
 20
178.389
 11
644.142
 21
178.399
  0
LINE
  8
0
 10
644.142
 20
178.399
 11
644.141
 21
178.399
  0
LINE
  8
0
 10
644.141
 20
178.399
 11
644.044
 21
178.408
  0
LINE
  8
0
 10
644.044
 20
178.408
 11
644.043
 21
178.409
  0
LINE
  8
0
 10
644.043
 20
178.409
 11
643.946
 21
178.418
  0
LINE
  8
0
 10
643.946
 20
178.418
 11
643.945
 21
178.418
  0
LINE
  8
0
 10
643.945
 20
178.418
 11
643.848
 21
178.428
  0
LINE
  8
0
 10
643.848
 20
178.428
 11
643.847
 21
178.428
  0
LINE
  8
0
 10
643.847
 20
178.428
 11
643.75
 21
178.438
  0
LINE
  8
0
 10
643.75
 20
178.438
 11
643.749
 21
178.438
  0
LINE
  8
0
 10
643.749
 20
178.438
 11
643.652
 21
178.448
  0
LINE
  8
0
 10
643.652
 20
178.448
 11
643.651
 21
178.448
  0
LINE
  8
0
 10
643.651
 20
178.448
 11
643.554
 21
178.457
  0
LINE
  8
0
 10
643.554
 20
178.457
 11
643.553
 21
178.458
  0
LINE
  8
0
 10
643.553
 20
178.458
 11
643.456
 21
178.467
  0
LINE
  8
0
 10
643.456
 20
178.467
 11
643.455
 21
178.467
  0
LINE
  8
0
 10
643.455
 20
178.467
 11
643.358
 21
178.477
  0
LINE
  8
0
 10
643.358
 20
178.477
 11
643.357
 21
178.477
  0
LINE
  8
0
 10
643.357
 20
178.477
 11
643.26
 21
178.487
  0
LINE
  8
0
 10
643.26
 20
178.487
 11
643.259
 21
178.487
  0
LINE
  8
0
 10
643.259
 20
178.487
 11
643.162
 21
178.497
  0
LINE
  8
0
 10
643.162
 20
178.497
 11
643.161
 21
178.497
  0
LINE
  8
0
 10
643.161
 20
178.497
 11
643.064
 21
178.507
  0
LINE
  8
0
 10
643.064
 20
178.507
 11
643.063
 21
178.507
  0
LINE
  8
0
 10
643.063
 20
178.507
 11
642.966
 21
178.516
  0
LINE
  8
0
 10
642.966
 20
178.516
 11
642.965
 21
178.517
  0
LINE
  8
0
 10
642.965
 20
178.517
 11
642.867
 21
178.526
  0
LINE
  8
0
 10
642.867
 20
178.526
 11
642.867
 21
178.526
  0
LINE
  8
0
 10
642.867
 20
178.526
 11
642.769
 21
178.536
  0
LINE
  8
0
 10
642.769
 20
178.536
 11
642.769
 21
178.536
  0
LINE
  8
0
 10
642.769
 20
178.536
 11
642.671
 21
178.546
  0
LINE
  8
0
 10
642.671
 20
178.546
 11
642.671
 21
178.546
  0
LINE
  8
0
 10
642.671
 20
178.546
 11
642.573
 21
178.556
  0
LINE
  8
0
 10
642.573
 20
178.556
 11
642.573
 21
178.556
  0
LINE
  8
0
 10
642.573
 20
178.556
 11
642.475
 21
178.565
  0
LINE
  8
0
 10
642.475
 20
178.565
 11
642.475
 21
178.566
  0
LINE
  8
0
 10
642.475
 20
178.566
 11
642.377
 21
178.575
  0
LINE
  8
0
 10
642.377
 20
178.575
 11
642.376
 21
178.575
  0
LINE
  8
0
 10
642.376
 20
178.575
 11
642.279
 21
178.585
  0
LINE
  8
0
 10
642.279
 20
178.585
 11
642.278
 21
178.585
  0
LINE
  8
0
 10
642.278
 20
178.585
 11
642.181
 21
178.595
  0
LINE
  8
0
 10
642.181
 20
178.595
 11
642.18
 21
178.595
  0
LINE
  8
0
 10
642.18
 20
178.595
 11
642.083
 21
178.605
  0
LINE
  8
0
 10
642.083
 20
178.605
 11
642.082
 21
178.605
  0
LINE
  8
0
 10
642.082
 20
178.605
 11
641.985
 21
178.614
  0
LINE
  8
0
 10
641.985
 20
178.614
 11
641.984
 21
178.615
  0
LINE
  8
0
 10
641.984
 20
178.615
 11
641.887
 21
178.624
  0
LINE
  8
0
 10
641.887
 20
178.624
 11
641.886
 21
178.624
  0
LINE
  8
0
 10
641.886
 20
178.624
 11
641.789
 21
178.634
  0
LINE
  8
0
 10
641.789
 20
178.634
 11
641.788
 21
178.634
  0
LINE
  8
0
 10
641.788
 20
178.634
 11
641.691
 21
178.644
  0
LINE
  8
0
 10
641.691
 20
178.644
 11
641.69
 21
178.644
  0
LINE
  8
0
 10
641.69
 20
178.644
 11
641.593
 21
178.654
  0
LINE
  8
0
 10
641.593
 20
178.654
 11
641.592
 21
178.654
  0
LINE
  8
0
 10
641.592
 20
178.654
 11
641.495
 21
178.663
  0
LINE
  8
0
 10
641.495
 20
178.663
 11
641.494
 21
178.664
  0
LINE
  8
0
 10
641.494
 20
178.664
 11
641.397
 21
178.673
  0
LINE
  8
0
 10
641.397
 20
178.673
 11
641.396
 21
178.673
  0
LINE
  8
0
 10
641.396
 20
178.673
 11
641.299
 21
178.683
  0
LINE
  8
0
 10
641.299
 20
178.683
 11
641.298
 21
178.683
  0
LINE
  8
0
 10
641.298
 20
178.683
 11
641.201
 21
178.693
  0
LINE
  8
0
 10
641.201
 20
178.693
 11
641.2
 21
178.693
  0
LINE
  8
0
 10
641.2
 20
178.693
 11
641.103
 21
178.703
  0
LINE
  8
0
 10
641.103
 20
178.703
 11
641.102
 21
178.703
  0
LINE
  8
0
 10
641.102
 20
178.703
 11
641.005
 21
178.712
  0
LINE
  8
0
 10
641.005
 20
178.712
 11
641.004
 21
178.713
  0
LINE
  8
0
 10
641.004
 20
178.713
 11
640.907
 21
178.722
  0
LINE
  8
0
 10
640.907
 20
178.722
 11
640.906
 21
178.722
  0
LINE
  8
0
 10
640.906
 20
178.722
 11
640.808
 21
178.732
  0
LINE
  8
0
 10
640.808
 20
178.732
 11
640.808
 21
178.732
  0
LINE
  8
0
 10
640.808
 20
178.732
 11
640.71
 21
178.742
  0
LINE
  8
0
 10
640.71
 20
178.742
 11
640.71
 21
178.742
  0
LINE
  8
0
 10
640.71
 20
178.742
 11
640.612
 21
178.752
  0
LINE
  8
0
 10
640.612
 20
178.752
 11
640.612
 21
178.752
  0
LINE
  8
0
 10
640.612
 20
178.752
 11
640.514
 21
178.762
  0
LINE
  8
0
 10
640.514
 20
178.762
 11
640.514
 21
178.762
  0
LINE
  8
0
 10
640.514
 20
178.762
 11
640.416
 21
178.771
  0
LINE
  8
0
 10
640.416
 20
178.771
 11
640.415
 21
178.772
  0
LINE
  8
0
 10
640.415
 20
178.772
 11
640.318
 21
178.781
  0
LINE
  8
0
 10
640.318
 20
178.781
 11
640.317
 21
178.781
  0
LINE
  8
0
 10
640.317
 20
178.781
 11
640.22
 21
178.791
  0
LINE
  8
0
 10
640.22
 20
178.791
 11
640.219
 21
178.791
  0
LINE
  8
0
 10
640.219
 20
178.791
 11
640.122
 21
178.801
  0
LINE
  8
0
 10
640.122
 20
178.801
 11
640.121
 21
178.801
  0
LINE
  8
0
 10
640.121
 20
178.801
 11
640.024
 21
178.811
  0
LINE
  8
0
 10
640.024
 20
178.811
 11
640.023
 21
178.811
  0
LINE
  8
0
 10
640.023
 20
178.811
 11
639.926
 21
178.82
  0
LINE
  8
0
 10
639.926
 20
178.82
 11
639.925
 21
178.821
  0
LINE
  8
0
 10
639.925
 20
178.821
 11
639.828
 21
178.83
  0
LINE
  8
0
 10
639.828
 20
178.83
 11
639.827
 21
178.83
  0
LINE
  8
0
 10
639.827
 20
178.83
 11
639.73
 21
178.84
  0
LINE
  8
0
 10
639.73
 20
178.84
 11
639.729
 21
178.84
  0
LINE
  8
0
 10
639.729
 20
178.84
 11
639.632
 21
178.85
  0
LINE
  8
0
 10
639.632
 20
178.85
 11
639.631
 21
178.85
  0
LINE
  8
0
 10
639.631
 20
178.85
 11
639.534
 21
178.86
  0
LINE
  8
0
 10
639.534
 20
178.86
 11
639.533
 21
178.86
  0
LINE
  8
0
 10
639.533
 20
178.86
 11
639.436
 21
178.869
  0
LINE
  8
0
 10
639.436
 20
178.869
 11
639.435
 21
178.87
  0
LINE
  8
0
 10
639.435
 20
178.87
 11
639.338
 21
178.879
  0
LINE
  8
0
 10
639.338
 20
178.879
 11
639.337
 21
178.879
  0
LINE
  8
0
 10
639.337
 20
178.879
 11
639.24
 21
178.889
  0
LINE
  8
0
 10
639.24
 20
178.889
 11
639.239
 21
178.889
  0
LINE
  8
0
 10
639.239
 20
178.889
 11
639.142
 21
178.899
  0
LINE
  8
0
 10
639.142
 20
178.899
 11
639.141
 21
178.899
  0
LINE
  8
0
 10
639.141
 20
178.899
 11
639.044
 21
178.909
  0
LINE
  8
0
 10
639.044
 20
178.909
 11
639.043
 21
178.909
  0
LINE
  8
0
 10
639.043
 20
178.909
 11
638.946
 21
178.918
  0
LINE
  8
0
 10
638.946
 20
178.918
 11
638.945
 21
178.919
  0
LINE
  8
0
 10
638.945
 20
178.919
 11
638.847
 21
178.928
  0
LINE
  8
0
 10
638.847
 20
178.928
 11
638.847
 21
178.928
  0
LINE
  8
0
 10
638.847
 20
178.928
 11
638.749
 21
178.938
  0
LINE
  8
0
 10
638.749
 20
178.938
 11
638.749
 21
178.938
  0
LINE
  8
0
 10
638.749
 20
178.938
 11
638.651
 21
178.948
  0
LINE
  8
0
 10
638.651
 20
178.948
 11
638.651
 21
178.948
  0
LINE
  8
0
 10
638.651
 20
178.948
 11
638.553
 21
178.958
  0
LINE
  8
0
 10
638.553
 20
178.958
 11
638.553
 21
178.958
  0
LINE
  8
0
 10
638.553
 20
178.958
 11
638.455
 21
178.967
  0
LINE
  8
0
 10
638.455
 20
178.967
 11
638.455
 21
178.968
  0
LINE
  8
0
 10
638.455
 20
178.968
 11
638.357
 21
178.977
  0
LINE
  8
0
 10
638.357
 20
178.977
 11
638.357
 21
178.977
  0
LINE
  8
0
 10
638.357
 20
178.977
 11
638.259
 21
178.987
  0
LINE
  8
0
 10
638.259
 20
178.987
 11
638.258
 21
178.987
  0
LINE
  8
0
 10
638.258
 20
178.987
 11
638.161
 21
178.997
  0
LINE
  8
0
 10
638.161
 20
178.997
 11
638.16
 21
178.997
  0
LINE
  8
0
 10
638.16
 20
178.997
 11
638.063
 21
179.007
  0
LINE
  8
0
 10
638.063
 20
179.007
 11
638.062
 21
179.007
  0
LINE
  8
0
 10
638.062
 20
179.007
 11
637.965
 21
179.017
  0
LINE
  8
0
 10
637.965
 20
179.017
 11
637.964
 21
179.017
  0
LINE
  8
0
 10
637.964
 20
179.017
 11
637.867
 21
179.026
  0
LINE
  8
0
 10
637.867
 20
179.026
 11
637.866
 21
179.027
  0
LINE
  8
0
 10
637.866
 20
179.027
 11
637.769
 21
179.036
  0
LINE
  8
0
 10
637.769
 20
179.036
 11
637.768
 21
179.036
  0
LINE
  8
0
 10
637.768
 20
179.036
 11
637.671
 21
179.046
  0
LINE
  8
0
 10
637.671
 20
179.046
 11
637.67
 21
179.046
  0
LINE
  8
0
 10
637.67
 20
179.046
 11
637.573
 21
179.056
  0
LINE
  8
0
 10
637.573
 20
179.056
 11
637.572
 21
179.056
  0
LINE
  8
0
 10
637.572
 20
179.056
 11
637.475
 21
179.066
  0
LINE
  8
0
 10
637.475
 20
179.066
 11
637.474
 21
179.066
  0
LINE
  8
0
 10
637.474
 20
179.066
 11
637.377
 21
179.075
  0
LINE
  8
0
 10
637.377
 20
179.075
 11
637.376
 21
179.076
  0
LINE
  8
0
 10
637.376
 20
179.076
 11
637.279
 21
179.085
  0
LINE
  8
0
 10
637.279
 20
179.085
 11
637.278
 21
179.085
  0
LINE
  8
0
 10
637.278
 20
179.085
 11
637.181
 21
179.095
  0
LINE
  8
0
 10
637.181
 20
179.095
 11
637.18
 21
179.095
  0
LINE
  8
0
 10
637.18
 20
179.095
 11
637.083
 21
179.105
  0
LINE
  8
0
 10
637.083
 20
179.105
 11
637.082
 21
179.105
  0
LINE
  8
0
 10
637.082
 20
179.105
 11
636.985
 21
179.115
  0
LINE
  8
0
 10
636.985
 20
179.115
 11
636.984
 21
179.115
  0
LINE
  8
0
 10
636.984
 20
179.115
 11
636.887
 21
179.124
  0
LINE
  8
0
 10
636.887
 20
179.124
 11
636.886
 21
179.125
  0
LINE
  8
0
 10
636.886
 20
179.125
 11
636.788
 21
179.134
  0
LINE
  8
0
 10
636.788
 20
179.134
 11
636.788
 21
179.134
  0
LINE
  8
0
 10
636.788
 20
179.134
 11
636.69
 21
179.144
  0
LINE
  8
0
 10
636.69
 20
179.144
 11
636.69
 21
179.144
  0
LINE
  8
0
 10
636.69
 20
179.144
 11
636.592
 21
179.154
  0
LINE
  8
0
 10
636.592
 20
179.154
 11
636.592
 21
179.154
  0
LINE
  8
0
 10
636.592
 20
179.154
 11
636.494
 21
179.164
  0
LINE
  8
0
 10
636.494
 20
179.164
 11
636.494
 21
179.164
  0
LINE
  8
0
 10
636.494
 20
179.164
 11
636.411
 21
179.172
  0
LINE
  8
0
 10
636.411
 20
179.172
 11
636.153
 21
178.857
  0
LINE
  8
0
 10
636.153
 20
178.857
 11
635.774
 21
178.546
  0
LINE
  8
0
 10
635.774
 20
178.546
 11
635.342
 21
178.315
  0
LINE
  8
0
 10
635.342
 20
178.315
 11
634.873
 21
178.173
  0
LINE
  8
0
 10
634.873
 20
178.173
 11
634.385
 21
178.125
  0
LINE
  8
0
 10
634.385
 20
178.125
 11
633.897
 21
178.173
  0
LINE
  8
0
 10
633.897
 20
178.173
 11
633.428
 21
178.315
  0
LINE
  8
0
 10
633.428
 20
178.315
 11
632.996
 21
178.546
  0
LINE
  8
0
 10
632.996
 20
178.546
 11
632.617
 21
178.857
  0
LINE
  8
0
 10
632.617
 20
178.857
 11
632.306
 21
179.236
  0
LINE
  8
0
 10
632.306
 20
179.236
 11
632.075
 21
179.668
  0
LINE
  8
0
 10
632.075
 20
179.668
 11
631.933
 21
180.137
  0
LINE
  8
0
 10
631.933
 20
180.137
 11
631.885
 21
180.625
  0
LINE
  8
0
 10
631.885
 20
180.625
 11
631.933
 21
181.113
  0
LINE
  8
0
 10
631.933
 20
181.113
 11
632.075
 21
181.582
  0
LINE
  8
0
 10
632.075
 20
181.582
 11
632.306
 21
182.014
  0
LINE
  8
0
 10
632.306
 20
182.014
 11
632.617
 21
182.393
  0
LINE
  8
0
 10
632.617
 20
182.393
 11
632.996
 21
182.704
  0
LINE
  8
0
 10
632.996
 20
182.704
 11
633.428
 21
182.935
  0
LINE
  8
0
 10
633.428
 20
182.935
 11
633.897
 21
183.077
  0
LINE
  8
0
 10
633.897
 20
183.077
 11
634.385
 21
183.125
  0
LINE
  8
0
 10
634.385
 20
183.125
 11
634.873
 21
183.077
  0
LINE
  8
0
 10
634.873
 20
183.077
 11
635.342
 21
182.935
  0
LINE
  8
0
 10
635.342
 20
182.935
 11
635.774
 21
182.704
  0
LINE
  8
0
 10
635.774
 20
182.704
 11
636.153
 21
182.393
  0
LINE
  8
0
 10
636.153
 20
182.393
 11
636.411
 21
182.078
  0
LINE
  8
0
 10
636.411
 20
182.078
 11
636.494
 21
182.086
  0
LINE
  8
0
 10
636.494
 20
182.086
 11
636.494
 21
182.086
  0
LINE
  8
0
 10
636.494
 20
182.086
 11
636.592
 21
182.096
  0
LINE
  8
0
 10
636.592
 20
182.096
 11
636.592
 21
182.096
  0
LINE
  8
0
 10
636.592
 20
182.096
 11
636.69
 21
182.106
  0
LINE
  8
0
 10
636.69
 20
182.106
 11
636.69
 21
182.106
  0
LINE
  8
0
 10
636.69
 20
182.106
 11
636.788
 21
182.116
  0
LINE
  8
0
 10
636.788
 20
182.116
 11
636.788
 21
182.116
  0
LINE
  8
0
 10
636.788
 20
182.116
 11
636.886
 21
182.125
  0
LINE
  8
0
 10
636.886
 20
182.125
 11
636.887
 21
182.126
  0
LINE
  8
0
 10
636.887
 20
182.126
 11
636.984
 21
182.135
  0
LINE
  8
0
 10
636.984
 20
182.135
 11
636.985
 21
182.135
  0
LINE
  8
0
 10
636.985
 20
182.135
 11
637.082
 21
182.145
  0
LINE
  8
0
 10
637.082
 20
182.145
 11
637.083
 21
182.145
  0
LINE
  8
0
 10
637.083
 20
182.145
 11
637.18
 21
182.155
  0
LINE
  8
0
 10
637.18
 20
182.155
 11
637.181
 21
182.155
  0
LINE
  8
0
 10
637.181
 20
182.155
 11
637.278
 21
182.165
  0
LINE
  8
0
 10
637.278
 20
182.165
 11
637.279
 21
182.165
  0
LINE
  8
0
 10
637.279
 20
182.165
 11
637.376
 21
182.174
  0
LINE
  8
0
 10
637.376
 20
182.174
 11
637.377
 21
182.175
  0
LINE
  8
0
 10
637.377
 20
182.175
 11
637.474
 21
182.184
  0
LINE
  8
0
 10
637.474
 20
182.184
 11
637.475
 21
182.184
  0
LINE
  8
0
 10
637.475
 20
182.184
 11
637.572
 21
182.194
  0
LINE
  8
0
 10
637.572
 20
182.194
 11
637.573
 21
182.194
  0
LINE
  8
0
 10
637.573
 20
182.194
 11
637.67
 21
182.204
  0
LINE
  8
0
 10
637.67
 20
182.204
 11
637.671
 21
182.204
  0
LINE
  8
0
 10
637.671
 20
182.204
 11
637.768
 21
182.214
  0
LINE
  8
0
 10
637.768
 20
182.214
 11
637.769
 21
182.214
  0
LINE
  8
0
 10
637.769
 20
182.214
 11
637.866
 21
182.223
  0
LINE
  8
0
 10
637.866
 20
182.223
 11
637.867
 21
182.224
  0
LINE
  8
0
 10
637.867
 20
182.224
 11
637.964
 21
182.233
  0
LINE
  8
0
 10
637.964
 20
182.233
 11
637.965
 21
182.233
  0
LINE
  8
0
 10
637.965
 20
182.233
 11
638.062
 21
182.243
  0
LINE
  8
0
 10
638.062
 20
182.243
 11
638.063
 21
182.243
  0
LINE
  8
0
 10
638.063
 20
182.243
 11
638.16
 21
182.253
  0
LINE
  8
0
 10
638.16
 20
182.253
 11
638.161
 21
182.253
  0
LINE
  8
0
 10
638.161
 20
182.253
 11
638.258
 21
182.263
  0
LINE
  8
0
 10
638.258
 20
182.263
 11
638.259
 21
182.263
  0
LINE
  8
0
 10
638.259
 20
182.263
 11
638.357
 21
182.273
  0
LINE
  8
0
 10
638.357
 20
182.273
 11
638.357
 21
182.273
  0
LINE
  8
0
 10
638.357
 20
182.273
 11
638.455
 21
182.282
  0
LINE
  8
0
 10
638.455
 20
182.282
 11
638.455
 21
182.283
  0
LINE
  8
0
 10
638.455
 20
182.283
 11
638.553
 21
182.292
  0
LINE
  8
0
 10
638.553
 20
182.292
 11
638.553
 21
182.292
  0
LINE
  8
0
 10
638.553
 20
182.292
 11
638.651
 21
182.302
  0
LINE
  8
0
 10
638.651
 20
182.302
 11
638.651
 21
182.302
  0
LINE
  8
0
 10
638.651
 20
182.302
 11
638.749
 21
182.312
  0
LINE
  8
0
 10
638.749
 20
182.312
 11
638.749
 21
182.312
  0
LINE
  8
0
 10
638.749
 20
182.312
 11
638.847
 21
182.322
  0
LINE
  8
0
 10
638.847
 20
182.322
 11
638.847
 21
182.322
  0
LINE
  8
0
 10
638.847
 20
182.322
 11
638.945
 21
182.331
  0
LINE
  8
0
 10
638.945
 20
182.331
 11
638.946
 21
182.332
  0
LINE
  8
0
 10
638.946
 20
182.332
 11
639.043
 21
182.341
  0
LINE
  8
0
 10
639.043
 20
182.341
 11
639.044
 21
182.341
  0
LINE
  8
0
 10
639.044
 20
182.341
 11
639.141
 21
182.351
  0
LINE
  8
0
 10
639.141
 20
182.351
 11
639.142
 21
182.351
  0
LINE
  8
0
 10
639.142
 20
182.351
 11
639.239
 21
182.361
  0
LINE
  8
0
 10
639.239
 20
182.361
 11
639.24
 21
182.361
  0
LINE
  8
0
 10
639.24
 20
182.361
 11
639.337
 21
182.371
  0
LINE
  8
0
 10
639.337
 20
182.371
 11
639.338
 21
182.371
  0
LINE
  8
0
 10
639.338
 20
182.371
 11
639.435
 21
182.38
  0
LINE
  8
0
 10
639.435
 20
182.38
 11
639.436
 21
182.381
  0
LINE
  8
0
 10
639.436
 20
182.381
 11
639.533
 21
182.39
  0
LINE
  8
0
 10
639.533
 20
182.39
 11
639.534
 21
182.39
  0
LINE
  8
0
 10
639.534
 20
182.39
 11
639.631
 21
182.4
  0
LINE
  8
0
 10
639.631
 20
182.4
 11
639.632
 21
182.4
  0
LINE
  8
0
 10
639.632
 20
182.4
 11
639.729
 21
182.41
  0
LINE
  8
0
 10
639.729
 20
182.41
 11
639.73
 21
182.41
  0
LINE
  8
0
 10
639.73
 20
182.41
 11
639.827
 21
182.42
  0
LINE
  8
0
 10
639.827
 20
182.42
 11
639.828
 21
182.42
  0
LINE
  8
0
 10
639.828
 20
182.42
 11
639.925
 21
182.429
  0
LINE
  8
0
 10
639.925
 20
182.429
 11
639.926
 21
182.43
  0
LINE
  8
0
 10
639.926
 20
182.43
 11
640.023
 21
182.439
  0
LINE
  8
0
 10
640.023
 20
182.439
 11
640.024
 21
182.439
  0
LINE
  8
0
 10
640.024
 20
182.439
 11
640.121
 21
182.449
  0
LINE
  8
0
 10
640.121
 20
182.449
 11
640.122
 21
182.449
  0
LINE
  8
0
 10
640.122
 20
182.449
 11
640.219
 21
182.459
  0
LINE
  8
0
 10
640.219
 20
182.459
 11
640.22
 21
182.459
  0
LINE
  8
0
 10
640.22
 20
182.459
 11
640.317
 21
182.469
  0
LINE
  8
0
 10
640.317
 20
182.469
 11
640.318
 21
182.469
  0
LINE
  8
0
 10
640.318
 20
182.469
 11
640.415
 21
182.478
  0
LINE
  8
0
 10
640.415
 20
182.478
 11
640.416
 21
182.479
  0
LINE
  8
0
 10
640.416
 20
182.479
 11
640.514
 21
182.488
  0
LINE
  8
0
 10
640.514
 20
182.488
 11
640.514
 21
182.488
  0
LINE
  8
0
 10
640.514
 20
182.488
 11
640.612
 21
182.498
  0
LINE
  8
0
 10
640.612
 20
182.498
 11
640.612
 21
182.498
  0
LINE
  8
0
 10
640.612
 20
182.498
 11
640.71
 21
182.508
  0
LINE
  8
0
 10
640.71
 20
182.508
 11
640.71
 21
182.508
  0
LINE
  8
0
 10
640.71
 20
182.508
 11
640.808
 21
182.518
  0
LINE
  8
0
 10
640.808
 20
182.518
 11
640.808
 21
182.518
  0
LINE
  8
0
 10
640.808
 20
182.518
 11
640.906
 21
182.527
  0
LINE
  8
0
 10
640.906
 20
182.527
 11
640.907
 21
182.528
  0
LINE
  8
0
 10
640.907
 20
182.528
 11
641.004
 21
182.537
  0
LINE
  8
0
 10
641.004
 20
182.537
 11
641.005
 21
182.538
  0
LINE
  8
0
 10
641.005
 20
182.538
 11
641.102
 21
182.547
  0
LINE
  8
0
 10
641.102
 20
182.547
 11
641.103
 21
182.547
  0
LINE
  8
0
 10
641.103
 20
182.547
 11
641.2
 21
182.557
  0
LINE
  8
0
 10
641.2
 20
182.557
 11
641.201
 21
182.557
  0
LINE
  8
0
 10
641.201
 20
182.557
 11
641.298
 21
182.567
  0
LINE
  8
0
 10
641.298
 20
182.567
 11
641.299
 21
182.567
  0
LINE
  8
0
 10
641.299
 20
182.567
 11
641.396
 21
182.577
  0
LINE
  8
0
 10
641.396
 20
182.577
 11
641.397
 21
182.577
  0
LINE
  8
0
 10
641.397
 20
182.577
 11
641.494
 21
182.586
  0
LINE
  8
0
 10
641.494
 20
182.586
 11
641.495
 21
182.587
  0
LINE
  8
0
 10
641.495
 20
182.587
 11
641.592
 21
182.596
  0
LINE
  8
0
 10
641.592
 20
182.596
 11
641.593
 21
182.596
  0
LINE
  8
0
 10
641.593
 20
182.596
 11
641.69
 21
182.606
  0
LINE
  8
0
 10
641.69
 20
182.606
 11
641.691
 21
182.606
  0
LINE
  8
0
 10
641.691
 20
182.606
 11
641.788
 21
182.616
  0
LINE
  8
0
 10
641.788
 20
182.616
 11
641.789
 21
182.616
  0
LINE
  8
0
 10
641.789
 20
182.616
 11
641.886
 21
182.626
  0
LINE
  8
0
 10
641.886
 20
182.626
 11
641.887
 21
182.626
  0
LINE
  8
0
 10
641.887
 20
182.626
 11
641.984
 21
182.635
  0
LINE
  8
0
 10
641.984
 20
182.635
 11
641.985
 21
182.636
  0
LINE
  8
0
 10
641.985
 20
182.636
 11
642.082
 21
182.645
  0
LINE
  8
0
 10
642.082
 20
182.645
 11
642.083
 21
182.645
  0
LINE
  8
0
 10
642.083
 20
182.645
 11
642.18
 21
182.655
  0
LINE
  8
0
 10
642.18
 20
182.655
 11
642.181
 21
182.655
  0
LINE
  8
0
 10
642.181
 20
182.655
 11
642.278
 21
182.665
  0
LINE
  8
0
 10
642.278
 20
182.665
 11
642.279
 21
182.665
  0
LINE
  8
0
 10
642.279
 20
182.665
 11
642.376
 21
182.675
  0
LINE
  8
0
 10
642.376
 20
182.675
 11
642.377
 21
182.675
  0
LINE
  8
0
 10
642.377
 20
182.675
 11
642.475
 21
182.684
  0
LINE
  8
0
 10
642.475
 20
182.684
 11
642.475
 21
182.685
  0
LINE
  8
0
 10
642.475
 20
182.685
 11
642.573
 21
182.694
  0
LINE
  8
0
 10
642.573
 20
182.694
 11
642.573
 21
182.694
  0
LINE
  8
0
 10
642.573
 20
182.694
 11
642.671
 21
182.704
  0
LINE
  8
0
 10
642.671
 20
182.704
 11
642.671
 21
182.704
  0
LINE
  8
0
 10
642.671
 20
182.704
 11
642.769
 21
182.714
  0
LINE
  8
0
 10
642.769
 20
182.714
 11
642.769
 21
182.714
  0
LINE
  8
0
 10
642.769
 20
182.714
 11
642.867
 21
182.724
  0
LINE
  8
0
 10
642.867
 20
182.724
 11
642.867
 21
182.724
  0
LINE
  8
0
 10
642.867
 20
182.724
 11
642.965
 21
182.733
  0
LINE
  8
0
 10
642.965
 20
182.733
 11
642.966
 21
182.734
  0
LINE
  8
0
 10
642.966
 20
182.734
 11
643.063
 21
182.743
  0
LINE
  8
0
 10
643.063
 20
182.743
 11
643.064
 21
182.743
  0
LINE
  8
0
 10
643.064
 20
182.743
 11
643.161
 21
182.753
  0
LINE
  8
0
 10
643.161
 20
182.753
 11
643.162
 21
182.753
  0
LINE
  8
0
 10
643.162
 20
182.753
 11
643.259
 21
182.763
  0
LINE
  8
0
 10
643.259
 20
182.763
 11
643.26
 21
182.763
  0
LINE
  8
0
 10
643.26
 20
182.763
 11
643.357
 21
182.773
  0
LINE
  8
0
 10
643.357
 20
182.773
 11
643.358
 21
182.773
  0
LINE
  8
0
 10
643.358
 20
182.773
 11
643.455
 21
182.783
  0
LINE
  8
0
 10
643.455
 20
182.783
 11
643.456
 21
182.783
  0
LINE
  8
0
 10
643.456
 20
182.783
 11
643.553
 21
182.792
  0
LINE
  8
0
 10
643.553
 20
182.792
 11
643.554
 21
182.793
  0
LINE
  8
0
 10
643.554
 20
182.793
 11
643.651
 21
182.802
  0
LINE
  8
0
 10
643.651
 20
182.802
 11
643.652
 21
182.802
  0
LINE
  8
0
 10
643.652
 20
182.802
 11
643.749
 21
182.812
  0
LINE
  8
0
 10
643.749
 20
182.812
 11
643.75
 21
182.812
  0
LINE
  8
0
 10
643.75
 20
182.812
 11
643.847
 21
182.822
  0
LINE
  8
0
 10
643.847
 20
182.822
 11
643.848
 21
182.822
  0
LINE
  8
0
 10
643.848
 20
182.822
 11
643.945
 21
182.832
  0
LINE
  8
0
 10
643.945
 20
182.832
 11
643.946
 21
182.832
  0
LINE
  8
0
 10
643.946
 20
182.832
 11
644.043
 21
182.841
  0
LINE
  8
0
 10
644.043
 20
182.841
 11
644.044
 21
182.842
  0
LINE
  8
0
 10
644.044
 20
182.842
 11
644.141
 21
182.851
  0
LINE
  8
0
 10
644.141
 20
182.851
 11
644.142
 21
182.851
  0
LINE
  8
0
 10
644.142
 20
182.851
 11
644.239
 21
182.861
  0
LINE
  8
0
 10
644.239
 20
182.861
 11
644.24
 21
182.861
  0
LINE
  8
0
 10
644.24
 20
182.861
 11
644.337
 21
182.871
  0
LINE
  8
0
 10
644.337
 20
182.871
 11
644.338
 21
182.871
  0
LINE
  8
0
 10
644.338
 20
182.871
 11
644.436
 21
182.881
  0
LINE
  8
0
 10
644.436
 20
182.881
 11
644.436
 21
182.881
  0
LINE
  8
0
 10
644.436
 20
182.881
 11
644.534
 21
182.89
  0
LINE
  8
0
 10
644.534
 20
182.89
 11
644.534
 21
182.891
  0
LINE
  8
0
 10
644.534
 20
182.891
 11
644.632
 21
182.9
  0
LINE
  8
0
 10
644.632
 20
182.9
 11
644.632
 21
182.9
  0
LINE
  8
0
 10
644.632
 20
182.9
 11
644.73
 21
182.91
  0
LINE
  8
0
 10
644.73
 20
182.91
 11
644.73
 21
182.91
  0
LINE
  8
0
 10
644.73
 20
182.91
 11
644.828
 21
182.92
  0
LINE
  8
0
 10
644.828
 20
182.92
 11
644.828
 21
182.92
  0
LINE
  8
0
 10
644.828
 20
182.92
 11
644.926
 21
182.93
  0
LINE
  8
0
 10
644.926
 20
182.93
 11
644.927
 21
182.93
  0
LINE
  8
0
 10
644.927
 20
182.93
 11
645.024
 21
182.939
  0
LINE
  8
0
 10
645.024
 20
182.939
 11
645.025
 21
182.94
  0
LINE
  8
0
 10
645.025
 20
182.94
 11
645.122
 21
182.949
  0
LINE
  8
0
 10
645.122
 20
182.949
 11
645.123
 21
182.949
  0
LINE
  8
0
 10
645.123
 20
182.949
 11
645.22
 21
182.959
  0
LINE
  8
0
 10
645.22
 20
182.959
 11
645.221
 21
182.959
  0
LINE
  8
0
 10
645.221
 20
182.959
 11
645.318
 21
182.969
  0
LINE
  8
0
 10
645.318
 20
182.969
 11
645.319
 21
182.969
  0
LINE
  8
0
 10
645.319
 20
182.969
 11
645.416
 21
182.979
  0
LINE
  8
0
 10
645.416
 20
182.979
 11
645.417
 21
182.979
  0
LINE
  8
0
 10
645.417
 20
182.979
 11
645.514
 21
182.988
  0
LINE
  8
0
 10
645.514
 20
182.988
 11
645.515
 21
182.989
  0
LINE
  8
0
 10
645.515
 20
182.989
 11
645.612
 21
182.998
  0
LINE
  8
0
 10
645.612
 20
182.998
 11
645.613
 21
182.998
  0
LINE
  8
0
 10
645.613
 20
182.998
 11
645.71
 21
183.008
  0
LINE
  8
0
 10
645.71
 20
183.008
 11
645.711
 21
183.008
  0
LINE
  8
0
 10
645.711
 20
183.008
 11
645.808
 21
183.018
  0
LINE
  8
0
 10
645.808
 20
183.018
 11
645.809
 21
183.018
  0
LINE
  8
0
 10
645.809
 20
183.018
 11
645.906
 21
183.028
  0
LINE
  8
0
 10
645.906
 20
183.028
 11
645.907
 21
183.028
  0
LINE
  8
0
 10
645.907
 20
183.028
 11
646.004
 21
183.038
  0
LINE
  8
0
 10
646.004
 20
183.038
 11
646.005
 21
183.038
  0
LINE
  8
0
 10
646.005
 20
183.038
 11
646.102
 21
183.047
  0
LINE
  8
0
 10
646.102
 20
183.047
 11
646.103
 21
183.048
  0
LINE
  8
0
 10
646.103
 20
183.048
 11
646.2
 21
183.057
  0
LINE
  8
0
 10
646.2
 20
183.057
 11
646.201
 21
183.057
  0
LINE
  8
0
 10
646.201
 20
183.057
 11
646.298
 21
183.067
  0
LINE
  8
0
 10
646.298
 20
183.067
 11
646.299
 21
183.067
  0
LINE
  8
0
 10
646.299
 20
183.067
 11
646.397
 21
183.077
  0
LINE
  8
0
 10
646.397
 20
183.077
 11
646.397
 21
183.077
  0
LINE
  8
0
 10
646.397
 20
183.077
 11
646.495
 21
183.087
  0
LINE
  8
0
 10
646.495
 20
183.087
 11
646.495
 21
183.087
  0
LINE
  8
0
 10
646.495
 20
183.087
 11
646.593
 21
183.096
  0
LINE
  8
0
 10
646.593
 20
183.096
 11
646.593
 21
183.097
  0
LINE
  8
0
 10
646.593
 20
183.097
 11
646.691
 21
183.106
  0
LINE
  8
0
 10
646.691
 20
183.106
 11
646.691
 21
183.106
  0
LINE
  8
0
 10
646.691
 20
183.106
 11
646.789
 21
183.116
  0
LINE
  8
0
 10
646.789
 20
183.116
 11
646.789
 21
183.116
  0
LINE
  8
0
 10
646.789
 20
183.116
 11
646.887
 21
183.126
  0
LINE
  8
0
 10
646.887
 20
183.126
 11
646.888
 21
183.126
  0
LINE
  8
0
 10
646.888
 20
183.126
 11
646.985
 21
183.136
  0
LINE
  8
0
 10
646.985
 20
183.136
 11
646.986
 21
183.136
  0
LINE
  8
0
 10
646.986
 20
183.136
 11
647.083
 21
183.145
  0
LINE
  8
0
 10
647.083
 20
183.145
 11
647.084
 21
183.146
  0
LINE
  8
0
 10
647.084
 20
183.146
 11
647.181
 21
183.155
  0
LINE
  8
0
 10
647.181
 20
183.155
 11
647.182
 21
183.155
  0
LINE
  8
0
 10
647.182
 20
183.155
 11
647.279
 21
183.165
  0
LINE
  8
0
 10
647.279
 20
183.165
 11
647.28
 21
183.165
  0
LINE
  8
0
 10
647.28
 20
183.165
 11
647.377
 21
183.175
  0
LINE
  8
0
 10
647.377
 20
183.175
 11
647.378
 21
183.175
  0
LINE
  8
0
 10
647.378
 20
183.175
 11
647.475
 21
183.185
  0
LINE
  8
0
 10
647.475
 20
183.185
 11
647.476
 21
183.185
  0
LINE
  8
0
 10
647.476
 20
183.185
 11
647.573
 21
183.194
  0
LINE
  8
0
 10
647.573
 20
183.194
 11
647.574
 21
183.195
  0
LINE
  8
0
 10
647.574
 20
183.195
 11
647.671
 21
183.204
  0
LINE
  8
0
 10
647.671
 20
183.204
 11
647.672
 21
183.204
  0
LINE
  8
0
 10
647.672
 20
183.204
 11
647.769
 21
183.214
  0
LINE
  8
0
 10
647.769
 20
183.214
 11
647.77
 21
183.214
  0
LINE
  8
0
 10
647.77
 20
183.214
 11
647.867
 21
183.224
  0
LINE
  8
0
 10
647.867
 20
183.224
 11
647.868
 21
183.224
  0
LINE
  8
0
 10
647.868
 20
183.224
 11
647.965
 21
183.234
  0
LINE
  8
0
 10
647.965
 20
183.234
 11
647.966
 21
183.234
  0
LINE
  8
0
 10
647.966
 20
183.234
 11
648.063
 21
183.243
  0
LINE
  8
0
 10
648.063
 20
183.243
 11
648.064
 21
183.244
  0
LINE
  8
0
 10
648.064
 20
183.244
 11
648.161
 21
183.253
  0
LINE
  8
0
 10
648.161
 20
183.253
 11
648.162
 21
183.253
  0
LINE
  8
0
 10
648.162
 20
183.253
 11
648.259
 21
183.263
  0
LINE
  8
0
 10
648.259
 20
183.263
 11
648.26
 21
183.263
  0
LINE
  8
0
 10
648.26
 20
183.263
 11
648.357
 21
183.273
  0
LINE
  8
0
 10
648.357
 20
183.273
 11
648.358
 21
183.273
  0
LINE
  8
0
 10
648.358
 20
183.273
 11
648.456
 21
183.283
  0
LINE
  8
0
 10
648.456
 20
183.283
 11
648.456
 21
183.283
  0
LINE
  8
0
 10
648.456
 20
183.283
 11
648.554
 21
183.292
  0
LINE
  8
0
 10
648.554
 20
183.292
 11
648.554
 21
183.293
  0
LINE
  8
0
 10
648.554
 20
183.293
 11
648.652
 21
183.302
  0
LINE
  8
0
 10
648.652
 20
183.302
 11
648.652
 21
183.303
  0
LINE
  8
0
 10
648.652
 20
183.303
 11
648.75
 21
183.312
  0
LINE
  8
0
 10
648.75
 20
183.312
 11
648.75
 21
183.312
  0
LINE
  8
0
 10
648.75
 20
183.312
 11
648.848
 21
183.322
  0
LINE
  8
0
 10
648.848
 20
183.322
 11
648.848
 21
183.322
  0
LINE
  8
0
 10
648.848
 20
183.322
 11
648.946
 21
183.332
  0
LINE
  8
0
 10
648.946
 20
183.332
 11
648.947
 21
183.332
  0
LINE
  8
0
 10
648.947
 20
183.332
 11
649.044
 21
183.342
  0
LINE
  8
0
 10
649.044
 20
183.342
 11
649.045
 21
183.342
  0
LINE
  8
0
 10
649.045
 20
183.342
 11
649.142
 21
183.351
  0
LINE
  8
0
 10
649.142
 20
183.351
 11
649.142
 21
183.352
  0
LINE
  8
0
 10
649.142
 20
183.352
 11
649.122
 21
183.556
  0
LINE
  8
0
 10
649.122
 20
183.556
 11
648.267
 21
186.375
  0
LINE
  8
0
 10
648.267
 20
186.375
 11
646.879
 21
188.973
  0
LINE
  8
0
 10
646.879
 20
188.973
 11
645.01
 21
191.25
  0
LINE
  8
0
 10
645.01
 20
191.25
 11
642.733
 21
193.119
  0
LINE
  8
0
 10
642.733
 20
193.119
 11
640.135
 21
194.507
  0
LINE
  8
0
 10
640.135
 20
194.507
 11
637.316
 21
195.362
  0
LINE
  8
0
 10
637.316
 20
195.362
 11
634.385
 21
195.651
  0
LINE
  8
0
 10
634.385
 20
195.651
 11
631.454
 21
195.362
  0
LINE
  8
0
 10
631.454
 20
195.362
 11
628.635
 21
194.507
  0
LINE
  8
0
 10
628.635
 20
194.507
 11
626.037
 21
193.119
  0
LINE
  8
0
 10
626.037
 20
193.119
 11
623.76
 21
191.25
  0
LINE
  8
0
 10
623.76
 20
191.25
 11
502.51
 21
75
  0
LINE
  8
0
 10
502.51
 20
75
 11
502.51
 21
25
  0
LINE
  8
0
 10
502.51
 20
25
 11
497.51
 21
25
  0
LINE
  8
0
 10
497.51
 20
25
 11
497.51
 21
75
  0
LINE
  8
0
 10
497.51
 20
75
 11
493.51
 21
75
  0
LINE
  8
0
 10
493.51
 20
75
 11
493.427
 21
74.6671
  0
LINE
  8
0
 10
493.427
 20
74.6671
 11
491.616
 21
73.2059
  0
LINE
  8
0
 10
491.616
 20
73.2059
 11
489.421
 21
70.6768
  0
LINE
  8
0
 10
489.421
 20
70.6768
 11
487.314
 21
67.467
  0
LINE
  8
0
 10
487.314
 20
67.467
 11
485.315
 21
63.6074
  0
LINE
  8
0
 10
485.315
 20
63.6074
 11
483.443
 21
59.1353
  0
LINE
  8
0
 10
483.443
 20
59.1353
 11
481.716
 21
54.0937
  0
LINE
  8
0
 10
481.716
 20
54.0937
 11
480.151
 21
48.5311
  0
LINE
  8
0
 10
480.151
 20
48.5311
 11
478.763
 21
42.5011
  0
LINE
  8
0
 10
478.763
 20
42.5011
 11
477.564
 21
36.0619
  0
LINE
  8
0
 10
477.564
 20
36.0619
 11
476.568
 21
29.2753
  0
LINE
  8
0
 10
476.568
 20
29.2753
 11
475.783
 21
22.2068
  0
LINE
  8
0
 10
475.783
 20
22.2068
 11
475.216
 21
14.9244
  0
LINE
  8
0
 10
475.216
 20
14.9244
 11
474.874
 21
7.49832
  0
LINE
  8
0
 10
474.874
 20
7.49832
 11
474.76
 21
0
  0
LINE
  8
0
 10
474.76
 20
0
 11
550.01
 21
0
  0
LINE
  8
0
 10
550.01
 20
0
 11
550.01
 21
75
  0
LINE
  8
0
 10
797
 20
52
 11
789
 21
52
  0
LINE
  8
0
 10
789
 20
52
 11
789
 21
27
  0
LINE
  8
0
 10
789
 20
27
 11
797
 21
27
  0
LINE
  8
0
 10
797
 20
27
 11
797
 21
52
  0
LINE
  8
0
 10
792.512
 20
44.548
 11
792.043
 21
44.6903
  0
LINE
  8
0
 10
792.043
 20
44.6903
 11
791.611
 21
44.9213
  0
LINE
  8
0
 10
791.611
 20
44.9213
 11
791.232
 21
45.2322
  0
LINE
  8
0
 10
791.232
 20
45.2322
 11
790.921
 21
45.6111
  0
LINE
  8
0
 10
790.921
 20
45.6111
 11
790.69
 21
46.0433
  0
LINE
  8
0
 10
790.69
 20
46.0433
 11
790.548
 21
46.5123
  0
LINE
  8
0
 10
790.548
 20
46.5123
 11
790.5
 21
47
  0
LINE
  8
0
 10
790.5
 20
47
 11
790.548
 21
47.4877
  0
LINE
  8
0
 10
790.548
 20
47.4877
 11
790.69
 21
47.9567
  0
LINE
  8
0
 10
790.69
 20
47.9567
 11
790.921
 21
48.3889
  0
LINE
  8
0
 10
790.921
 20
48.3889
 11
791.232
 21
48.7678
  0
LINE
  8
0
 10
791.232
 20
48.7678
 11
791.611
 21
49.0787
  0
LINE
  8
0
 10
791.611
 20
49.0787
 11
792.043
 21
49.3097
  0
LINE
  8
0
 10
792.043
 20
49.3097
 11
792.512
 21
49.452
  0
LINE
  8
0
 10
792.512
 20
49.452
 11
793
 21
49.5
  0
LINE
  8
0
 10
793
 20
49.5
 11
793.488
 21
49.452
  0
LINE
  8
0
 10
793.488
 20
49.452
 11
793.957
 21
49.3097
  0
LINE
  8
0
 10
793.957
 20
49.3097
 11
794.389
 21
49.0787
  0
LINE
  8
0
 10
794.389
 20
49.0787
 11
794.768
 21
48.7678
  0
LINE
  8
0
 10
794.768
 20
48.7678
 11
795.079
 21
48.3889
  0
LINE
  8
0
 10
795.079
 20
48.3889
 11
795.31
 21
47.9567
  0
LINE
  8
0
 10
795.31
 20
47.9567
 11
795.452
 21
47.4877
  0
LINE
  8
0
 10
795.452
 20
47.4877
 11
795.5
 21
47
  0
LINE
  8
0
 10
795.5
 20
47
 11
795.452
 21
46.5123
  0
LINE
  8
0
 10
795.452
 20
46.5123
 11
795.31
 21
46.0433
  0
LINE
  8
0
 10
795.31
 20
46.0433
 11
795.079
 21
45.6111
  0
LINE
  8
0
 10
795.079
 20
45.6111
 11
794.768
 21
45.2322
  0
LINE
  8
0
 10
794.768
 20
45.2322
 11
794.389
 21
44.9213
  0
LINE
  8
0
 10
794.389
 20
44.9213
 11
793.957
 21
44.6903
  0
LINE
  8
0
 10
793.957
 20
44.6903
 11
793.488
 21
44.548
  0
LINE
  8
0
 10
793.488
 20
44.548
 11
793
 21
44.5
  0
LINE
  8
0
 10
793
 20
44.5
 11
792.512
 21
44.548
  0
LINE
  8
0
 10
792.512
 20
37.048
 11
792.043
 21
37.1903
  0
LINE
  8
0
 10
792.043
 20
37.1903
 11
791.611
 21
37.4213
  0
LINE
  8
0
 10
791.611
 20
37.4213
 11
791.232
 21
37.7322
  0
LINE
  8
0
 10
791.232
 20
37.7322
 11
790.921
 21
38.1111
  0
LINE
  8
0
 10
790.921
 20
38.1111
 11
790.69
 21
38.5433
  0
LINE
  8
0
 10
790.69
 20
38.5433
 11
790.548
 21
39.0123
  0
LINE
  8
0
 10
790.548
 20
39.0123
 11
790.5
 21
39.5
  0
LINE
  8
0
 10
790.5
 20
39.5
 11
790.548
 21
39.9877
  0
LINE
  8
0
 10
790.548
 20
39.9877
 11
790.69
 21
40.4567
  0
LINE
  8
0
 10
790.69
 20
40.4567
 11
790.921
 21
40.8889
  0
LINE
  8
0
 10
790.921
 20
40.8889
 11
791.232
 21
41.2678
  0
LINE
  8
0
 10
791.232
 20
41.2678
 11
791.611
 21
41.5787
  0
LINE
  8
0
 10
791.611
 20
41.5787
 11
792.043
 21
41.8097
  0
LINE
  8
0
 10
792.043
 20
41.8097
 11
792.512
 21
41.952
  0
LINE
  8
0
 10
792.512
 20
41.952
 11
793
 21
42
  0
LINE
  8
0
 10
793
 20
42
 11
793.488
 21
41.952
  0
LINE
  8
0
 10
793.488
 20
41.952
 11
793.957
 21
41.8097
  0
LINE
  8
0
 10
793.957
 20
41.8097
 11
794.389
 21
41.5787
  0
LINE
  8
0
 10
794.389
 20
41.5787
 11
794.768
 21
41.2678
  0
LINE
  8
0
 10
794.768
 20
41.2678
 11
795.079
 21
40.8889
  0
LINE
  8
0
 10
795.079
 20
40.8889
 11
795.31
 21
40.4567
  0
LINE
  8
0
 10
795.31
 20
40.4567
 11
795.452
 21
39.9877
  0
LINE
  8
0
 10
795.452
 20
39.9877
 11
795.5
 21
39.5
  0
LINE
  8
0
 10
795.5
 20
39.5
 11
795.452
 21
39.0123
  0
LINE
  8
0
 10
795.452
 20
39.0123
 11
795.31
 21
38.5433
  0
LINE
  8
0
 10
795.31
 20
38.5433
 11
795.079
 21
38.1111
  0
LINE
  8
0
 10
795.079
 20
38.1111
 11
794.768
 21
37.7322
  0
LINE
  8
0
 10
794.768
 20
37.7322
 11
794.389
 21
37.4213
  0
LINE
  8
0
 10
794.389
 20
37.4213
 11
793.957
 21
37.1903
  0
LINE
  8
0
 10
793.957
 20
37.1903
 11
793.488
 21
37.048
  0
LINE
  8
0
 10
793.488
 20
37.048
 11
793
 21
37
  0
LINE
  8
0
 10
793
 20
37
 11
792.512
 21
37.048
  0
LINE
  8
0
 10
792.512
 20
29.548
 11
792.043
 21
29.6903
  0
LINE
  8
0
 10
792.043
 20
29.6903
 11
791.611
 21
29.9213
  0
LINE
  8
0
 10
791.611
 20
29.9213
 11
791.232
 21
30.2322
  0
LINE
  8
0
 10
791.232
 20
30.2322
 11
790.921
 21
30.6111
  0
LINE
  8
0
 10
790.921
 20
30.6111
 11
790.69
 21
31.0433
  0
LINE
  8
0
 10
790.69
 20
31.0433
 11
790.548
 21
31.5123
  0
LINE
  8
0
 10
790.548
 20
31.5123
 11
790.5
 21
32
  0
LINE
  8
0
 10
790.5
 20
32
 11
790.548
 21
32.4877
  0
LINE
  8
0
 10
790.548
 20
32.4877
 11
790.69
 21
32.9567
  0
LINE
  8
0
 10
790.69
 20
32.9567
 11
790.921
 21
33.3889
  0
LINE
  8
0
 10
790.921
 20
33.3889
 11
791.232
 21
33.7678
  0
LINE
  8
0
 10
791.232
 20
33.7678
 11
791.611
 21
34.0787
  0
LINE
  8
0
 10
791.611
 20
34.0787
 11
792.043
 21
34.3097
  0
LINE
  8
0
 10
792.043
 20
34.3097
 11
792.512
 21
34.452
  0
LINE
  8
0
 10
792.512
 20
34.452
 11
793
 21
34.5
  0
LINE
  8
0
 10
793
 20
34.5
 11
793.488
 21
34.452
  0
LINE
  8
0
 10
793.488
 20
34.452
 11
793.957
 21
34.3097
  0
LINE
  8
0
 10
793.957
 20
34.3097
 11
794.389
 21
34.0787
  0
LINE
  8
0
 10
794.389
 20
34.0787
 11
794.768
 21
33.7678
  0
LINE
  8
0
 10
794.768
 20
33.7678
 11
795.079
 21
33.3889
  0
LINE
  8
0
 10
795.079
 20
33.3889
 11
795.31
 21
32.9567
  0
LINE
  8
0
 10
795.31
 20
32.9567
 11
795.452
 21
32.4877
  0
LINE
  8
0
 10
795.452
 20
32.4877
 11
795.5
 21
32
  0
LINE
  8
0
 10
795.5
 20
32
 11
795.452
 21
31.5123
  0
LINE
  8
0
 10
795.452
 20
31.5123
 11
795.31
 21
31.0433
  0
LINE
  8
0
 10
795.31
 20
31.0433
 11
795.079
 21
30.6111
  0
LINE
  8
0
 10
795.079
 20
30.6111
 11
794.768
 21
30.2322
  0
LINE
  8
0
 10
794.768
 20
30.2322
 11
794.389
 21
29.9213
  0
LINE
  8
0
 10
794.389
 20
29.9213
 11
793.957
 21
29.6903
  0
LINE
  8
0
 10
793.957
 20
29.6903
 11
793.488
 21
29.548
  0
LINE
  8
0
 10
793.488
 20
29.548
 11
793
 21
29.5
  0
LINE
  8
0
 10
793
 20
29.5
 11
792.512
 21
29.548
  0
LINE
  8
0
 10
788
 20
52
 11
780
 21
52
  0
LINE
  8
0
 10
780
 20
52
 11
780
 21
27
  0
LINE
  8
0
 10
780
 20
27
 11
788
 21
27
  0
LINE
  8
0
 10
788
 20
27
 11
788
 21
52
  0
LINE
  8
0
 10
783.512
 20
44.548
 11
783.043
 21
44.6903
  0
LINE
  8
0
 10
783.043
 20
44.6903
 11
782.611
 21
44.9213
  0
LINE
  8
0
 10
782.611
 20
44.9213
 11
782.232
 21
45.2322
  0
LINE
  8
0
 10
782.232
 20
45.2322
 11
781.921
 21
45.6111
  0
LINE
  8
0
 10
781.921
 20
45.6111
 11
781.69
 21
46.0433
  0
LINE
  8
0
 10
781.69
 20
46.0433
 11
781.548
 21
46.5123
  0
LINE
  8
0
 10
781.548
 20
46.5123
 11
781.5
 21
47
  0
LINE
  8
0
 10
781.5
 20
47
 11
781.548
 21
47.4877
  0
LINE
  8
0
 10
781.548
 20
47.4877
 11
781.69
 21
47.9567
  0
LINE
  8
0
 10
781.69
 20
47.9567
 11
781.921
 21
48.3889
  0
LINE
  8
0
 10
781.921
 20
48.3889
 11
782.232
 21
48.7678
  0
LINE
  8
0
 10
782.232
 20
48.7678
 11
782.611
 21
49.0787
  0
LINE
  8
0
 10
782.611
 20
49.0787
 11
783.043
 21
49.3097
  0
LINE
  8
0
 10
783.043
 20
49.3097
 11
783.512
 21
49.452
  0
LINE
  8
0
 10
783.512
 20
49.452
 11
784
 21
49.5
  0
LINE
  8
0
 10
784
 20
49.5
 11
784.488
 21
49.452
  0
LINE
  8
0
 10
784.488
 20
49.452
 11
784.957
 21
49.3097
  0
LINE
  8
0
 10
784.957
 20
49.3097
 11
785.389
 21
49.0787
  0
LINE
  8
0
 10
785.389
 20
49.0787
 11
785.768
 21
48.7678
  0
LINE
  8
0
 10
785.768
 20
48.7678
 11
786.079
 21
48.3889
  0
LINE
  8
0
 10
786.079
 20
48.3889
 11
786.31
 21
47.9567
  0
LINE
  8
0
 10
786.31
 20
47.9567
 11
786.452
 21
47.4877
  0
LINE
  8
0
 10
786.452
 20
47.4877
 11
786.5
 21
47
  0
LINE
  8
0
 10
786.5
 20
47
 11
786.452
 21
46.5123
  0
LINE
  8
0
 10
786.452
 20
46.5123
 11
786.31
 21
46.0433
  0
LINE
  8
0
 10
786.31
 20
46.0433
 11
786.079
 21
45.6111
  0
LINE
  8
0
 10
786.079
 20
45.6111
 11
785.768
 21
45.2322
  0
LINE
  8
0
 10
785.768
 20
45.2322
 11
785.389
 21
44.9213
  0
LINE
  8
0
 10
785.389
 20
44.9213
 11
784.957
 21
44.6903
  0
LINE
  8
0
 10
784.957
 20
44.6903
 11
784.488
 21
44.548
  0
LINE
  8
0
 10
784.488
 20
44.548
 11
784
 21
44.5
  0
LINE
  8
0
 10
784
 20
44.5
 11
783.512
 21
44.548
  0
LINE
  8
0
 10
783.512
 20
37.048
 11
783.043
 21
37.1903
  0
LINE
  8
0
 10
783.043
 20
37.1903
 11
782.611
 21
37.4213
  0
LINE
  8
0
 10
782.611
 20
37.4213
 11
782.232
 21
37.7322
  0
LINE
  8
0
 10
782.232
 20
37.7322
 11
781.921
 21
38.1111
  0
LINE
  8
0
 10
781.921
 20
38.1111
 11
781.69
 21
38.5433
  0
LINE
  8
0
 10
781.69
 20
38.5433
 11
781.548
 21
39.0123
  0
LINE
  8
0
 10
781.548
 20
39.0123
 11
781.5
 21
39.5
  0
LINE
  8
0
 10
781.5
 20
39.5
 11
781.548
 21
39.9877
  0
LINE
  8
0
 10
781.548
 20
39.9877
 11
781.69
 21
40.4567
  0
LINE
  8
0
 10
781.69
 20
40.4567
 11
781.921
 21
40.8889
  0
LINE
  8
0
 10
781.921
 20
40.8889
 11
782.232
 21
41.2678
  0
LINE
  8
0
 10
782.232
 20
41.2678
 11
782.611
 21
41.5787
  0
LINE
  8
0
 10
782.611
 20
41.5787
 11
783.043
 21
41.8097
  0
LINE
  8
0
 10
783.043
 20
41.8097
 11
783.512
 21
41.952
  0
LINE
  8
0
 10
783.512
 20
41.952
 11
784
 21
42
  0
LINE
  8
0
 10
784
 20
42
 11
784.488
 21
41.952
  0
LINE
  8
0
 10
784.488
 20
41.952
 11
784.957
 21
41.8097
  0
LINE
  8
0
 10
784.957
 20
41.8097
 11
785.389
 21
41.5787
  0
LINE
  8
0
 10
785.389
 20
41.5787
 11
785.768
 21
41.2678
  0
LINE
  8
0
 10
785.768
 20
41.2678
 11
786.079
 21
40.8889
  0
LINE
  8
0
 10
786.079
 20
40.8889
 11
786.31
 21
40.4567
  0
LINE
  8
0
 10
786.31
 20
40.4567
 11
786.452
 21
39.9877
  0
LINE
  8
0
 10
786.452
 20
39.9877
 11
786.5
 21
39.5
  0
LINE
  8
0
 10
786.5
 20
39.5
 11
786.452
 21
39.0123
  0
LINE
  8
0
 10
786.452
 20
39.0123
 11
786.31
 21
38.5433
  0
LINE
  8
0
 10
786.31
 20
38.5433
 11
786.079
 21
38.1111
  0
LINE
  8
0
 10
786.079
 20
38.1111
 11
785.768
 21
37.7322
  0
LINE
  8
0
 10
785.768
 20
37.7322
 11
785.389
 21
37.4213
  0
LINE
  8
0
 10
785.389
 20
37.4213
 11
784.957
 21
37.1903
  0
LINE
  8
0
 10
784.957
 20
37.1903
 11
784.488
 21
37.048
  0
LINE
  8
0
 10
784.488
 20
37.048
 11
784
 21
37
  0
LINE
  8
0
 10
784
 20
37
 11
783.512
 21
37.048
  0
LINE
  8
0
 10
783.512
 20
29.548
 11
783.043
 21
29.6903
  0
LINE
  8
0
 10
783.043
 20
29.6903
 11
782.611
 21
29.9213
  0
LINE
  8
0
 10
782.611
 20
29.9213
 11
782.232
 21
30.2322
  0
LINE
  8
0
 10
782.232
 20
30.2322
 11
781.921
 21
30.6111
  0
LINE
  8
0
 10
781.921
 20
30.6111
 11
781.69
 21
31.0433
  0
LINE
  8
0
 10
781.69
 20
31.0433
 11
781.548
 21
31.5123
  0
LINE
  8
0
 10
781.548
 20
31.5123
 11
781.5
 21
32
  0
LINE
  8
0
 10
781.5
 20
32
 11
781.548
 21
32.4877
  0
LINE
  8
0
 10
781.548
 20
32.4877
 11
781.69
 21
32.9567
  0
LINE
  8
0
 10
781.69
 20
32.9567
 11
781.921
 21
33.3889
  0
LINE
  8
0
 10
781.921
 20
33.3889
 11
782.232
 21
33.7678
  0
LINE
  8
0
 10
782.232
 20
33.7678
 11
782.611
 21
34.0787
  0
LINE
  8
0
 10
782.611
 20
34.0787
 11
783.043
 21
34.3097
  0
LINE
  8
0
 10
783.043
 20
34.3097
 11
783.512
 21
34.452
  0
LINE
  8
0
 10
783.512
 20
34.452
 11
784
 21
34.5
  0
LINE
  8
0
 10
784
 20
34.5
 11
784.488
 21
34.452
  0
LINE
  8
0
 10
784.488
 20
34.452
 11
784.957
 21
34.3097
  0
LINE
  8
0
 10
784.957
 20
34.3097
 11
785.389
 21
34.0787
  0
LINE
  8
0
 10
785.389
 20
34.0787
 11
785.768
 21
33.7678
  0
LINE
  8
0
 10
785.768
 20
33.7678
 11
786.079
 21
33.3889
  0
LINE
  8
0
 10
786.079
 20
33.3889
 11
786.31
 21
32.9567
  0
LINE
  8
0
 10
786.31
 20
32.9567
 11
786.452
 21
32.4877
  0
LINE
  8
0
 10
786.452
 20
32.4877
 11
786.5
 21
32
  0
LINE
  8
0
 10
786.5
 20
32
 11
786.452
 21
31.5123
  0
LINE
  8
0
 10
786.452
 20
31.5123
 11
786.31
 21
31.0433
  0
LINE
  8
0
 10
786.31
 20
31.0433
 11
786.079
 21
30.6111
  0
LINE
  8
0
 10
786.079
 20
30.6111
 11
785.768
 21
30.2322
  0
LINE
  8
0
 10
785.768
 20
30.2322
 11
785.389
 21
29.9213
  0
LINE
  8
0
 10
785.389
 20
29.9213
 11
784.957
 21
29.6903
  0
LINE
  8
0
 10
784.957
 20
29.6903
 11
784.488
 21
29.548
  0
LINE
  8
0
 10
784.488
 20
29.548
 11
784
 21
29.5
  0
LINE
  8
0
 10
784
 20
29.5
 11
783.512
 21
29.548
  0
LINE
  8
0
 10
473.75
 20
40.475
 11
466.252
 21
40.3606
  0
LINE
  8
0
 10
466.252
 20
40.3606
 11
458.826
 21
40.0186
  0
LINE
  8
0
 10
458.826
 20
40.0186
 11
451.543
 21
39.4523
  0
LINE
  8
0
 10
451.543
 20
39.4523
 11
444.475
 21
38.6671
  0
LINE
  8
0
 10
444.475
 20
38.6671
 11
437.688
 21
37.6706
  0
LINE
  8
0
 10
437.688
 20
37.6706
 11
431.249
 21
36.4724
  0
LINE
  8
0
 10
431.249
 20
36.4724
 11
425.219
 21
35.084
  0
LINE
  8
0
 10
425.219
 20
35.084
 11
419.656
 21
33.5188
  0
LINE
  8
0
 10
419.656
 20
33.5188
 11
414.615
 21
31.7918
  0
LINE
  8
0
 10
414.615
 20
31.7918
 11
410.143
 21
29.9198
  0
LINE
  8
0
 10
410.143
 20
29.9198
 11
406.283
 21
27.9207
  0
LINE
  8
0
 10
406.283
 20
27.9207
 11
403.073
 21
25.8137
  0
LINE
  8
0
 10
403.073
 20
25.8137
 11
400.544
 21
23.6192
  0
LINE
  8
0
 10
400.544
 20
23.6192
 11
399.083
 21
21.8082
  0
LINE
  8
0
 10
399.083
 20
21.8082
 11
398.75
 21
21.725
  0
LINE
  8
0
 10
398.75
 20
21.725
 11
398.75
 21
16.725
  0
LINE
  8
0
 10
398.75
 20
16.725
 11
448.75
 21
16.725
  0
LINE
  8
0
 10
448.75
 20
16.725
 11
448.75
 21
11.725
  0
LINE
  8
0
 10
448.75
 20
11.725
 11
398.75
 21
11.725
  0
LINE
  8
0
 10
398.75
 20
11.725
 11
398.75
 21
-0.149994
  0
LINE
  8
0
 10
398.75
 20
-0.149994
 11
473.75
 21
-0.149994
  0
LINE
  8
0
 10
473.75
 20
-0.149994
 11
473.75
 21
40.475
  0
LINE
  8
0
 10
761
 20
26
 11
753
 21
26
  0
LINE
  8
0
 10
753
 20
26
 11
753
 21
1
  0
LINE
  8
0
 10
753
 20
1
 11
761
 21
1
  0
LINE
  8
0
 10
761
 20
1
 11
761
 21
26
  0
LINE
  8
0
 10
756.512
 20
18.548
 11
756.043
 21
18.6903
  0
LINE
  8
0
 10
756.043
 20
18.6903
 11
755.611
 21
18.9213
  0
LINE
  8
0
 10
755.611
 20
18.9213
 11
755.232
 21
19.2322
  0
LINE
  8
0
 10
755.232
 20
19.2322
 11
754.921
 21
19.6111
  0
LINE
  8
0
 10
754.921
 20
19.6111
 11
754.69
 21
20.0433
  0
LINE
  8
0
 10
754.69
 20
20.0433
 11
754.548
 21
20.5123
  0
LINE
  8
0
 10
754.548
 20
20.5123
 11
754.5
 21
21
  0
LINE
  8
0
 10
754.5
 20
21
 11
754.548
 21
21.4877
  0
LINE
  8
0
 10
754.548
 20
21.4877
 11
754.69
 21
21.9567
  0
LINE
  8
0
 10
754.69
 20
21.9567
 11
754.921
 21
22.3889
  0
LINE
  8
0
 10
754.921
 20
22.3889
 11
755.232
 21
22.7678
  0
LINE
  8
0
 10
755.232
 20
22.7678
 11
755.611
 21
23.0787
  0
LINE
  8
0
 10
755.611
 20
23.0787
 11
756.043
 21
23.3097
  0
LINE
  8
0
 10
756.043
 20
23.3097
 11
756.512
 21
23.452
  0
LINE
  8
0
 10
756.512
 20
23.452
 11
757
 21
23.5
  0
LINE
  8
0
 10
757
 20
23.5
 11
757.488
 21
23.452
  0
LINE
  8
0
 10
757.488
 20
23.452
 11
757.957
 21
23.3097
  0
LINE
  8
0
 10
757.957
 20
23.3097
 11
758.389
 21
23.0787
  0
LINE
  8
0
 10
758.389
 20
23.0787
 11
758.768
 21
22.7678
  0
LINE
  8
0
 10
758.768
 20
22.7678
 11
759.079
 21
22.3889
  0
LINE
  8
0
 10
759.079
 20
22.3889
 11
759.31
 21
21.9567
  0
LINE
  8
0
 10
759.31
 20
21.9567
 11
759.452
 21
21.4877
  0
LINE
  8
0
 10
759.452
 20
21.4877
 11
759.5
 21
21
  0
LINE
  8
0
 10
759.5
 20
21
 11
759.452
 21
20.5123
  0
LINE
  8
0
 10
759.452
 20
20.5123
 11
759.31
 21
20.0433
  0
LINE
  8
0
 10
759.31
 20
20.0433
 11
759.079
 21
19.6111
  0
LINE
  8
0
 10
759.079
 20
19.6111
 11
758.768
 21
19.2322
  0
LINE
  8
0
 10
758.768
 20
19.2322
 11
758.389
 21
18.9213
  0
LINE
  8
0
 10
758.389
 20
18.9213
 11
757.957
 21
18.6903
  0
LINE
  8
0
 10
757.957
 20
18.6903
 11
757.488
 21
18.548
  0
LINE
  8
0
 10
757.488
 20
18.548
 11
757
 21
18.5
  0
LINE
  8
0
 10
757
 20
18.5
 11
756.512
 21
18.548
  0
LINE
  8
0
 10
756.512
 20
11.048
 11
756.043
 21
11.1903
  0
LINE
  8
0
 10
756.043
 20
11.1903
 11
755.611
 21
11.4213
  0
LINE
  8
0
 10
755.611
 20
11.4213
 11
755.232
 21
11.7322
  0
LINE
  8
0
 10
755.232
 20
11.7322
 11
754.921
 21
12.1111
  0
LINE
  8
0
 10
754.921
 20
12.1111
 11
754.69
 21
12.5433
  0
LINE
  8
0
 10
754.69
 20
12.5433
 11
754.548
 21
13.0123
  0
LINE
  8
0
 10
754.548
 20
13.0123
 11
754.5
 21
13.5
  0
LINE
  8
0
 10
754.5
 20
13.5
 11
754.548
 21
13.9877
  0
LINE
  8
0
 10
754.548
 20
13.9877
 11
754.69
 21
14.4567
  0
LINE
  8
0
 10
754.69
 20
14.4567
 11
754.921
 21
14.8889
  0
LINE
  8
0
 10
754.921
 20
14.8889
 11
755.232
 21
15.2678
  0
LINE
  8
0
 10
755.232
 20
15.2678
 11
755.611
 21
15.5787
  0
LINE
  8
0
 10
755.611
 20
15.5787
 11
756.043
 21
15.8097
  0
LINE
  8
0
 10
756.043
 20
15.8097
 11
756.512
 21
15.952
  0
LINE
  8
0
 10
756.512
 20
15.952
 11
757
 21
16
  0
LINE
  8
0
 10
757
 20
16
 11
757.488
 21
15.952
  0
LINE
  8
0
 10
757.488
 20
15.952
 11
757.957
 21
15.8097
  0
LINE
  8
0
 10
757.957
 20
15.8097
 11
758.389
 21
15.5787
  0
LINE
  8
0
 10
758.389
 20
15.5787
 11
758.768
 21
15.2678
  0
LINE
  8
0
 10
758.768
 20
15.2678
 11
759.079
 21
14.8889
  0
LINE
  8
0
 10
759.079
 20
14.8889
 11
759.31
 21
14.4567
  0
LINE
  8
0
 10
759.31
 20
14.4567
 11
759.452
 21
13.9877
  0
LINE
  8
0
 10
759.452
 20
13.9877
 11
759.5
 21
13.5
  0
LINE
  8
0
 10
759.5
 20
13.5
 11
759.452
 21
13.0123
  0
LINE
  8
0
 10
759.452
 20
13.0123
 11
759.31
 21
12.5433
  0
LINE
  8
0
 10
759.31
 20
12.5433
 11
759.079
 21
12.1111
  0
LINE
  8
0
 10
759.079
 20
12.1111
 11
758.768
 21
11.7322
  0
LINE
  8
0
 10
758.768
 20
11.7322
 11
758.389
 21
11.4213
  0
LINE
  8
0
 10
758.389
 20
11.4213
 11
757.957
 21
11.1903
  0
LINE
  8
0
 10
757.957
 20
11.1903
 11
757.488
 21
11.048
  0
LINE
  8
0
 10
757.488
 20
11.048
 11
757
 21
11
  0
LINE
  8
0
 10
757
 20
11
 11
756.512
 21
11.048
  0
LINE
  8
0
 10
756.512
 20
3.54803
 11
756.043
 21
3.69029
  0
LINE
  8
0
 10
756.043
 20
3.69029
 11
755.611
 21
3.92133
  0
LINE
  8
0
 10
755.611
 20
3.92133
 11
755.232
 21
4.23222
  0
LINE
  8
0
 10
755.232
 20
4.23222
 11
754.921
 21
4.61107
  0
LINE
  8
0
 10
754.921
 20
4.61107
 11
754.69
 21
5.04329
  0
LINE
  8
0
 10
754.69
 20
5.04329
 11
754.548
 21
5.51227
  0
LINE
  8
0
 10
754.548
 20
5.51227
 11
754.5
 21
6
  0
LINE
  8
0
 10
754.5
 20
6
 11
754.548
 21
6.48772
  0
LINE
  8
0
 10
754.548
 20
6.48772
 11
754.69
 21
6.9567
  0
LINE
  8
0
 10
754.69
 20
6.9567
 11
754.921
 21
7.38892
  0
LINE
  8
0
 10
754.921
 20
7.38892
 11
755.232
 21
7.76776
  0
LINE
  8
0
 10
755.232
 20
7.76776
 11
755.611
 21
8.07866
  0
LINE
  8
0
 10
755.611
 20
8.07866
 11
756.043
 21
8.30969
  0
LINE
  8
0
 10
756.043
 20
8.30969
 11
756.512
 21
8.45195
  0
LINE
  8
0
 10
756.512
 20
8.45195
 11
757
 21
8.5
  0
LINE
  8
0
 10
757
 20
8.5
 11
757.488
 21
8.45195
  0
LINE
  8
0
 10
757.488
 20
8.45195
 11
757.957
 21
8.30969
  0
LINE
  8
0
 10
757.957
 20
8.30969
 11
758.389
 21
8.07866
  0
LINE
  8
0
 10
758.389
 20
8.07866
 11
758.768
 21
7.76776
  0
LINE
  8
0
 10
758.768
 20
7.76776
 11
759.079
 21
7.38892
  0
LINE
  8
0
 10
759.079
 20
7.38892
 11
759.31
 21
6.9567
  0
LINE
  8
0
 10
759.31
 20
6.9567
 11
759.452
 21
6.48772
  0
LINE
  8
0
 10
759.452
 20
6.48772
 11
759.5
 21
6
  0
LINE
  8
0
 10
759.5
 20
6
 11
759.452
 21
5.51227
  0
LINE
  8
0
 10
759.452
 20
5.51227
 11
759.31
 21
5.04329
  0
LINE
  8
0
 10
759.31
 20
5.04329
 11
759.079
 21
4.61107
  0
LINE
  8
0
 10
759.079
 20
4.61107
 11
758.768
 21
4.23222
  0
LINE
  8
0
 10
758.768
 20
4.23222
 11
758.389
 21
3.92133
  0
LINE
  8
0
 10
758.389
 20
3.92133
 11
757.957
 21
3.69029
  0
LINE
  8
0
 10
757.957
 20
3.69029
 11
757.488
 21
3.54803
  0
LINE
  8
0
 10
757.488
 20
3.54803
 11
757
 21
3.5
  0
LINE
  8
0
 10
757
 20
3.5
 11
756.512
 21
3.54803
  0
LINE
  8
0
 10
770
 20
26
 11
762
 21
26
  0
LINE
  8
0
 10
762
 20
26
 11
762
 21
1
  0
LINE
  8
0
 10
762
 20
1
 11
770
 21
1
  0
LINE
  8
0
 10
770
 20
1
 11
770
 21
26
  0
LINE
  8
0
 10
765.512
 20
18.548
 11
765.043
 21
18.6903
  0
LINE
  8
0
 10
765.043
 20
18.6903
 11
764.611
 21
18.9213
  0
LINE
  8
0
 10
764.611
 20
18.9213
 11
764.232
 21
19.2322
  0
LINE
  8
0
 10
764.232
 20
19.2322
 11
763.921
 21
19.6111
  0
LINE
  8
0
 10
763.921
 20
19.6111
 11
763.69
 21
20.0433
  0
LINE
  8
0
 10
763.69
 20
20.0433
 11
763.548
 21
20.5123
  0
LINE
  8
0
 10
763.548
 20
20.5123
 11
763.5
 21
21
  0
LINE
  8
0
 10
763.5
 20
21
 11
763.548
 21
21.4877
  0
LINE
  8
0
 10
763.548
 20
21.4877
 11
763.69
 21
21.9567
  0
LINE
  8
0
 10
763.69
 20
21.9567
 11
763.921
 21
22.3889
  0
LINE
  8
0
 10
763.921
 20
22.3889
 11
764.232
 21
22.7678
  0
LINE
  8
0
 10
764.232
 20
22.7678
 11
764.611
 21
23.0787
  0
LINE
  8
0
 10
764.611
 20
23.0787
 11
765.043
 21
23.3097
  0
LINE
  8
0
 10
765.043
 20
23.3097
 11
765.512
 21
23.452
  0
LINE
  8
0
 10
765.512
 20
23.452
 11
766
 21
23.5
  0
LINE
  8
0
 10
766
 20
23.5
 11
766.488
 21
23.452
  0
LINE
  8
0
 10
766.488
 20
23.452
 11
766.957
 21
23.3097
  0
LINE
  8
0
 10
766.957
 20
23.3097
 11
767.389
 21
23.0787
  0
LINE
  8
0
 10
767.389
 20
23.0787
 11
767.768
 21
22.7678
  0
LINE
  8
0
 10
767.768
 20
22.7678
 11
768.079
 21
22.3889
  0
LINE
  8
0
 10
768.079
 20
22.3889
 11
768.31
 21
21.9567
  0
LINE
  8
0
 10
768.31
 20
21.9567
 11
768.452
 21
21.4877
  0
LINE
  8
0
 10
768.452
 20
21.4877
 11
768.5
 21
21
  0
LINE
  8
0
 10
768.5
 20
21
 11
768.452
 21
20.5123
  0
LINE
  8
0
 10
768.452
 20
20.5123
 11
768.31
 21
20.0433
  0
LINE
  8
0
 10
768.31
 20
20.0433
 11
768.079
 21
19.6111
  0
LINE
  8
0
 10
768.079
 20
19.6111
 11
767.768
 21
19.2322
  0
LINE
  8
0
 10
767.768
 20
19.2322
 11
767.389
 21
18.9213
  0
LINE
  8
0
 10
767.389
 20
18.9213
 11
766.957
 21
18.6903
  0
LINE
  8
0
 10
766.957
 20
18.6903
 11
766.488
 21
18.548
  0
LINE
  8
0
 10
766.488
 20
18.548
 11
766
 21
18.5
  0
LINE
  8
0
 10
766
 20
18.5
 11
765.512
 21
18.548
  0
LINE
  8
0
 10
765.512
 20
11.048
 11
765.043
 21
11.1903
  0
LINE
  8
0
 10
765.043
 20
11.1903
 11
764.611
 21
11.4213
  0
LINE
  8
0
 10
764.611
 20
11.4213
 11
764.232
 21
11.7322
  0
LINE
  8
0
 10
764.232
 20
11.7322
 11
763.921
 21
12.1111
  0
LINE
  8
0
 10
763.921
 20
12.1111
 11
763.69
 21
12.5433
  0
LINE
  8
0
 10
763.69
 20
12.5433
 11
763.548
 21
13.0123
  0
LINE
  8
0
 10
763.548
 20
13.0123
 11
763.5
 21
13.5
  0
LINE
  8
0
 10
763.5
 20
13.5
 11
763.548
 21
13.9877
  0
LINE
  8
0
 10
763.548
 20
13.9877
 11
763.69
 21
14.4567
  0
LINE
  8
0
 10
763.69
 20
14.4567
 11
763.921
 21
14.8889
  0
LINE
  8
0
 10
763.921
 20
14.8889
 11
764.232
 21
15.2678
  0
LINE
  8
0
 10
764.232
 20
15.2678
 11
764.611
 21
15.5787
  0
LINE
  8
0
 10
764.611
 20
15.5787
 11
765.043
 21
15.8097
  0
LINE
  8
0
 10
765.043
 20
15.8097
 11
765.512
 21
15.952
  0
LINE
  8
0
 10
765.512
 20
15.952
 11
766
 21
16
  0
LINE
  8
0
 10
766
 20
16
 11
766.488
 21
15.952
  0
LINE
  8
0
 10
766.488
 20
15.952
 11
766.957
 21
15.8097
  0
LINE
  8
0
 10
766.957
 20
15.8097
 11
767.389
 21
15.5787
  0
LINE
  8
0
 10
767.389
 20
15.5787
 11
767.768
 21
15.2678
  0
LINE
  8
0
 10
767.768
 20
15.2678
 11
768.079
 21
14.8889
  0
LINE
  8
0
 10
768.079
 20
14.8889
 11
768.31
 21
14.4567
  0
LINE
  8
0
 10
768.31
 20
14.4567
 11
768.452
 21
13.9877
  0
LINE
  8
0
 10
768.452
 20
13.9877
 11
768.5
 21
13.5
  0
LINE
  8
0
 10
768.5
 20
13.5
 11
768.452
 21
13.0123
  0
LINE
  8
0
 10
768.452
 20
13.0123
 11
768.31
 21
12.5433
  0
LINE
  8
0
 10
768.31
 20
12.5433
 11
768.079
 21
12.1111
  0
LINE
  8
0
 10
768.079
 20
12.1111
 11
767.768
 21
11.7322
  0
LINE
  8
0
 10
767.768
 20
11.7322
 11
767.389
 21
11.4213
  0
LINE
  8
0
 10
767.389
 20
11.4213
 11
766.957
 21
11.1903
  0
LINE
  8
0
 10
766.957
 20
11.1903
 11
766.488
 21
11.048
  0
LINE
  8
0
 10
766.488
 20
11.048
 11
766
 21
11
  0
LINE
  8
0
 10
766
 20
11
 11
765.512
 21
11.048
  0
LINE
  8
0
 10
765.512
 20
3.54803
 11
765.043
 21
3.69029
  0
LINE
  8
0
 10
765.043
 20
3.69029
 11
764.611
 21
3.92133
  0
LINE
  8
0
 10
764.611
 20
3.92133
 11
764.232
 21
4.23222
  0
LINE
  8
0
 10
764.232
 20
4.23222
 11
763.921
 21
4.61107
  0
LINE
  8
0
 10
763.921
 20
4.61107
 11
763.69
 21
5.04329
  0
LINE
  8
0
 10
763.69
 20
5.04329
 11
763.548
 21
5.51227
  0
LINE
  8
0
 10
763.548
 20
5.51227
 11
763.5
 21
6
  0
LINE
  8
0
 10
763.5
 20
6
 11
763.548
 21
6.48772
  0
LINE
  8
0
 10
763.548
 20
6.48772
 11
763.69
 21
6.9567
  0
LINE
  8
0
 10
763.69
 20
6.9567
 11
763.921
 21
7.38892
  0
LINE
  8
0
 10
763.921
 20
7.38892
 11
764.232
 21
7.76776
  0
LINE
  8
0
 10
764.232
 20
7.76776
 11
764.611
 21
8.07866
  0
LINE
  8
0
 10
764.611
 20
8.07866
 11
765.043
 21
8.30969
  0
LINE
  8
0
 10
765.043
 20
8.30969
 11
765.512
 21
8.45195
  0
LINE
  8
0
 10
765.512
 20
8.45195
 11
766
 21
8.5
  0
LINE
  8
0
 10
766
 20
8.5
 11
766.488
 21
8.45195
  0
LINE
  8
0
 10
766.488
 20
8.45195
 11
766.957
 21
8.30969
  0
LINE
  8
0
 10
766.957
 20
8.30969
 11
767.389
 21
8.07866
  0
LINE
  8
0
 10
767.389
 20
8.07866
 11
767.768
 21
7.76776
  0
LINE
  8
0
 10
767.768
 20
7.76776
 11
768.079
 21
7.38892
  0
LINE
  8
0
 10
768.079
 20
7.38892
 11
768.31
 21
6.9567
  0
LINE
  8
0
 10
768.31
 20
6.9567
 11
768.452
 21
6.48772
  0
LINE
  8
0
 10
768.452
 20
6.48772
 11
768.5
 21
6
  0
LINE
  8
0
 10
768.5
 20
6
 11
768.452
 21
5.51227
  0
LINE
  8
0
 10
768.452
 20
5.51227
 11
768.31
 21
5.04329
  0
LINE
  8
0
 10
768.31
 20
5.04329
 11
768.079
 21
4.61107
  0
LINE
  8
0
 10
768.079
 20
4.61107
 11
767.768
 21
4.23222
  0
LINE
  8
0
 10
767.768
 20
4.23222
 11
767.389
 21
3.92133
  0
LINE
  8
0
 10
767.389
 20
3.92133
 11
766.957
 21
3.69029
  0
LINE
  8
0
 10
766.957
 20
3.69029
 11
766.488
 21
3.54803
  0
LINE
  8
0
 10
766.488
 20
3.54803
 11
766
 21
3.5
  0
LINE
  8
0
 10
766
 20
3.5
 11
765.512
 21
3.54803
  0
LINE
  8
0
 10
797
 20
26
 11
789
 21
26
  0
LINE
  8
0
 10
789
 20
26
 11
789
 21
1
  0
LINE
  8
0
 10
789
 20
1
 11
797
 21
1
  0
LINE
  8
0
 10
797
 20
1
 11
797
 21
26
  0
LINE
  8
0
 10
792.512
 20
18.548
 11
792.043
 21
18.6903
  0
LINE
  8
0
 10
792.043
 20
18.6903
 11
791.611
 21
18.9213
  0
LINE
  8
0
 10
791.611
 20
18.9213
 11
791.232
 21
19.2322
  0
LINE
  8
0
 10
791.232
 20
19.2322
 11
790.921
 21
19.6111
  0
LINE
  8
0
 10
790.921
 20
19.6111
 11
790.69
 21
20.0433
  0
LINE
  8
0
 10
790.69
 20
20.0433
 11
790.548
 21
20.5123
  0
LINE
  8
0
 10
790.548
 20
20.5123
 11
790.5
 21
21
  0
LINE
  8
0
 10
790.5
 20
21
 11
790.548
 21
21.4877
  0
LINE
  8
0
 10
790.548
 20
21.4877
 11
790.69
 21
21.9567
  0
LINE
  8
0
 10
790.69
 20
21.9567
 11
790.921
 21
22.3889
  0
LINE
  8
0
 10
790.921
 20
22.3889
 11
791.232
 21
22.7678
  0
LINE
  8
0
 10
791.232
 20
22.7678
 11
791.611
 21
23.0787
  0
LINE
  8
0
 10
791.611
 20
23.0787
 11
792.043
 21
23.3097
  0
LINE
  8
0
 10
792.043
 20
23.3097
 11
792.512
 21
23.452
  0
LINE
  8
0
 10
792.512
 20
23.452
 11
793
 21
23.5
  0
LINE
  8
0
 10
793
 20
23.5
 11
793.488
 21
23.452
  0
LINE
  8
0
 10
793.488
 20
23.452
 11
793.957
 21
23.3097
  0
LINE
  8
0
 10
793.957
 20
23.3097
 11
794.389
 21
23.0787
  0
LINE
  8
0
 10
794.389
 20
23.0787
 11
794.768
 21
22.7678
  0
LINE
  8
0
 10
794.768
 20
22.7678
 11
795.079
 21
22.3889
  0
LINE
  8
0
 10
795.079
 20
22.3889
 11
795.31
 21
21.9567
  0
LINE
  8
0
 10
795.31
 20
21.9567
 11
795.452
 21
21.4877
  0
LINE
  8
0
 10
795.452
 20
21.4877
 11
795.5
 21
21
  0
LINE
  8
0
 10
795.5
 20
21
 11
795.452
 21
20.5123
  0
LINE
  8
0
 10
795.452
 20
20.5123
 11
795.31
 21
20.0433
  0
LINE
  8
0
 10
795.31
 20
20.0433
 11
795.079
 21
19.6111
  0
LINE
  8
0
 10
795.079
 20
19.6111
 11
794.768
 21
19.2322
  0
LINE
  8
0
 10
794.768
 20
19.2322
 11
794.389
 21
18.9213
  0
LINE
  8
0
 10
794.389
 20
18.9213
 11
793.957
 21
18.6903
  0
LINE
  8
0
 10
793.957
 20
18.6903
 11
793.488
 21
18.548
  0
LINE
  8
0
 10
793.488
 20
18.548
 11
793
 21
18.5
  0
LINE
  8
0
 10
793
 20
18.5
 11
792.512
 21
18.548
  0
LINE
  8
0
 10
792.512
 20
11.048
 11
792.043
 21
11.1903
  0
LINE
  8
0
 10
792.043
 20
11.1903
 11
791.611
 21
11.4213
  0
LINE
  8
0
 10
791.611
 20
11.4213
 11
791.232
 21
11.7322
  0
LINE
  8
0
 10
791.232
 20
11.7322
 11
790.921
 21
12.1111
  0
LINE
  8
0
 10
790.921
 20
12.1111
 11
790.69
 21
12.5433
  0
LINE
  8
0
 10
790.69
 20
12.5433
 11
790.548
 21
13.0123
  0
LINE
  8
0
 10
790.548
 20
13.0123
 11
790.5
 21
13.5
  0
LINE
  8
0
 10
790.5
 20
13.5
 11
790.548
 21
13.9877
  0
LINE
  8
0
 10
790.548
 20
13.9877
 11
790.69
 21
14.4567
  0
LINE
  8
0
 10
790.69
 20
14.4567
 11
790.921
 21
14.8889
  0
LINE
  8
0
 10
790.921
 20
14.8889
 11
791.232
 21
15.2678
  0
LINE
  8
0
 10
791.232
 20
15.2678
 11
791.611
 21
15.5787
  0
LINE
  8
0
 10
791.611
 20
15.5787
 11
792.043
 21
15.8097
  0
LINE
  8
0
 10
792.043
 20
15.8097
 11
792.512
 21
15.952
  0
LINE
  8
0
 10
792.512
 20
15.952
 11
793
 21
16
  0
LINE
  8
0
 10
793
 20
16
 11
793.488
 21
15.952
  0
LINE
  8
0
 10
793.488
 20
15.952
 11
793.957
 21
15.8097
  0
LINE
  8
0
 10
793.957
 20
15.8097
 11
794.389
 21
15.5787
  0
LINE
  8
0
 10
794.389
 20
15.5787
 11
794.768
 21
15.2678
  0
LINE
  8
0
 10
794.768
 20
15.2678
 11
795.079
 21
14.8889
  0
LINE
  8
0
 10
795.079
 20
14.8889
 11
795.31
 21
14.4567
  0
LINE
  8
0
 10
795.31
 20
14.4567
 11
795.452
 21
13.9877
  0
LINE
  8
0
 10
795.452
 20
13.9877
 11
795.5
 21
13.5
  0
LINE
  8
0
 10
795.5
 20
13.5
 11
795.452
 21
13.0123
  0
LINE
  8
0
 10
795.452
 20
13.0123
 11
795.31
 21
12.5433
  0
LINE
  8
0
 10
795.31
 20
12.5433
 11
795.079
 21
12.1111
  0
LINE
  8
0
 10
795.079
 20
12.1111
 11
794.768
 21
11.7322
  0
LINE
  8
0
 10
794.768
 20
11.7322
 11
794.389
 21
11.4213
  0
LINE
  8
0
 10
794.389
 20
11.4213
 11
793.957
 21
11.1903
  0
LINE
  8
0
 10
793.957
 20
11.1903
 11
793.488
 21
11.048
  0
LINE
  8
0
 10
793.488
 20
11.048
 11
793
 21
11
  0
LINE
  8
0
 10
793
 20
11
 11
792.512
 21
11.048
  0
LINE
  8
0
 10
792.512
 20
3.54803
 11
792.043
 21
3.69029
  0
LINE
  8
0
 10
792.043
 20
3.69029
 11
791.611
 21
3.92133
  0
LINE
  8
0
 10
791.611
 20
3.92133
 11
791.232
 21
4.23222
  0
LINE
  8
0
 10
791.232
 20
4.23222
 11
790.921
 21
4.61107
  0
LINE
  8
0
 10
790.921
 20
4.61107
 11
790.69
 21
5.04329
  0
LINE
  8
0
 10
790.69
 20
5.04329
 11
790.548
 21
5.51227
  0
LINE
  8
0
 10
790.548
 20
5.51227
 11
790.5
 21
6
  0
LINE
  8
0
 10
790.5
 20
6
 11
790.548
 21
6.48772
  0
LINE
  8
0
 10
790.548
 20
6.48772
 11
790.69
 21
6.9567
  0
LINE
  8
0
 10
790.69
 20
6.9567
 11
790.921
 21
7.38892
  0
LINE
  8
0
 10
790.921
 20
7.38892
 11
791.232
 21
7.76776
  0
LINE
  8
0
 10
791.232
 20
7.76776
 11
791.611
 21
8.07866
  0
LINE
  8
0
 10
791.611
 20
8.07866
 11
792.043
 21
8.30969
  0
LINE
  8
0
 10
792.043
 20
8.30969
 11
792.512
 21
8.45195
  0
LINE
  8
0
 10
792.512
 20
8.45195
 11
793
 21
8.5
  0
LINE
  8
0
 10
793
 20
8.5
 11
793.488
 21
8.45195
  0
LINE
  8
0
 10
793.488
 20
8.45195
 11
793.957
 21
8.30969
  0
LINE
  8
0
 10
793.957
 20
8.30969
 11
794.389
 21
8.07866
  0
LINE
  8
0
 10
794.389
 20
8.07866
 11
794.768
 21
7.76776
  0
LINE
  8
0
 10
794.768
 20
7.76776
 11
795.079
 21
7.38892
  0
LINE
  8
0
 10
795.079
 20
7.38892
 11
795.31
 21
6.9567
  0
LINE
  8
0
 10
795.31
 20
6.9567
 11
795.452
 21
6.48772
  0
LINE
  8
0
 10
795.452
 20
6.48772
 11
795.5
 21
6
  0
LINE
  8
0
 10
795.5
 20
6
 11
795.452
 21
5.51227
  0
LINE
  8
0
 10
795.452
 20
5.51227
 11
795.31
 21
5.04329
  0
LINE
  8
0
 10
795.31
 20
5.04329
 11
795.079
 21
4.61107
  0
LINE
  8
0
 10
795.079
 20
4.61107
 11
794.768
 21
4.23222
  0
LINE
  8
0
 10
794.768
 20
4.23222
 11
794.389
 21
3.92133
  0
LINE
  8
0
 10
794.389
 20
3.92133
 11
793.957
 21
3.69029
  0
LINE
  8
0
 10
793.957
 20
3.69029
 11
793.488
 21
3.54803
  0
LINE
  8
0
 10
793.488
 20
3.54803
 11
793
 21
3.5
  0
LINE
  8
0
 10
793
 20
3.5
 11
792.512
 21
3.54803
  0
LINE
  8
0
 10
788
 20
26
 11
780
 21
26
  0
LINE
  8
0
 10
780
 20
26
 11
780
 21
1
  0
LINE
  8
0
 10
780
 20
1
 11
788
 21
1
  0
LINE
  8
0
 10
788
 20
1
 11
788
 21
26
  0
LINE
  8
0
 10
783.512
 20
18.548
 11
783.043
 21
18.6903
  0
LINE
  8
0
 10
783.043
 20
18.6903
 11
782.611
 21
18.9213
  0
LINE
  8
0
 10
782.611
 20
18.9213
 11
782.232
 21
19.2322
  0
LINE
  8
0
 10
782.232
 20
19.2322
 11
781.921
 21
19.6111
  0
LINE
  8
0
 10
781.921
 20
19.6111
 11
781.69
 21
20.0433
  0
LINE
  8
0
 10
781.69
 20
20.0433
 11
781.548
 21
20.5123
  0
LINE
  8
0
 10
781.548
 20
20.5123
 11
781.5
 21
21
  0
LINE
  8
0
 10
781.5
 20
21
 11
781.548
 21
21.4877
  0
LINE
  8
0
 10
781.548
 20
21.4877
 11
781.69
 21
21.9567
  0
LINE
  8
0
 10
781.69
 20
21.9567
 11
781.921
 21
22.3889
  0
LINE
  8
0
 10
781.921
 20
22.3889
 11
782.232
 21
22.7678
  0
LINE
  8
0
 10
782.232
 20
22.7678
 11
782.611
 21
23.0787
  0
LINE
  8
0
 10
782.611
 20
23.0787
 11
783.043
 21
23.3097
  0
LINE
  8
0
 10
783.043
 20
23.3097
 11
783.512
 21
23.452
  0
LINE
  8
0
 10
783.512
 20
23.452
 11
784
 21
23.5
  0
LINE
  8
0
 10
784
 20
23.5
 11
784.488
 21
23.452
  0
LINE
  8
0
 10
784.488
 20
23.452
 11
784.957
 21
23.3097
  0
LINE
  8
0
 10
784.957
 20
23.3097
 11
785.389
 21
23.0787
  0
LINE
  8
0
 10
785.389
 20
23.0787
 11
785.768
 21
22.7678
  0
LINE
  8
0
 10
785.768
 20
22.7678
 11
786.079
 21
22.3889
  0
LINE
  8
0
 10
786.079
 20
22.3889
 11
786.31
 21
21.9567
  0
LINE
  8
0
 10
786.31
 20
21.9567
 11
786.452
 21
21.4877
  0
LINE
  8
0
 10
786.452
 20
21.4877
 11
786.5
 21
21
  0
LINE
  8
0
 10
786.5
 20
21
 11
786.452
 21
20.5123
  0
LINE
  8
0
 10
786.452
 20
20.5123
 11
786.31
 21
20.0433
  0
LINE
  8
0
 10
786.31
 20
20.0433
 11
786.079
 21
19.6111
  0
LINE
  8
0
 10
786.079
 20
19.6111
 11
785.768
 21
19.2322
  0
LINE
  8
0
 10
785.768
 20
19.2322
 11
785.389
 21
18.9213
  0
LINE
  8
0
 10
785.389
 20
18.9213
 11
784.957
 21
18.6903
  0
LINE
  8
0
 10
784.957
 20
18.6903
 11
784.488
 21
18.548
  0
LINE
  8
0
 10
784.488
 20
18.548
 11
784
 21
18.5
  0
LINE
  8
0
 10
784
 20
18.5
 11
783.512
 21
18.548
  0
LINE
  8
0
 10
783.512
 20
11.048
 11
783.043
 21
11.1903
  0
LINE
  8
0
 10
783.043
 20
11.1903
 11
782.611
 21
11.4213
  0
LINE
  8
0
 10
782.611
 20
11.4213
 11
782.232
 21
11.7322
  0
LINE
  8
0
 10
782.232
 20
11.7322
 11
781.921
 21
12.1111
  0
LINE
  8
0
 10
781.921
 20
12.1111
 11
781.69
 21
12.5433
  0
LINE
  8
0
 10
781.69
 20
12.5433
 11
781.548
 21
13.0123
  0
LINE
  8
0
 10
781.548
 20
13.0123
 11
781.5
 21
13.5
  0
LINE
  8
0
 10
781.5
 20
13.5
 11
781.548
 21
13.9877
  0
LINE
  8
0
 10
781.548
 20
13.9877
 11
781.69
 21
14.4567
  0
LINE
  8
0
 10
781.69
 20
14.4567
 11
781.921
 21
14.8889
  0
LINE
  8
0
 10
781.921
 20
14.8889
 11
782.232
 21
15.2678
  0
LINE
  8
0
 10
782.232
 20
15.2678
 11
782.611
 21
15.5787
  0
LINE
  8
0
 10
782.611
 20
15.5787
 11
783.043
 21
15.8097
  0
LINE
  8
0
 10
783.043
 20
15.8097
 11
783.512
 21
15.952
  0
LINE
  8
0
 10
783.512
 20
15.952
 11
784
 21
16
  0
LINE
  8
0
 10
784
 20
16
 11
784.488
 21
15.952
  0
LINE
  8
0
 10
784.488
 20
15.952
 11
784.957
 21
15.8097
  0
LINE
  8
0
 10
784.957
 20
15.8097
 11
785.389
 21
15.5787
  0
LINE
  8
0
 10
785.389
 20
15.5787
 11
785.768
 21
15.2678
  0
LINE
  8
0
 10
785.768
 20
15.2678
 11
786.079
 21
14.8889
  0
LINE
  8
0
 10
786.079
 20
14.8889
 11
786.31
 21
14.4567
  0
LINE
  8
0
 10
786.31
 20
14.4567
 11
786.452
 21
13.9877
  0
LINE
  8
0
 10
786.452
 20
13.9877
 11
786.5
 21
13.5
  0
LINE
  8
0
 10
786.5
 20
13.5
 11
786.452
 21
13.0123
  0
LINE
  8
0
 10
786.452
 20
13.0123
 11
786.31
 21
12.5433
  0
LINE
  8
0
 10
786.31
 20
12.5433
 11
786.079
 21
12.1111
  0
LINE
  8
0
 10
786.079
 20
12.1111
 11
785.768
 21
11.7322
  0
LINE
  8
0
 10
785.768
 20
11.7322
 11
785.389
 21
11.4213
  0
LINE
  8
0
 10
785.389
 20
11.4213
 11
784.957
 21
11.1903
  0
LINE
  8
0
 10
784.957
 20
11.1903
 11
784.488
 21
11.048
  0
LINE
  8
0
 10
784.488
 20
11.048
 11
784
 21
11
  0
LINE
  8
0
 10
784
 20
11
 11
783.512
 21
11.048
  0
LINE
  8
0
 10
783.512
 20
3.54803
 11
783.043
 21
3.69029
  0
LINE
  8
0
 10
783.043
 20
3.69029
 11
782.611
 21
3.92133
  0
LINE
  8
0
 10
782.611
 20
3.92133
 11
782.232
 21
4.23222
  0
LINE
  8
0
 10
782.232
 20
4.23222
 11
781.921
 21
4.61107
  0
LINE
  8
0
 10
781.921
 20
4.61107
 11
781.69
 21
5.04329
  0
LINE
  8
0
 10
781.69
 20
5.04329
 11
781.548
 21
5.51227
  0
LINE
  8
0
 10
781.548
 20
5.51227
 11
781.5
 21
6
  0
LINE
  8
0
 10
781.5
 20
6
 11
781.548
 21
6.48772
  0
LINE
  8
0
 10
781.548
 20
6.48772
 11
781.69
 21
6.9567
  0
LINE
  8
0
 10
781.69
 20
6.9567
 11
781.921
 21
7.38892
  0
LINE
  8
0
 10
781.921
 20
7.38892
 11
782.232
 21
7.76776
  0
LINE
  8
0
 10
782.232
 20
7.76776
 11
782.611
 21
8.07866
  0
LINE
  8
0
 10
782.611
 20
8.07866
 11
783.043
 21
8.30969
  0
LINE
  8
0
 10
783.043
 20
8.30969
 11
783.512
 21
8.45195
  0
LINE
  8
0
 10
783.512
 20
8.45195
 11
784
 21
8.5
  0
LINE
  8
0
 10
784
 20
8.5
 11
784.488
 21
8.45195
  0
LINE
  8
0
 10
784.488
 20
8.45195
 11
784.957
 21
8.30969
  0
LINE
  8
0
 10
784.957
 20
8.30969
 11
785.389
 21
8.07866
  0
LINE
  8
0
 10
785.389
 20
8.07866
 11
785.768
 21
7.76776
  0
LINE
  8
0
 10
785.768
 20
7.76776
 11
786.079
 21
7.38892
  0
LINE
  8
0
 10
786.079
 20
7.38892
 11
786.31
 21
6.9567
  0
LINE
  8
0
 10
786.31
 20
6.9567
 11
786.452
 21
6.48772
  0
LINE
  8
0
 10
786.452
 20
6.48772
 11
786.5
 21
6
  0
LINE
  8
0
 10
786.5
 20
6
 11
786.452
 21
5.51227
  0
LINE
  8
0
 10
786.452
 20
5.51227
 11
786.31
 21
5.04329
  0
LINE
  8
0
 10
786.31
 20
5.04329
 11
786.079
 21
4.61107
  0
LINE
  8
0
 10
786.079
 20
4.61107
 11
785.768
 21
4.23222
  0
LINE
  8
0
 10
785.768
 20
4.23222
 11
785.389
 21
3.92133
  0
LINE
  8
0
 10
785.389
 20
3.92133
 11
784.957
 21
3.69029
  0
LINE
  8
0
 10
784.957
 20
3.69029
 11
784.488
 21
3.54803
  0
LINE
  8
0
 10
784.488
 20
3.54803
 11
784
 21
3.5
  0
LINE
  8
0
 10
784
 20
3.5
 11
783.512
 21
3.54803
  0
LINE
  8
0
 10
779
 20
26
 11
771
 21
26
  0
LINE
  8
0
 10
771
 20
26
 11
771
 21
1
  0
LINE
  8
0
 10
771
 20
1
 11
779
 21
1
  0
LINE
  8
0
 10
779
 20
1
 11
779
 21
26
  0
LINE
  8
0
 10
774.512
 20
18.548
 11
774.043
 21
18.6903
  0
LINE
  8
0
 10
774.043
 20
18.6903
 11
773.611
 21
18.9213
  0
LINE
  8
0
 10
773.611
 20
18.9213
 11
773.232
 21
19.2322
  0
LINE
  8
0
 10
773.232
 20
19.2322
 11
772.921
 21
19.6111
  0
LINE
  8
0
 10
772.921
 20
19.6111
 11
772.69
 21
20.0433
  0
LINE
  8
0
 10
772.69
 20
20.0433
 11
772.548
 21
20.5123
  0
LINE
  8
0
 10
772.548
 20
20.5123
 11
772.5
 21
21
  0
LINE
  8
0
 10
772.5
 20
21
 11
772.548
 21
21.4877
  0
LINE
  8
0
 10
772.548
 20
21.4877
 11
772.69
 21
21.9567
  0
LINE
  8
0
 10
772.69
 20
21.9567
 11
772.921
 21
22.3889
  0
LINE
  8
0
 10
772.921
 20
22.3889
 11
773.232
 21
22.7678
  0
LINE
  8
0
 10
773.232
 20
22.7678
 11
773.611
 21
23.0787
  0
LINE
  8
0
 10
773.611
 20
23.0787
 11
774.043
 21
23.3097
  0
LINE
  8
0
 10
774.043
 20
23.3097
 11
774.512
 21
23.452
  0
LINE
  8
0
 10
774.512
 20
23.452
 11
775
 21
23.5
  0
LINE
  8
0
 10
775
 20
23.5
 11
775.488
 21
23.452
  0
LINE
  8
0
 10
775.488
 20
23.452
 11
775.957
 21
23.3097
  0
LINE
  8
0
 10
775.957
 20
23.3097
 11
776.389
 21
23.0787
  0
LINE
  8
0
 10
776.389
 20
23.0787
 11
776.768
 21
22.7678
  0
LINE
  8
0
 10
776.768
 20
22.7678
 11
777.079
 21
22.3889
  0
LINE
  8
0
 10
777.079
 20
22.3889
 11
777.31
 21
21.9567
  0
LINE
  8
0
 10
777.31
 20
21.9567
 11
777.452
 21
21.4877
  0
LINE
  8
0
 10
777.452
 20
21.4877
 11
777.5
 21
21
  0
LINE
  8
0
 10
777.5
 20
21
 11
777.452
 21
20.5123
  0
LINE
  8
0
 10
777.452
 20
20.5123
 11
777.31
 21
20.0433
  0
LINE
  8
0
 10
777.31
 20
20.0433
 11
777.079
 21
19.6111
  0
LINE
  8
0
 10
777.079
 20
19.6111
 11
776.768
 21
19.2322
  0
LINE
  8
0
 10
776.768
 20
19.2322
 11
776.389
 21
18.9213
  0
LINE
  8
0
 10
776.389
 20
18.9213
 11
775.957
 21
18.6903
  0
LINE
  8
0
 10
775.957
 20
18.6903
 11
775.488
 21
18.548
  0
LINE
  8
0
 10
775.488
 20
18.548
 11
775
 21
18.5
  0
LINE
  8
0
 10
775
 20
18.5
 11
774.512
 21
18.548
  0
LINE
  8
0
 10
774.512
 20
11.048
 11
774.043
 21
11.1903
  0
LINE
  8
0
 10
774.043
 20
11.1903
 11
773.611
 21
11.4213
  0
LINE
  8
0
 10
773.611
 20
11.4213
 11
773.232
 21
11.7322
  0
LINE
  8
0
 10
773.232
 20
11.7322
 11
772.921
 21
12.1111
  0
LINE
  8
0
 10
772.921
 20
12.1111
 11
772.69
 21
12.5433
  0
LINE
  8
0
 10
772.69
 20
12.5433
 11
772.548
 21
13.0123
  0
LINE
  8
0
 10
772.548
 20
13.0123
 11
772.5
 21
13.5
  0
LINE
  8
0
 10
772.5
 20
13.5
 11
772.548
 21
13.9877
  0
LINE
  8
0
 10
772.548
 20
13.9877
 11
772.69
 21
14.4567
  0
LINE
  8
0
 10
772.69
 20
14.4567
 11
772.921
 21
14.8889
  0
LINE
  8
0
 10
772.921
 20
14.8889
 11
773.232
 21
15.2678
  0
LINE
  8
0
 10
773.232
 20
15.2678
 11
773.611
 21
15.5787
  0
LINE
  8
0
 10
773.611
 20
15.5787
 11
774.043
 21
15.8097
  0
LINE
  8
0
 10
774.043
 20
15.8097
 11
774.512
 21
15.952
  0
LINE
  8
0
 10
774.512
 20
15.952
 11
775
 21
16
  0
LINE
  8
0
 10
775
 20
16
 11
775.488
 21
15.952
  0
LINE
  8
0
 10
775.488
 20
15.952
 11
775.957
 21
15.8097
  0
LINE
  8
0
 10
775.957
 20
15.8097
 11
776.389
 21
15.5787
  0
LINE
  8
0
 10
776.389
 20
15.5787
 11
776.768
 21
15.2678
  0
LINE
  8
0
 10
776.768
 20
15.2678
 11
777.079
 21
14.8889
  0
LINE
  8
0
 10
777.079
 20
14.8889
 11
777.31
 21
14.4567
  0
LINE
  8
0
 10
777.31
 20
14.4567
 11
777.452
 21
13.9877
  0
LINE
  8
0
 10
777.452
 20
13.9877
 11
777.5
 21
13.5
  0
LINE
  8
0
 10
777.5
 20
13.5
 11
777.452
 21
13.0123
  0
LINE
  8
0
 10
777.452
 20
13.0123
 11
777.31
 21
12.5433
  0
LINE
  8
0
 10
777.31
 20
12.5433
 11
777.079
 21
12.1111
  0
LINE
  8
0
 10
777.079
 20
12.1111
 11
776.768
 21
11.7322
  0
LINE
  8
0
 10
776.768
 20
11.7322
 11
776.389
 21
11.4213
  0
LINE
  8
0
 10
776.389
 20
11.4213
 11
775.957
 21
11.1903
  0
LINE
  8
0
 10
775.957
 20
11.1903
 11
775.488
 21
11.048
  0
LINE
  8
0
 10
775.488
 20
11.048
 11
775
 21
11
  0
LINE
  8
0
 10
775
 20
11
 11
774.512
 21
11.048
  0
LINE
  8
0
 10
774.512
 20
3.54803
 11
774.043
 21
3.69029
  0
LINE
  8
0
 10
774.043
 20
3.69029
 11
773.611
 21
3.92133
  0
LINE
  8
0
 10
773.611
 20
3.92133
 11
773.232
 21
4.23222
  0
LINE
  8
0
 10
773.232
 20
4.23222
 11
772.921
 21
4.61107
  0
LINE
  8
0
 10
772.921
 20
4.61107
 11
772.69
 21
5.04329
  0
LINE
  8
0
 10
772.69
 20
5.04329
 11
772.548
 21
5.51227
  0
LINE
  8
0
 10
772.548
 20
5.51227
 11
772.5
 21
6
  0
LINE
  8
0
 10
772.5
 20
6
 11
772.548
 21
6.48772
  0
LINE
  8
0
 10
772.548
 20
6.48772
 11
772.69
 21
6.9567
  0
LINE
  8
0
 10
772.69
 20
6.9567
 11
772.921
 21
7.38892
  0
LINE
  8
0
 10
772.921
 20
7.38892
 11
773.232
 21
7.76776
  0
LINE
  8
0
 10
773.232
 20
7.76776
 11
773.611
 21
8.07866
  0
LINE
  8
0
 10
773.611
 20
8.07866
 11
774.043
 21
8.30969
  0
LINE
  8
0
 10
774.043
 20
8.30969
 11
774.512
 21
8.45195
  0
LINE
  8
0
 10
774.512
 20
8.45195
 11
775
 21
8.5
  0
LINE
  8
0
 10
775
 20
8.5
 11
775.488
 21
8.45195
  0
LINE
  8
0
 10
775.488
 20
8.45195
 11
775.957
 21
8.30969
  0
LINE
  8
0
 10
775.957
 20
8.30969
 11
776.389
 21
8.07866
  0
LINE
  8
0
 10
776.389
 20
8.07866
 11
776.768
 21
7.76776
  0
LINE
  8
0
 10
776.768
 20
7.76776
 11
777.079
 21
7.38892
  0
LINE
  8
0
 10
777.079
 20
7.38892
 11
777.31
 21
6.9567
  0
LINE
  8
0
 10
777.31
 20
6.9567
 11
777.452
 21
6.48772
  0
LINE
  8
0
 10
777.452
 20
6.48772
 11
777.5
 21
6
  0
LINE
  8
0
 10
777.5
 20
6
 11
777.452
 21
5.51227
  0
LINE
  8
0
 10
777.452
 20
5.51227
 11
777.31
 21
5.04329
  0
LINE
  8
0
 10
777.31
 20
5.04329
 11
777.079
 21
4.61107
  0
LINE
  8
0
 10
777.079
 20
4.61107
 11
776.768
 21
4.23222
  0
LINE
  8
0
 10
776.768
 20
4.23222
 11
776.389
 21
3.92133
  0
LINE
  8
0
 10
776.389
 20
3.92133
 11
775.957
 21
3.69029
  0
LINE
  8
0
 10
775.957
 20
3.69029
 11
775.488
 21
3.54803
  0
LINE
  8
0
 10
775.488
 20
3.54803
 11
775
 21
3.5
  0
LINE
  8
0
 10
775
 20
3.5
 11
774.512
 21
3.54803
  0
ENDSEC
  0
SECTION
  2
OBJECTS
  0
DICTIONARY
  0
ENDSEC
  0
EOF
