  0
SECTION
  2
HEADER
  9
$ACADVER
  1
AC1024
  9
$ACADMAINTVER
 70
     6
  9
$DWGCODEPAGE
  3
ANSI_1256
  9
$INSBASE
 10
0.0
 20
0.0
 30
0.0
  9
$EXTMIN
 10
1.000000000000000E+20
 20
1.000000000000000E+20
 30
1.000000000000000E+20
  9
$EXTMAX
 10
-1.000000000000000E+20
 20
-1.000000000000000E+20
 30
-1.000000000000000E+20
  9
$LIMMIN
 10
0.0
 20
0.0
  9
$LIMMAX
 10
12.0
 20
9.0
  9
$ORTHOMODE
 70
     0
  9
$REGENMODE
 70
     1
  9
$FILLMODE
 70
     1
  9
$QTEXTMODE
 70
     0
  9
$MIRRTEXT
 70
     1
  9
$LTSCALE
 40
1.0
  9
$ATTMODE
 70
     1
  9
$TEXTSIZE
 40
0.2
  9
$TRACEWID
 40
0.05
  9
$TEXTSTYLE
  7
Standard
  9
$CLAYER
  8
0
  9
$CELTYPE
  6
ByLayer
  9
$CECOLOR
 62
   256
  9
$CELTSCALE
 40
1.0
  9
$DISPSILH
 70
     0
  9
$DIMSCALE
 40
1.0
  9
$DIMASZ
 40
0.18
  9
$DIMEXO
 40
0.0625
  9
$DIMDLI
 40
0.38
  9
$DIMRND
 40
0.0
  9
$DIMDLE
 40
0.0
  9
$DIMEXE
 40
0.18
  9
$DIMTP
 40
0.0
  9
$DIMTM
 40
0.0
  9
$DIMTXT
 40
0.18
  9
$DIMCEN
 40
0.09
  9
$DIMTSZ
 40
0.0
  9
$DIMTOL
 70
     0
  9
$DIMLIM
 70
     0
  9
$DIMTIH
 70
     1
  9
$DIMTOH
 70
     1
  9
$DIMSE1
 70
     0
  9
$DIMSE2
 70
     0
  9
$DIMTAD
 70
     0
  9
$DIMZIN
 70
     0
  9
$DIMBLK
  1

  9
$DIMASO
 70
     1
  9
$DIMSHO
 70
     1
  9
$DIMPOST
  1

  9
$DIMAPOST
  1

  9
$DIMALT
 70
     0
  9
$DIMALTD
 70
     2
  9
$DIMALTF
 40
25.4
  9
$DIMLFAC
 40
1.0
  9
$DIMTOFL
 70
     0
  9
$DIMTVP
 40
0.0
  9
$DIMTIX
 70
     0
  9
$DIMSOXD
 70
     0
  9
$DIMSAH
 70
     0
  9
$DIMBLK1
  1

  9
$DIMBLK2
  1

  9
$DIMSTYLE
  2
Standard
  9
$DIMCLRD
 70
     0
  9
$DIMCLRE
 70
     0
  9
$DIMCLRT
 70
     0
  9
$DIMTFAC
 40
1.0
  9
$DIMGAP
 40
0.09
  9
$DIMJUST
 70
     0
  9
$DIMSD1
 70
     0
  9
$DIMSD2
 70
     0
  9
$DIMTOLJ
 70
     1
  9
$DIMTZIN
 70
     0
  9
$DIMALTZ
 70
     0
  9
$DIMALTTZ
 70
     0
  9
$DIMUPT
 70
     0
  9
$DIMDEC
 70
     4
  9
$DIMTDEC
 70
     4
  9
$DIMALTU
 70
     2
  9
$DIMALTTD
 70
     2
  9
$DIMTXSTY
  7
Standard
  9
$DIMAUNIT
 70
     0
  9
$DIMADEC
 70
     0
  9
$DIMALTRND
 40
0.0
  9
$DIMAZIN
 70
     0
  9
$DIMDSEP
 70
    46
  9
$DIMATFIT
 70
     3
  9
$DIMFRAC
 70
     0
  9
$DIMLDRBLK
  1

  9
$DIMLUNIT
 70
     2
  9
$DIMLWD
 70
    -2
  9
$DIMLWE
 70
    -2
  9
$DIMTMOVE
 70
     0
  9
$DIMFXL
 40
1.0
  9
$DIMFXLON
 70
     0
  9
$DIMJOGANG
 40
0.7853981633974483
  9
$DIMTFILL
 70
     0
  9
$DIMTFILLCLR
 70
     0
  9
$DIMARCSYM
 70
     0
  9
$DIMLTYPE
  6

  9
$DIMLTEX1
  6

  9
$DIMLTEX2
  6

  9
$DIMTXTDIRECTION
 70
     0
  9
$LUNITS
 70
     2
  9
$LUPREC
 70
     4
  9
$SKETCHINC
 40
0.1
  9
$FILLETRAD
 40
0.5
  9
$AUNITS
 70
     0
  9
$AUPREC
 70
     0
  9
$MENU
  1
.
  9
$ELEVATION
 40
0.0
  9
$PELEVATION
 40
0.0
  9
$THICKNESS
 40
0.0
  9
$LIMCHECK
 70
     0
  9
$CHAMFERA
 40
0.5
  9
$CHAMFERB
 40
0.5
  9
$CHAMFERC
 40
1.0
  9
$CHAMFERD
 40
0.0
  9
$SKPOLY
 70
     0
  9
$TDCREATE
 40
2459054.364711261
  9
$TDUCREATE
 40
2459054.281377928
  9
$TDUPDATE
 40
2459054.364730567
  9
$TDUUPDATE
 40
2459054.281397234
  9
$TDINDWG
 40
0.0000000116
  9
$TDUSRTIMER
 40
0.0000000116
  9
$USRTIMER
 70
     1
  9
$ANGBASE
 50
0.0
  9
$ANGDIR
 70
     0
  9
$PDMODE
 70
     0
  9
$PDSIZE
 40
0.0
  9
$PLINEWID
 40
0.0
  9
$SPLFRAME
 70
     0
  9
$SPLINETYPE
 70
     6
  9
$SPLINESEGS
 70
     8
  9
$HANDSEED
  5
2F2
  9
$SURFTAB1
 70
     6
  9
$SURFTAB2
 70
     6
  9
$SURFTYPE
 70
     6
  9
$SURFU
 70
     6
  9
$SURFV
 70
     6
  9
$UCSBASE
  2

  9
$UCSNAME
  2

  9
$UCSORG
 10
0.0
 20
0.0
 30
0.0
  9
$UCSXDIR
 10
1.0
 20
0.0
 30
0.0
  9
$UCSYDIR
 10
0.0
 20
1.0
 30
0.0
  9
$UCSORTHOREF
  2

  9
$UCSORTHOVIEW
 70
     0
  9
$UCSORGTOP
 10
0.0
 20
0.0
 30
0.0
  9
$UCSORGBOTTOM
 10
0.0
 20
0.0
 30
0.0
  9
$UCSORGLEFT
 10
0.0
 20
0.0
 30
0.0
  9
$UCSORGRIGHT
 10
0.0
 20
0.0
 30
0.0
  9
$UCSORGFRONT
 10
0.0
 20
0.0
 30
0.0
  9
$UCSORGBACK
 10
0.0
 20
0.0
 30
0.0
  9
$PUCSBASE
  2

  9
$PUCSNAME
  2

  9
$PUCSORG
 10
0.0
 20
0.0
 30
0.0
  9
$PUCSXDIR
 10
1.0
 20
0.0
 30
0.0
  9
$PUCSYDIR
 10
0.0
 20
1.0
 30
0.0
  9
$PUCSORTHOREF
  2

  9
$PUCSORTHOVIEW
 70
     0
  9
$PUCSORGTOP
 10
0.0
 20
0.0
 30
0.0
  9
$PUCSORGBOTTOM
 10
0.0
 20
0.0
 30
0.0
  9
$PUCSORGLEFT
 10
0.0
 20
0.0
 30
0.0
  9
$PUCSORGRIGHT
 10
0.0
 20
0.0
 30
0.0
  9
$PUCSORGFRONT
 10
0.0
 20
0.0
 30
0.0
  9
$PUCSORGBACK
 10
0.0
 20
0.0
 30
0.0
  9
$USERI1
 70
     0
  9
$USERI2
 70
     0
  9
$USERI3
 70
     0
  9
$USERI4
 70
     0
  9
$USERI5
 70
     0
  9
$USERR1
 40
0.0
  9
$USERR2
 40
0.0
  9
$USERR3
 40
0.0
  9
$USERR4
 40
0.0
  9
$USERR5
 40
0.0
  9
$WORLDVIEW
 70
     1
  9
$SHADEDGE
 70
     3
  9
$SHADEDIF
 70
    70
  9
$TILEMODE
 70
     1
  9
$MAXACTVP
 70
    64
  9
$PINSBASE
 10
0.0
 20
0.0
 30
0.0
  9
$PLIMCHECK
 70
     0
  9
$PEXTMIN
 10
1.000000000000000E+20
 20
1.000000000000000E+20
 30
1.000000000000000E+20
  9
$PEXTMAX
 10
-1.000000000000000E+20
 20
-1.000000000000000E+20
 30
-1.000000000000000E+20
  9
$PLIMMIN
 10
0.0
 20
0.0
  9
$PLIMMAX
 10
12.0
 20
9.0
  9
$UNITMODE
 70
     0
  9
$VISRETAIN
 70
     1
  9
$PLINEGEN
 70
     0
  9
$PSLTSCALE
 70
     1
  9
$TREEDEPTH
 70
  3020
  9
$CMLSTYLE
  2
Standard
  9
$CMLJUST
 70
     0
  9
$CMLSCALE
 40
1.0
  9
$PROXYGRAPHICS
 70
     1
  9
$MEASUREMENT
 70
     0
  9
$CELWEIGHT
370
    -1
  9
$ENDCAPS
280
     0
  9
$JOINSTYLE
280
     0
  9
$LWDISPLAY
290
     1
  9
$INSUNITS
 70
     1
  9
$HYPERLINKBASE
  1

  9
$STYLESHEET
  1

  9
$XEDIT
290
     1
  9
$CEPSNTYPE
380
     0
  9
$PSTYLEMODE
290
     1
  9
$FINGERPRINTGUID
  2
{62D78AC7-5C92-41C2-A686-3FA9FD285822}
  9
$VERSIONGUID
  2
{FAEB1C32-E019-11D5-929B-00C0DF256EC4}
  9
$EXTNAMES
290
     1
  9
$PSVPSCALE
 40
0.0
  9
$OLESTARTUP
290
     0
  9
$SORTENTS
280
   127
  9
$INDEXCTL
280
     0
  9
$HIDETEXT
280
     1
  9
$XCLIPFRAME
280
     2
  9
$HALOGAP
280
     0
  9
$OBSCOLOR
 70
   257
  9
$OBSLTYPE
280
     0
  9
$INTERSECTIONDISPLAY
280
     0
  9
$INTERSECTIONCOLOR
 70
   257
  9
$DIMASSOC
280
     2
  9
$PROJECTNAME
  1

  9
$CAMERADISPLAY
290
     0
  9
$LENSLENGTH
 40
50.0
  9
$CAMERAHEIGHT
 40
0.0
  9
$STEPSPERSEC
 40
2.0
  9
$STEPSIZE
 40
6.0
  9
$3DDWFPREC
 40
2.0
  9
$PSOLWIDTH
 40
0.25
  9
$PSOLHEIGHT
 40
4.0
  9
$LOFTANG1
 40
1.570796326794897
  9
$LOFTANG2
 40
1.570796326794897
  9
$LOFTMAG1
 40
0.0
  9
$LOFTMAG2
 40
0.0
  9
$LOFTPARAM
 70
     7
  9
$LOFTNORMALS
280
     1
  9
$LATITUDE
 40
37.795
  9
$LONGITUDE
 40
-122.394
  9
$NORTHDIRECTION
 40
0.0
  9
$TIMEZONE
 70
 -8000
  9
$LIGHTGLYPHDISPLAY
280
     1
  9
$TILEMODELIGHTSYNCH
280
     1
  9
$CMATERIAL
347
3C
  9
$SOLIDHIST
280
     1
  9
$SHOWHIST
280
     1
  9
$DWFFRAME
280
     2
  9
$DGNFRAME
280
     2
  9
$REALWORLDSCALE
290
     1
  9
$INTERFERECOLOR
 62
   256
  9
$CSHADOW
280
     0
  9
$SHADOWPLANELOCATION
 40
0.0
  0
ENDSEC
  0
SECTION
  2
CLASSES
  0
CLASS
  1
ACDBDICTIONARYWDFLT
  2
AcDbDictionaryWithDefault
  3
ObjectDBX Classes
 90
        0
 91
        4
280
     0
281
     0
  0
CLASS
  1
VISUALSTYLE
  2
AcDbVisualStyle
  3
ObjectDBX Classes
 90
     4095
 91
        4
280
     0
281
     0
  0
CLASS
  1
MATERIAL
  2
AcDbMaterial
  3
ObjectDBX Classes
 90
     1153
 91
        4
280
     0
281
     0
  0
CLASS
  1
SUN
  2
AcDbSun
  3
SCENEOE
 90
     1024
 91
        4
280
     0
281
     0
  0
ENDSEC
  0
SECTION
  2
TABLES
  0
TABLE
  2
VPORT
  5
8
330
0
100
AcDbSymbolTable
 70
     1
  0
VPORT
  5
29
330
8
100
AcDbSymbolTableRecord
100
AcDbViewportTableRecord
  2
*Active
 70
     0
 10
0.0
 20
0.0
 11
1.0
 21
1.0
 12
0.0
 22
0.0
 13
0.0
 23
0.0
 14
0.5
 24
0.5
 15
0.5
 25
0.5
 16
0.0
 26
0.0
 36
1.0
 17
375.0
 27
-250.0
 37
0.0
 40
500.0
 41
1.5
 42
50.0
 43
0.0
 44
0.0
 50
0.0
 51
0.0
 71
     0
 72
   100
 73
     1
 74
     3
 75
     0
 76
     0
 77
     0
 78
     0
281
     0
 65
     1
110
0.0
120
0.0
130
0.0
111
1.0
121
0.0
131
0.0
112
0.0
122
1.0
132
0.0
 79
     0
146
0.0
 60
     3
 61
     5
292
     1
282
     1
141
0.0
142
0.0
 63
   250
361
3F
  0
ENDTAB
  0
TABLE
  2
LTYPE
  5
5
330
0
100
AcDbSymbolTable
 70
     1
  0
LTYPE
  5
14
330
5
100
AcDbSymbolTableRecord
100
AcDbLinetypeTableRecord
  2
ByBlock
 70
     0
  3

 72
    65
 73
     0
 40
0.0
  0
LTYPE
  5
15
330
5
100
AcDbSymbolTableRecord
100
AcDbLinetypeTableRecord
  2
ByLayer
 70
     0
  3

 72
    65
 73
     0
 40
0.0
  0
LTYPE
  5
16
330
5
100
AcDbSymbolTableRecord
100
AcDbLinetypeTableRecord
  2
Continuous
 70
     0
  3
Solid line
 72
    65
 73
     0
 40
0.0
  0
ENDTAB
  0
TABLE
  2
LAYER
  5
2
330
0
100
AcDbSymbolTable
 70
     3
  0
LAYER
  5
10
330
2
100
AcDbSymbolTableRecord
100
AcDbLayerTableRecord
  2
0
 70
     0
 62
     7
  6
Continuous
370
    -3
390
F
347
3E
  0
LAYER
  5
40
330
2
100
AcDbSymbolTableRecord
100
AcDbLayerTableRecord
  2
Background
 70
     4
 62
     7
  6
Continuous
370
    -3
390
F
347
3E
  0
LAYER
  5
41
330
2
100
AcDbSymbolTableRecord
100
AcDbLayerTableRecord
  2
Objects
 70
     0
 62
     7
  6
Continuous
370
    -3
390
F
347
3E
  0
ENDTAB
  0
TABLE
  2
STYLE
  5
3
330
0
100
AcDbSymbolTable
 70
    91
  0
STYLE
  5
11
330
3
100
AcDbSymbolTableRecord
100
AcDbTextStyleTableRecord
  2
Standard
 70
     0
 40
0.0
 41
1.0
 50
0.0
 71
     0
 42
0.2
  3
txt
  4

  0
STYLE
  5
51
330
3
100
AcDbSymbolTableRecord
100
AcDbTextStyleTableRecord
  2
Style 1
 70
     0
 40
13.45200030550882
 41
1.000000022711033
 50
0.0
 71
     0
 42
13.45200030550882
  3

  4

1001
ACAD
1000
FreeMono
1071
       34
  0
STYLE
  5
53
330
3
100
AcDbSymbolTableRecord
100
AcDbTextStyleTableRecord
  2
Style 2
 70
     0
 40
13.45200026423324
 41
1.000000019642673
 50
0.0
 71
     0
 42
13.45200026423324
  3

  4

1001
ACAD
1000
FreeMono
1071
       34
  0
STYLE
  5
55
330
3
100
AcDbSymbolTableRecord
100
AcDbTextStyleTableRecord
  2
Style 3
 70
     0
 40
13.45200029905249
 41
1.000000022231081
 50
0.0
 71
     0
 42
13.45200029905249
  3

  4

1001
ACAD
1000
FreeMono
1071
       34
  0
STYLE
  5
57
330
3
100
AcDbSymbolTableRecord
100
AcDbTextStyleTableRecord
  2
Style 4
 70
     0
 40
13.45199997940875
 41
0.9999999984692796
 50
0.0
 71
     0
 42
13.45199997940875
  3

  4

1001
ACAD
1000
FreeMono
1071
       34
  0
STYLE
  5
59
330
3
100
AcDbSymbolTableRecord
100
AcDbTextStyleTableRecord
  2
Style 5
 70
     0
 40
13.45200009663309
 41
1.000000007183548
 50
0.0
 71
     0
 42
13.45200009663309
  3

  4

1001
ACAD
1000
FreeMono
1071
       34
  0
STYLE
  5
5B
330
3
100
AcDbSymbolTableRecord
100
AcDbTextStyleTableRecord
  2
Style 6
 70
     0
 40
13.45199995649924
 41
0.9999999967662241
 50
0.0
 71
     0
 42
13.45199995649924
  3

  4

1001
ACAD
1000
FreeMono
1071
       34
  0
STYLE
  5
5D
330
3
100
AcDbSymbolTableRecord
100
AcDbTextStyleTableRecord
  2
Style 7
 70
     0
 40
13.45199981958058
 41
0.9999999865879111
 50
0.0
 71
     0
 42
13.45199981958058
  3

  4

1001
ACAD
1000
FreeMono
1071
       34
  0
STYLE
  5
5F
330
3
100
AcDbSymbolTableRecord
100
AcDbTextStyleTableRecord
  2
Style 8
 70
     0
 40
13.45199971268121
 41
0.9999999786411838
 50
0.0
 71
     0
 42
13.45199971268121
  3

  4

1001
ACAD
1000
FreeMono
1071
       34
  0
STYLE
  5
61
330
3
100
AcDbSymbolTableRecord
100
AcDbTextStyleTableRecord
  2
Style 9
 70
     0
 40
13.45199967881751
 41
0.9999999761238111
 50
0.0
 71
     0
 42
13.45199967881751
  3

  4

1001
ACAD
1000
FreeMono
1071
       34
  0
STYLE
  5
63
330
3
100
AcDbSymbolTableRecord
100
AcDbTextStyleTableRecord
  2
Style 10
 70
     0
 40
13.4519997848495
 41
0.9999999840060584
 50
0.0
 71
     0
 42
13.4519997848495
  3

  4

1001
ACAD
1000
FreeMono
1071
       34
  0
STYLE
  5
65
330
3
100
AcDbSymbolTableRecord
100
AcDbTextStyleTableRecord
  2
Style 11
 70
     0
 40
13.45199999527559
 41
0.9999999996487947
 50
0.0
 71
     0
 42
13.45199999527559
  3

  4

1001
ACAD
1000
FreeMono
1071
       34
  0
STYLE
  5
67
330
3
100
AcDbSymbolTableRecord
100
AcDbTextStyleTableRecord
  2
Style 12
 70
     0
 40
13.45199989062825
 41
0.9999999918694802
 50
0.0
 71
     0
 42
13.45199989062825
  3

  4

1001
ACAD
1000
FreeMono
1071
       34
  0
STYLE
  5
69
330
3
100
AcDbSymbolTableRecord
100
AcDbTextStyleTableRecord
  2
Style 13
 70
     0
 40
13.452000239366
 41
1.000000017794082
 50
0.0
 71
     0
 42
13.452000239366
  3

  4

1001
ACAD
1000
FreeMono
1071
       34
  0
STYLE
  5
6B
330
3
100
AcDbSymbolTableRecord
100
AcDbTextStyleTableRecord
  2
Style 14
 70
     0
 40
13.45199950610272
 41
0.9999999632844727
 50
0.0
 71
     0
 42
13.45199950610272
  3

  4

1001
ACAD
1000
FreeMono
1071
       34
  0
STYLE
  5
6D
330
3
100
AcDbSymbolTableRecord
100
AcDbTextStyleTableRecord
  2
Style 15
 70
     0
 40
13.4519997961253
 41
0.9999999848442832
 50
0.0
 71
     0
 42
13.4519997961253
  3

  4

1001
ACAD
1000
FreeMono
1071
       34
  0
STYLE
  5
6F
330
3
100
AcDbSymbolTableRecord
100
AcDbTextStyleTableRecord
  2
Style 16
 70
     0
 40
13.4519994701339
 41
0.999999960610608
 50
0.0
 71
     0
 42
13.4519994701339
  3

  4

1001
ACAD
1000
FreeMono
1071
       34
  0
STYLE
  5
71
330
3
100
AcDbSymbolTableRecord
100
AcDbTextStyleTableRecord
  2
Style 17
 70
     0
 40
13.45199970415444
 41
0.9999999780073183
 50
0.0
 71
     0
 42
13.45199970415444
  3

  4

1001
ACAD
1000
FreeMono
1071
       34
  0
STYLE
  5
73
330
3
100
AcDbSymbolTableRecord
100
AcDbTextStyleTableRecord
  2
Style 18
 70
     0
 40
14.15999979121684
 41
0.9999999852554264
 50
0.0
 71
     0
 42
14.15999979121684
  3

  4

1001
ACAD
1000
Gilroy ExtraBold
1071
       34
  0
STYLE
  5
75
330
3
100
AcDbSymbolTableRecord
100
AcDbTextStyleTableRecord
  2
Style 19
 70
     0
 40
14.15999955136427
 41
0.9999999683166861
 50
0.0
 71
     0
 42
14.15999955136427
  3

  4

1001
ACAD
1000
Gilroy ExtraBold
1071
       34
  0
STYLE
  5
77
330
3
100
AcDbSymbolTableRecord
100
AcDbTextStyleTableRecord
  2
Style 20
 70
     0
 40
14.15999976727364
 41
0.9999999835645229
 50
0.0
 71
     0
 42
14.15999976727364
  3

  4

1001
ACAD
1000
Gilroy ExtraBold
1071
       34
  0
STYLE
  5
79
330
3
100
AcDbSymbolTableRecord
100
AcDbTextStyleTableRecord
  2
Style 21
 70
     0
 40
14.15999955519546
 41
0.9999999685872498
 50
0.0
 71
     0
 42
14.15999955519546
  3

  4

1001
ACAD
1000
Gilroy ExtraBold
1071
       34
  0
STYLE
  5
7B
330
3
100
AcDbSymbolTableRecord
100
AcDbTextStyleTableRecord
  2
Style 22
 70
     0
 40
14.16000017487643
 41
1.00000001235003
 50
0.0
 71
     0
 42
14.16000017487643
  3

  4

1001
ACAD
1000
Gilroy ExtraBold
1071
       34
  0
STYLE
  5
7D
330
3
100
AcDbSymbolTableRecord
100
AcDbTextStyleTableRecord
  2
Style 23
 70
     0
 40
14.15999993172565
 41
0.9999999951783654
 50
0.0
 71
     0
 42
14.15999993172565
  3

  4

1001
ACAD
1000
Gilroy ExtraBold
1071
       34
  0
STYLE
  5
7F
330
3
100
AcDbSymbolTableRecord
100
AcDbTextStyleTableRecord
  2
Style 24
 70
     0
 40
14.16000002344607
 41
1.000000001655796
 50
0.0
 71
     0
 42
14.16000002344607
  3

  4

1001
ACAD
1000
Gilroy ExtraBold
1071
       34
  0
STYLE
  5
81
330
3
100
AcDbSymbolTableRecord
100
AcDbTextStyleTableRecord
  2
Style 25
 70
     0
 40
14.15999994249095
 41
0.9999999959386265
 50
0.0
 71
     0
 42
14.15999994249095
  3

  4

1001
ACAD
1000
Gilroy ExtraBold
1071
       34
  0
STYLE
  5
83
330
3
100
AcDbSymbolTableRecord
100
AcDbTextStyleTableRecord
  2
Style 26
 70
     0
 40
14.16000016273889
 41
1.000000011492859
 50
0.0
 71
     0
 42
14.16000016273889
  3

  4

1001
ACAD
1000
Gilroy ExtraBold
1071
       34
  0
STYLE
  5
85
330
3
100
AcDbSymbolTableRecord
100
AcDbTextStyleTableRecord
  2
Style 27
 70
     0
 40
14.15999961410328
 41
0.9999999727474068
 50
0.0
 71
     0
 42
14.15999961410328
  3

  4

1001
ACAD
1000
Gilroy ExtraBold
1071
       34
  0
STYLE
  5
87
330
3
100
AcDbSymbolTableRecord
100
AcDbTextStyleTableRecord
  2
Style 28
 70
     0
 40
14.15999986055934
 41
0.999999990152496
 50
0.0
 71
     0
 42
14.15999986055934
  3

  4

1001
ACAD
1000
Gilroy ExtraBold
1071
       34
  0
STYLE
  5
89
330
3
100
AcDbSymbolTableRecord
100
AcDbTextStyleTableRecord
  2
Style 29
 70
     0
 40
14.15999973495642
 41
0.9999999812822329
 50
0.0
 71
     0
 42
14.15999973495642
  3

  4

1001
ACAD
1000
Gilroy ExtraBold
1071
       34
  0
STYLE
  5
8B
330
3
100
AcDbSymbolTableRecord
100
AcDbTextStyleTableRecord
  2
Style 30
 70
     0
 40
14.16000011332976
 41
1.000000008003514
 50
0.0
 71
     0
 42
14.16000011332976
  3

  4

1001
ACAD
1000
Gilroy ExtraBold
1071
       34
  0
STYLE
  5
8D
330
3
100
AcDbSymbolTableRecord
100
AcDbTextStyleTableRecord
  2
Style 31
 70
     0
 40
14.16000000405704
 41
1.000000000286514
 50
0.0
 71
     0
 42
14.16000000405704
  3

  4

1001
ACAD
1000
Gilroy ExtraBold
1071
       34
  0
STYLE
  5
8F
330
3
100
AcDbSymbolTableRecord
100
AcDbTextStyleTableRecord
  2
Style 32
 70
     0
 40
14.16000013700135
 41
1.000000009675237
 50
0.0
 71
     0
 42
14.16000013700135
  3

  4

1001
ACAD
1000
Gilroy ExtraBold
1071
       34
  0
STYLE
  5
91
330
3
100
AcDbSymbolTableRecord
100
AcDbTextStyleTableRecord
  2
Style 33
 70
     0
 40
14.16000025899431
 41
1.000000018290558
 50
0.0
 71
     0
 42
14.16000025899431
  3

  4

1001
ACAD
1000
Gilroy ExtraBold
1071
       34
  0
STYLE
  5
93
330
3
100
AcDbSymbolTableRecord
100
AcDbTextStyleTableRecord
  2
Style 34
 70
     0
 40
14.16000000096098
 41
1.000000000067866
 50
0.0
 71
     0
 42
14.16000000096098
  3

  4

1001
ACAD
1000
Gilroy ExtraBold
1071
       34
  0
STYLE
  5
95
330
3
100
AcDbSymbolTableRecord
100
AcDbTextStyleTableRecord
  2
Style 35
 70
     0
 40
14.16000020556607
 41
1.000000014517378
 50
0.0
 71
     0
 42
14.16000020556607
  3

  4

1001
ACAD
1000
Gilroy ExtraBold
1071
       34
  0
STYLE
  5
130
330
3
100
AcDbSymbolTableRecord
100
AcDbTextStyleTableRecord
  2
Style 36
 70
     0
 40
14.15999986058564
 41
1.005619992845603
 50
0.0
 71
     0
 42
14.15999986058564
  3

  4

1001
ACAD
1000
Gilroy ExtraBold
1071
       34
  0
STYLE
  5
132
330
3
100
AcDbSymbolTableRecord
100
AcDbTextStyleTableRecord
  2
Style 37
 70
     0
 40
14.16000029180828
 41
1.005620023470328
 50
0.0
 71
     0
 42
14.16000029180828
  3

  4

1001
ACAD
1000
Gilroy ExtraBold
1071
       34
  0
STYLE
  5
134
330
3
100
AcDbSymbolTableRecord
100
AcDbTextStyleTableRecord
  2
Style 38
 70
     0
 40
14.16000010618892
 41
1.005620010287945
 50
0.0
 71
     0
 42
14.16000010618892
  3

  4

1001
ACAD
1000
Gilroy ExtraBold
1071
       34
  0
STYLE
  5
136
330
3
100
AcDbSymbolTableRecord
100
AcDbTextStyleTableRecord
  2
Style 39
 70
     0
 40
14.15999982389808
 41
1.005619990240113
 50
0.0
 71
     0
 42
14.15999982389808
  3

  4

1001
ACAD
1000
Gilroy ExtraBold
1071
       34
  0
STYLE
  5
138
330
3
100
AcDbSymbolTableRecord
100
AcDbTextStyleTableRecord
  2
Style 40
 70
     0
 40
14.16000017990506
 41
1.005620015523145
 50
0.0
 71
     0
 42
14.16000017990506
  3

  4

1001
ACAD
1000
Gilroy ExtraBold
1071
       34
  0
STYLE
  5
13A
330
3
100
AcDbSymbolTableRecord
100
AcDbTextStyleTableRecord
  2
Style 41
 70
     0
 40
14.15999993033023
 41
1.005619997798749
 50
0.0
 71
     0
 42
14.15999993033023
  3

  4

1001
ACAD
1000
Gilroy ExtraBold
1071
       34
  0
STYLE
  5
13C
330
3
100
AcDbSymbolTableRecord
100
AcDbTextStyleTableRecord
  2
Style 42
 70
     0
 40
14.16000021594468
 41
1.00562001808262
 50
0.0
 71
     0
 42
14.16000021594468
  3

  4

1001
ACAD
1000
Gilroy ExtraBold
1071
       34
  0
STYLE
  5
13E
330
3
100
AcDbSymbolTableRecord
100
AcDbTextStyleTableRecord
  2
Style 43
 70
     0
 40
14.15999965026447
 41
1.005619977908938
 50
0.0
 71
     0
 42
14.15999965026447
  3

  4

1001
ACAD
1000
Gilroy ExtraBold
1071
       34
  0
STYLE
  5
140
330
3
100
AcDbSymbolTableRecord
100
AcDbTextStyleTableRecord
  2
Style 44
 70
     0
 40
14.16000033038654
 41
1.005620026210093
 50
0.0
 71
     0
 42
14.16000033038654
  3

  4

1001
ACAD
1000
Gilroy ExtraBold
1071
       34
  0
STYLE
  5
142
330
3
100
AcDbSymbolTableRecord
100
AcDbTextStyleTableRecord
  2
Style 45
 70
     0
 40
14.15999970296757
 41
1.005619981651825
 50
0.0
 71
     0
 42
14.15999970296757
  3

  4

1001
ACAD
1000
Gilroy ExtraBold
1071
       34
  0
STYLE
  5
144
330
3
100
AcDbSymbolTableRecord
100
AcDbTextStyleTableRecord
  2
Style 46
 70
     0
 40
14.15999959712936
 41
1.005619974135369
 50
0.0
 71
     0
 42
14.15999959712936
  3

  4

1001
ACAD
1000
Gilroy ExtraBold
1071
       34
  0
STYLE
  5
146
330
3
100
AcDbSymbolTableRecord
100
AcDbTextStyleTableRecord
  2
Style 47
 70
     0
 40
14.15999979846644
 41
1.005619988433999
 50
0.0
 71
     0
 42
14.15999979846644
  3

  4

1001
ACAD
1000
Gilroy ExtraBold
1071
       34
  0
STYLE
  5
148
330
3
100
AcDbSymbolTableRecord
100
AcDbTextStyleTableRecord
  2
Style 48
 70
     0
 40
14.16000033130449
 41
1.005620026275284
 50
0.0
 71
     0
 42
14.16000033130449
  3

  4

1001
ACAD
1000
Gilroy ExtraBold
1071
       34
  0
STYLE
  5
14A
330
3
100
AcDbSymbolTableRecord
100
AcDbTextStyleTableRecord
  2
Style 49
 70
     0
 40
14.16000021187105
 41
1.005620017793316
 50
0.0
 71
     0
 42
14.16000021187105
  3

  4

1001
ACAD
1000
Gilroy ExtraBold
1071
       34
  0
STYLE
  5
14C
330
3
100
AcDbSymbolTableRecord
100
AcDbTextStyleTableRecord
  2
Style 50
 70
     0
 40
14.15999953922224
 41
1.0056199700229
 50
0.0
 71
     0
 42
14.15999953922224
  3

  4

1001
ACAD
1000
Gilroy ExtraBold
1071
       34
  0
STYLE
  5
14E
330
3
100
AcDbSymbolTableRecord
100
AcDbTextStyleTableRecord
  2
Style 51
 70
     0
 40
14.1599998246436
 41
1.005619990293057
 50
0.0
 71
     0
 42
14.1599998246436
  3

  4

1001
ACAD
1000
Gilroy ExtraBold
1071
       34
  0
STYLE
  5
150
330
3
100
AcDbSymbolTableRecord
100
AcDbTextStyleTableRecord
  2
Style 52
 70
     0
 40
14.16000004178703
 41
1.005620005714229
 50
0.0
 71
     0
 42
14.16000004178703
  3

  4

1001
ACAD
1000
Gilroy ExtraBold
1071
       34
  0
STYLE
  5
152
330
3
100
AcDbSymbolTableRecord
100
AcDbTextStyleTableRecord
  2
Style 53
 70
     0
 40
14.16000012014754
 41
1.005620011279263
 50
0.0
 71
     0
 42
14.16000012014754
  3

  4

1001
ACAD
1000
Gilroy ExtraBold
1071
       34
  0
STYLE
  5
154
330
3
100
AcDbSymbolTableRecord
100
AcDbTextStyleTableRecord
  2
Style 54
 70
     0
 40
14.15999985019956
 41
1.005619992108
 50
0.0
 71
     0
 42
14.15999985019956
  3

  4

1001
ACAD
1000
Gilroy ExtraBold
1071
       34
  0
STYLE
  5
156
330
3
100
AcDbSymbolTableRecord
100
AcDbTextStyleTableRecord
  2
Style 55
 70
     0
 40
14.15999993749188
 41
1.005619998307357
 50
0.0
 71
     0
 42
14.15999993749188
  3

  4

1001
ACAD
1000
Gilroy ExtraBold
1071
       34
  0
STYLE
  5
158
330
3
100
AcDbSymbolTableRecord
100
AcDbTextStyleTableRecord
  2
Style 56
 70
     0
 40
14.15999969565829
 41
1.005619981132733
 50
0.0
 71
     0
 42
14.15999969565829
  3

  4

1001
ACAD
1000
Gilroy ExtraBold
1071
       34
  0
STYLE
  5
15A
330
3
100
AcDbSymbolTableRecord
100
AcDbTextStyleTableRecord
  2
Style 57
 70
     0
 40
14.15999988890209
 41
1.005619994856591
 50
0.0
 71
     0
 42
14.15999988890209
  3

  4

1001
ACAD
1000
Gilroy ExtraBold
1071
       34
  0
STYLE
  5
185
330
3
100
AcDbSymbolTableRecord
100
AcDbTextStyleTableRecord
  2
Style 58
 70
     0
 40
13.45200043195399
 41
1.000000032110764
 50
0.0
 71
     0
 42
13.45200043195399
  3

  4

1001
ACAD
1000
Gilroy ExtraBold
1071
       34
  0
STYLE
  5
187
330
3
100
AcDbSymbolTableRecord
100
AcDbTextStyleTableRecord
  2
Style 59
 70
     0
 40
13.45199996081789
 41
0.9999999970872651
 50
0.0
 71
     0
 42
13.45199996081789
  3

  4

1001
ACAD
1000
Gilroy ExtraBold
1071
       34
  0
STYLE
  5
189
330
3
100
AcDbSymbolTableRecord
100
AcDbTextStyleTableRecord
  2
Style 60
 70
     0
 40
13.45199947846114
 41
0.9999999612296415
 50
0.0
 71
     0
 42
13.45199947846114
  3

  4

1001
ACAD
1000
Gilroy ExtraBold
1071
       34
  0
STYLE
  5
18B
330
3
100
AcDbSymbolTableRecord
100
AcDbTextStyleTableRecord
  2
Style 61
 70
     0
 40
13.45200000874778
 41
1.000000000650296
 50
0.0
 71
     0
 42
13.45200000874778
  3

  4

1001
ACAD
1000
Gilroy ExtraBold
1071
       34
  0
STYLE
  5
18D
330
3
100
AcDbSymbolTableRecord
100
AcDbTextStyleTableRecord
  2
Style 62
 70
     0
 40
13.45199978552982
 41
0.9999999840566324
 50
0.0
 71
     0
 42
13.45199978552982
  3

  4

1001
ACAD
1000
Gilroy ExtraBold
1071
       34
  0
STYLE
  5
18F
330
3
100
AcDbSymbolTableRecord
100
AcDbTextStyleTableRecord
  2
Style 63
 70
     0
 40
13.45200011321328
 41
1.000000008416093
 50
0.0
 71
     0
 42
13.45200011321328
  3

  4

1001
ACAD
1000
Gilroy ExtraBold
1071
       34
  0
STYLE
  5
191
330
3
100
AcDbSymbolTableRecord
100
AcDbTextStyleTableRecord
  2
Style 64
 70
     0
 40
13.45199998767722
 41
0.9999999990839443
 50
0.0
 71
     0
 42
13.45199998767722
  3

  4

1001
ACAD
1000
Gilroy ExtraBold
1071
       34
  0
STYLE
  5
193
330
3
100
AcDbSymbolTableRecord
100
AcDbTextStyleTableRecord
  2
Style 65
 70
     0
 40
13.45200024315048
 41
1.000000018075415
 50
0.0
 71
     0
 42
13.45200024315048
  3

  4

1001
ACAD
1000
Gilroy ExtraBold
1071
       34
  0
STYLE
  5
195
330
3
100
AcDbSymbolTableRecord
100
AcDbTextStyleTableRecord
  2
Style 66
 70
     0
 40
13.452000083619
 41
1.000000006216102
 50
0.0
 71
     0
 42
13.452000083619
  3

  4

1001
ACAD
1000
Gilroy ExtraBold
1071
       34
  0
STYLE
  5
197
330
3
100
AcDbSymbolTableRecord
100
AcDbTextStyleTableRecord
  2
Style 67
 70
     0
 40
13.45200007501698
 41
1.000000005576642
 50
0.0
 71
     0
 42
13.45200007501698
  3

  4

1001
ACAD
1000
Gilroy ExtraBold
1071
       34
  0
STYLE
  5
199
330
3
100
AcDbSymbolTableRecord
100
AcDbTextStyleTableRecord
  2
Style 68
 70
     0
 40
13.45200016704657
 41
1.000000012417973
 50
0.0
 71
     0
 42
13.45200016704657
  3

  4

1001
ACAD
1000
Gilroy ExtraBold
1071
       34
  0
STYLE
  5
19B
330
3
100
AcDbSymbolTableRecord
100
AcDbTextStyleTableRecord
  2
Style 69
 70
     0
 40
13.45200014911482
 41
1.000000011084956
 50
0.0
 71
     0
 42
13.45200014911482
  3

  4

1001
ACAD
1000
Gilroy ExtraBold
1071
       34
  0
STYLE
  5
19D
330
3
100
AcDbSymbolTableRecord
100
AcDbTextStyleTableRecord
  2
Style 70
 70
     0
 40
13.45199973601747
 41
0.999999980375964
 50
0.0
 71
     0
 42
13.45199973601747
  3

  4

1001
ACAD
1000
Gilroy ExtraBold
1071
       34
  0
STYLE
  5
19F
330
3
100
AcDbSymbolTableRecord
100
AcDbTextStyleTableRecord
  2
Style 71
 70
     0
 40
13.45199987374567
 41
0.999999990614457
 50
0.0
 71
     0
 42
13.45199987374567
  3

  4

1001
ACAD
1000
Gilroy ExtraBold
1071
       34
  0
STYLE
  5
1A1
330
3
100
AcDbSymbolTableRecord
100
AcDbTextStyleTableRecord
  2
Style 72
 70
     0
 40
13.45200009944703
 41
1.000000007392732
 50
0.0
 71
     0
 42
13.45200009944703
  3

  4

1001
ACAD
1000
Gilroy ExtraBold
1071
       34
  0
STYLE
  5
1A3
330
3
100
AcDbSymbolTableRecord
100
AcDbTextStyleTableRecord
  2
Style 73
 70
     0
 40
13.45199977910332
 41
0.9999999835788972
 50
0.0
 71
     0
 42
13.45199977910332
  3

  4

1001
ACAD
1000
Gilroy ExtraBold
1071
       34
  0
STYLE
  5
1A5
330
3
100
AcDbSymbolTableRecord
100
AcDbTextStyleTableRecord
  2
Style 74
 70
     0
 40
13.45199983132218
 41
0.9999999874607627
 50
0.0
 71
     0
 42
13.45199983132218
  3

  4

1001
ACAD
1000
Gilroy ExtraBold
1071
       34
  0
STYLE
  5
1A7
330
3
100
AcDbSymbolTableRecord
100
AcDbTextStyleTableRecord
  2
Style 75
 70
     0
 40
13.45200024557901
 41
1.000000018255948
 50
0.0
 71
     0
 42
13.45200024557901
  3

  4

1001
ACAD
1000
Gilroy ExtraBold
1071
       34
  0
STYLE
  5
1A9
330
3
100
AcDbSymbolTableRecord
100
AcDbTextStyleTableRecord
  2
Style 76
 70
     0
 40
13.45200017572464
 41
1.000000013063087
 50
0.0
 71
     0
 42
13.45200017572464
  3

  4

1001
ACAD
1000
Gilroy ExtraBold
1071
       34
  0
STYLE
  5
1AB
330
3
100
AcDbSymbolTableRecord
100
AcDbTextStyleTableRecord
  2
Style 77
 70
     0
 40
13.45200039124263
 41
1.000000029084347
 50
0.0
 71
     0
 42
13.45200039124263
  3

  4

1001
ACAD
1000
Gilroy ExtraBold
1071
       34
  0
STYLE
  5
1AD
330
3
100
AcDbSymbolTableRecord
100
AcDbTextStyleTableRecord
  2
Style 78
 70
     0
 40
13.45200001634563
 41
1.000000001215108
 50
0.0
 71
     0
 42
13.45200001634563
  3

  4

1001
ACAD
1000
Gilroy ExtraBold
1071
       34
  0
STYLE
  5
1AF
330
3
100
AcDbSymbolTableRecord
100
AcDbTextStyleTableRecord
  2
Style 79
 70
     0
 40
13.45200025393378
 41
1.000000018877028
 50
0.0
 71
     0
 42
13.45200025393378
  3

  4

1001
ACAD
1000
Gilroy ExtraBold
1071
       34
  0
STYLE
  5
1B1
330
3
100
AcDbSymbolTableRecord
100
AcDbTextStyleTableRecord
  2
Style 80
 70
     0
 40
13.45200016593262
 41
1.000000012335164
 50
0.0
 71
     0
 42
13.45200016593262
  3

  4

1001
ACAD
1000
Gilroy ExtraBold
1071
       34
  0
STYLE
  5
1B3
330
3
100
AcDbSymbolTableRecord
100
AcDbTextStyleTableRecord
  2
Style 81
 70
     0
 40
13.45199971049785
 41
0.9999999784788771
 50
0.0
 71
     0
 42
13.45199971049785
  3

  4

1001
ACAD
1000
Gilroy ExtraBold
1071
       34
  0
STYLE
  5
1B5
330
3
100
AcDbSymbolTableRecord
100
AcDbTextStyleTableRecord
  2
Style 82
 70
     0
 40
13.45200038639527
 41
1.000000028724002
 50
0.0
 71
     0
 42
13.45200038639527
  3

  4

1001
ACAD
1000
Gilroy ExtraBold
1071
       34
  0
STYLE
  5
1B7
330
3
100
AcDbSymbolTableRecord
100
AcDbTextStyleTableRecord
  2
Style 83
 70
     0
 40
13.45200004650179
 41
1.000000003456868
 50
0.0
 71
     0
 42
13.45200004650179
  3

  4

1001
ACAD
1000
Gilroy ExtraBold
1071
       34
  0
STYLE
  5
1B9
330
3
100
AcDbSymbolTableRecord
100
AcDbTextStyleTableRecord
  2
Style 84
 70
     0
 40
13.45200033908291
 41
1.000000025206877
 50
0.0
 71
     0
 42
13.45200033908291
  3

  4

1001
ACAD
1000
Gilroy ExtraBold
1071
       34
  0
STYLE
  5
1BB
330
3
100
AcDbSymbolTableRecord
100
AcDbTextStyleTableRecord
  2
Style 85
 70
     0
 40
13.45200024477273
 41
1.00000001819601
 50
0.0
 71
     0
 42
13.45200024477273
  3

  4

1001
ACAD
1000
Gilroy ExtraBold
1071
       34
  0
STYLE
  5
1BD
330
3
100
AcDbSymbolTableRecord
100
AcDbTextStyleTableRecord
  2
Style 86
 70
     0
 40
13.4519997920619
 41
0.9999999845422173
 50
0.0
 71
     0
 42
13.4519997920619
  3

  4

1001
ACAD
1000
Gilroy ExtraBold
1071
       34
  0
STYLE
  5
1BF
330
3
100
AcDbSymbolTableRecord
100
AcDbTextStyleTableRecord
  2
Style 87
 70
     0
 40
13.45199952614089
 41
0.9999999647740776
 50
0.0
 71
     0
 42
13.45199952614089
  3

  4

1001
ACAD
1000
Gilroy ExtraBold
1071
       34
  0
STYLE
  5
1C1
330
3
100
AcDbSymbolTableRecord
100
AcDbTextStyleTableRecord
  2
Style 88
 70
     0
 40
13.45199999860168
 41
0.9999999998960512
 50
0.0
 71
     0
 42
13.45199999860168
  3

  4

1001
ACAD
1000
Gilroy ExtraBold
1071
       34
  0
STYLE
  5
1C3
330
3
100
AcDbSymbolTableRecord
100
AcDbTextStyleTableRecord
  2
Style 89
 70
     0
 40
13.45199991195247
 41
0.9999999934546882
 50
0.0
 71
     0
 42
13.45199991195247
  3

  4

1001
ACAD
1000
Gilroy ExtraBold
1071
       34
  0
STYLE
  5
1C5
330
3
100
AcDbSymbolTableRecord
100
AcDbTextStyleTableRecord
  2
Style 90
 70
     0
 40
13.45199987013613
 41
0.9999999903461294
 50
0.0
 71
     0
 42
13.45199987013613
  3

  4

1001
ACAD
1000
Gilroy ExtraBold
1071
       34
  0
ENDTAB
  0
TABLE
  2
VIEW
  5
6
330
0
100
AcDbSymbolTable
 70
     0
  0
ENDTAB
  0
TABLE
  2
UCS
  5
7
330
0
100
AcDbSymbolTable
 70
     0
  0
ENDTAB
  0
TABLE
  2
APPID
  5
9
330
0
100
AcDbSymbolTable
 70
     1
  0
APPID
  5
12
330
9
100
AcDbSymbolTableRecord
100
AcDbRegAppTableRecord
  2
ACAD
 70
     0
  0
ENDTAB
  0
TABLE
  2
DIMSTYLE
  5
A
330
0
100
AcDbSymbolTable
 70
     1
100
AcDbDimStyleTable
  0
DIMSTYLE
105
27
330
A
100
AcDbSymbolTableRecord
100
AcDbDimStyleTableRecord
  2
Standard
 70
     0
178
     0
340
11
  0
ENDTAB
  0
TABLE
  2
BLOCK_RECORD
  5
1
330
0
100
AcDbSymbolTable
 70
    65
  0
BLOCK_RECORD
  5
1F
330
1
100
AcDbSymbolTableRecord
100
AcDbBlockTableRecord
  2
*Model_Space
340
22
 70
     0
280
     1
281
     0
  0
BLOCK_RECORD
  5
1B
330
1
100
AcDbSymbolTableRecord
100
AcDbBlockTableRecord
  2
*Paper_Space
340
1E
 70
     0
280
     1
281
     0
  0
BLOCK_RECORD
  5
23
330
1
100
AcDbSymbolTableRecord
100
AcDbBlockTableRecord
  2
*Paper_Space0
340
26
 70
     0
280
     1
281
     0
  0
BLOCK_RECORD
  5
42
330
1
100
AcDbSymbolTableRecord
100
AcDbBlockTableRecord
  2
block 2
340
0
102
{BLKREFS
331
43
102
}
 70
     0
280
     1
281
     0
  0
BLOCK_RECORD
  5
48
330
1
100
AcDbSymbolTableRecord
100
AcDbBlockTableRecord
  2
block 3
340
0
102
{BLKREFS
331
49
102
}
 70
     0
280
     1
281
     0
  0
BLOCK_RECORD
  5
4C
330
1
100
AcDbSymbolTableRecord
100
AcDbBlockTableRecord
  2
block 4
340
0
102
{BLKREFS
331
4D
102
}
 70
     0
280
     1
281
     0
  0
BLOCK_RECORD
  5
96
330
1
100
AcDbSymbolTableRecord
100
AcDbBlockTableRecord
  2
block 5
340
0
102
{BLKREFS
331
97
102
}
 70
     0
280
     1
281
     0
  0
BLOCK_RECORD
  5
9A
330
1
100
AcDbSymbolTableRecord
100
AcDbBlockTableRecord
  2
block 6
340
0
102
{BLKREFS
331
9B
102
}
 70
     0
280
     1
281
     0
  0
BLOCK_RECORD
  5
CA
330
1
100
AcDbSymbolTableRecord
100
AcDbBlockTableRecord
  2
block 7
340
0
102
{BLKREFS
331
CB
102
}
 70
     0
280
     1
281
     0
  0
BLOCK_RECORD
  5
CE
330
1
100
AcDbSymbolTableRecord
100
AcDbBlockTableRecord
  2
block 8
340
0
102
{BLKREFS
331
CF
102
}
 70
     0
280
     1
281
     0
  0
BLOCK_RECORD
  5
D2
330
1
100
AcDbSymbolTableRecord
100
AcDbBlockTableRecord
  2
block 9
340
0
102
{BLKREFS
331
D3
102
}
 70
     0
280
     1
281
     0
  0
BLOCK_RECORD
  5
DA
330
1
100
AcDbSymbolTableRecord
100
AcDbBlockTableRecord
  2
block 10
340
0
102
{BLKREFS
331
DB
102
}
 70
     0
280
     1
281
     0
  0
BLOCK_RECORD
  5
E2
330
1
100
AcDbSymbolTableRecord
100
AcDbBlockTableRecord
  2
block 11
340
0
102
{BLKREFS
331
E3
102
}
 70
     0
280
     1
281
     0
  0
BLOCK_RECORD
  5
E8
330
1
100
AcDbSymbolTableRecord
100
AcDbBlockTableRecord
  2
block 12
340
0
102
{BLKREFS
331
E9
102
}
 70
     0
280
     1
281
     0
  0
BLOCK_RECORD
  5
EC
330
1
100
AcDbSymbolTableRecord
100
AcDbBlockTableRecord
  2
block 13
340
0
102
{BLKREFS
331
ED
102
}
 70
     0
280
     1
281
     0
  0
BLOCK_RECORD
  5
F4
330
1
100
AcDbSymbolTableRecord
100
AcDbBlockTableRecord
  2
block 14
340
0
102
{BLKREFS
331
F5
102
}
 70
     0
280
     1
281
     0
  0
BLOCK_RECORD
  5
F8
330
1
100
AcDbSymbolTableRecord
100
AcDbBlockTableRecord
  2
block 15
340
0
102
{BLKREFS
331
F9
102
}
 70
     0
280
     1
281
     0
  0
BLOCK_RECORD
  5
FC
330
1
100
AcDbSymbolTableRecord
100
AcDbBlockTableRecord
  2
block 16
340
0
102
{BLKREFS
331
FD
102
}
 70
     0
280
     1
281
     0
  0
BLOCK_RECORD
  5
104
330
1
100
AcDbSymbolTableRecord
100
AcDbBlockTableRecord
  2
block 17
340
0
102
{BLKREFS
331
105
102
}
 70
     0
280
     1
281
     0
  0
BLOCK_RECORD
  5
10C
330
1
100
AcDbSymbolTableRecord
100
AcDbBlockTableRecord
  2
block 18
340
0
102
{BLKREFS
331
10D
102
}
 70
     0
280
     1
281
     0
  0
BLOCK_RECORD
  5
111
330
1
100
AcDbSymbolTableRecord
100
AcDbBlockTableRecord
  2
block 19
340
0
102
{BLKREFS
331
112
102
}
 70
     0
280
     1
281
     0
  0
BLOCK_RECORD
  5
12B
330
1
100
AcDbSymbolTableRecord
100
AcDbBlockTableRecord
  2
block 20
340
0
102
{BLKREFS
331
12C
102
}
 70
     0
280
     1
281
     0
  0
BLOCK_RECORD
  5
15E
330
1
100
AcDbSymbolTableRecord
100
AcDbBlockTableRecord
  2
block 21
340
0
102
{BLKREFS
331
15F
102
}
 70
     0
280
     1
281
     0
  0
BLOCK_RECORD
  5
162
330
1
100
AcDbSymbolTableRecord
100
AcDbBlockTableRecord
  2
block 22
340
0
102
{BLKREFS
331
163
102
}
 70
     0
280
     1
281
     0
  0
BLOCK_RECORD
  5
168
330
1
100
AcDbSymbolTableRecord
100
AcDbBlockTableRecord
  2
block 23
340
0
102
{BLKREFS
331
169
102
}
 70
     0
280
     1
281
     0
  0
BLOCK_RECORD
  5
16C
330
1
100
AcDbSymbolTableRecord
100
AcDbBlockTableRecord
  2
block 24
340
0
102
{BLKREFS
331
16D
102
}
 70
     0
280
     1
281
     0
  0
BLOCK_RECORD
  5
174
330
1
100
AcDbSymbolTableRecord
100
AcDbBlockTableRecord
  2
block 25
340
0
102
{BLKREFS
331
175
102
}
 70
     0
280
     1
281
     0
  0
BLOCK_RECORD
  5
17C
330
1
100
AcDbSymbolTableRecord
100
AcDbBlockTableRecord
  2
block 26
340
0
102
{BLKREFS
331
17D
102
}
 70
     0
280
     1
281
     0
  0
BLOCK_RECORD
  5
180
330
1
100
AcDbSymbolTableRecord
100
AcDbBlockTableRecord
  2
block 27
340
0
102
{BLKREFS
331
181
102
}
 70
     0
280
     1
281
     0
  0
BLOCK_RECORD
  5
1C6
330
1
100
AcDbSymbolTableRecord
100
AcDbBlockTableRecord
  2
block 28
340
0
102
{BLKREFS
331
1C7
102
}
 70
     0
280
     1
281
     0
  0
BLOCK_RECORD
  5
1CA
330
1
100
AcDbSymbolTableRecord
100
AcDbBlockTableRecord
  2
block 29
340
0
102
{BLKREFS
331
1CB
102
}
 70
     0
280
     1
281
     0
  0
BLOCK_RECORD
  5
1CE
330
1
100
AcDbSymbolTableRecord
100
AcDbBlockTableRecord
  2
block 30
340
0
102
{BLKREFS
331
1CF
102
}
 70
     0
280
     1
281
     0
  0
BLOCK_RECORD
  5
1DD
330
1
100
AcDbSymbolTableRecord
100
AcDbBlockTableRecord
  2
block 31
340
0
102
{BLKREFS
331
1DE
102
}
 70
     0
280
     1
281
     0
  0
BLOCK_RECORD
  5
1EC
330
1
100
AcDbSymbolTableRecord
100
AcDbBlockTableRecord
  2
block 32
340
0
102
{BLKREFS
331
1ED
102
}
 70
     0
280
     1
281
     0
  0
BLOCK_RECORD
  5
1F2
330
1
100
AcDbSymbolTableRecord
100
AcDbBlockTableRecord
  2
block 33
340
0
102
{BLKREFS
331
1F3
102
}
 70
     0
280
     1
281
     0
  0
BLOCK_RECORD
  5
1F6
330
1
100
AcDbSymbolTableRecord
100
AcDbBlockTableRecord
  2
block 34
340
0
102
{BLKREFS
331
1F7
102
}
 70
     0
280
     1
281
     0
  0
BLOCK_RECORD
  5
206
330
1
100
AcDbSymbolTableRecord
100
AcDbBlockTableRecord
  2
block 35
340
0
102
{BLKREFS
331
207
102
}
 70
     0
280
     1
281
     0
  0
BLOCK_RECORD
  5
20C
330
1
100
AcDbSymbolTableRecord
100
AcDbBlockTableRecord
  2
block 36
340
0
102
{BLKREFS
331
20D
102
}
 70
     0
280
     1
281
     0
  0
BLOCK_RECORD
  5
210
330
1
100
AcDbSymbolTableRecord
100
AcDbBlockTableRecord
  2
block 37
340
0
102
{BLKREFS
331
211
102
}
 70
     0
280
     1
281
     0
  0
BLOCK_RECORD
  5
214
330
1
100
AcDbSymbolTableRecord
100
AcDbBlockTableRecord
  2
block 38
340
0
102
{BLKREFS
331
215
102
}
 70
     0
280
     1
281
     0
  0
BLOCK_RECORD
  5
21C
330
1
100
AcDbSymbolTableRecord
100
AcDbBlockTableRecord
  2
block 39
340
0
102
{BLKREFS
331
21D
102
}
 70
     0
280
     1
281
     0
  0
BLOCK_RECORD
  5
224
330
1
100
AcDbSymbolTableRecord
100
AcDbBlockTableRecord
  2
block 40
340
0
102
{BLKREFS
331
225
102
}
 70
     0
280
     1
281
     0
  0
BLOCK_RECORD
  5
228
330
1
100
AcDbSymbolTableRecord
100
AcDbBlockTableRecord
  2
block 41
340
0
102
{BLKREFS
331
229
102
}
 70
     0
280
     1
281
     0
  0
BLOCK_RECORD
  5
22E
330
1
100
AcDbSymbolTableRecord
100
AcDbBlockTableRecord
  2
block 42
340
0
102
{BLKREFS
331
22F
102
}
 70
     0
280
     1
281
     0
  0
BLOCK_RECORD
  5
248
330
1
100
AcDbSymbolTableRecord
100
AcDbBlockTableRecord
  2
block 43
340
0
102
{BLKREFS
331
249
102
}
 70
     0
280
     1
281
     0
  0
BLOCK_RECORD
  5
24E
330
1
100
AcDbSymbolTableRecord
100
AcDbBlockTableRecord
  2
block 44
340
0
102
{BLKREFS
331
24F
102
}
 70
     0
280
     1
281
     0
  0
BLOCK_RECORD
  5
252
330
1
100
AcDbSymbolTableRecord
100
AcDbBlockTableRecord
  2
block 45
340
0
102
{BLKREFS
331
253
102
}
 70
     0
280
     1
281
     0
  0
BLOCK_RECORD
  5
256
330
1
100
AcDbSymbolTableRecord
100
AcDbBlockTableRecord
  2
block 46
340
0
102
{BLKREFS
331
257
102
}
 70
     0
280
     1
281
     0
  0
BLOCK_RECORD
  5
25D
330
1
100
AcDbSymbolTableRecord
100
AcDbBlockTableRecord
  2
block 47
340
0
102
{BLKREFS
331
25E
102
}
 70
     0
280
     1
281
     0
  0
BLOCK_RECORD
  5
261
330
1
100
AcDbSymbolTableRecord
100
AcDbBlockTableRecord
  2
block 48
340
0
102
{BLKREFS
331
262
102
}
 70
     0
280
     1
281
     0
  0
BLOCK_RECORD
  5
265
330
1
100
AcDbSymbolTableRecord
100
AcDbBlockTableRecord
  2
block 49
340
0
102
{BLKREFS
331
266
102
}
 70
     0
280
     1
281
     0
  0
BLOCK_RECORD
  5
274
330
1
100
AcDbSymbolTableRecord
100
AcDbBlockTableRecord
  2
block 50
340
0
102
{BLKREFS
331
275
102
}
 70
     0
280
     1
281
     0
  0
BLOCK_RECORD
  5
283
330
1
100
AcDbSymbolTableRecord
100
AcDbBlockTableRecord
  2
block 51
340
0
102
{BLKREFS
331
284
102
}
 70
     0
280
     1
281
     0
  0
BLOCK_RECORD
  5
289
330
1
100
AcDbSymbolTableRecord
100
AcDbBlockTableRecord
  2
block 52
340
0
102
{BLKREFS
331
28A
102
}
 70
     0
280
     1
281
     0
  0
BLOCK_RECORD
  5
28D
330
1
100
AcDbSymbolTableRecord
100
AcDbBlockTableRecord
  2
block 53
340
0
102
{BLKREFS
331
28E
102
}
 70
     0
280
     1
281
     0
  0
BLOCK_RECORD
  5
295
330
1
100
AcDbSymbolTableRecord
100
AcDbBlockTableRecord
  2
block 54
340
0
102
{BLKREFS
331
296
102
}
 70
     0
280
     1
281
     0
  0
BLOCK_RECORD
  5
29D
330
1
100
AcDbSymbolTableRecord
100
AcDbBlockTableRecord
  2
block 55
340
0
102
{BLKREFS
331
29E
102
}
 70
     0
280
     1
281
     0
  0
BLOCK_RECORD
  5
2A1
330
1
100
AcDbSymbolTableRecord
100
AcDbBlockTableRecord
  2
block 56
340
0
102
{BLKREFS
331
2A2
102
}
 70
     0
280
     1
281
     0
  0
BLOCK_RECORD
  5
2A9
330
1
100
AcDbSymbolTableRecord
100
AcDbBlockTableRecord
  2
block 57
340
0
102
{BLKREFS
331
2AA
102
}
 70
     0
280
     1
281
     0
  0
BLOCK_RECORD
  5
2AD
330
1
100
AcDbSymbolTableRecord
100
AcDbBlockTableRecord
  2
block 58
340
0
102
{BLKREFS
331
2AE
102
}
 70
     0
280
     1
281
     0
  0
BLOCK_RECORD
  5
2B4
330
1
100
AcDbSymbolTableRecord
100
AcDbBlockTableRecord
  2
block 59
340
0
102
{BLKREFS
331
2B5
102
}
 70
     0
280
     1
281
     0
  0
BLOCK_RECORD
  5
2B8
330
1
100
AcDbSymbolTableRecord
100
AcDbBlockTableRecord
  2
block 60
340
0
102
{BLKREFS
331
2B9
102
}
 70
     0
280
     1
281
     0
  0
BLOCK_RECORD
  5
2BC
330
1
100
AcDbSymbolTableRecord
100
AcDbBlockTableRecord
  2
block 61
340
0
102
{BLKREFS
331
2BD
102
}
 70
     0
280
     1
281
     0
  0
BLOCK_RECORD
  5
2C4
330
1
100
AcDbSymbolTableRecord
100
AcDbBlockTableRecord
  2
block 62
340
0
102
{BLKREFS
331
2C5
102
}
 70
     0
280
     1
281
     0
  0
BLOCK_RECORD
  5
2CC
330
1
100
AcDbSymbolTableRecord
100
AcDbBlockTableRecord
  2
block 63
340
0
102
{BLKREFS
331
2CD
102
}
 70
     0
280
     1
281
     0
  0
BLOCK_RECORD
  5
2D0
330
1
100
AcDbSymbolTableRecord
100
AcDbBlockTableRecord
  2
block 64
340
0
102
{BLKREFS
331
2D1
102
}
 70
     0
280
     1
281
     0
  0
BLOCK_RECORD
  5
2EA
330
1
100
AcDbSymbolTableRecord
100
AcDbBlockTableRecord
  2
block 65
340
0
102
{BLKREFS
331
2EB
102
}
 70
     0
280
     1
281
     0
  0
ENDTAB
  0
ENDSEC
  0
SECTION
  2
BLOCKS
  0
BLOCK
  5
20
330
1F
100
AcDbEntity
  8
0
100
AcDbBlockBegin
  2
*Model_Space
 70
     0
 10
0.0
 20
0.0
 30
0.0
  3
*Model_Space
  1

  0
ENDBLK
  5
21
330
1F
100
AcDbEntity
  8
0
100
AcDbBlockEnd
  0
BLOCK
  5
1C
330
1B
100
AcDbEntity
 67
     1
  8
0
100
AcDbBlockBegin
  2
*Paper_Space
 70
     0
 10
0.0
 20
0.0
 30
0.0
  3
*Paper_Space
  1

  0
ENDBLK
  5
1D
330
1B
100
AcDbEntity
 67
     1
  8
0
100
AcDbBlockEnd
  0
BLOCK
  5
24
330
23
100
AcDbEntity
  8
0
100
AcDbBlockBegin
  2
*Paper_Space0
 70
     0
 10
0.0
 20
0.0
 30
0.0
  3
*Paper_Space0
  1

  0
ENDBLK
  5
25
330
23
100
AcDbEntity
  8
0
100
AcDbBlockEnd
  0
BLOCK
  5
44
330
42
100
AcDbEntity
  8
0
100
AcDbBlockBegin
  2
block 2
 70
     0
 10
0.0
 20
0.0
 30
0.0
  3
block 2
  1

  0
SPLINE
  5
46
330
42
100
AcDbEntity
  8
Objects
370
     0
100
AcDbSpline
210
0.0
220
0.0
230
1.0
 70
    11
 71
     3
 72
    17
 73
    13
 74
     0
 42
0.0000000001
 43
0.0000000001
 12
1.0
 22
0.0
 32
0.0
 13
1.0
 23
0.0
 33
0.0
 40
0.0
 40
0.0
 40
0.0
 40
0.0
 40
1.0
 40
1.0
 40
1.0
 40
2.0
 40
2.0
 40
2.0
 40
3.0
 40
3.0
 40
3.0
 40
4.0
 40
4.0
 40
4.0
 40
4.0
 10
248.8328937139522
 20
-153.8567000000003
 30
0.0
 10
248.8328937139522
 20
-107.3675000000003
 30
0.0
 10
211.1459999999997
 20
-69.6805000000004
 30
0.0
 10
164.6567958404194
 20
-69.6805000000004
 30
0.0
 10
118.1675970148353
 20
-69.6805000000004
 30
0.0
 10
80.48059999999987
 20
-107.3675000000003
 30
0.0
 10
80.48059999999987
 20
-153.8567000000003
 30
0.0
 10
80.48059999999987
 20
-200.3459000000003
 30
0.0
 10
118.1675970148353
 20
-238.0328
 30
0.0
 10
164.6567958404194
 20
-238.0328
 30
0.0
 10
211.1459999999997
 20
-238.0328
 30
0.0
 10
248.8328937139522
 20
-200.3459000000003
 30
0.0
 10
248.8328937139522
 20
-153.8567000000003
 30
0.0
  0
HATCH
  5
47
330
42
100
AcDbEntity
  8
Objects
 62
     2
420
 16777020
100
AcDbHatch
 10
0.0
 20
0.0
 30
0.0
210
0.0
220
0.0
230
1.0
  2
SOLID
 70
     1
 71
     0
 91
        1
 92
        1
 93
        1
 72
     4
 94
        3
 73
     0
 74
     1
 95
       17
 96
       13
 40
0.0
 40
0.0
 40
0.0
 40
0.0
 40
1.0
 40
1.0
 40
1.0
 40
2.0
 40
2.0
 40
2.0
 40
3.0
 40
3.0
 40
3.0
 40
4.0
 40
4.0
 40
4.0
 40
4.0
 10
248.8328937139522
 20
-153.8567000000003
 10
248.8328937139522
 20
-107.3675000000003
 10
211.1459999999997
 20
-69.6805000000004
 10
164.6567958404194
 20
-69.6805000000004
 10
118.1675970148353
 20
-69.6805000000004
 10
80.48059999999987
 20
-107.3675000000003
 10
80.48059999999987
 20
-153.8567000000003
 10
80.48059999999987
 20
-200.3459000000003
 10
118.1675970148353
 20
-238.0328
 10
164.6567958404194
 20
-238.0328
 10
211.1459999999997
 20
-238.0328
 10
248.8328937139522
 20
-200.3459000000003
 10
248.8328937139522
 20
-153.8567000000003
 97
        0
 97
        0
 75
     2
 76
     1
 98
        0
  0
INSERT
  5
49
330
42
100
AcDbEntity
  8
Objects
100
AcDbBlockReference
  2
block 3
 10
0.0
 20
0.0
 30
0.0
  0
ENDBLK
  5
45
330
42
100
AcDbEntity
  8
0
100
AcDbBlockEnd
  0
BLOCK
  5
4A
330
48
100
AcDbEntity
  8
0
100
AcDbBlockBegin
  2
block 3
 70
     0
 10
0.0
 20
0.0
 30
0.0
  3
block 3
  1

  0
INSERT
  5
4D
330
48
100
AcDbEntity
  8
Objects
100
AcDbBlockReference
  2
block 4
 10
0.0
 20
0.0
 30
0.0
  0
INSERT
  5
97
330
48
100
AcDbEntity
  8
Objects
100
AcDbBlockReference
  2
block 5
 10
0.0
 20
0.0
 30
0.0
  0
ENDBLK
  5
4B
330
48
100
AcDbEntity
  8
0
100
AcDbBlockEnd
  0
BLOCK
  5
4E
330
4C
100
AcDbEntity
  8
0
100
AcDbBlockBegin
  2
block 4
 70
     0
 10
0.0
 20
0.0
 30
0.0
  3
block 4
  1

  0
TEXT
  5
50
330
4C
100
AcDbEntity
  8
Objects
 62
     7
420
 16777215
100
AcDbText
 10
93.66929340362549
 20
-176.3555870056152
 30
0.0
 40
13.45200030550882
  1
#
 50
291.2344538690825
 41
1.000000022711033
  7
Style 1
100
AcDbText
  0
TEXT
  5
52
330
4C
100
AcDbEntity
  8
Objects
 62
     7
420
 16777215
100
AcDbText
 10
97.59751605987549
 20
-186.2222862243652
 30
0.0
 40
13.45200026423324
  1
S
 50
299.4230852232791
 41
1.000000019642673
  7
Style 2
100
AcDbText
  0
TEXT
  5
54
330
4C
100
AcDbEntity
  8
Objects
 62
     7
420
 16777215
100
AcDbText
 10
102.8597230911255
 20
-195.6290245056152
 30
0.0
 40
13.45200029905249
  1
O
 50
309.1255921966078
 41
1.000000022231081
  7
Style 3
100
AcDbText
  0
TEXT
  5
56
330
4C
100
AcDbEntity
  8
Objects
 62
     7
420
 16777215
100
AcDbText
 10
112.2264223098755
 20
-206.7842979431152
 30
0.0
 40
13.45199997940875
  1
C
 50
319.4840373336908
 41
0.9999999984692796
  7
Style 4
100
AcDbText
  0
TEXT
  5
58
330
4C
100
AcDbEntity
  8
Objects
 62
     7
420
 16777215
100
AcDbText
 10
121.5081605911255
 20
-214.3892784118652
 30
0.0
 40
13.45200009663309
  1
I
 50
326.2156021455804
 41
1.000000007183548
  7
Style 5
100
AcDbText
  0
TEXT
  5
5A
330
4C
100
AcDbEntity
  8
Objects
 62
     7
420
 16777215
100
AcDbText
 10
126.0438051223755
 20
-217.6104698181152
 30
0.0
 40
13.45199995649924
  1
A
 50
333.2264766161178
 41
0.9999999967662241
  7
Style 6
100
AcDbText
  0
TEXT
  5
5C
330
4C
100
AcDbEntity
  8
Objects
 62
     7
420
 16777215
100
AcDbText
 10
137.6409730911255
 20
-223.2354698181152
 30
0.0
 40
13.45199981958058
  1
L
 50
342.19051479655
 41
0.9999999865879111
  7
Style 7
100
AcDbText
  0
TEXT
  5
5E
330
4C
100
AcDbEntity
  8
Objects
 62
     7
420
 16777215
100
AcDbText
 10
147.4861879348755
 20
-226.4371299743652
 30
0.0
 40
13.45199971268121
  1
D
 50
351.6277186378673
 41
0.9999999786411838
  7
Style 8
100
AcDbText
  0
TEXT
  5
60
330
4C
100
AcDbEntity
  8
Objects
 62
     7
420
 16777215
100
AcDbText
 10
161.0667543411255
 20
-228.1021690368652
 30
0.0
 40
13.45199967881751
  1
I
 50
359.0018904501637
 41
0.9999999761238111
  7
Style 9
100
AcDbText
  0
TEXT
  5
62
330
4C
100
AcDbEntity
  8
Objects
 62
     7
420
 16777215
100
AcDbText
 10
166.4730043411255
 20
-228.2779502868652
 30
0.0
 40
13.4519997848495
  1
S
 50
4.939779518338672
 41
0.9999999840060584
  7
Style 10
100
AcDbText
  0
TEXT
  5
64
330
4C
100
AcDbEntity
  8
Objects
 62
     7
420
 16777215
100
AcDbText
 10
176.9778871536255
 20
-227.2891807556152
 30
0.0
 40
13.45199999527559
  1
T
 50
13.10985323288829
 41
0.9999999996487947
  7
Style 11
100
AcDbText
  0
TEXT
  5
66
330
4C
100
AcDbEntity
  8
Objects
 62
     7
420
 16777215
100
AcDbText
 10
185.9461488723755
 20
-225.2969932556152
 30
0.0
 40
13.45199989062825
  1
A
 50
21.08000151219116
 41
0.9999999918694802
  7
Style 12
100
AcDbText
  0
TEXT
  5
68
330
4C
100
AcDbEntity
  8
Objects
 62
     7
420
 16777215
100
AcDbText
 10
198.1668519973755
 20
-220.4796104431152
 30
0.0
 40
13.452000239366
  1
N
 50
31.56416143579718
 41
1.000000017794082
  7
Style 13
100
AcDbText
  0
TEXT
  5
6A
330
4C
100
AcDbEntity
  8
Objects
 62
     7
420
 16777215
100
AcDbText
 10
209.9612855911255
 20
-213.0030479431152
 30
0.0
 40
13.45199950610272
  1
C
 50
41.71208124303641
 41
0.9999999632844727
  7
Style 14
100
AcDbText
  0
TEXT
  5
6C
330
4C
100
AcDbEntity
  8
Objects
 62
     7
420
 16777215
100
AcDbText
 10
218.7415590286255
 20
-204.8472862243652
 30
0.0
 40
13.4519997961253
  1
I
 50
48.41654048457754
 41
0.9999999848442832
  7
Style 15
100
AcDbText
  0
TEXT
  5
6E
330
4C
100
AcDbEntity
  8
Objects
 62
     7
420
 16777215
100
AcDbText
 10
222.5887269973755
 20
-200.7945518493652
 30
0.0
 40
13.4519994701339
  1
N
 50
55.74214748680625
 41
0.999999960610608
  7
Style 16
100
AcDbText
  0
TEXT
  5
70
330
4C
100
AcDbEntity
  8
Objects
 62
     7
420
 16777215
100
AcDbText
 10
230.3782777786255
 20
-189.0801963806152
 30
0.0
 40
13.45199970415444
  1
G
 50
66.50389189749333
 41
0.9999999780073183
  7
Style 17
100
AcDbText
  0
TEXT
  5
72
330
4C
100
AcDbEntity
  8
Objects
 62
     7
420
 16777215
100
AcDbText
 10
104.6434144973755
 20
-144.6470909118652
 30
0.0
 40
14.15999979121684
  1
K
 50
76.17370498194727
 41
0.9999999852554264
  7
Style 18
100
AcDbText
  0
TEXT
  5
74
330
4C
100
AcDbEntity
  8
Objects
 62
     7
420
 16777215
100
AcDbText
 10
107.1048402786255
 20
-134.6378135681152
 30
0.0
 40
14.15999955136427
  1
E
 50
66.83170029813391
 41
0.9999999683166861
  7
Style 19
100
AcDbText
  0
TEXT
  5
76
330
4C
100
AcDbEntity
  8
Objects
 62
     7
420
 16777215
100
AcDbText
 10
110.7415590286255
 20
-126.0411338806152
 30
0.0
 40
14.15999976727364
  1
E
 50
57.98241162315694
 41
0.9999999835645229
  7
Style 20
100
AcDbText
  0
TEXT
  5
78
330
4C
100
AcDbEntity
  8
Objects
 62
     7
420
 16777215
100
AcDbText
 10
115.6248598098755
 20
-118.0948448181152
 30
0.0
 40
14.15999955519546
  1
P
 50
48.82223657378851
 41
0.9999999685872498
  7
Style 21
100
AcDbText
  0
TEXT
  5
7A
330
4C
100
AcDbEntity
  8
Objects
 62
     7
420
 16777215
100
AcDbText
 10
122.4964418411255
 20
-110.4874229431152
 30
0.0
 40
14.16000017487643
  1
 
 50
42.18140350401874
 41
1.00000001235003
  7
Style 22
100
AcDbText
  0
TEXT
  5
7C
330
4C
100
AcDbEntity
  8
Objects
 62
     7
420
 16777215
100
AcDbText
 10
124.5550355911255
 20
-108.3052940368652
 30
0.0
 40
14.15999993172565
  1
Y
 50
36.27658334009342
 41
0.9999999951783654
  7
Style 23
100
AcDbText
  0
TEXT
  5
7E
330
4C
100
AcDbEntity
  8
Objects
 62
     7
420
 16777215
100
AcDbText
 10
132.0784730911255
 20
-102.4688682556152
 30
0.0
 40
14.16000002344607
  1
O
 50
25.90133837761713
 41
1.000000001655796
  7
Style 24
100
AcDbText
  0
TEXT
  5
80
330
4C
100
AcDbEntity
  8
Objects
 62
     7
420
 16777215
100
AcDbText
 10
143.8748598098755
 20
-96.71203231811523
 30
0.0
 40
14.15999994249095
  1
U
 50
13.82629750515865
 41
0.9999999959386265
  7
Style 25
100
AcDbText
  0
TEXT
  5
82
330
4C
100
AcDbEntity
  8
Objects
 62
     7
420
 16777215
100
AcDbText
 10
155.8597230911255
 20
-93.81261825561523
 30
0.0
 40
14.16000016273889
  1
R
 50
3.196483737916499
 41
1.000000011492859
  7
Style 26
100
AcDbText
  0
TEXT
  5
84
330
4C
100
AcDbEntity
  8
Objects
 62
     7
420
 16777215
100
AcDbText
 10
166.2313051223755
 20
-93.40002059936523
 30
0.0
 40
14.15999961410328
  1
 
 50
356.5548793320929
 41
0.9999999727474068
  7
Style 27
100
AcDbText
  0
TEXT
  5
86
330
4C
100
AcDbEntity
  8
Objects
 62
     7
420
 16777215
100
AcDbText
 10
170.0355043411255
 20
-93.28478622436523
 30
0.0
 40
14.15999986055934
  1
D
 50
348.7043967702901
 41
0.999999990152496
  7
Style 28
100
AcDbText
  0
TEXT
  5
88
330
4C
100
AcDbEntity
  8
Objects
 62
     7
420
 16777215
100
AcDbText
 10
182.5853090286255
 20
-96.06896591186523
 30
0.0
 40
14.15999973495642
  1
I
 50
340.5084870510412
 41
0.9999999812822329
  7
Style 29
100
AcDbText
  0
TEXT
  5
8A
330
4C
100
AcDbEntity
  8
Objects
 62
     7
420
 16777215
100
AcDbText
 10
186.7737855911255
 20
-97.37218856811523
 30
0.0
 40
14.16000011332976
  1
S
 50
333.9240300033214
 41
1.000000008003514
  7
Style 30
100
AcDbText
  0
TEXT
  5
8C
330
4C
100
AcDbEntity
  8
Objects
 62
     7
420
 16777215
100
AcDbText
 10
195.1981019973755
 20
-101.4493370056152
 30
0.0
 40
14.16000000405704
  1
T
 50
325.0334530771805
 41
1.000000000286514
  7
Style 31
100
AcDbText
  0
TEXT
  5
8E
330
4C
100
AcDbEntity
  8
Objects
 62
     7
420
 16777215
100
AcDbText
 10
201.8743715286255
 20
-105.8345909118652
 30
0.0
 40
14.16000013700135
  1
A
 50
316.4516314207909
 41
1.000000009675237
  7
Style 32
100
AcDbText
  0
TEXT
  5
90
330
4C
100
AcDbEntity
  8
Objects
 62
     7
420
 16777215
100
AcDbText
 10
210.3670473098755
 20
-113.7584190368652
 30
0.0
 40
14.16000025899431
  1
N
 50
305.1169635346654
 41
1.000000018290558
  7
Style 33
100
AcDbText
  0
TEXT
  5
92
330
4C
100
AcDbEntity
  8
Objects
 62
     7
420
 16777215
100
AcDbText
 10
217.5648012161255
 20
-124.0157432556152
 30
0.0
 40
14.16000000096098
  1
C
 50
294.0001550774453
 41
1.000000000067866
  7
Style 34
100
AcDbText
  0
TEXT
  5
94
330
4C
100
AcDbEntity
  8
Objects
 62
     7
420
 16777215
100
AcDbText
 10
222.0330629348755
 20
-134.1182823181152
 30
0.0
 40
14.16000020556607
  1
E
 50
284.3176244484163
 41
1.000000014517378
  7
Style 35
100
AcDbText
  0
ENDBLK
  5
4F
330
4C
100
AcDbEntity
  8
0
100
AcDbBlockEnd
  0
BLOCK
  5
98
330
96
100
AcDbEntity
  8
0
100
AcDbBlockBegin
  2
block 5
 70
     0
 10
0.0
 20
0.0
 30
0.0
  3
block 5
  1

  0
INSERT
  5
9B
330
96
100
AcDbEntity
  8
Objects
100
AcDbBlockReference
  2
block 6
 10
0.0
 20
0.0
 30
0.0
  0
INSERT
  5
CB
330
96
100
AcDbEntity
  8
Objects
100
AcDbBlockReference
  2
block 7
 10
0.0
 20
0.0
 30
0.0
  0
ENDBLK
  5
99
330
96
100
AcDbEntity
  8
0
100
AcDbBlockEnd
  0
BLOCK
  5
9C
330
9A
100
AcDbEntity
  8
0
100
AcDbBlockBegin
  2
block 6
 70
     0
 10
0.0
 20
0.0
 30
0.0
  3
block 6
  1

  0
POLYLINE
  5
9E
330
9A
100
AcDbEntity
  8
Objects
370
     0
100
AcDb2dPolyline
 66
     1
 10
0.0
 20
0.0
 30
0.0
  0
VERTEX
  5
9F
330
9E
100
AcDbEntity
  8
Objects
370
     0
100
AcDbVertex
100
AcDb2dVertex
 10
164.4944958445194
 20
-102.3762999999999
 30
0.0
  0
VERTEX
  5
A0
330
9E
100
AcDbEntity
  8
Objects
370
     0
100
AcDbVertex
100
AcDb2dVertex
 10
154.7836960898348
 20
-112.2190000000001
 30
0.0
  0
VERTEX
  5
A1
330
9E
100
AcDbEntity
  8
Objects
370
     0
100
AcDbVertex
100
AcDb2dVertex
 10
161.6090959174107
 20
-112.2190000000001
 30
0.0
  0
VERTEX
  5
A2
330
9E
100
AcDbEntity
  8
Objects
370
     0
100
AcDbVertex
100
AcDb2dVertex
 10
161.6090959174107
 20
-116.6616999999997
 30
0.0
  0
VERTEX
  5
A3
330
9E
100
AcDbEntity
  8
Objects
370
     0
100
AcDbVertex
100
AcDb2dVertex
 10
167.3797957716306
 20
-116.6616999999997
 30
0.0
  0
VERTEX
  5
A4
330
9E
100
AcDbEntity
  8
Objects
370
     0
100
AcDbVertex
100
AcDb2dVertex
 10
167.3797957716306
 20
-112.2190000000001
 30
0.0
  0
VERTEX
  5
A5
330
9E
100
AcDbEntity
  8
Objects
370
     0
100
AcDbVertex
100
AcDb2dVertex
 10
174.2051955992065
 20
-112.2190000000001
 30
0.0
  0
VERTEX
  5
A6
330
9E
100
AcDbEntity
  8
Objects
370
     0
100
AcDbVertex
100
AcDb2dVertex
 10
164.4944958445194
 20
-102.3762999999999
 30
0.0
  0
SEQEND
  5
A8
330
9E
100
AcDbEntity
  8
Objects
370
     0
  0
HATCH
  5
A7
330
9A
100
AcDbEntity
  8
Objects
 62
     7
420
 16777215
100
AcDbHatch
 10
0.0
 20
0.0
 30
0.0
210
0.0
220
0.0
230
1.0
  2
SOLID
 70
     1
 71
     0
 91
        1
 92
        1
 93
        7
 72
     1
 10
164.4944958445194
 20
-102.3762999999999
 11
154.7836960898348
 21
-112.2190000000001
 72
     1
 10
154.7836960898348
 20
-112.2190000000001
 11
161.6090959174107
 21
-112.2190000000001
 72
     1
 10
161.6090959174107
 20
-112.2190000000001
 11
161.6090959174107
 21
-116.6616999999997
 72
     1
 10
161.6090959174107
 20
-116.6616999999997
 11
167.3797957716306
 21
-116.6616999999997
 72
     1
 10
167.3797957716306
 20
-116.6616999999997
 11
167.3797957716306
 21
-112.2190000000001
 72
     1
 10
167.3797957716306
 20
-112.2190000000001
 11
174.2051955992065
 21
-112.2190000000001
 72
     1
 10
174.2051955992065
 20
-112.2190000000001
 11
164.4944958445194
 21
-102.3762999999999
 97
        0
 75
     2
 76
     1
 98
        0
  0
POLYLINE
  5
A9
330
9A
100
AcDbEntity
  8
Objects
370
     0
100
AcDb2dPolyline
 66
     1
 10
0.0
 20
0.0
 30
0.0
  0
VERTEX
  5
AA
330
A9
100
AcDbEntity
  8
Objects
370
     0
100
AcDbVertex
100
AcDb2dVertex
 10
164.4943958445219
 20
-205.4526999999998
 30
0.0
  0
VERTEX
  5
AB
330
A9
100
AcDbEntity
  8
Objects
370
     0
100
AcDbVertex
100
AcDb2dVertex
 10
174.2051955992065
 20
-195.6099999999997
 30
0.0
  0
VERTEX
  5
AC
330
A9
100
AcDbEntity
  8
Objects
370
     0
100
AcDbVertex
100
AcDb2dVertex
 10
167.3797957716306
 20
-195.6099999999997
 30
0.0
  0
VERTEX
  5
AD
330
A9
100
AcDbEntity
  8
Objects
370
     0
100
AcDbVertex
100
AcDb2dVertex
 10
167.3797957716306
 20
-191.1673000000001
 30
0.0
  0
VERTEX
  5
AE
330
A9
100
AcDbEntity
  8
Objects
370
     0
100
AcDbVertex
100
AcDb2dVertex
 10
161.6090959174107
 20
-191.1673000000001
 30
0.0
  0
VERTEX
  5
AF
330
A9
100
AcDbEntity
  8
Objects
370
     0
100
AcDbVertex
100
AcDb2dVertex
 10
161.6090959174107
 20
-195.6099999999997
 30
0.0
  0
VERTEX
  5
B0
330
A9
100
AcDbEntity
  8
Objects
370
     0
100
AcDbVertex
100
AcDb2dVertex
 10
154.7836960898348
 20
-195.6099999999997
 30
0.0
  0
VERTEX
  5
B1
330
A9
100
AcDbEntity
  8
Objects
370
     0
100
AcDbVertex
100
AcDb2dVertex
 10
164.4943958445219
 20
-205.4526999999998
 30
0.0
  0
SEQEND
  5
B3
330
A9
100
AcDbEntity
  8
Objects
370
     0
  0
HATCH
  5
B2
330
9A
100
AcDbEntity
  8
Objects
 62
     7
420
 16777215
100
AcDbHatch
 10
0.0
 20
0.0
 30
0.0
210
0.0
220
0.0
230
1.0
  2
SOLID
 70
     1
 71
     0
 91
        1
 92
        1
 93
        7
 72
     1
 10
164.4943958445219
 20
-205.4526999999998
 11
174.2051955992065
 21
-195.6099999999997
 72
     1
 10
174.2051955992065
 20
-195.6099999999997
 11
167.3797957716306
 21
-195.6099999999997
 72
     1
 10
167.3797957716306
 20
-195.6099999999997
 11
167.3797957716306
 21
-191.1673000000001
 72
     1
 10
167.3797957716306
 20
-191.1673000000001
 11
161.6090959174107
 21
-191.1673000000001
 72
     1
 10
161.6090959174107
 20
-191.1673000000001
 11
161.6090959174107
 21
-195.6099999999997
 72
     1
 10
161.6090959174107
 20
-195.6099999999997
 11
154.7836960898348
 21
-195.6099999999997
 72
     1
 10
154.7836960898348
 20
-195.6099999999997
 11
164.4943958445219
 21
-205.4526999999998
 97
        0
 75
     2
 76
     1
 98
        0
  0
POLYLINE
  5
B4
330
9A
100
AcDbEntity
  8
Objects
370
     0
100
AcDb2dPolyline
 66
     1
 10
0.0
 20
0.0
 30
0.0
  0
VERTEX
  5
B5
330
B4
100
AcDbEntity
  8
Objects
370
     0
100
AcDbVertex
100
AcDb2dVertex
 10
216.0325945425575
 20
-153.9144999999999
 30
0.0
  0
VERTEX
  5
B6
330
B4
100
AcDbEntity
  8
Objects
370
     0
100
AcDbVertex
100
AcDb2dVertex
 10
206.189894791205
 20
-144.2038000000002
 30
0.0
  0
VERTEX
  5
B7
330
B4
100
AcDbEntity
  8
Objects
370
     0
100
AcDbVertex
100
AcDb2dVertex
 10
206.189894791205
 20
-151.0290999999997
 30
0.0
  0
VERTEX
  5
B8
330
B4
100
AcDbEntity
  8
Objects
370
     0
100
AcDbVertex
100
AcDb2dVertex
 10
201.7472949034345
 20
-151.0290999999997
 30
0.0
  0
VERTEX
  5
B9
330
B4
100
AcDbEntity
  8
Objects
370
     0
100
AcDbVertex
100
AcDb2dVertex
 10
201.7472949034345
 20
-156.7999
 30
0.0
  0
VERTEX
  5
BA
330
B4
100
AcDbEntity
  8
Objects
370
     0
100
AcDbVertex
100
AcDb2dVertex
 10
206.189894791205
 20
-156.7999
 30
0.0
  0
VERTEX
  5
BB
330
B4
100
AcDbEntity
  8
Objects
370
     0
100
AcDbVertex
100
AcDb2dVertex
 10
206.189894791205
 20
-163.6252999999997
 30
0.0
  0
VERTEX
  5
BC
330
B4
100
AcDbEntity
  8
Objects
370
     0
100
AcDbVertex
100
AcDb2dVertex
 10
216.0325945425575
 20
-153.9144999999999
 30
0.0
  0
SEQEND
  5
BE
330
B4
100
AcDbEntity
  8
Objects
370
     0
  0
HATCH
  5
BD
330
9A
100
AcDbEntity
  8
Objects
 62
     7
420
 16777215
100
AcDbHatch
 10
0.0
 20
0.0
 30
0.0
210
0.0
220
0.0
230
1.0
  2
SOLID
 70
     1
 71
     0
 91
        1
 92
        1
 93
        7
 72
     1
 10
216.0325945425575
 20
-153.9144999999999
 11
206.189894791205
 21
-144.2038000000002
 72
     1
 10
206.189894791205
 20
-144.2038000000002
 11
206.189894791205
 21
-151.0290999999997
 72
     1
 10
206.189894791205
 20
-151.0290999999997
 11
201.7472949034345
 21
-151.0290999999997
 72
     1
 10
201.7472949034345
 20
-151.0290999999997
 11
201.7472949034345
 21
-156.7999
 72
     1
 10
201.7472949034345
 20
-156.7999
 11
206.189894791205
 21
-156.7999
 72
     1
 10
206.189894791205
 20
-156.7999
 11
206.189894791205
 21
-163.6252999999997
 72
     1
 10
206.189894791205
 20
-163.6252999999997
 11
216.0325945425575
 21
-153.9144999999999
 97
        0
 75
     2
 76
     1
 98
        0
  0
POLYLINE
  5
BF
330
9A
100
AcDbEntity
  8
Objects
370
     0
100
AcDb2dPolyline
 66
     1
 10
0.0
 20
0.0
 30
0.0
  0
VERTEX
  5
C0
330
BF
100
AcDbEntity
  8
Objects
370
     0
100
AcDbVertex
100
AcDb2dVertex
 10
112.9562971464838
 20
-153.9144999999999
 30
0.0
  0
VERTEX
  5
C1
330
BF
100
AcDbEntity
  8
Objects
370
     0
100
AcDbVertex
100
AcDb2dVertex
 10
122.799
 20
-163.6252999999997
 30
0.0
  0
VERTEX
  5
C2
330
BF
100
AcDbEntity
  8
Objects
370
     0
100
AcDbVertex
100
AcDb2dVertex
 10
122.799
 20
-156.7999
 30
0.0
  0
VERTEX
  5
C3
330
BF
100
AcDbEntity
  8
Objects
370
     0
100
AcDbVertex
100
AcDb2dVertex
 10
127.2415967856068
 20
-156.7999
 30
0.0
  0
VERTEX
  5
C4
330
BF
100
AcDbEntity
  8
Objects
370
     0
100
AcDbVertex
100
AcDb2dVertex
 10
127.2415967856068
 20
-151.0290999999997
 30
0.0
  0
VERTEX
  5
C5
330
BF
100
AcDbEntity
  8
Objects
370
     0
100
AcDbVertex
100
AcDb2dVertex
 10
122.799
 20
-151.0290999999997
 30
0.0
  0
VERTEX
  5
C6
330
BF
100
AcDbEntity
  8
Objects
370
     0
100
AcDbVertex
100
AcDb2dVertex
 10
122.799
 20
-144.2038000000002
 30
0.0
  0
VERTEX
  5
C7
330
BF
100
AcDbEntity
  8
Objects
370
     0
100
AcDbVertex
100
AcDb2dVertex
 10
112.9562971464838
 20
-153.9144999999999
 30
0.0
  0
SEQEND
  5
C9
330
BF
100
AcDbEntity
  8
Objects
370
     0
  0
HATCH
  5
C8
330
9A
100
AcDbEntity
  8
Objects
 62
     7
420
 16777215
100
AcDbHatch
 10
0.0
 20
0.0
 30
0.0
210
0.0
220
0.0
230
1.0
  2
SOLID
 70
     1
 71
     0
 91
        1
 92
        1
 93
        7
 72
     1
 10
112.9562971464838
 20
-153.9144999999999
 11
122.799
 21
-163.6252999999997
 72
     1
 10
122.799
 20
-163.6252999999997
 11
122.799
 21
-156.7999
 72
     1
 10
122.799
 20
-156.7999
 11
127.2415967856068
 21
-156.7999
 72
     1
 10
127.2415967856068
 20
-156.7999
 11
127.2415967856068
 21
-151.0290999999997
 72
     1
 10
127.2415967856068
 20
-151.0290999999997
 11
122.799
 21
-151.0290999999997
 72
     1
 10
122.799
 20
-151.0290999999997
 11
122.799
 21
-144.2038000000002
 72
     1
 10
122.799
 20
-144.2038000000002
 11
112.9562971464838
 21
-153.9144999999999
 97
        0
 75
     2
 76
     1
 98
        0
  0
ENDBLK
  5
9D
330
9A
100
AcDbEntity
  8
0
100
AcDbBlockEnd
  0
BLOCK
  5
CC
330
CA
100
AcDbEntity
  8
0
100
AcDbBlockBegin
  2
block 7
 70
     0
 10
0.0
 20
0.0
 30
0.0
  3
block 7
  1

  0
INSERT
  5
CF
330
CA
100
AcDbEntity
  8
Objects
100
AcDbBlockReference
  2
block 8
 10
0.0
 20
0.0
 30
0.0
  0
INSERT
  5
E3
330
CA
100
AcDbEntity
  8
Objects
100
AcDbBlockReference
  2
block 11
 10
0.0
 20
0.0
 30
0.0
  0
ENDBLK
  5
CD
330
CA
100
AcDbEntity
  8
0
100
AcDbBlockEnd
  0
BLOCK
  5
D0
330
CE
100
AcDbEntity
  8
0
100
AcDbBlockBegin
  2
block 8
 70
     0
 10
0.0
 20
0.0
 30
0.0
  3
block 8
  1

  0
INSERT
  5
D3
330
CE
100
AcDbEntity
  8
Objects
100
AcDbBlockReference
  2
block 9
 10
0.0
 20
0.0
 30
0.0
  0
INSERT
  5
DB
330
CE
100
AcDbEntity
  8
Objects
100
AcDbBlockReference
  2
block 10
 10
0.0
 20
0.0
 30
0.0
  0
ENDBLK
  5
D1
330
CE
100
AcDbEntity
  8
0
100
AcDbBlockEnd
  0
BLOCK
  5
D4
330
D2
100
AcDbEntity
  8
0
100
AcDbBlockBegin
  2
block 9
 70
     0
 10
0.0
 20
0.0
 30
0.0
  3
block 9
  1

  0
SPLINE
  5
D6
330
D2
100
AcDbEntity
  8
Objects
370
     0
100
AcDbSpline
210
0.0
220
0.0
230
1.0
 70
    11
 71
     3
 72
    23
 73
    19
 74
     0
 42
0.0000000001
 43
0.0000000001
 12
1.0
 22
0.0
 32
0.0
 13
1.0
 23
0.0
 33
0.0
 40
0.0
 40
0.0
 40
0.0
 40
0.0
 40
1.0
 40
1.0
 40
1.0
 40
2.0
 40
2.0
 40
2.0
 40
3.0
 40
3.0
 40
3.0
 40
4.0
 40
4.0
 40
4.0
 40
5.0
 40
5.0
 40
5.0
 40
6.0
 40
6.0
 40
6.0
 40
6.0
 10
161.1031959301909
 20
-136.3671000000004
 30
0.0
 10
160.2300959522472
 20
-123.5658000000003
 30
0.0
 10
150.3829999999998
 20
-124.1566999999995
 30
0.0
 10
150.3829999999998
 20
-124.1566999999995
 30
0.0
 10
150.3829999999998
 20
-124.1566999999995
 30
0.0
 10
140.890796440799
 20
-122.4449999999997
 30
0.0
 10
137.5365965255332
 20
-136.5880999999999
 30
0.0
 10
136.7468965454827
 20
-139.9177
 30
0.0
 10
136.539896550712
 20
-143.3561
 30
0.0
 10
136.7995965441514
 20
-146.7682000000004
 30
0.0
 10
137.0694965373332
 20
-150.3146999999999
 30
0.0
 10
137.6974965214686
 20
-155.6117999999997
 30
0.0
 10
139.1534964846869
 20
-160.4002
 30
0.0
 10
139.1534964846869
 20
-160.4002
 30
0.0
 10
157.3594960247647
 20
-158.3404
 30
0.0
 10
157.3594960247647
 20
-158.3404
 30
0.0
 10
158.3770000000004
 20
-152.3299999999999
 30
0.0
 10
161.7966959126716
 20
-146.5344999999998
 30
0.0
 10
161.1031959301909
 20
-136.3671000000004
 30
0.0
  0
HATCH
  5
D7
330
D2
100
AcDbEntity
  8
Objects
 62
     7
420
 16777215
100
AcDbHatch
 10
0.0
 20
0.0
 30
0.0
210
0.0
220
0.0
230
1.0
  2
SOLID
 70
     1
 71
     0
 91
        1
 92
        1
 93
        1
 72
     4
 94
        3
 73
     0
 74
     1
 95
       23
 96
       19
 40
0.0
 40
0.0
 40
0.0
 40
0.0
 40
1.0
 40
1.0
 40
1.0
 40
2.0
 40
2.0
 40
2.0
 40
3.0
 40
3.0
 40
3.0
 40
4.0
 40
4.0
 40
4.0
 40
5.0
 40
5.0
 40
5.0
 40
6.0
 40
6.0
 40
6.0
 40
6.0
 10
161.1031959301909
 20
-136.3671000000004
 10
160.2300959522472
 20
-123.5658000000003
 10
150.3829999999998
 20
-124.1566999999995
 10
150.3829999999998
 20
-124.1566999999995
 10
150.3829999999998
 20
-124.1566999999995
 10
140.890796440799
 20
-122.4449999999997
 10
137.5365965255332
 20
-136.5880999999999
 10
136.7468965454827
 20
-139.9177
 10
136.539896550712
 20
-143.3561
 10
136.7995965441514
 20
-146.7682000000004
 10
137.0694965373332
 20
-150.3146999999999
 10
137.6974965214686
 20
-155.6117999999997
 10
139.1534964846869
 20
-160.4002
 10
139.1534964846869
 20
-160.4002
 10
157.3594960247647
 20
-158.3404
 10
157.3594960247647
 20
-158.3404
 10
158.3770000000004
 20
-152.3299999999999
 10
161.7966959126716
 20
-146.5344999999998
 10
161.1031959301909
 20
-136.3671000000004
 97
        0
 97
        0
 75
     2
 76
     1
 98
        0
  0
SPLINE
  5
D8
330
D2
100
AcDbEntity
  8
Objects
370
     0
100
AcDbSpline
210
0.0
220
0.0
230
1.0
 70
    11
 71
     3
 72
    20
 73
    16
 74
     0
 42
0.0000000001
 43
0.0000000001
 12
1.0
 22
0.0
 32
0.0
 13
1.0
 23
0.0
 33
0.0
 40
0.0
 40
0.0
 40
0.0
 40
0.0
 40
1.0
 40
1.0
 40
1.0
 40
2.0
 40
2.0
 40
2.0
 40
3.0
 40
3.0
 40
3.0
 40
4.0
 40
4.0
 40
4.0
 40
5.0
 40
5.0
 40
5.0
 40
5.0
 10
140.826
 20
-166.3869000000004
 30
0.0
 10
142.0749999999998
 20
-174.0835999999999
 30
0.0
 10
140.8379999999997
 20
-183.2548999999999
 30
0.0
 10
150.571496196244
 20
-185.0002999999997
 30
0.0
 10
152.8641961383255
 20
-185.4114
 30
0.0
 10
155.2663960776408
 20
-184.7304999999997
 30
0.0
 10
156.8897960366303
 20
-183.0600999999997
 30
0.0
 10
158.1610960045145
 20
-181.7519000000002
 30
0.0
 10
159.2661959765974
 20
-179.8689000000004
 30
0.0
 10
159.2910000000002
 20
-176.2735000000002
 30
0.0
 10
159.3321959749301
 20
-170.2977000000001
 30
0.0
 10
158.0636960069751
 20
-168.9979999999996
 30
0.0
 10
157.2403960277734
 20
-164.5298000000003
 30
0.0
 10
157.2403960277734
 20
-164.5298000000003
 30
0.0
 10
140.826
 20
-166.3869000000004
 30
0.0
 10
140.826
 20
-166.3869000000004
 30
0.0
  0
HATCH
  5
D9
330
D2
100
AcDbEntity
  8
Objects
 62
     7
420
 16777215
100
AcDbHatch
 10
0.0
 20
0.0
 30
0.0
210
0.0
220
0.0
230
1.0
  2
SOLID
 70
     1
 71
     0
 91
        1
 92
        1
 93
        1
 72
     4
 94
        3
 73
     0
 74
     1
 95
       20
 96
       16
 40
0.0
 40
0.0
 40
0.0
 40
0.0
 40
1.0
 40
1.0
 40
1.0
 40
2.0
 40
2.0
 40
2.0
 40
3.0
 40
3.0
 40
3.0
 40
4.0
 40
4.0
 40
4.0
 40
5.0
 40
5.0
 40
5.0
 40
5.0
 10
140.826
 20
-166.3869000000004
 10
142.0749999999998
 20
-174.0835999999999
 10
140.8379999999997
 20
-183.2548999999999
 10
150.571496196244
 20
-185.0002999999997
 10
152.8641961383255
 20
-185.4114
 10
155.2663960776408
 20
-184.7304999999997
 10
156.8897960366303
 20
-183.0600999999997
 10
158.1610960045145
 20
-181.7519000000002
 10
159.2661959765974
 20
-179.8689000000004
 10
159.2910000000002
 20
-176.2735000000002
 10
159.3321959749301
 20
-170.2977000000001
 10
158.0636960069751
 20
-168.9979999999996
 10
157.2403960277734
 20
-164.5298000000003
 10
157.2403960277734
 20
-164.5298000000003
 10
140.826
 20
-166.3869000000004
 10
140.826
 20
-166.3869000000004
 97
        0
 97
        0
 75
     2
 76
     1
 98
        0
  0
ENDBLK
  5
D5
330
D2
100
AcDbEntity
  8
0
100
AcDbBlockEnd
  0
BLOCK
  5
DC
330
DA
100
AcDbEntity
  8
0
100
AcDbBlockBegin
  2
block 10
 70
     0
 10
0.0
 20
0.0
 30
0.0
  3
block 10
  1

  0
SPLINE
  5
DE
330
DA
100
AcDbEntity
  8
Objects
370
     0
100
AcDbSpline
210
0.0
220
0.0
230
1.0
 70
    11
 71
     3
 72
    23
 73
    19
 74
     0
 42
0.0000000001
 43
0.0000000001
 12
1.0
 22
0.0
 32
0.0
 13
1.0
 23
0.0
 33
0.0
 40
0.0
 40
0.0
 40
0.0
 40
0.0
 40
1.0
 40
1.0
 40
1.0
 40
2.0
 40
2.0
 40
2.0
 40
3.0
 40
3.0
 40
3.0
 40
4.0
 40
4.0
 40
4.0
 40
5.0
 40
5.0
 40
5.0
 40
6.0
 40
6.0
 40
6.0
 40
6.0
 10
168.2103957506479
 20
-136.3671000000004
 30
0.0
 10
169.0834957285915
 20
-123.5658000000003
 30
0.0
 10
178.9305954798328
 20
-124.1566999999995
 30
0.0
 10
178.9305954798328
 20
-124.1566999999995
 30
0.0
 10
178.9305954798328
 20
-124.1566999999995
 30
0.0
 10
188.4227952400397
 20
-122.4449999999997
 30
0.0
 10
191.777
 20
-136.5880999999999
 30
0.0
 10
192.566695135356
 20
-139.9177
 30
0.0
 10
192.7736951301267
 20
-143.3561
 30
0.0
 10
192.5140000000001
 20
-146.7682000000004
 30
0.0
 10
192.2440951435055
 20
-150.3146999999999
 30
0.0
 10
191.6160951593702
 20
-155.6117999999997
 30
0.0
 10
190.1600951961518
 20
-160.4002
 30
0.0
 10
190.1600951961518
 20
-160.4002
 30
0.0
 10
171.9540956560741
 20
-158.3404
 30
0.0
 10
171.9540956560741
 20
-158.3404
 30
0.0
 10
170.9365956817783
 20
-152.3299999999999
 30
0.0
 10
167.5168957681672
 20
-146.5344999999998
 30
0.0
 10
168.2103957506479
 20
-136.3671000000004
 30
0.0
  0
HATCH
  5
DF
330
DA
100
AcDbEntity
  8
Objects
 62
     7
420
 16777215
100
AcDbHatch
 10
0.0
 20
0.0
 30
0.0
210
0.0
220
0.0
230
1.0
  2
SOLID
 70
     1
 71
     0
 91
        1
 92
        1
 93
        1
 72
     4
 94
        3
 73
     0
 74
     1
 95
       23
 96
       19
 40
0.0
 40
0.0
 40
0.0
 40
0.0
 40
1.0
 40
1.0
 40
1.0
 40
2.0
 40
2.0
 40
2.0
 40
3.0
 40
3.0
 40
3.0
 40
4.0
 40
4.0
 40
4.0
 40
5.0
 40
5.0
 40
5.0
 40
6.0
 40
6.0
 40
6.0
 40
6.0
 10
168.2103957506479
 20
-136.3671000000004
 10
169.0834957285915
 20
-123.5658000000003
 10
178.9305954798328
 20
-124.1566999999995
 10
178.9305954798328
 20
-124.1566999999995
 10
178.9305954798328
 20
-124.1566999999995
 10
188.4227952400397
 20
-122.4449999999997
 10
191.777
 20
-136.5880999999999
 10
192.566695135356
 20
-139.9177
 10
192.7736951301267
 20
-143.3561
 10
192.5140000000001
 20
-146.7682000000004
 10
192.2440951435055
 20
-150.3146999999999
 10
191.6160951593702
 20
-155.6117999999997
 10
190.1600951961518
 20
-160.4002
 10
190.1600951961518
 20
-160.4002
 10
171.9540956560741
 20
-158.3404
 10
171.9540956560741
 20
-158.3404
 10
170.9365956817783
 20
-152.3299999999999
 10
167.5168957681672
 20
-146.5344999999998
 10
168.2103957506479
 20
-136.3671000000004
 97
        0
 97
        0
 75
     2
 76
     1
 98
        0
  0
SPLINE
  5
E0
330
DA
100
AcDbEntity
  8
Objects
370
     0
100
AcDbSpline
210
0.0
220
0.0
230
1.0
 70
    11
 71
     3
 72
    20
 73
    16
 74
     0
 42
0.0000000001
 43
0.0000000001
 12
1.0
 22
0.0
 32
0.0
 13
1.0
 23
0.0
 33
0.0
 40
0.0
 40
0.0
 40
0.0
 40
0.0
 40
1.0
 40
1.0
 40
1.0
 40
2.0
 40
2.0
 40
2.0
 40
3.0
 40
3.0
 40
3.0
 40
4.0
 40
4.0
 40
4.0
 40
5.0
 40
5.0
 40
5.0
 40
5.0
 10
188.4875952384027
 20
-166.3869000000004
 30
0.0
 10
187.2384952699576
 20
-174.0835999999999
 30
0.0
 10
188.4755952387059
 20
-183.2548999999999
 30
0.0
 10
178.7420954845948
 20
-185.0002999999997
 30
0.0
 10
176.4493955425132
 20
-185.4114
 30
0.0
 10
174.0471956031979
 20
-184.7304999999997
 30
0.0
 10
172.4237956442084
 20
-183.0600999999997
 30
0.0
 10
171.1524956763242
 20
-181.7519000000002
 30
0.0
 10
170.0473957042414
 20
-179.8689000000004
 30
0.0
 10
170.0225957048679
 20
-176.2735000000002
 30
0.0
 10
169.9813957059087
 20
-170.2977000000001
 30
0.0
 10
171.2498956738636
 20
-168.9979999999996
 30
0.0
 10
172.0731956530653
 20
-164.5298000000003
 30
0.0
 10
172.0731956530653
 20
-164.5298000000003
 30
0.0
 10
188.4875952384027
 20
-166.3869000000004
 30
0.0
 10
188.4875952384027
 20
-166.3869000000004
 30
0.0
  0
HATCH
  5
E1
330
DA
100
AcDbEntity
  8
Objects
 62
     7
420
 16777215
100
AcDbHatch
 10
0.0
 20
0.0
 30
0.0
210
0.0
220
0.0
230
1.0
  2
SOLID
 70
     1
 71
     0
 91
        1
 92
        1
 93
        1
 72
     4
 94
        3
 73
     0
 74
     1
 95
       20
 96
       16
 40
0.0
 40
0.0
 40
0.0
 40
0.0
 40
1.0
 40
1.0
 40
1.0
 40
2.0
 40
2.0
 40
2.0
 40
3.0
 40
3.0
 40
3.0
 40
4.0
 40
4.0
 40
4.0
 40
5.0
 40
5.0
 40
5.0
 40
5.0
 10
188.4875952384027
 20
-166.3869000000004
 10
187.2384952699576
 20
-174.0835999999999
 10
188.4755952387059
 20
-183.2548999999999
 10
178.7420954845948
 20
-185.0002999999997
 10
176.4493955425132
 20
-185.4114
 10
174.0471956031979
 20
-184.7304999999997
 10
172.4237956442084
 20
-183.0600999999997
 10
171.1524956763242
 20
-181.7519000000002
 10
170.0473957042414
 20
-179.8689000000004
 10
170.0225957048679
 20
-176.2735000000002
 10
169.9813957059087
 20
-170.2977000000001
 10
171.2498956738636
 20
-168.9979999999996
 10
172.0731956530653
 20
-164.5298000000003
 10
172.0731956530653
 20
-164.5298000000003
 10
188.4875952384027
 20
-166.3869000000004
 10
188.4875952384027
 20
-166.3869000000004
 97
        0
 97
        0
 75
     2
 76
     1
 98
        0
  0
ENDBLK
  5
DD
330
DA
100
AcDbEntity
  8
0
100
AcDbBlockEnd
  0
BLOCK
  5
E4
330
E2
100
AcDbEntity
  8
0
100
AcDbBlockBegin
  2
block 11
 70
     0
 10
0.0
 20
0.0
 30
0.0
  3
block 11
  1

  0
MTEXT
  5
E6
330
E2
100
AcDbEntity
  8
Objects
 62
     2
420
 16777020
100
AcDbMText
 10
174.6343688964844
 20
-144.7654075622559
 30
0.0
 40
7.08
 41
0.0
 46
0.0
 71
     7
 72
     1
  1
\fFreeSansBold|b0|i0|c0|p34;\W1;6ft
 73
     1
 44
1.0
  0
MTEXT
  5
E7
330
E2
100
AcDbEntity
  8
Objects
 62
     2
420
 16777020
100
AcDbMText
 10
142.2095642089844
 20
-144.7654075622559
 30
0.0
 40
7.08
 41
0.0
 46
0.0
 71
     7
 72
     1
  1
\fFreeSansBold|b0|i0|c0|p34;\W1;2m
 73
     1
 44
1.0
  0
ENDBLK
  5
E5
330
E2
100
AcDbEntity
  8
0
100
AcDbBlockEnd
  0
BLOCK
  5
EA
330
E8
100
AcDbEntity
  8
0
100
AcDbBlockBegin
  2
block 12
 70
     0
 10
0.0
 20
0.0
 30
0.0
  3
block 12
  1

  0
INSERT
  5
ED
330
E8
100
AcDbEntity
  8
Objects
100
AcDbBlockReference
  2
block 13
 10
0.0
 20
0.0
 30
0.0
  0
INSERT
  5
F5
330
E8
100
AcDbEntity
  8
Objects
100
AcDbBlockReference
  2
block 14
 10
0.0
 20
0.0
 30
0.0
  0
ENDBLK
  5
EB
330
E8
100
AcDbEntity
  8
0
100
AcDbBlockEnd
  0
BLOCK
  5
EE
330
EC
100
AcDbEntity
  8
0
100
AcDbBlockBegin
  2
block 13
 70
     0
 10
0.0
 20
0.0
 30
0.0
  3
block 13
  1

  0
SPLINE
  5
F0
330
EC
100
AcDbEntity
  8
Objects
370
     0
100
AcDbSpline
210
0.0
220
0.0
230
1.0
 70
    11
 71
     3
 72
    14
 73
    10
 74
     0
 42
0.0000000001
 43
0.0000000001
 12
1.0
 22
0.0
 32
0.0
 13
1.0
 23
0.0
 33
0.0
 40
0.0
 40
0.0
 40
0.0
 40
0.0
 40
1.0
 40
1.0
 40
1.0
 40
2.0
 40
2.0
 40
2.0
 40
3.0
 40
3.0
 40
3.0
 40
3.0
 10
375.0
 20
-238.0328
 30
0.0
 10
403.6563898027816
 20
-238.0328
 30
0.0
 10
428.9527891637408
 20
-223.7015000000001
 30
0.0
 10
444.1550000000007
 20
-201.8275000000003
 30
0.0
 10
444.1550000000007
 20
-201.8275000000003
 30
0.0
 10
305.8450000000003
 20
-201.8275000000003
 30
0.0
 10
305.8450000000003
 20
-201.8275000000003
 30
0.0
 10
321.0471918896656
 20
-223.7015000000001
 30
0.0
 10
346.3435912506247
 20
-238.0328
 30
0.0
 10
375.0
 20
-238.0328
 30
0.0
  0
HATCH
  5
F1
330
EC
100
AcDbEntity
  8
Objects
 62
     7
420
 16777215
100
AcDbHatch
 10
0.0
 20
0.0
 30
0.0
210
0.0
220
0.0
230
1.0
  2
SOLID
 70
     1
 71
     0
 91
        1
 92
        1
 93
        1
 72
     4
 94
        3
 73
     0
 74
     1
 95
       14
 96
       10
 40
0.0
 40
0.0
 40
0.0
 40
0.0
 40
1.0
 40
1.0
 40
1.0
 40
2.0
 40
2.0
 40
2.0
 40
3.0
 40
3.0
 40
3.0
 40
3.0
 10
375.0
 20
-238.0328
 10
403.6563898027816
 20
-238.0328
 10
428.9527891637408
 20
-223.7015000000001
 10
444.1550000000007
 20
-201.8275000000003
 10
444.1550000000007
 20
-201.8275000000003
 10
305.8450000000003
 20
-201.8275000000003
 10
305.8450000000003
 20
-201.8275000000003
 10
321.0471918896656
 20
-223.7015000000001
 10
346.3435912506247
 20
-238.0328
 10
375.0
 20
-238.0328
 97
        0
 97
        0
 75
     2
 76
     1
 98
        0
  0
SPLINE
  5
F2
330
EC
100
AcDbEntity
  8
Objects
370
     0
100
AcDbSpline
210
0.0
220
0.0
230
1.0
 70
    11
 71
     3
 72
    20
 73
    16
 74
     0
 42
0.0000000001
 43
0.0000000001
 12
1.0
 22
0.0
 32
0.0
 13
1.0
 23
0.0
 33
0.0
 40
0.0
 40
0.0
 40
0.0
 40
0.0
 40
1.0
 40
1.0
 40
1.0
 40
2.0
 40
2.0
 40
2.0
 40
3.0
 40
3.0
 40
3.0
 40
4.0
 40
4.0
 40
4.0
 40
5.0
 40
5.0
 40
5.0
 40
5.0
 10
375.0
 20
-69.6805000000004
 30
0.0
 10
328.5107917011192
 20
-69.6805000000004
 30
0.0
 10
290.8238926531703
 20
-107.3674000000001
 30
0.0
 10
290.8238926531703
 20
-153.8566000000001
 30
0.0
 10
290.8238926531703
 20
-171.6895000000004
 30
0.0
 10
296.3845925126952
 20
-188.2154
 30
0.0
 10
305.8450000000003
 20
-201.8275000000003
 30
0.0
 10
305.8450000000003
 20
-201.8275000000003
 30
0.0
 10
444.1550000000007
 20
-201.8275000000003
 30
0.0
 10
444.1550000000007
 20
-201.8275000000003
 30
0.0
 10
453.6153885407111
 20
-188.2154
 30
0.0
 10
459.176088400236
 20
-171.6895000000004
 30
0.0
 10
459.176088400236
 20
-153.8566000000001
 30
0.0
 10
459.176088400236
 20
-107.3674000000001
 30
0.0
 10
421.4891893522872
 20
-69.6805000000004
 30
0.0
 10
375.0
 20
-69.6805000000004
 30
0.0
  0
HATCH
  5
F3
330
EC
100
AcDbEntity
  8
Objects
 62
     2
420
 16777020
100
AcDbHatch
 10
0.0
 20
0.0
 30
0.0
210
0.0
220
0.0
230
1.0
  2
SOLID
 70
     1
 71
     0
 91
        1
 92
        1
 93
        1
 72
     4
 94
        3
 73
     0
 74
     1
 95
       20
 96
       16
 40
0.0
 40
0.0
 40
0.0
 40
0.0
 40
1.0
 40
1.0
 40
1.0
 40
2.0
 40
2.0
 40
2.0
 40
3.0
 40
3.0
 40
3.0
 40
4.0
 40
4.0
 40
4.0
 40
5.0
 40
5.0
 40
5.0
 40
5.0
 10
375.0
 20
-69.6805000000004
 10
328.5107917011192
 20
-69.6805000000004
 10
290.8238926531703
 20
-107.3674000000001
 10
290.8238926531703
 20
-153.8566000000001
 10
290.8238926531703
 20
-171.6895000000004
 10
296.3845925126952
 20
-188.2154
 10
305.8450000000003
 20
-201.8275000000003
 10
305.8450000000003
 20
-201.8275000000003
 10
444.1550000000007
 20
-201.8275000000003
 10
444.1550000000007
 20
-201.8275000000003
 10
453.6153885407111
 20
-188.2154
 10
459.176088400236
 20
-171.6895000000004
 10
459.176088400236
 20
-153.8566000000001
 10
459.176088400236
 20
-107.3674000000001
 10
421.4891893522872
 20
-69.6805000000004
 10
375.0
 20
-69.6805000000004
 97
        0
 97
        0
 75
     2
 76
     1
 98
        0
  0
ENDBLK
  5
EF
330
EC
100
AcDbEntity
  8
0
100
AcDbBlockEnd
  0
BLOCK
  5
F6
330
F4
100
AcDbEntity
  8
0
100
AcDbBlockBegin
  2
block 14
 70
     0
 10
0.0
 20
0.0
 30
0.0
  3
block 14
  1

  0
INSERT
  5
F9
330
F4
100
AcDbEntity
  8
Objects
100
AcDbBlockReference
  2
block 15
 10
0.0
 20
0.0
 30
0.0
  0
INSERT
  5
10D
330
F4
100
AcDbEntity
  8
Objects
100
AcDbBlockReference
  2
block 18
 10
0.0
 20
0.0
 30
0.0
  0
INSERT
  5
12C
330
F4
100
AcDbEntity
  8
Objects
100
AcDbBlockReference
  2
block 20
 10
0.0
 20
0.0
 30
0.0
  0
ENDBLK
  5
F7
330
F4
100
AcDbEntity
  8
0
100
AcDbBlockEnd
  0
BLOCK
  5
FA
330
F8
100
AcDbEntity
  8
0
100
AcDbBlockBegin
  2
block 15
 70
     0
 10
0.0
 20
0.0
 30
0.0
  3
block 15
  1

  0
INSERT
  5
FD
330
F8
100
AcDbEntity
  8
Objects
100
AcDbBlockReference
  2
block 16
 10
0.0
 20
0.0
 30
0.0
  0
INSERT
  5
105
330
F8
100
AcDbEntity
  8
Objects
100
AcDbBlockReference
  2
block 17
 10
0.0
 20
0.0
 30
0.0
  0
ENDBLK
  5
FB
330
F8
100
AcDbEntity
  8
0
100
AcDbBlockEnd
  0
BLOCK
  5
FE
330
FC
100
AcDbEntity
  8
0
100
AcDbBlockBegin
  2
block 16
 70
     0
 10
0.0
 20
0.0
 30
0.0
  3
block 16
  1

  0
SPLINE
  5
100
330
FC
100
AcDbEntity
  8
Objects
370
     0
100
AcDbSpline
210
0.0
220
0.0
230
1.0
 70
    11
 71
     3
 72
    23
 73
    19
 74
     0
 42
0.0000000001
 43
0.0000000001
 12
1.0
 22
0.0
 32
0.0
 13
1.0
 23
0.0
 33
0.0
 40
0.0
 40
0.0
 40
0.0
 40
0.0
 40
1.0
 40
1.0
 40
1.0
 40
2.0
 40
2.0
 40
2.0
 40
3.0
 40
3.0
 40
3.0
 40
4.0
 40
4.0
 40
4.0
 40
5.0
 40
5.0
 40
5.0
 40
6.0
 40
6.0
 40
6.0
 40
6.0
 10
371.738790609088
 20
-124.3416999999999
 30
0.0
 10
370.8490000000002
 20
-111.3692000000001
 30
0.0
 10
360.8140908850692
 20
-111.9678999999996
 30
0.0
 10
360.8140908850692
 20
-111.9678999999996
 30
0.0
 10
360.8140908850692
 20
-111.9678999999996
 30
0.0
 10
351.1408911294347
 20
-110.2332999999999
 30
0.0
 10
347.7226912157857
 20
-124.5655999999999
 30
0.0
 10
346.9178912361167
 20
-127.9398000000001
 30
0.0
 10
346.706891241447
 20
-131.4242000000004
 30
0.0
 10
346.9715912347601
 20
-134.8819000000003
 30
0.0
 10
347.2466912278105
 20
-138.4759000000004
 30
0.0
 10
347.8866912116428
 20
-143.8437999999996
 30
0.0
 10
349.3703911741613
 20
-148.6962999999996
 30
0.0
 10
349.3703911741613
 20
-148.6962999999996
 30
0.0
 10
367.9236907054656
 20
-146.6089000000002
 30
0.0
 10
367.9236907054656
 20
-146.6089000000002
 30
0.0
 10
368.9604906792738
 20
-140.5181000000002
 30
0.0
 10
372.4454905912353
 20
-134.6450000000004
 30
0.0
 10
371.738790609088
 20
-124.3416999999999
 30
0.0
  0
HATCH
  5
101
330
FC
100
AcDbEntity
  8
Objects
 62
     7
420
 16777215
100
AcDbHatch
 10
0.0
 20
0.0
 30
0.0
210
0.0
220
0.0
230
1.0
  2
SOLID
 70
     1
 71
     0
 91
        1
 92
        1
 93
        1
 72
     4
 94
        3
 73
     0
 74
     1
 95
       23
 96
       19
 40
0.0
 40
0.0
 40
0.0
 40
0.0
 40
1.0
 40
1.0
 40
1.0
 40
2.0
 40
2.0
 40
2.0
 40
3.0
 40
3.0
 40
3.0
 40
4.0
 40
4.0
 40
4.0
 40
5.0
 40
5.0
 40
5.0
 40
6.0
 40
6.0
 40
6.0
 40
6.0
 10
371.738790609088
 20
-124.3416999999999
 10
370.8490000000002
 20
-111.3692000000001
 10
360.8140908850692
 20
-111.9678999999996
 10
360.8140908850692
 20
-111.9678999999996
 10
360.8140908850692
 20
-111.9678999999996
 10
351.1408911294347
 20
-110.2332999999999
 10
347.7226912157857
 20
-124.5655999999999
 10
346.9178912361167
 20
-127.9398000000001
 10
346.706891241447
 20
-131.4242000000004
 10
346.9715912347601
 20
-134.8819000000003
 10
347.2466912278105
 20
-138.4759000000004
 10
347.8866912116428
 20
-143.8437999999996
 10
349.3703911741613
 20
-148.6962999999996
 10
349.3703911741613
 20
-148.6962999999996
 10
367.9236907054656
 20
-146.6089000000002
 10
367.9236907054656
 20
-146.6089000000002
 10
368.9604906792738
 20
-140.5181000000002
 10
372.4454905912353
 20
-134.6450000000004
 10
371.738790609088
 20
-124.3416999999999
 97
        0
 97
        0
 75
     2
 76
     1
 98
        0
  0
SPLINE
  5
102
330
FC
100
AcDbEntity
  8
Objects
370
     0
100
AcDbSpline
210
0.0
220
0.0
230
1.0
 70
    11
 71
     3
 72
    20
 73
    16
 74
     0
 42
0.0000000001
 43
0.0000000001
 12
1.0
 22
0.0
 32
0.0
 13
1.0
 23
0.0
 33
0.0
 40
0.0
 40
0.0
 40
0.0
 40
0.0
 40
1.0
 40
1.0
 40
1.0
 40
2.0
 40
2.0
 40
2.0
 40
3.0
 40
3.0
 40
3.0
 40
4.0
 40
4.0
 40
4.0
 40
5.0
 40
5.0
 40
5.0
 40
5.0
 10
351.074891131102
 20
-154.7629999999999
 30
0.0
 10
352.3476910989484
 20
-162.5627000000004
 30
0.0
 10
351.0869999999995
 20
-171.8567000000003
 30
0.0
 10
361.0061908802163
 20
-173.6253999999999
 30
0.0
 10
363.3425908211939
 20
-174.0420000000004
 30
0.0
 10
365.7905907593522
 20
-173.3519999999999
 30
0.0
 10
367.4449999999997
 20
-171.6593000000003
 30
0.0
 10
368.7405906848289
 20
-170.3335999999999
 30
0.0
 10
369.8666906563813
 20
-168.4254000000001
 30
0.0
 10
369.8919999999998
 20
-164.7819
 30
0.0
 10
369.9340000000002
 20
-158.7262000000001
 30
0.0
 10
368.6412906873375
 20
-157.4090999999999
 30
0.0
 10
367.8022907085324
 20
-152.8810999999996
 30
0.0
 10
367.8022907085324
 20
-152.8810999999996
 30
0.0
 10
351.074891131102
 20
-154.7629999999999
 30
0.0
 10
351.074891131102
 20
-154.7629999999999
 30
0.0
  0
HATCH
  5
103
330
FC
100
AcDbEntity
  8
Objects
 62
     7
420
 16777215
100
AcDbHatch
 10
0.0
 20
0.0
 30
0.0
210
0.0
220
0.0
230
1.0
  2
SOLID
 70
     1
 71
     0
 91
        1
 92
        1
 93
        1
 72
     4
 94
        3
 73
     0
 74
     1
 95
       20
 96
       16
 40
0.0
 40
0.0
 40
0.0
 40
0.0
 40
1.0
 40
1.0
 40
1.0
 40
2.0
 40
2.0
 40
2.0
 40
3.0
 40
3.0
 40
3.0
 40
4.0
 40
4.0
 40
4.0
 40
5.0
 40
5.0
 40
5.0
 40
5.0
 10
351.074891131102
 20
-154.7629999999999
 10
352.3476910989484
 20
-162.5627000000004
 10
351.0869999999995
 20
-171.8567000000003
 10
361.0061908802163
 20
-173.6253999999999
 10
363.3425908211939
 20
-174.0420000000004
 10
365.7905907593522
 20
-173.3519999999999
 10
367.4449999999997
 20
-171.6593000000003
 10
368.7405906848289
 20
-170.3335999999999
 10
369.8666906563813
 20
-168.4254000000001
 10
369.8919999999998
 20
-164.7819
 10
369.9340000000002
 20
-158.7262000000001
 10
368.6412906873375
 20
-157.4090999999999
 10
367.8022907085324
 20
-152.8810999999996
 10
367.8022907085324
 20
-152.8810999999996
 10
351.074891131102
 20
-154.7629999999999
 10
351.074891131102
 20
-154.7629999999999
 97
        0
 97
        0
 75
     2
 76
     1
 98
        0
  0
ENDBLK
  5
FF
330
FC
100
AcDbEntity
  8
0
100
AcDbBlockEnd
  0
BLOCK
  5
106
330
104
100
AcDbEntity
  8
0
100
AcDbBlockBegin
  2
block 17
 70
     0
 10
0.0
 20
0.0
 30
0.0
  3
block 17
  1

  0
SPLINE
  5
108
330
104
100
AcDbEntity
  8
Objects
370
     0
100
AcDbSpline
210
0.0
220
0.0
230
1.0
 70
    11
 71
     3
 72
    23
 73
    19
 74
     0
 42
0.0000000001
 43
0.0000000001
 12
1.0
 22
0.0
 32
0.0
 13
1.0
 23
0.0
 33
0.0
 40
0.0
 40
0.0
 40
0.0
 40
0.0
 40
1.0
 40
1.0
 40
1.0
 40
2.0
 40
2.0
 40
2.0
 40
3.0
 40
3.0
 40
3.0
 40
4.0
 40
4.0
 40
4.0
 40
5.0
 40
5.0
 40
5.0
 40
6.0
 40
6.0
 40
6.0
 40
6.0
 10
378.981490426122
 20
-124.3416999999999
 30
0.0
 10
379.8712904036438
 20
-111.3692000000001
 30
0.0
 10
389.9061901501409
 20
-111.9678999999996
 30
0.0
 10
389.9061901501409
 20
-111.9678999999996
 30
0.0
 10
389.9061901501409
 20
-111.9678999999996
 30
0.0
 10
399.5793899057753
 20
-110.2332999999999
 30
0.0
 10
402.9975898194243
 20
-124.5655999999999
 30
0.0
 10
403.8023897990934
 20
-127.9398000000001
 30
0.0
 10
404.0133897937631
 20
-131.4242000000004
 30
0.0
 10
403.7486898004499
 20
-134.8819000000003
 30
0.0
 10
403.4735898073995
 20
-138.4759000000004
 30
0.0
 10
402.8335898235673
 20
-143.8437999999996
 30
0.0
 10
401.3498898610487
 20
-148.6962999999996
 30
0.0
 10
401.3498898610487
 20
-148.6962999999996
 30
0.0
 10
382.7965903297445
 20
-146.6089000000002
 30
0.0
 10
382.7965903297445
 20
-146.6089000000002
 30
0.0
 10
381.7597903559363
 20
-140.5181000000002
 30
0.0
 10
378.2747904439748
 20
-134.6450000000004
 30
0.0
 10
378.981490426122
 20
-124.3416999999999
 30
0.0
  0
HATCH
  5
109
330
104
100
AcDbEntity
  8
Objects
 62
     7
420
 16777215
100
AcDbHatch
 10
0.0
 20
0.0
 30
0.0
210
0.0
220
0.0
230
1.0
  2
SOLID
 70
     1
 71
     0
 91
        1
 92
        1
 93
        1
 72
     4
 94
        3
 73
     0
 74
     1
 95
       23
 96
       19
 40
0.0
 40
0.0
 40
0.0
 40
0.0
 40
1.0
 40
1.0
 40
1.0
 40
2.0
 40
2.0
 40
2.0
 40
3.0
 40
3.0
 40
3.0
 40
4.0
 40
4.0
 40
4.0
 40
5.0
 40
5.0
 40
5.0
 40
6.0
 40
6.0
 40
6.0
 40
6.0
 10
378.981490426122
 20
-124.3416999999999
 10
379.8712904036438
 20
-111.3692000000001
 10
389.9061901501409
 20
-111.9678999999996
 10
389.9061901501409
 20
-111.9678999999996
 10
389.9061901501409
 20
-111.9678999999996
 10
399.5793899057753
 20
-110.2332999999999
 10
402.9975898194243
 20
-124.5655999999999
 10
403.8023897990934
 20
-127.9398000000001
 10
404.0133897937631
 20
-131.4242000000004
 10
403.7486898004499
 20
-134.8819000000003
 10
403.4735898073995
 20
-138.4759000000004
 10
402.8335898235673
 20
-143.8437999999996
 10
401.3498898610487
 20
-148.6962999999996
 10
401.3498898610487
 20
-148.6962999999996
 10
382.7965903297445
 20
-146.6089000000002
 10
382.7965903297445
 20
-146.6089000000002
 10
381.7597903559363
 20
-140.5181000000002
 10
378.2747904439748
 20
-134.6450000000004
 10
378.981490426122
 20
-124.3416999999999
 97
        0
 97
        0
 75
     2
 76
     1
 98
        0
  0
SPLINE
  5
10A
330
104
100
AcDbEntity
  8
Objects
370
     0
100
AcDbSpline
210
0.0
220
0.0
230
1.0
 70
    11
 71
     3
 72
    20
 73
    16
 74
     0
 42
0.0000000001
 43
0.0000000001
 12
1.0
 22
0.0
 32
0.0
 13
1.0
 23
0.0
 33
0.0
 40
0.0
 40
0.0
 40
0.0
 40
0.0
 40
1.0
 40
1.0
 40
1.0
 40
2.0
 40
2.0
 40
2.0
 40
3.0
 40
3.0
 40
3.0
 40
4.0
 40
4.0
 40
4.0
 40
5.0
 40
5.0
 40
5.0
 40
5.0
 10
399.645389904108
 20
-154.7629999999999
 30
0.0
 10
398.3725899362616
 20
-162.5627000000004
 30
0.0
 10
399.6331899044162
 20
-171.8567000000003
 30
0.0
 10
389.7140901549938
 20
-173.6253999999999
 30
0.0
 10
387.3776902140162
 20
-174.0420000000004
 30
0.0
 10
384.9296902758579
 20
-173.3519999999999
 30
0.0
 10
383.2752903176515
 20
-171.6593000000003
 30
0.0
 10
381.9796903503811
 20
-170.3335999999999
 30
0.0
 10
380.8534903788313
 20
-168.4254000000001
 30
0.0
 10
380.8282903794679
 20
-164.7819
 30
0.0
 10
380.786290380529
 20
-158.7262000000001
 30
0.0
 10
382.0789999999997
 20
-157.4090999999999
 30
0.0
 10
382.9179999999997
 20
-152.8810999999996
 30
0.0
 10
382.9179999999997
 20
-152.8810999999996
 30
0.0
 10
399.645389904108
 20
-154.7629999999999
 30
0.0
 10
399.645389904108
 20
-154.7629999999999
 30
0.0
  0
HATCH
  5
10B
330
104
100
AcDbEntity
  8
Objects
 62
     7
420
 16777215
100
AcDbHatch
 10
0.0
 20
0.0
 30
0.0
210
0.0
220
0.0
230
1.0
  2
SOLID
 70
     1
 71
     0
 91
        1
 92
        1
 93
        1
 72
     4
 94
        3
 73
     0
 74
     1
 95
       20
 96
       16
 40
0.0
 40
0.0
 40
0.0
 40
0.0
 40
1.0
 40
1.0
 40
1.0
 40
2.0
 40
2.0
 40
2.0
 40
3.0
 40
3.0
 40
3.0
 40
4.0
 40
4.0
 40
4.0
 40
5.0
 40
5.0
 40
5.0
 40
5.0
 10
399.645389904108
 20
-154.7629999999999
 10
398.3725899362616
 20
-162.5627000000004
 10
399.6331899044162
 20
-171.8567000000003
 10
389.7140901549938
 20
-173.6253999999999
 10
387.3776902140162
 20
-174.0420000000004
 10
384.9296902758579
 20
-173.3519999999999
 10
383.2752903176515
 20
-171.6593000000003
 10
381.9796903503811
 20
-170.3335999999999
 10
380.8534903788313
 20
-168.4254000000001
 10
380.8282903794679
 20
-164.7819
 10
380.786290380529
 20
-158.7262000000001
 10
382.0789999999997
 20
-157.4090999999999
 10
382.9179999999997
 20
-152.8810999999996
 10
382.9179999999997
 20
-152.8810999999996
 10
399.645389904108
 20
-154.7629999999999
 10
399.645389904108
 20
-154.7629999999999
 97
        0
 97
        0
 75
     2
 76
     1
 98
        0
  0
ENDBLK
  5
107
330
104
100
AcDbEntity
  8
0
100
AcDbBlockEnd
  0
BLOCK
  5
10E
330
10C
100
AcDbEntity
  8
0
100
AcDbBlockBegin
  2
block 18
 70
     0
 10
0.0
 20
0.0
 30
0.0
  3
block 18
  1

  0
MTEXT
  5
110
330
10C
100
AcDbEntity
  8
Objects
 62
     2
420
 16777020
100
AcDbMText
 10
365.8779296875
 20
-221.5186364650726
 30
0.0
 40
9.911999999999999
 41
0.0
 46
0.0
 71
     7
 72
     1
  1
\fFreeSansBold|b0|i0|c0|p34;\W1.00562;2m
 73
     1
 44
1.0
  0
INSERT
  5
112
330
10C
100
AcDbEntity
  8
Objects
100
AcDbBlockReference
  2
block 19
 10
0.0
 20
0.0
 30
0.0
  0
ENDBLK
  5
10F
330
10C
100
AcDbEntity
  8
0
100
AcDbBlockEnd
  0
BLOCK
  5
113
330
111
100
AcDbEntity
  8
0
100
AcDbBlockBegin
  2
block 19
 70
     0
 10
0.0
 20
0.0
 30
0.0
  3
block 19
  1

  0
POLYLINE
  5
115
330
111
100
AcDbEntity
  8
Objects
370
     0
100
AcDb2dPolyline
 66
     1
 10
0.0
 20
0.0
 30
0.0
  0
VERTEX
  5
116
330
115
100
AcDbEntity
  8
Objects
370
     0
100
AcDbVertex
100
AcDb2dVertex
 10
406.9270897201568
 20
-217.5357000000004
 30
0.0
  0
VERTEX
  5
117
330
115
100
AcDbEntity
  8
Objects
370
     0
100
AcDbVertex
100
AcDb2dVertex
 10
398.8286899247396
 20
-209.5905000000002
 30
0.0
  0
VERTEX
  5
118
330
115
100
AcDbEntity
  8
Objects
370
     0
100
AcDbVertex
100
AcDb2dVertex
 10
398.8286899247396
 20
-214.3562000000002
 30
0.0
  0
VERTEX
  5
119
330
115
100
AcDbEntity
  8
Objects
370
     0
100
AcDbVertex
100
AcDb2dVertex
 10
393.5267900586769
 20
-214.3562000000002
 30
0.0
  0
VERTEX
  5
11A
330
115
100
AcDbEntity
  8
Objects
370
     0
100
AcDbVertex
100
AcDb2dVertex
 10
393.5267900586769
 20
-220.7151000000003
 30
0.0
  0
VERTEX
  5
11B
330
115
100
AcDbEntity
  8
Objects
370
     0
100
AcDbVertex
100
AcDb2dVertex
 10
398.8286899247396
 20
-220.7151000000003
 30
0.0
  0
VERTEX
  5
11C
330
115
100
AcDbEntity
  8
Objects
370
     0
100
AcDbVertex
100
AcDb2dVertex
 10
398.8286899247396
 20
-225.4808000000003
 30
0.0
  0
VERTEX
  5
11D
330
115
100
AcDbEntity
  8
Objects
370
     0
100
AcDbVertex
100
AcDb2dVertex
 10
406.9270897201568
 20
-217.5357000000004
 30
0.0
  0
SEQEND
  5
11F
330
115
100
AcDbEntity
  8
Objects
370
     0
  0
HATCH
  5
11E
330
111
100
AcDbEntity
  8
Objects
 62
     2
420
 16777020
100
AcDbHatch
 10
0.0
 20
0.0
 30
0.0
210
0.0
220
0.0
230
1.0
  2
SOLID
 70
     1
 71
     0
 91
        1
 92
        1
 93
        7
 72
     1
 10
406.9270897201568
 20
-217.5357000000004
 11
398.8286899247396
 21
-209.5905000000002
 72
     1
 10
398.8286899247396
 20
-209.5905000000002
 11
398.8286899247396
 21
-214.3562000000002
 72
     1
 10
398.8286899247396
 20
-214.3562000000002
 11
393.5267900586769
 21
-214.3562000000002
 72
     1
 10
393.5267900586769
 20
-214.3562000000002
 11
393.5267900586769
 21
-220.7151000000003
 72
     1
 10
393.5267900586769
 20
-220.7151000000003
 11
398.8286899247396
 21
-220.7151000000003
 72
     1
 10
398.8286899247396
 20
-220.7151000000003
 11
398.8286899247396
 21
-225.4808000000003
 72
     1
 10
398.8286899247396
 20
-225.4808000000003
 11
406.9270897201568
 21
-217.5357000000004
 97
        0
 75
     2
 76
     1
 98
        0
  0
POLYLINE
  5
120
330
111
100
AcDbEntity
  8
Objects
370
     0
100
AcDb2dPolyline
 66
     1
 10
0.0
 20
0.0
 30
0.0
  0
VERTEX
  5
121
330
120
100
AcDbEntity
  8
Objects
370
     0
100
AcDbVertex
100
AcDb2dVertex
 10
343.7930913150558
 20
-217.5356000000002
 30
0.0
  0
VERTEX
  5
122
330
120
100
AcDbEntity
  8
Objects
370
     0
100
AcDbVertex
100
AcDb2dVertex
 10
351.891491110473
 20
-225.4808000000003
 30
0.0
  0
VERTEX
  5
123
330
120
100
AcDbEntity
  8
Objects
370
     0
100
AcDbVertex
100
AcDb2dVertex
 10
351.891491110473
 20
-220.7151000000003
 30
0.0
  0
VERTEX
  5
124
330
120
100
AcDbEntity
  8
Objects
370
     0
100
AcDbVertex
100
AcDb2dVertex
 10
357.1933909765357
 20
-220.7151000000003
 30
0.0
  0
VERTEX
  5
125
330
120
100
AcDbEntity
  8
Objects
370
     0
100
AcDbVertex
100
AcDb2dVertex
 10
357.1933909765357
 20
-214.3562000000002
 30
0.0
  0
VERTEX
  5
126
330
120
100
AcDbEntity
  8
Objects
370
     0
100
AcDbVertex
100
AcDb2dVertex
 10
351.891491110473
 20
-214.3562000000002
 30
0.0
  0
VERTEX
  5
127
330
120
100
AcDbEntity
  8
Objects
370
     0
100
AcDbVertex
100
AcDb2dVertex
 10
351.891491110473
 20
-209.5905000000002
 30
0.0
  0
VERTEX
  5
128
330
120
100
AcDbEntity
  8
Objects
370
     0
100
AcDbVertex
100
AcDb2dVertex
 10
343.7930913150558
 20
-217.5356000000002
 30
0.0
  0
SEQEND
  5
12A
330
120
100
AcDbEntity
  8
Objects
370
     0
  0
HATCH
  5
129
330
111
100
AcDbEntity
  8
Objects
 62
     2
420
 16777020
100
AcDbHatch
 10
0.0
 20
0.0
 30
0.0
210
0.0
220
0.0
230
1.0
  2
SOLID
 70
     1
 71
     0
 91
        1
 92
        1
 93
        7
 72
     1
 10
343.7930913150558
 20
-217.5356000000002
 11
351.891491110473
 21
-225.4808000000003
 72
     1
 10
351.891491110473
 20
-225.4808000000003
 11
351.891491110473
 21
-220.7151000000003
 72
     1
 10
351.891491110473
 20
-220.7151000000003
 11
357.1933909765357
 21
-220.7151000000003
 72
     1
 10
357.1933909765357
 20
-220.7151000000003
 11
357.1933909765357
 21
-214.3562000000002
 72
     1
 10
357.1933909765357
 20
-214.3562000000002
 11
351.891491110473
 21
-214.3562000000002
 72
     1
 10
351.891491110473
 20
-214.3562000000002
 11
351.891491110473
 21
-209.5905000000002
 72
     1
 10
351.891491110473
 20
-209.5905000000002
 11
343.7930913150558
 21
-217.5356000000002
 97
        0
 75
     2
 76
     1
 98
        0
  0
ENDBLK
  5
114
330
111
100
AcDbEntity
  8
0
100
AcDbBlockEnd
  0
BLOCK
  5
12D
330
12B
100
AcDbEntity
  8
0
100
AcDbBlockBegin
  2
block 20
 70
     0
 10
0.0
 20
0.0
 30
0.0
  3
block 20
  1

  0
TEXT
  5
12F
330
12B
100
AcDbEntity
  8
Objects
 62
     7
420
 16777215
100
AcDbText
 10
314.85693359375
 20
-162.0601403713226
 30
0.0
 40
14.15999986058564
  1
K
 50
92.55794249866997
 41
1.005619992845603
  7
Style 36
100
AcDbText
  0
TEXT
  5
131
330
12B
100
AcDbEntity
  8
Objects
 62
     7
420
 16777215
100
AcDbText
 10
314.3896484375
 20
-151.6875817775726
 30
0.0
 40
14.16000029180828
  1
E
 50
83.28234756089604
 41
1.005620023470328
  7
Style 37
100
AcDbText
  0
TEXT
  5
133
330
12B
100
AcDbEntity
  8
Objects
 62
     7
420
 16777215
100
AcDbText
 10
315.4462890625
 20
-142.3633630275726
 30
0.0
 40
14.16000010618892
  1
E
 50
74.32825047179658
 41
1.005620010287945
  7
Style 38
100
AcDbText
  0
TEXT
  5
135
330
12B
100
AcDbEntity
  8
Objects
 62
     7
420
 16777215
100
AcDbText
 10
317.90380859375
 20
-133.3262536525726
 30
0.0
 40
14.15999982389808
  1
P
 50
65.00239754833919
 41
1.005619990240113
  7
Style 39
100
AcDbText
  0
TEXT
  5
137
330
12B
100
AcDbEntity
  8
Objects
 62
     7
420
 16777215
100
AcDbText
 10
322.40234375
 20
-124.0703942775726
 30
0.0
 40
14.16000017990506
  1
 
 50
58.2709807971737
 41
1.005620015523145
  7
Style 40
100
AcDbText
  0
TEXT
  5
139
330
12B
100
AcDbEntity
  8
Objects
 62
     7
420
 16777215
100
AcDbText
 10
324.3095703125
 20
-120.6509606838226
 30
0.0
 40
14.15999993033023
  1
S
 50
51.91764371950629
 41
1.005619997798749
  7
Style 41
100
AcDbText
  0
TEXT
  5
13B
330
12B
100
AcDbEntity
  8
Objects
 62
     7
420
 16777215
100
AcDbText
 10
329.8837890625
 20
-113.1563317775726
 30
0.0
 40
14.16000021594468
  1
O
 50
41.33955719741008
 41
1.00562001808262
  7
Style 42
100
AcDbText
  0
TEXT
  5
13D
330
12B
100
AcDbEntity
  8
Objects
 62
     7
420
 16777215
100
AcDbText
 10
339.84130859375
 20
-104.4566247463226
 30
0.0
 40
14.15999965026447
  1
C
 50
29.9769325674587
 41
1.005619977908938
  7
Style 43
100
AcDbText
  0
TEXT
  5
13F
330
12B
100
AcDbEntity
  8
Objects
 62
     7
420
 16777215
100
AcDbText
 10
349.66455078125
 20
-99.01180052757263
 30
0.0
 40
14.16000033038654
  1
I
 50
22.61413967344252
 41
1.005620026210093
  7
Style 44
100
AcDbText
  0
TEXT
  5
141
330
12B
100
AcDbEntity
  8
Objects
 62
     7
420
 16777215
100
AcDbText
 10
353.60302734375
 20
-97.06844115257263
 30
0.0
 40
14.15999970296757
  1
A
 50
14.95127153756375
 41
1.005619981651825
  7
Style 45
100
AcDbText
  0
TEXT
  5
143
330
12B
100
AcDbEntity
  8
Objects
 62
     7
420
 16777215
100
AcDbText
 10
364.99169921875
 20
-94.10603880882263
 30
0.0
 40
14.15999959712936
  1
L
 50
5.226654662207801
 41
1.005619974135369
  7
Style 46
100
AcDbText
  0
TEXT
  5
145
330
12B
100
AcDbEntity
  8
Objects
 62
     7
420
 16777215
100
AcDbText
 10
374.06396484375
 20
-93.38826537132263
 30
0.0
 40
14.15999979846644
  1
 
 50
359.0768176072044
 41
1.005619988433999
  7
Style 47
100
AcDbText
  0
TEXT
  5
147
330
12B
100
AcDbEntity
  8
Objects
 62
     7
420
 16777215
100
AcDbText
 10
377.92578125
 20
-93.10408568382263
 30
0.0
 40
14.16000033130449
  1
D
 50
351.4283939143302
 41
1.005620026275284
  7
Style 48
100
AcDbText
  0
TEXT
  5
149
330
12B
100
AcDbEntity
  8
Objects
 62
     7
420
 16777215
100
AcDbText
 10
390.6474609375
 20
-95.29451537132263
 30
0.0
 40
14.16000021187105
  1
I
 50
343.299748931488
 41
1.005620017793316
  7
Style 49
100
AcDbText
  0
TEXT
  5
14B
330
12B
100
AcDbEntity
  8
Objects
 62
     7
420
 16777215
100
AcDbText
 10
394.9423828125
 20
-96.40730834007263
 30
0.0
 40
14.15999953922224
  1
S
 50
336.7080150777748
 41
1.0056199700229
  7
Style 50
100
AcDbText
  0
TEXT
  5
14D
330
12B
100
AcDbEntity
  8
Objects
 62
     7
420
 16777215
100
AcDbText
 10
403.5947265625
 20
-100.0860192775726
 30
0.0
 40
14.1599998246436
  1
T
 50
327.82516104951
 41
1.005619990293057
  7
Style 51
100
AcDbText
  0
TEXT
  5
14F
330
12B
100
AcDbEntity
  8
Objects
 62
     7
420
 16777215
100
AcDbText
 10
410.509765625
 20
-104.1582849025726
 30
0.0
 40
14.16000004178703
  1
A
 50
319.2368416611113
 41
1.005620005714229
  7
Style 52
100
AcDbText
  0
TEXT
  5
151
330
12B
100
AcDbEntity
  8
Objects
 62
     7
420
 16777215
100
AcDbText
 10
419.4306640625
 20
-111.7046716213226
 30
0.0
 40
14.16000012014754
  1
N
 50
307.8678783520817
 41
1.005620011279263
  7
Style 53
100
AcDbText
  0
TEXT
  5
153
330
12B
100
AcDbEntity
  8
Objects
 62
     7
420
 16777215
100
AcDbText
 10
427.166015625
 20
-121.6758630275726
 30
0.0
 40
14.15999985019956
  1
C
 50
296.6841528852179
 41
1.005619992108
  7
Style 54
100
AcDbText
  0
TEXT
  5
155
330
12B
100
AcDbEntity
  8
Objects
 62
     7
420
 16777215
100
AcDbText
 10
432.029296875
 20
-131.7827966213226
 30
0.0
 40
14.15999993749188
  1
I
 50
289.2376213941446
 41
1.005619998307357
  7
Style 55
100
AcDbText
  0
TEXT
  5
157
330
12B
100
AcDbEntity
  8
Objects
 62
     7
420
 16777215
100
AcDbText
 10
433.7783203125
 20
-135.7813317775726
 30
0.0
 40
14.15999969565829
  1
N
 50
281.0659010836126
 41
1.005619981132733
  7
Style 56
100
AcDbText
  0
TEXT
  5
159
330
12B
100
AcDbEntity
  8
Objects
 62
     7
420
 16777215
100
AcDbText
 10
436.2412109375
 20
-148.1309411525726
 30
0.0
 40
14.15999988890209
  1
G
 50
269.3073684857836
 41
1.005619994856591
  7
Style 57
100
AcDbText
  0
MTEXT
  5
15B
330
12B
100
AcDbEntity
  8
Objects
 62
     7
420
 16777215
100
AcDbMText
 10
317.17919921875
 20
-195.3003747463226
 30
0.0
 40
9.911999999999999
 41
0.0
 46
0.0
 71
     7
 72
     1
  1
\fGilroy ExtraBold|b0|i0|c0|p34;\W1.00562;PLEASE WAIT HERE
 73
     1
 44
1.0
  0
ENDBLK
  5
12E
330
12B
100
AcDbEntity
  8
0
100
AcDbBlockEnd
  0
BLOCK
  5
160
330
15E
100
AcDbEntity
  8
0
100
AcDbBlockBegin
  2
block 21
 70
     0
 10
0.0
 20
0.0
 30
0.0
  3
block 21
  1

  0
INSERT
  5
163
330
15E
100
AcDbEntity
  8
Objects
100
AcDbBlockReference
  2
block 22
 10
0.0
 20
0.0
 30
0.0
  0
INSERT
  5
17D
330
15E
100
AcDbEntity
  8
Objects
100
AcDbBlockReference
  2
block 26
 10
0.0
 20
0.0
 30
0.0
  0
ENDBLK
  5
161
330
15E
100
AcDbEntity
  8
0
100
AcDbBlockEnd
  0
BLOCK
  5
164
330
162
100
AcDbEntity
  8
0
100
AcDbBlockBegin
  2
block 22
 70
     0
 10
0.0
 20
0.0
 30
0.0
  3
block 22
  1

  0
SPLINE
  5
166
330
162
100
AcDbEntity
  8
Objects
370
     0
100
AcDbSpline
210
0.0
220
0.0
230
1.0
 70
    11
 71
     3
 72
    17
 73
    13
 74
     0
 42
0.0000000001
 43
0.0000000001
 12
1.0
 22
0.0
 32
0.0
 13
1.0
 23
0.0
 33
0.0
 40
0.0
 40
0.0
 40
0.0
 40
0.0
 40
1.0
 40
1.0
 40
1.0
 40
2.0
 40
2.0
 40
2.0
 40
3.0
 40
3.0
 40
3.0
 40
4.0
 40
4.0
 40
4.0
 40
4.0
 10
624.8692842144737
 20
-153.8306000000002
 30
0.0
 10
624.8692842144737
 20
-132.0473000000002
 30
0.0
 10
607.2103846605751
 20
-114.3883999999998
 30
0.0
 10
585.427185210865
 20
-114.3883999999998
 30
0.0
 10
563.6438857611574
 20
-114.3883999999998
 30
0.0
 10
545.9850000000006
 20
-132.0473000000002
 30
0.0
 10
545.9850000000006
 20
-153.8306000000002
 30
0.0
 10
545.9850000000006
 20
-175.6138000000001
 30
0.0
 10
563.6438857611574
 20
-193.2727000000004
 30
0.0
 10
585.427185210865
 20
-193.2727000000004
 30
0.0
 10
607.2103846605751
 20
-193.2727000000004
 30
0.0
 10
624.8692842144737
 20
-175.6138000000001
 30
0.0
 10
624.8692842144737
 20
-153.8306000000002
 30
0.0
  0
HATCH
  5
167
330
162
100
AcDbEntity
  8
Objects
 62
     7
420
 16777215
100
AcDbHatch
 10
0.0
 20
0.0
 30
0.0
210
0.0
220
0.0
230
1.0
  2
SOLID
 70
     1
 71
     0
 91
        1
 92
        1
 93
        1
 72
     4
 94
        3
 73
     0
 74
     1
 95
       17
 96
       13
 40
0.0
 40
0.0
 40
0.0
 40
0.0
 40
1.0
 40
1.0
 40
1.0
 40
2.0
 40
2.0
 40
2.0
 40
3.0
 40
3.0
 40
3.0
 40
4.0
 40
4.0
 40
4.0
 40
4.0
 10
624.8692842144737
 20
-153.8306000000002
 10
624.8692842144737
 20
-132.0473000000002
 10
607.2103846605751
 20
-114.3883999999998
 10
585.427185210865
 20
-114.3883999999998
 10
563.6438857611574
 20
-114.3883999999998
 10
545.9850000000006
 20
-132.0473000000002
 10
545.9850000000006
 20
-153.8306000000002
 10
545.9850000000006
 20
-175.6138000000001
 10
563.6438857611574
 20
-193.2727000000004
 10
585.427185210865
 20
-193.2727000000004
 10
607.2103846605751
 20
-193.2727000000004
 10
624.8692842144737
 20
-175.6138000000001
 10
624.8692842144737
 20
-153.8306000000002
 97
        0
 97
        0
 75
     2
 76
     1
 98
        0
  0
INSERT
  5
169
330
162
100
AcDbEntity
  8
Objects
100
AcDbBlockReference
  2
block 23
 10
0.0
 20
0.0
 30
0.0
  0
ENDBLK
  5
165
330
162
100
AcDbEntity
  8
0
100
AcDbBlockEnd
  0
BLOCK
  5
16A
330
168
100
AcDbEntity
  8
0
100
AcDbBlockBegin
  2
block 23
 70
     0
 10
0.0
 20
0.0
 30
0.0
  3
block 23
  1

  0
INSERT
  5
16D
330
168
100
AcDbEntity
  8
Objects
100
AcDbBlockReference
  2
block 24
 10
0.0
 20
0.0
 30
0.0
  0
INSERT
  5
175
330
168
100
AcDbEntity
  8
Objects
100
AcDbBlockReference
  2
block 25
 10
0.0
 20
0.0
 30
0.0
  0
ENDBLK
  5
16B
330
168
100
AcDbEntity
  8
0
100
AcDbBlockEnd
  0
BLOCK
  5
16E
330
16C
100
AcDbEntity
  8
0
100
AcDbBlockBegin
  2
block 24
 70
     0
 10
0.0
 20
0.0
 30
0.0
  3
block 24
  1

  0
SPLINE
  5
170
330
16C
100
AcDbEntity
  8
Objects
370
     0
100
AcDbSpline
210
0.0
220
0.0
230
1.0
 70
    11
 71
     3
 72
    23
 73
    19
 74
     0
 42
0.0000000001
 43
0.0000000001
 12
1.0
 22
0.0
 32
0.0
 13
1.0
 23
0.0
 33
0.0
 40
0.0
 40
0.0
 40
0.0
 40
0.0
 40
1.0
 40
1.0
 40
1.0
 40
2.0
 40
2.0
 40
2.0
 40
3.0
 40
3.0
 40
3.0
 40
4.0
 40
4.0
 40
4.0
 40
5.0
 40
5.0
 40
5.0
 40
6.0
 40
6.0
 40
6.0
 40
6.0
 10
582.661385280735
 20
-140.3265000000001
 30
0.0
 10
581.9818852979006
 20
-130.3634000000002
 30
0.0
 10
574.3178854915095
 20
-130.8231999999998
 30
0.0
 10
574.3178854915095
 20
-130.8231999999998
 30
0.0
 10
574.3178854915095
 20
-130.8231999999998
 30
0.0
 10
566.9301856781385
 20
-129.491
 30
0.0
 10
564.3195857440878
 20
-140.4984999999997
 30
0.0
 10
563.7049999999999
 20
-143.0900000000001
 30
0.0
 10
563.5438857636836
 20
-145.7659999999996
 30
0.0
 10
563.7459999999992
 20
-148.4216999999999
 30
0.0
 10
563.9560857532706
 20
-151.1818999999996
 30
0.0
 10
564.4448857409225
 20
-155.3045000000002
 30
0.0
 10
565.5780857122954
 20
-159.0313999999998
 30
0.0
 10
565.5780857122954
 20
-159.0313999999998
 30
0.0
 10
579.7476853543412
 20
-157.4282000000003
 30
0.0
 10
579.7476853543412
 20
-157.4282000000003
 30
0.0
 10
580.5395853343362
 20
-152.7503999999999
 30
0.0
 10
583.201085267101
 20
-148.2397000000001
 30
0.0
 10
582.661385280735
 20
-140.3265000000001
 30
0.0
  0
HATCH
  5
171
330
16C
100
AcDbEntity
  8
Objects
 62
     2
420
 16777020
100
AcDbHatch
 10
0.0
 20
0.0
 30
0.0
210
0.0
220
0.0
230
1.0
  2
SOLID
 70
     1
 71
     0
 91
        1
 92
        1
 93
        1
 72
     4
 94
        3
 73
     0
 74
     1
 95
       23
 96
       19
 40
0.0
 40
0.0
 40
0.0
 40
0.0
 40
1.0
 40
1.0
 40
1.0
 40
2.0
 40
2.0
 40
2.0
 40
3.0
 40
3.0
 40
3.0
 40
4.0
 40
4.0
 40
4.0
 40
5.0
 40
5.0
 40
5.0
 40
6.0
 40
6.0
 40
6.0
 40
6.0
 10
582.661385280735
 20
-140.3265000000001
 10
581.9818852979006
 20
-130.3634000000002
 10
574.3178854915095
 20
-130.8231999999998
 10
574.3178854915095
 20
-130.8231999999998
 10
574.3178854915095
 20
-130.8231999999998
 10
566.9301856781385
 20
-129.491
 10
564.3195857440878
 20
-140.4984999999997
 10
563.7049999999999
 20
-143.0900000000001
 10
563.5438857636836
 20
-145.7659999999996
 10
563.7459999999992
 20
-148.4216999999999
 10
563.9560857532706
 20
-151.1818999999996
 10
564.4448857409225
 20
-155.3045000000002
 10
565.5780857122954
 20
-159.0313999999998
 10
565.5780857122954
 20
-159.0313999999998
 10
579.7476853543412
 20
-157.4282000000003
 10
579.7476853543412
 20
-157.4282000000003
 10
580.5395853343362
 20
-152.7503999999999
 10
583.201085267101
 20
-148.2397000000001
 10
582.661385280735
 20
-140.3265000000001
 97
        0
 97
        0
 75
     2
 76
     1
 98
        0
  0
SPLINE
  5
172
330
16C
100
AcDbEntity
  8
Objects
370
     0
100
AcDbSpline
210
0.0
220
0.0
230
1.0
 70
    11
 71
     3
 72
    20
 73
    16
 74
     0
 42
0.0000000001
 43
0.0000000001
 12
1.0
 22
0.0
 32
0.0
 13
1.0
 23
0.0
 33
0.0
 40
0.0
 40
0.0
 40
0.0
 40
0.0
 40
1.0
 40
1.0
 40
1.0
 40
2.0
 40
2.0
 40
2.0
 40
3.0
 40
3.0
 40
3.0
 40
4.0
 40
4.0
 40
4.0
 40
5.0
 40
5.0
 40
5.0
 40
5.0
 10
566.8797856794117
 20
-163.6908000000003
 30
0.0
 10
567.8518856548544
 20
-169.6810999999998
 30
0.0
 10
566.8890856791768
 20
-176.8190999999997
 30
0.0
 10
574.4645854878036
 20
-178.1774999999998
 30
0.0
 10
576.2489999999998
 20
-178.4975000000004
 30
0.0
 10
578.1185853954958
 20
-177.9674999999997
 30
0.0
 10
579.3820853635771
 20
-176.6674999999996
 30
0.0
 10
580.3715853385802
 20
-175.6493
 30
0.0
 10
581.2316853168522
 20
-174.1837999999998
 30
0.0
 10
581.2510000000002
 20
-171.3855000000003
 30
0.0
 10
581.2830853155538
 20
-166.7345999999998
 30
0.0
 10
580.2957853404951
 20
-165.723
 30
0.0
 10
579.6550000000007
 20
-162.2453999999998
 30
0.0
 10
579.6550000000007
 20
-162.2453999999998
 30
0.0
 10
566.8797856794117
 20
-163.6908000000003
 30
0.0
 10
566.8797856794117
 20
-163.6908000000003
 30
0.0
  0
HATCH
  5
173
330
16C
100
AcDbEntity
  8
Objects
 62
     2
420
 16777020
100
AcDbHatch
 10
0.0
 20
0.0
 30
0.0
210
0.0
220
0.0
230
1.0
  2
SOLID
 70
     1
 71
     0
 91
        1
 92
        1
 93
        1
 72
     4
 94
        3
 73
     0
 74
     1
 95
       20
 96
       16
 40
0.0
 40
0.0
 40
0.0
 40
0.0
 40
1.0
 40
1.0
 40
1.0
 40
2.0
 40
2.0
 40
2.0
 40
3.0
 40
3.0
 40
3.0
 40
4.0
 40
4.0
 40
4.0
 40
5.0
 40
5.0
 40
5.0
 40
5.0
 10
566.8797856794117
 20
-163.6908000000003
 10
567.8518856548544
 20
-169.6810999999998
 10
566.8890856791768
 20
-176.8190999999997
 10
574.4645854878036
 20
-178.1774999999998
 10
576.2489999999998
 20
-178.4975000000004
 10
578.1185853954958
 20
-177.9674999999997
 10
579.3820853635771
 20
-176.6674999999996
 10
580.3715853385802
 20
-175.6493
 10
581.2316853168522
 20
-174.1837999999998
 10
581.2510000000002
 20
-171.3855000000003
 10
581.2830853155538
 20
-166.7345999999998
 10
580.2957853404951
 20
-165.723
 10
579.6550000000007
 20
-162.2453999999998
 10
579.6550000000007
 20
-162.2453999999998
 10
566.8797856794117
 20
-163.6908000000003
 10
566.8797856794117
 20
-163.6908000000003
 97
        0
 97
        0
 75
     2
 76
     1
 98
        0
  0
ENDBLK
  5
16F
330
16C
100
AcDbEntity
  8
0
100
AcDbBlockEnd
  0
BLOCK
  5
176
330
174
100
AcDbEntity
  8
0
100
AcDbBlockBegin
  2
block 25
 70
     0
 10
0.0
 20
0.0
 30
0.0
  3
block 25
  1

  0
SPLINE
  5
178
330
174
100
AcDbEntity
  8
Objects
370
     0
100
AcDbSpline
210
0.0
220
0.0
230
1.0
 70
    11
 71
     3
 72
    23
 73
    19
 74
     0
 42
0.0000000001
 43
0.0000000001
 12
1.0
 22
0.0
 32
0.0
 13
1.0
 23
0.0
 33
0.0
 40
0.0
 40
0.0
 40
0.0
 40
0.0
 40
1.0
 40
1.0
 40
1.0
 40
2.0
 40
2.0
 40
2.0
 40
3.0
 40
3.0
 40
3.0
 40
4.0
 40
4.0
 40
4.0
 40
5.0
 40
5.0
 40
5.0
 40
6.0
 40
6.0
 40
6.0
 40
6.0
 10
588.1928851409975
 20
-140.3265000000001
 30
0.0
 10
588.8723851238319
 20
-130.3634000000002
 30
0.0
 10
596.536384930223
 20
-130.8231999999998
 30
0.0
 10
596.536384930223
 20
-130.8231999999998
 30
0.0
 10
596.536384930223
 20
-130.8231999999998
 30
0.0
 10
603.924084743594
 20
-129.491
 30
0.0
 10
606.5346846776447
 20
-140.4984999999997
 30
0.0
 10
607.1492846621186
 20
-143.0900000000001
 30
0.0
 10
607.3103846580489
 20
-145.7659999999996
 30
0.0
 10
607.1082846631543
 20
-148.4216999999999
 30
0.0
 10
606.8981846684619
 20
-151.1818999999996
 30
0.0
 10
606.40938468081
 20
-155.3045000000002
 30
0.0
 10
605.2762847094345
 20
-159.0313999999998
 30
0.0
 10
605.2762847094345
 20
-159.0313999999998
 30
0.0
 10
591.1065850673913
 20
-157.4282000000003
 30
0.0
 10
591.1065850673913
 20
-157.4282000000003
 30
0.0
 10
590.3146850873964
 20
-152.7503999999999
 30
0.0
 10
587.6531851546315
 20
-148.2397000000001
 30
0.0
 10
588.1928851409975
 20
-140.3265000000001
 30
0.0
  0
HATCH
  5
179
330
174
100
AcDbEntity
  8
Objects
 62
     2
420
 16777020
100
AcDbHatch
 10
0.0
 20
0.0
 30
0.0
210
0.0
220
0.0
230
1.0
  2
SOLID
 70
     1
 71
     0
 91
        1
 92
        1
 93
        1
 72
     4
 94
        3
 73
     0
 74
     1
 95
       23
 96
       19
 40
0.0
 40
0.0
 40
0.0
 40
0.0
 40
1.0
 40
1.0
 40
1.0
 40
2.0
 40
2.0
 40
2.0
 40
3.0
 40
3.0
 40
3.0
 40
4.0
 40
4.0
 40
4.0
 40
5.0
 40
5.0
 40
5.0
 40
6.0
 40
6.0
 40
6.0
 40
6.0
 10
588.1928851409975
 20
-140.3265000000001
 10
588.8723851238319
 20
-130.3634000000002
 10
596.536384930223
 20
-130.8231999999998
 10
596.536384930223
 20
-130.8231999999998
 10
596.536384930223
 20
-130.8231999999998
 10
603.924084743594
 20
-129.491
 10
606.5346846776447
 20
-140.4984999999997
 10
607.1492846621186
 20
-143.0900000000001
 10
607.3103846580489
 20
-145.7659999999996
 10
607.1082846631543
 20
-148.4216999999999
 10
606.8981846684619
 20
-151.1818999999996
 10
606.40938468081
 20
-155.3045000000002
 10
605.2762847094345
 20
-159.0313999999998
 10
605.2762847094345
 20
-159.0313999999998
 10
591.1065850673913
 20
-157.4282000000003
 10
591.1065850673913
 20
-157.4282000000003
 10
590.3146850873964
 20
-152.7503999999999
 10
587.6531851546315
 20
-148.2397000000001
 10
588.1928851409975
 20
-140.3265000000001
 97
        0
 97
        0
 75
     2
 76
     1
 98
        0
  0
SPLINE
  5
17A
330
174
100
AcDbEntity
  8
Objects
370
     0
100
AcDbSpline
210
0.0
220
0.0
230
1.0
 70
    11
 71
     3
 72
    20
 73
    16
 74
     0
 42
0.0000000001
 43
0.0000000001
 12
1.0
 22
0.0
 32
0.0
 13
1.0
 23
0.0
 33
0.0
 40
0.0
 40
0.0
 40
0.0
 40
0.0
 40
1.0
 40
1.0
 40
1.0
 40
2.0
 40
2.0
 40
2.0
 40
3.0
 40
3.0
 40
3.0
 40
4.0
 40
4.0
 40
4.0
 40
5.0
 40
5.0
 40
5.0
 40
5.0
 10
603.9744847423208
 20
-163.6908000000003
 30
0.0
 10
603.0023847668781
 20
-169.6810999999998
 30
0.0
 10
603.9651847425557
 20
-176.8190999999997
 30
0.0
 10
596.389684933929
 20
-178.1774999999998
 30
0.0
 10
594.6052849790067
 20
-178.4975000000004
 30
0.0
 10
592.7356850262368
 20
-177.9674999999997
 30
0.0
 10
591.4721850581554
 20
-176.6674999999996
 30
0.0
 10
590.4826850831523
 20
-175.6493
 30
0.0
 10
589.6225851048803
 20
-174.1837999999998
 30
0.0
 10
589.6032851053678
 20
-171.3855000000003
 30
0.0
 10
589.5711851061787
 20
-166.7345999999998
 30
0.0
 10
590.5584850812374
 20
-165.723
 30
0.0
 10
591.1992850650495
 20
-162.2453999999998
 30
0.0
 10
591.1992850650495
 20
-162.2453999999998
 30
0.0
 10
603.9744847423208
 20
-163.6908000000003
 30
0.0
 10
603.9744847423208
 20
-163.6908000000003
 30
0.0
  0
HATCH
  5
17B
330
174
100
AcDbEntity
  8
Objects
 62
     2
420
 16777020
100
AcDbHatch
 10
0.0
 20
0.0
 30
0.0
210
0.0
220
0.0
230
1.0
  2
SOLID
 70
     1
 71
     0
 91
        1
 92
        1
 93
        1
 72
     4
 94
        3
 73
     0
 74
     1
 95
       20
 96
       16
 40
0.0
 40
0.0
 40
0.0
 40
0.0
 40
1.0
 40
1.0
 40
1.0
 40
2.0
 40
2.0
 40
2.0
 40
3.0
 40
3.0
 40
3.0
 40
4.0
 40
4.0
 40
4.0
 40
5.0
 40
5.0
 40
5.0
 40
5.0
 10
603.9744847423208
 20
-163.6908000000003
 10
603.0023847668781
 20
-169.6810999999998
 10
603.9651847425557
 20
-176.8190999999997
 10
596.389684933929
 20
-178.1774999999998
 10
594.6052849790067
 20
-178.4975000000004
 10
592.7356850262368
 20
-177.9674999999997
 10
591.4721850581554
 20
-176.6674999999996
 10
590.4826850831523
 20
-175.6493
 10
589.6225851048803
 20
-174.1837999999998
 10
589.6032851053678
 20
-171.3855000000003
 10
589.5711851061787
 20
-166.7345999999998
 10
590.5584850812374
 20
-165.723
 10
591.1992850650495
 20
-162.2453999999998
 10
591.1992850650495
 20
-162.2453999999998
 10
603.9744847423208
 20
-163.6908000000003
 10
603.9744847423208
 20
-163.6908000000003
 97
        0
 97
        0
 75
     2
 76
     1
 98
        0
  0
ENDBLK
  5
177
330
174
100
AcDbEntity
  8
0
100
AcDbBlockEnd
  0
BLOCK
  5
17E
330
17C
100
AcDbEntity
  8
0
100
AcDbBlockBegin
  2
block 26
 70
     0
 10
0.0
 20
0.0
 30
0.0
  3
block 26
  1

  0
INSERT
  5
181
330
17C
100
AcDbEntity
  8
Objects
100
AcDbBlockReference
  2
block 27
 10
0.0
 20
0.0
 30
0.0
  0
INSERT
  5
1C7
330
17C
100
AcDbEntity
  8
Objects
100
AcDbBlockReference
  2
block 28
 10
0.0
 20
0.0
 30
0.0
  0
ENDBLK
  5
17F
330
17C
100
AcDbEntity
  8
0
100
AcDbBlockEnd
  0
BLOCK
  5
182
330
180
100
AcDbEntity
  8
0
100
AcDbBlockBegin
  2
block 27
 70
     0
 10
0.0
 20
0.0
 30
0.0
  3
block 27
  1

  0
TEXT
  5
184
330
180
100
AcDbEntity
  8
Objects
 62
     7
420
 16777215
100
AcDbText
 10
518.6533203125
 20
-186.1973474025726
 30
0.0
 40
13.45200043195399
  1
P
 50
299.8512366315903
 41
1.000000032110764
  7
Style 58
100
AcDbText
  0
TEXT
  5
186
330
180
100
AcDbEntity
  8
Objects
 62
     7
420
 16777215
100
AcDbText
 10
524.3916015625
 20
-195.9380700588226
 30
0.0
 40
13.45199996081789
  1
L
 50
308.1248704016978
 41
0.9999999970872651
  7
Style 59
100
AcDbText
  0
TEXT
  5
188
330
180
100
AcDbEntity
  8
Objects
 62
     7
420
 16777215
100
AcDbText
 10
530.6865234375
 20
-203.8516442775726
 30
0.0
 40
13.45199947846114
  1
E
 50
316.0447717663093
 41
0.9999999612296415
  7
Style 60
100
AcDbText
  0
TEXT
  5
18A
330
180
100
AcDbEntity
  8
Objects
 62
     7
420
 16777215
100
AcDbText
 10
538.3623046875
 20
-211.2359216213226
 30
0.0
 40
13.45200000874778
  1
A
 50
325.1145597607974
 41
1.000000000650296
  7
Style 61
100
AcDbText
  0
TEXT
  5
18C
330
180
100
AcDbEntity
  8
Objects
 62
     7
420
 16777215
100
AcDbText
 10
549.0869140625
 20
-218.4766442775726
 30
0.0
 40
13.45199978552982
  1
S
 50
334.2676478944019
 41
0.9999999840566324
  7
Style 62
100
AcDbText
  0
TEXT
  5
18E
330
180
100
AcDbEntity
  8
Objects
 62
     7
420
 16777215
100
AcDbText
 10
558.6318359375
 20
-222.9820153713226
 30
0.0
 40
13.45200011321328
  1
E
 50
342.4894136709898
 41
1.000000008416093
  7
Style 63
100
AcDbText
  0
TEXT
  5
190
330
180
100
AcDbEntity
  8
Objects
 62
     7
420
 16777215
100
AcDbText
 10
568.4111328125
 20
-225.8775231838226
 30
0.0
 40
13.45199998767722
  1
 
 50
348.3786105910531
 41
0.9999999990839443
  7
Style 64
100
AcDbText
  0
TEXT
  5
192
330
180
100
AcDbEntity
  8
Objects
 62
     7
420
 16777215
100
AcDbText
 10
572.78125
 20
-227.1753747463226
 30
0.0
 40
13.45200024315048
  1
W
 50
356.5320092565684
 41
1.000000018075415
  7
Style 65
100
AcDbText
  0
TEXT
  5
194
330
180
100
AcDbEntity
  8
Objects
 62
     7
420
 16777215
100
AcDbText
 10
589.349609375
 20
-227.9204919338226
 30
0.0
 40
13.452000083619
  1
A
 50
7.528326827090332
 41
1.000000006216102
  7
Style 66
100
AcDbText
  0
TEXT
  5
196
330
180
100
AcDbEntity
  8
Objects
 62
     7
420
 16777215
100
AcDbText
 10
601.8232421875
 20
-225.9898278713226
 30
0.0
 40
13.45200007501698
  1
I
 50
14.60227415376691
 41
1.000000005576642
  7
Style 67
100
AcDbText
  0
TEXT
  5
198
330
180
100
AcDbEntity
  8
Objects
 62
     7
420
 16777215
100
AcDbText
 10
607.10546875
 20
-224.7002770900726
 30
0.0
 40
13.45200016704657
  1
T
 50
20.75642453373623
 41
1.000000012417973
  7
Style 68
100
AcDbText
  0
TEXT
  5
19A
330
180
100
AcDbEntity
  8
Objects
 62
     7
420
 16777215
100
AcDbText
 10
616.6650390625
 20
-220.8799645900726
 30
0.0
 40
13.45200014911482
  1
 
 50
26.6744348015934
 41
1.000000011084956
  7
Style 69
100
AcDbText
  0
TEXT
  5
19C
330
180
100
AcDbEntity
  8
Objects
 62
     7
420
 16777215
100
AcDbText
 10
621.2763671875
 20
-218.7827966213226
 30
0.0
 40
13.45199973601747
  1
H
 50
33.82363189423717
 41
0.999999980375964
  7
Style 70
100
AcDbText
  0
TEXT
  5
19E
330
180
100
AcDbEntity
  8
Objects
 62
     7
420
 16777215
100
AcDbText
 10
632.5625
 20
-210.9341638088226
 30
0.0
 40
13.45199987374567
  1
E
 50
43.24282712339026
 41
0.999999990614457
  7
Style 71
100
AcDbText
  0
TEXT
  5
1A0
330
180
100
AcDbEntity
  8
Objects
 62
     7
420
 16777215
100
AcDbText
 10
640.2099609375
 20
-203.6641442775726
 30
0.0
 40
13.45200009944703
  1
R
 50
51.68772620776915
 41
1.000000007392732
  7
Style 72
100
AcDbText
  0
TEXT
  5
1A2
330
180
100
AcDbEntity
  8
Objects
 62
     7
420
 16777215
100
AcDbText
 10
647.2158203125
 20
-194.5982263088226
 30
0.0
 40
13.45199977910332
  1
E
 50
60.18057779247645
 41
0.9999999835788972
  7
Style 73
100
AcDbText
  0
TEXT
  5
1A4
330
180
100
AcDbEntity
  8
Objects
 62
     7
420
 16777215
100
AcDbText
 10
527.8844909667969
 20
-134.3013877868652
 30
0.0
 40
13.45199983132218
  1
K
 50
66.28380333737346
 41
0.9999999874607627
  7
Style 74
100
AcDbText
  0
TEXT
  5
1A6
330
180
100
AcDbEntity
  8
Objects
 62
     7
420
 16777215
100
AcDbText
 10
531.8361511230469
 20
-125.3077354431152
 30
0.0
 40
13.45200024557901
  1
E
 50
57.42189975341888
 41
1.000000018255948
  7
Style 75
100
AcDbText
  0
TEXT
  5
1A8
330
180
100
AcDbEntity
  8
Objects
 62
     7
420
 16777215
100
AcDbText
 10
536.6017761230469
 20
-117.7906455993652
 30
0.0
 40
13.45200017572464
  1
E
 50
49.0359108470717
 41
1.000000013063087
  7
Style 76
100
AcDbText
  0
TEXT
  5
1AA
330
180
100
AcDbEntity
  8
Objects
 62
     7
420
 16777215
100
AcDbText
 10
542.3830261230469
 20
-111.0338096618652
 30
0.0
 40
13.45200039124263
  1
P
 50
40.32340447702502
 41
1.000000029084347
  7
Style 77
100
AcDbText
  0
TEXT
  5
1AC
330
180
100
AcDbEntity
  8
Objects
 62
     7
420
 16777215
100
AcDbText
 10
549.9035339355469
 20
-104.8438682556152
 30
0.0
 40
13.45200001634563
  1
 
 50
34.0001065322009
 41
1.000000001215108
  7
Style 78
100
AcDbText
  0
TEXT
  5
1AE
330
180
100
AcDbEntity
  8
Objects
 62
     7
420
 16777215
100
AcDbText
 10
552.2565612792969
 20
-103.0430870056152
 30
0.0
 40
13.45200025393378
  1
T
 50
28.64252171895082
 41
1.000000018877028
  7
Style 79
100
AcDbText
  0
TEXT
  5
1B0
330
180
100
AcDbEntity
  8
Objects
 62
     7
420
 16777215
100
AcDbText
 10
560.0192565917969
 20
-98.60802841186523
 30
0.0
 40
13.45200016593262
  1
H
 50
18.76269746359636
 41
1.000000012335164
  7
Style 80
100
AcDbText
  0
TEXT
  5
1B2
330
180
100
AcDbEntity
  8
Objects
 62
     7
420
 16777215
100
AcDbText
 10
571.2824401855469
 20
-94.87365341186523
 30
0.0
 40
13.45199971049785
  1
E
 50
8.912567056208779
 41
0.9999999784788771
  7
Style 81
100
AcDbText
  0
TEXT
  5
1B4
330
180
100
AcDbEntity
  8
Objects
 62
     7
420
 16777215
100
AcDbText
 10
580.1960144042969
 20
-93.59923934936523
 30
0.0
 40
13.45200038639527
  1
 
 50
2.924391084767974
 41
1.000000028724002
  7
Style 82
100
AcDbText
  0
TEXT
  5
1B6
330
180
100
AcDbEntity
  8
Objects
 62
     7
420
 16777215
100
AcDbText
 10
583.8322448730469
 20
-93.10949325561523
 30
0.0
 40
13.45200004650179
  1
D
 50
355.5139284102588
 41
1.000000003456868
  7
Style 83
100
AcDbText
  0
TEXT
  5
1B8
330
180
100
AcDbEntity
  8
Objects
 62
     7
420
 16777215
100
AcDbText
 10
596.0011901855469
 20
-94.30920028686523
 30
0.0
 40
13.45200033908291
  1
I
 50
347.7629350980771
 41
1.000000025206877
  7
Style 84
100
AcDbText
  0
TEXT
  5
1BA
330
180
100
AcDbEntity
  8
Objects
 62
     7
420
 16777215
100
AcDbText
 10
600.1203308105469
 20
-95.04748153686523
 30
0.0
 40
13.45200024477273
  1
S
 50
341.4811948272487
 41
1.00000001819601
  7
Style 85
100
AcDbText
  0
TEXT
  5
1BC
330
180
100
AcDbEntity
  8
Objects
 62
     7
420
 16777215
100
AcDbText
 10
608.5841979980469
 20
-97.84435653686523
 30
0.0
 40
13.4519997920619
  1
T
 50
332.9661261377959
 41
0.9999999845422173
  7
Style 86
100
AcDbText
  0
TEXT
  5
1BE
330
180
100
AcDbEntity
  8
Objects
 62
     7
420
 16777215
100
AcDbText
 10
615.4508972167969
 20
-101.1119346618652
 30
0.0
 40
13.45199952614089
  1
A
 50
324.7543832228572
 41
0.9999999647740776
  7
Style 87
100
AcDbText
  0
TEXT
  5
1C0
330
180
100
AcDbEntity
  8
Objects
 62
     7
420
 16777215
100
AcDbText
 10
624.5397644042969
 20
-107.4195518493652
 30
0.0
 40
13.45199999860168
  1
N
 50
313.9536511232388
 41
0.9999999998960512
  7
Style 88
100
AcDbText
  0
TEXT
  5
1C2
330
180
100
AcDbEntity
  8
Objects
 62
     7
420
 16777215
100
AcDbText
 10
632.8161315917969
 20
-116.0259971618652
 30
0.0
 40
13.45199991195247
  1
C
 50
303.4183640996827
 41
0.9999999934546882
  7
Style 89
100
AcDbText
  0
TEXT
  5
1C4
330
180
100
AcDbEntity
  8
Objects
 62
     7
420
 16777215
100
AcDbText
 10
638.5881042480469
 20
-124.8214073181152
 30
0.0
 40
13.45199987013613
  1
E
 50
294.2412811481674
 41
0.9999999903461294
  7
Style 90
100
AcDbText
  0
ENDBLK
  5
183
330
180
100
AcDbEntity
  8
0
100
AcDbBlockEnd
  0
BLOCK
  5
1C8
330
1C6
100
AcDbEntity
  8
0
100
AcDbBlockBegin
  2
block 28
 70
     0
 10
0.0
 20
0.0
 30
0.0
  3
block 28
  1

  0
INSERT
  5
1CB
330
1C6
100
AcDbEntity
  8
Objects
100
AcDbBlockReference
  2
block 29
 10
0.0
 20
0.0
 30
0.0
  0
INSERT
  5
1ED
330
1C6
100
AcDbEntity
  8
Objects
100
AcDbBlockReference
  2
block 32
 10
0.0
 20
0.0
 30
0.0
  0
ENDBLK
  5
1C9
330
1C6
100
AcDbEntity
  8
0
100
AcDbBlockEnd
  0
BLOCK
  5
1CC
330
1CA
100
AcDbEntity
  8
0
100
AcDbBlockBegin
  2
block 29
 70
     0
 10
0.0
 20
0.0
 30
0.0
  3
block 29
  1

  0
INSERT
  5
1CF
330
1CA
100
AcDbEntity
  8
Objects
100
AcDbBlockReference
  2
block 30
 10
0.0
 20
0.0
 30
0.0
  0
INSERT
  5
1DE
330
1CA
100
AcDbEntity
  8
Objects
100
AcDbBlockReference
  2
block 31
 10
0.0
 20
0.0
 30
0.0
  0
ENDBLK
  5
1CD
330
1CA
100
AcDbEntity
  8
0
100
AcDbBlockEnd
  0
BLOCK
  5
1D0
330
1CE
100
AcDbEntity
  8
0
100
AcDbBlockBegin
  2
block 30
 70
     0
 10
0.0
 20
0.0
 30
0.0
  3
block 30
  1

  0
POLYLINE
  5
1D2
330
1CE
100
AcDbEntity
  8
Objects
 62
     7
420
 16777215
370
    70
100
AcDb2dPolyline
 66
     1
 10
0.0
 20
0.0
 30
0.0
  0
VERTEX
  5
1D3
330
1D2
100
AcDbEntity
  8
Objects
 62
     7
420
 16777215
370
    70
100
AcDbVertex
100
AcDb2dVertex
 10
516.2388869587085
 20
-162.2453999999998
 30
0.0
  0
VERTEX
  5
1D4
330
1D2
100
AcDbEntity
  8
Objects
 62
     7
420
 16777215
370
    70
100
AcDbVertex
100
AcDb2dVertex
 10
536.8260000000009
 20
-162.2453999999998
 30
0.0
  0
SEQEND
  5
1D5
330
1D2
100
AcDbEntity
  8
Objects
 62
     7
420
 16777215
370
    70
  0
POLYLINE
  5
1D6
330
1CE
100
AcDbEntity
  8
Objects
370
     0
100
AcDb2dPolyline
 66
     1
 10
0.0
 20
0.0
 30
0.0
  0
VERTEX
  5
1D7
330
1D6
100
AcDbEntity
  8
Objects
370
     0
100
AcDbVertex
100
AcDb2dVertex
 10
509.3172871335628
 20
-162.2453999999998
 30
0.0
  0
VERTEX
  5
1D8
330
1D6
100
AcDbEntity
  8
Objects
370
     0
100
AcDbVertex
100
AcDb2dVertex
 10
516.2388869587085
 20
-166.2416000000003
 30
0.0
  0
VERTEX
  5
1D9
330
1D6
100
AcDbEntity
  8
Objects
370
     0
100
AcDbVertex
100
AcDb2dVertex
 10
516.2388869587085
 20
-158.2492000000002
 30
0.0
  0
VERTEX
  5
1DA
330
1D6
100
AcDbEntity
  8
Objects
370
     0
100
AcDbVertex
100
AcDb2dVertex
 10
509.3172871335628
 20
-162.2453999999998
 30
0.0
  0
SEQEND
  5
1DC
330
1D6
100
AcDbEntity
  8
Objects
370
     0
  0
HATCH
  5
1DB
330
1CE
100
AcDbEntity
  8
Objects
 62
     7
420
 16777215
100
AcDbHatch
 10
0.0
 20
0.0
 30
0.0
210
0.0
220
0.0
230
1.0
  2
SOLID
 70
     1
 71
     0
 91
        1
 92
        1
 93
        3
 72
     1
 10
509.3172871335628
 20
-162.2453999999998
 11
516.2388869587085
 21
-166.2416000000003
 72
     1
 10
516.2388869587085
 20
-166.2416000000003
 11
516.2388869587085
 21
-158.2492000000002
 72
     1
 10
516.2388869587085
 20
-158.2492000000002
 11
509.3172871335628
 21
-162.2453999999998
 97
        0
 75
     2
 76
     1
 98
        0
  0
ENDBLK
  5
1D1
330
1CE
100
AcDbEntity
  8
0
100
AcDbBlockEnd
  0
BLOCK
  5
1DF
330
1DD
100
AcDbEntity
  8
0
100
AcDbBlockBegin
  2
block 31
 70
     0
 10
0.0
 20
0.0
 30
0.0
  3
block 31
  1

  0
POLYLINE
  5
1E1
330
1DD
100
AcDbEntity
  8
Objects
 62
     7
420
 16777215
370
    70
100
AcDb2dPolyline
 66
     1
 10
0.0
 20
0.0
 30
0.0
  0
VERTEX
  5
1E2
330
1E1
100
AcDbEntity
  8
Objects
 62
     7
420
 16777215
370
    70
100
AcDbVertex
100
AcDb2dVertex
 10
654.4474834672656
 20
-162.2453999999998
 30
0.0
  0
VERTEX
  5
1E3
330
1E1
100
AcDbEntity
  8
Objects
 62
     7
420
 16777215
370
    70
100
AcDbVertex
100
AcDb2dVertex
 10
633.8603839873394
 20
-162.2453999999998
 30
0.0
  0
SEQEND
  5
1E4
330
1E1
100
AcDbEntity
  8
Objects
 62
     7
420
 16777215
370
    70
  0
POLYLINE
  5
1E5
330
1DD
100
AcDbEntity
  8
Objects
370
     0
100
AcDb2dPolyline
 66
     1
 10
0.0
 20
0.0
 30
0.0
  0
VERTEX
  5
1E6
330
1E5
100
AcDbEntity
  8
Objects
370
     0
100
AcDbVertex
100
AcDb2dVertex
 10
661.3690832924112
 20
-162.2453999999998
 30
0.0
  0
VERTEX
  5
1E7
330
1E5
100
AcDbEntity
  8
Objects
370
     0
100
AcDbVertex
100
AcDb2dVertex
 10
654.4474834672656
 20
-158.2492000000002
 30
0.0
  0
VERTEX
  5
1E8
330
1E5
100
AcDbEntity
  8
Objects
370
     0
100
AcDbVertex
100
AcDb2dVertex
 10
654.4474834672656
 20
-166.2416000000003
 30
0.0
  0
VERTEX
  5
1E9
330
1E5
100
AcDbEntity
  8
Objects
370
     0
100
AcDbVertex
100
AcDb2dVertex
 10
661.3690832924112
 20
-162.2453999999998
 30
0.0
  0
SEQEND
  5
1EB
330
1E5
100
AcDbEntity
  8
Objects
370
     0
  0
HATCH
  5
1EA
330
1DD
100
AcDbEntity
  8
Objects
 62
     7
420
 16777215
100
AcDbHatch
 10
0.0
 20
0.0
 30
0.0
210
0.0
220
0.0
230
1.0
  2
SOLID
 70
     1
 71
     0
 91
        1
 92
        1
 93
        3
 72
     1
 10
661.3690832924112
 20
-162.2453999999998
 11
654.4474834672656
 21
-158.2492000000002
 72
     1
 10
654.4474834672656
 20
-158.2492000000002
 11
654.4474834672656
 21
-166.2416000000003
 72
     1
 10
654.4474834672656
 20
-166.2416000000003
 11
661.3690832924112
 21
-162.2453999999998
 97
        0
 75
     2
 76
     1
 98
        0
  0
ENDBLK
  5
1E0
330
1DD
100
AcDbEntity
  8
0
100
AcDbBlockEnd
  0
BLOCK
  5
1EE
330
1EC
100
AcDbEntity
  8
0
100
AcDbBlockBegin
  2
block 32
 70
     0
 10
0.0
 20
0.0
 30
0.0
  3
block 32
  1

  0
MTEXT
  5
1F0
330
1EC
100
AcDbEntity
  8
Objects
 62
     7
420
 16777215
100
AcDbMText
 10
518.5307312011719
 20
-156.3028869628906
 30
0.0
 40
7.787999999999999
 41
0.0
 46
0.0
 71
     7
 72
     1
  1
\fFreeSansBold|b0|i0|c0|p34;\W1;2m
 73
     1
 44
1.0
  0
MTEXT
  5
1F1
330
1EC
100
AcDbEntity
  8
Objects
 62
     7
420
 16777215
100
AcDbMText
 10
636.7461853027344
 20
-156.3028869628906
 30
0.0
 40
7.787999999999999
 41
0.0
 46
0.0
 71
     7
 72
     1
  1
\fFreeSansBold|b0|i0|c0|p34;\W1;2m
 73
     1
 44
1.0
  0
ENDBLK
  5
1EF
330
1EC
100
AcDbEntity
  8
0
100
AcDbBlockEnd
  0
BLOCK
  5
1F4
330
1F2
100
AcDbEntity
  8
0
100
AcDbBlockBegin
  2
block 33
 70
     0
 10
0.0
 20
0.0
 30
0.0
  3
block 33
  1

  0
INSERT
  5
1F7
330
1F2
100
AcDbEntity
  8
Objects
100
AcDbBlockReference
  2
block 34
 10
0.0
 20
0.0
 30
0.0
  0
INSERT
  5
207
330
1F2
100
AcDbEntity
  8
Objects
100
AcDbBlockReference
  2
block 35
 10
0.0
 20
0.0
 30
0.0
  0
INSERT
  5
20D
330
1F2
100
AcDbEntity
  8
Objects
100
AcDbBlockReference
  2
block 36
 10
0.0
 20
0.0
 30
0.0
  0
ENDBLK
  5
1F5
330
1F2
100
AcDbEntity
  8
0
100
AcDbBlockEnd
  0
BLOCK
  5
1F8
330
1F6
100
AcDbEntity
  8
0
100
AcDbBlockBegin
  2
block 34
 70
     0
 10
0.0
 20
0.0
 30
0.0
  3
block 34
  1

  0
POLYLINE
  5
1FA
330
1F6
100
AcDbEntity
  8
Objects
370
     0
100
AcDb2dPolyline
 66
     1
 10
0.0
 20
0.0
 30
0.0
  0
VERTEX
  5
1FB
330
1FA
100
AcDbEntity
  8
Objects
370
     0
100
AcDbVertex
100
AcDb2dVertex
 10
88.89540000000034
 20
-311.3019000000004
 30
0.0
  0
VERTEX
  5
1FC
330
1FA
100
AcDbEntity
  8
Objects
370
     0
100
AcDbVertex
100
AcDb2dVertex
 10
88.89540000000034
 20
-397.8143
 30
0.0
  0
VERTEX
  5
1FD
330
1FA
100
AcDbEntity
  8
Objects
370
     0
100
AcDbVertex
100
AcDb2dVertex
 10
240.4181939265254
 20
-397.8143
 30
0.0
  0
VERTEX
  5
1FE
330
1FA
100
AcDbEntity
  8
Objects
370
     0
100
AcDbVertex
100
AcDb2dVertex
 10
240.4181939265254
 20
-311.3019000000004
 30
0.0
  0
VERTEX
  5
1FF
330
1FA
100
AcDbEntity
  8
Objects
370
     0
100
AcDbVertex
100
AcDb2dVertex
 10
88.89540000000034
 20
-311.3019000000004
 30
0.0
  0
SEQEND
  5
201
330
1FA
100
AcDbEntity
  8
Objects
370
     0
  0
HATCH
  5
200
330
1F6
100
AcDbEntity
  8
Objects
 62
   121
420
  8643540
100
AcDbHatch
 10
0.0
 20
0.0
 30
0.0
210
0.0
220
0.0
230
1.0
  2
SOLID
 70
     1
 71
     0
 91
        1
 92
        1
 93
        4
 72
     1
 10
88.89540000000034
 20
-311.3019000000004
 11
88.89540000000034
 21
-397.8143
 72
     1
 10
88.89540000000034
 20
-397.8143
 11
240.4181939265254
 21
-397.8143
 72
     1
 10
240.4181939265254
 20
-397.8143
 11
240.4181939265254
 21
-311.3019000000004
 72
     1
 10
240.4181939265254
 20
-311.3019000000004
 11
88.89540000000034
 21
-311.3019000000004
 97
        0
 75
     2
 76
     1
 98
        0
  0
SPLINE
  5
202
330
1F6
100
AcDbEntity
  8
Objects
370
     0
100
AcDbSpline
210
0.0
220
0.0
230
1.0
 70
    11
 71
     3
 72
    23
 73
    19
 74
     0
 42
0.0000000001
 43
0.0000000001
 12
1.0
 22
0.0
 32
0.0
 13
1.0
 23
0.0
 33
0.0
 40
0.0
 40
0.0
 40
0.0
 40
0.0
 40
1.0
 40
1.0
 40
1.0
 40
2.0
 40
2.0
 40
2.0
 40
3.0
 40
3.0
 40
3.0
 40
4.0
 40
4.0
 40
4.0
 40
5.0
 40
5.0
 40
5.0
 40
6.0
 40
6.0
 40
6.0
 40
6.0
 10
240.4181939265254
 20
-299.3482999999997
 30
0.0
 10
240.4181939265254
 20
-287.9979999999996
 30
0.0
 10
231.2168941589698
 20
-278.7967000000008
 30
0.0
 10
219.8665944457025
 20
-278.7967000000008
 30
0.0
 10
219.8665944457025
 20
-278.7967000000008
 30
0.0
 10
109.4470000000001
 20
-278.7967000000008
 30
0.0
 10
109.4470000000001
 20
-278.7967000000008
 30
0.0
 10
98.09670000000006
 20
-278.7967000000008
 30
0.0
 10
88.89540000000034
 20
-287.9979999999996
 30
0.0
 10
88.89540000000034
 20
-299.3482999999997
 30
0.0
 10
88.89540000000034
 20
-299.3482999999997
 30
0.0
 10
88.89540000000034
 20
-311.3019000000004
 30
0.0
 10
88.89540000000034
 20
-311.3019000000004
 30
0.0
 10
88.89540000000034
 20
-311.3019000000004
 30
0.0
 10
240.4181939265254
 20
-311.3019000000004
 30
0.0
 10
240.4181939265254
 20
-311.3019000000004
 30
0.0
 10
240.4181939265254
 20
-311.3019000000004
 30
0.0
 10
240.4181939265254
 20
-299.3482999999997
 30
0.0
 10
240.4181939265254
 20
-299.3482999999997
 30
0.0
  0
HATCH
  5
203
330
1F6
100
AcDbEntity
  8
Objects
 62
     7
420
 16777215
100
AcDbHatch
 10
0.0
 20
0.0
 30
0.0
210
0.0
220
0.0
230
1.0
  2
SOLID
 70
     1
 71
     0
 91
        1
 92
        1
 93
        1
 72
     4
 94
        3
 73
     0
 74
     1
 95
       23
 96
       19
 40
0.0
 40
0.0
 40
0.0
 40
0.0
 40
1.0
 40
1.0
 40
1.0
 40
2.0
 40
2.0
 40
2.0
 40
3.0
 40
3.0
 40
3.0
 40
4.0
 40
4.0
 40
4.0
 40
5.0
 40
5.0
 40
5.0
 40
6.0
 40
6.0
 40
6.0
 40
6.0
 10
240.4181939265254
 20
-299.3482999999997
 10
240.4181939265254
 20
-287.9979999999996
 10
231.2168941589698
 20
-278.7967000000008
 10
219.8665944457025
 20
-278.7967000000008
 10
219.8665944457025
 20
-278.7967000000008
 10
109.4470000000001
 20
-278.7967000000008
 10
109.4470000000001
 20
-278.7967000000008
 10
98.09670000000006
 20
-278.7967000000008
 10
88.89540000000034
 20
-287.9979999999996
 10
88.89540000000034
 20
-299.3482999999997
 10
88.89540000000034
 20
-299.3482999999997
 10
88.89540000000034
 20
-311.3019000000004
 10
88.89540000000034
 20
-311.3019000000004
 10
88.89540000000034
 20
-311.3019000000004
 10
240.4181939265254
 20
-311.3019000000004
 10
240.4181939265254
 20
-311.3019000000004
 10
240.4181939265254
 20
-311.3019000000004
 10
240.4181939265254
 20
-299.3482999999997
 10
240.4181939265254
 20
-299.3482999999997
 97
        0
 97
        0
 75
     2
 76
     1
 98
        0
  0
SPLINE
  5
204
330
1F6
100
AcDbEntity
  8
Objects
370
     0
100
AcDbSpline
210
0.0
220
0.0
230
1.0
 70
    11
 71
     3
 72
    23
 73
    19
 74
     0
 42
0.0000000001
 43
0.0000000001
 12
1.0
 22
0.0
 32
0.0
 13
1.0
 23
0.0
 33
0.0
 40
0.0
 40
0.0
 40
0.0
 40
0.0
 40
1.0
 40
1.0
 40
1.0
 40
2.0
 40
2.0
 40
2.0
 40
3.0
 40
3.0
 40
3.0
 40
4.0
 40
4.0
 40
4.0
 40
5.0
 40
5.0
 40
5.0
 40
6.0
 40
6.0
 40
6.0
 40
6.0
 10
88.89540000000034
 20
-409.7679000000007
 30
0.0
 10
88.89540000000034
 20
-421.1183000000001
 30
0.0
 10
98.09670000000006
 20
-430.3194999999996
 30
0.0
 10
109.4470000000001
 20
-430.3194999999996
 30
0.0
 10
109.4470000000001
 20
-430.3194999999996
 30
0.0
 10
219.8665944457025
 20
-430.3194999999996
 30
0.0
 10
219.8665944457025
 20
-430.3194999999996
 30
0.0
 10
231.2168941589698
 20
-430.3194999999996
 30
0.0
 10
240.4181939265254
 20
-421.1183000000001
 30
0.0
 10
240.4181939265254
 20
-409.7679000000007
 30
0.0
 10
240.4181939265254
 20
-409.7679000000007
 30
0.0
 10
240.4181939265254
 20
-397.8143
 30
0.0
 10
240.4181939265254
 20
-397.8143
 30
0.0
 10
240.4181939265254
 20
-397.8143
 30
0.0
 10
88.89540000000034
 20
-397.8143
 30
0.0
 10
88.89540000000034
 20
-397.8143
 30
0.0
 10
88.89540000000034
 20
-397.8143
 30
0.0
 10
88.89540000000034
 20
-409.7679000000007
 30
0.0
 10
88.89540000000034
 20
-409.7679000000007
 30
0.0
  0
HATCH
  5
205
330
1F6
100
AcDbEntity
  8
Objects
 62
     7
420
 16777215
100
AcDbHatch
 10
0.0
 20
0.0
 30
0.0
210
0.0
220
0.0
230
1.0
  2
SOLID
 70
     1
 71
     0
 91
        1
 92
        1
 93
        1
 72
     4
 94
        3
 73
     0
 74
     1
 95
       23
 96
       19
 40
0.0
 40
0.0
 40
0.0
 40
0.0
 40
1.0
 40
1.0
 40
1.0
 40
2.0
 40
2.0
 40
2.0
 40
3.0
 40
3.0
 40
3.0
 40
4.0
 40
4.0
 40
4.0
 40
5.0
 40
5.0
 40
5.0
 40
6.0
 40
6.0
 40
6.0
 40
6.0
 10
88.89540000000034
 20
-409.7679000000007
 10
88.89540000000034
 20
-421.1183000000001
 10
98.09670000000006
 20
-430.3194999999996
 10
109.4470000000001
 20
-430.3194999999996
 10
109.4470000000001
 20
-430.3194999999996
 10
219.8665944457025
 20
-430.3194999999996
 10
219.8665944457025
 20
-430.3194999999996
 10
231.2168941589698
 20
-430.3194999999996
 10
240.4181939265254
 20
-421.1183000000001
 10
240.4181939265254
 20
-409.7679000000007
 10
240.4181939265254
 20
-409.7679000000007
 10
240.4181939265254
 20
-397.8143
 10
240.4181939265254
 20
-397.8143
 10
240.4181939265254
 20
-397.8143
 10
88.89540000000034
 20
-397.8143
 10
88.89540000000034
 20
-397.8143
 10
88.89540000000034
 20
-397.8143
 10
88.89540000000034
 20
-409.7679000000007
 10
88.89540000000034
 20
-409.7679000000007
 97
        0
 97
        0
 75
     2
 76
     1
 98
        0
  0
ENDBLK
  5
1F9
330
1F6
100
AcDbEntity
  8
0
100
AcDbBlockEnd
  0
BLOCK
  5
208
330
206
100
AcDbEntity
  8
0
100
AcDbBlockBegin
  2
block 35
 70
     0
 10
0.0
 20
0.0
 30
0.0
  3
block 35
  1

  0
MTEXT
  5
20A
330
206
100
AcDbEntity
  8
Objects
 62
   121
420
  8643540
100
AcDbMText
 10
118.4866333007812
 20
-302.4606323242188
 30
0.0
 40
13.452
 41
0.0
 46
0.0
 71
     7
 72
     1
  1
\fGilroy ExtraBold|b0|i0|c0|p34;\W1;KEEP YOUR
 73
     1
 44
1.0
  0
MTEXT
  5
20B
330
206
100
AcDbEntity
  8
Objects
 62
   121
420
  8643540
100
AcDbMText
 10
122.9610595703125
 20
-420.2860717773438
 30
0.0
 40
13.452
 41
0.0
 46
0.0
 71
     7
 72
     1
  1
\fGilroy ExtraBold|b0|i0|c0|p34;\W1;DISTANCE
 73
     1
 44
1.0
  0
ENDBLK
  5
209
330
206
100
AcDbEntity
  8
0
100
AcDbBlockEnd
  0
BLOCK
  5
20E
330
20C
100
AcDbEntity
  8
0
100
AcDbBlockBegin
  2
block 36
 70
     0
 10
0.0
 20
0.0
 30
0.0
  3
block 36
  1

  0
INSERT
  5
211
330
20C
100
AcDbEntity
  8
Objects
100
AcDbBlockReference
  2
block 37
 10
0.0
 20
0.0
 30
0.0
  0
INSERT
  5
225
330
20C
100
AcDbEntity
  8
Objects
100
AcDbBlockReference
  2
block 40
 10
0.0
 20
0.0
 30
0.0
  0
ENDBLK
  5
20F
330
20C
100
AcDbEntity
  8
0
100
AcDbBlockEnd
  0
BLOCK
  5
212
330
210
100
AcDbEntity
  8
0
100
AcDbBlockBegin
  2
block 37
 70
     0
 10
0.0
 20
0.0
 30
0.0
  3
block 37
  1

  0
INSERT
  5
215
330
210
100
AcDbEntity
  8
Objects
100
AcDbBlockReference
  2
block 38
 10
0.0
 20
0.0
 30
0.0
  0
INSERT
  5
21D
330
210
100
AcDbEntity
  8
Objects
100
AcDbBlockReference
  2
block 39
 10
0.0
 20
0.0
 30
0.0
  0
ENDBLK
  5
213
330
210
100
AcDbEntity
  8
0
100
AcDbBlockEnd
  0
BLOCK
  5
216
330
214
100
AcDbEntity
  8
0
100
AcDbBlockBegin
  2
block 38
 70
     0
 10
0.0
 20
0.0
 30
0.0
  3
block 38
  1

  0
SPLINE
  5
218
330
214
100
AcDbEntity
  8
Objects
370
     0
100
AcDbSpline
210
0.0
220
0.0
230
1.0
 70
    11
 71
     3
 72
    23
 73
    19
 74
     0
 42
0.0000000001
 43
0.0000000001
 12
1.0
 22
0.0
 32
0.0
 13
1.0
 23
0.0
 33
0.0
 40
0.0
 40
0.0
 40
0.0
 40
0.0
 40
1.0
 40
1.0
 40
1.0
 40
2.0
 40
2.0
 40
2.0
 40
3.0
 40
3.0
 40
3.0
 40
4.0
 40
4.0
 40
4.0
 40
5.0
 40
5.0
 40
5.0
 40
6.0
 40
6.0
 40
6.0
 40
6.0
 10
162.426395896764
 20
-337.2764000000006
 30
0.0
 10
161.5990000000002
 20
-325.1458000000002
 30
0.0
 10
152.2677961533918
 20
-325.7057000000004
 30
0.0
 10
152.2677961533918
 20
-325.7057000000004
 30
0.0
 10
152.2677961533918
 20
-325.7057000000004
 30
0.0
 10
143.2730000000001
 20
-324.0836999999992
 30
0.0
 10
140.0944964609153
 20
-337.4858000000004
 30
0.0
 10
139.3461964798189
 20
-340.6409999999996
 30
0.0
 10
139.1499999999996
 20
-343.8991999999998
 30
0.0
 10
139.3960964785583
 20
-347.1324999999997
 30
0.0
 10
139.6518964720963
 20
-350.4932000000008
 30
0.0
 10
140.2470000000003
 20
-355.5126999999993
 30
0.0
 10
141.6266964222086
 20
-360.0503000000008
 30
0.0
 10
141.6266964222086
 20
-360.0503000000008
 30
0.0
 10
158.8788959863814
 20
-358.0984000000008
 30
0.0
 10
158.8788959863814
 20
-358.0984000000008
 30
0.0
 10
159.8429999999998
 20
-352.402900000001
 30
0.0
 10
163.0834958801643
 20
-346.9110000000001
 30
0.0
 10
162.426395896764
 20
-337.2764000000006
 30
0.0
  0
HATCH
  5
219
330
214
100
AcDbEntity
  8
Objects
 62
     7
420
 16777215
100
AcDbHatch
 10
0.0
 20
0.0
 30
0.0
210
0.0
220
0.0
230
1.0
  2
SOLID
 70
     1
 71
     0
 91
        1
 92
        1
 93
        1
 72
     4
 94
        3
 73
     0
 74
     1
 95
       23
 96
       19
 40
0.0
 40
0.0
 40
0.0
 40
0.0
 40
1.0
 40
1.0
 40
1.0
 40
2.0
 40
2.0
 40
2.0
 40
3.0
 40
3.0
 40
3.0
 40
4.0
 40
4.0
 40
4.0
 40
5.0
 40
5.0
 40
5.0
 40
6.0
 40
6.0
 40
6.0
 40
6.0
 10
162.426395896764
 20
-337.2764000000006
 10
161.5990000000002
 20
-325.1458000000002
 10
152.2677961533918
 20
-325.7057000000004
 10
152.2677961533918
 20
-325.7057000000004
 10
152.2677961533918
 20
-325.7057000000004
 10
143.2730000000001
 20
-324.0836999999992
 10
140.0944964609153
 20
-337.4858000000004
 10
139.3461964798189
 20
-340.6409999999996
 10
139.1499999999996
 20
-343.8991999999998
 10
139.3960964785583
 20
-347.1324999999997
 10
139.6518964720963
 20
-350.4932000000008
 10
140.2470000000003
 20
-355.5126999999993
 10
141.6266964222086
 20
-360.0503000000008
 10
141.6266964222086
 20
-360.0503000000008
 10
158.8788959863814
 20
-358.0984000000008
 10
158.8788959863814
 20
-358.0984000000008
 10
159.8429999999998
 20
-352.402900000001
 10
163.0834958801643
 20
-346.9110000000001
 10
162.426395896764
 20
-337.2764000000006
 97
        0
 97
        0
 75
     2
 76
     1
 98
        0
  0
SPLINE
  5
21A
330
214
100
AcDbEntity
  8
Objects
370
     0
100
AcDbSpline
210
0.0
220
0.0
230
1.0
 70
    11
 71
     3
 72
    20
 73
    16
 74
     0
 42
0.0000000001
 43
0.0000000001
 12
1.0
 22
0.0
 32
0.0
 13
1.0
 23
0.0
 33
0.0
 40
0.0
 40
0.0
 40
0.0
 40
0.0
 40
1.0
 40
1.0
 40
1.0
 40
2.0
 40
2.0
 40
2.0
 40
3.0
 40
3.0
 40
3.0
 40
4.0
 40
4.0
 40
4.0
 40
5.0
 40
5.0
 40
5.0
 40
5.0
 10
143.2115963821707
 20
-365.7232999999997
 30
0.0
 10
144.3951963522704
 20
-373.0167999999994
 30
0.0
 10
143.2228963818852
 20
-381.7075999999997
 30
0.0
 10
152.4464961488775
 20
-383.3615000000009
 30
0.0
 10
154.6189999999997
 20
-383.7510999999995
 30
0.0
 10
156.8953960364888
 20
-383.1057999999994
 30
0.0
 10
158.4336959976281
 20
-381.5229999999992
 30
0.0
 10
159.6384959671923
 20
-380.2834000000003
 30
0.0
 10
160.6855959407403
 20
-378.4989999999998
 30
0.0
 10
160.7091959401441
 20
-375.0918999999994
 30
0.0
 10
160.7481959391589
 20
-369.4292999999998
 30
0.0
 10
159.5460959695265
 20
-368.1977000000006
 30
0.0
 10
158.765895989236
 20
-363.9634999999998
 30
0.0
 10
158.765895989236
 20
-363.9634999999998
 30
0.0
 10
143.2115963821707
 20
-365.7232999999997
 30
0.0
 10
143.2115963821707
 20
-365.7232999999997
 30
0.0
  0
HATCH
  5
21B
330
214
100
AcDbEntity
  8
Objects
 62
     7
420
 16777215
100
AcDbHatch
 10
0.0
 20
0.0
 30
0.0
210
0.0
220
0.0
230
1.0
  2
SOLID
 70
     1
 71
     0
 91
        1
 92
        1
 93
        1
 72
     4
 94
        3
 73
     0
 74
     1
 95
       20
 96
       16
 40
0.0
 40
0.0
 40
0.0
 40
0.0
 40
1.0
 40
1.0
 40
1.0
 40
2.0
 40
2.0
 40
2.0
 40
3.0
 40
3.0
 40
3.0
 40
4.0
 40
4.0
 40
4.0
 40
5.0
 40
5.0
 40
5.0
 40
5.0
 10
143.2115963821707
 20
-365.7232999999997
 10
144.3951963522704
 20
-373.0167999999994
 10
143.2228963818852
 20
-381.7075999999997
 10
152.4464961488775
 20
-383.3615000000009
 10
154.6189999999997
 20
-383.7510999999995
 10
156.8953960364888
 20
-383.1057999999994
 10
158.4336959976281
 20
-381.5229999999992
 10
159.6384959671923
 20
-380.2834000000003
 10
160.6855959407403
 20
-378.4989999999998
 10
160.7091959401441
 20
-375.0918999999994
 10
160.7481959391589
 20
-369.4292999999998
 10
159.5460959695265
 20
-368.1977000000006
 10
158.765895989236
 20
-363.9634999999998
 10
158.765895989236
 20
-363.9634999999998
 10
143.2115963821707
 20
-365.7232999999997
 10
143.2115963821707
 20
-365.7232999999997
 97
        0
 97
        0
 75
     2
 76
     1
 98
        0
  0
ENDBLK
  5
217
330
214
100
AcDbEntity
  8
0
100
AcDbBlockEnd
  0
BLOCK
  5
21E
330
21C
100
AcDbEntity
  8
0
100
AcDbBlockBegin
  2
block 39
 70
     0
 10
0.0
 20
0.0
 30
0.0
  3
block 39
  1

  0
SPLINE
  5
220
330
21C
100
AcDbEntity
  8
Objects
370
     0
100
AcDbSpline
210
0.0
220
0.0
230
1.0
 70
    11
 71
     3
 72
    23
 73
    19
 74
     0
 42
0.0000000001
 43
0.0000000001
 12
1.0
 22
0.0
 32
0.0
 13
1.0
 23
0.0
 33
0.0
 40
0.0
 40
0.0
 40
0.0
 40
0.0
 40
1.0
 40
1.0
 40
1.0
 40
2.0
 40
2.0
 40
2.0
 40
3.0
 40
3.0
 40
3.0
 40
4.0
 40
4.0
 40
4.0
 40
5.0
 40
5.0
 40
5.0
 40
6.0
 40
6.0
 40
6.0
 40
6.0
 10
166.8871957840747
 20
-337.2764000000006
 30
0.0
 10
167.7145957631728
 20
-325.1458000000002
 30
0.0
 10
177.0457955274469
 20
-325.7057000000004
 30
0.0
 10
177.0457955274469
 20
-325.7057000000004
 30
0.0
 10
177.0457955274469
 20
-325.7057000000004
 30
0.0
 10
186.0405953002191
 20
-324.0836999999992
 30
0.0
 10
189.2190952199235
 20
-337.4858000000004
 30
0.0
 10
189.9673952010198
 20
-340.6409999999996
 30
0.0
 10
190.1635951960634
 20
-343.8991999999998
 30
0.0
 10
189.9174952022804
 20
-347.1324999999997
 30
0.0
 10
189.6616952087425
 20
-350.4932000000008
 30
0.0
 10
189.0665952237759
 20
-355.5126999999993
 30
0.0
 10
187.6868952586301
 20
-360.0503000000008
 30
0.0
 10
187.6868952586301
 20
-360.0503000000008
 30
0.0
 10
170.4346956944573
 20
-358.0984000000008
 30
0.0
 10
170.4346956944573
 20
-358.0984000000008
 30
0.0
 10
169.4705957188125
 20
-352.402900000001
 30
0.0
 10
166.2300958006745
 20
-346.9110000000001
 30
0.0
 10
166.8871957840747
 20
-337.2764000000006
 30
0.0
  0
HATCH
  5
221
330
21C
100
AcDbEntity
  8
Objects
 62
     7
420
 16777215
100
AcDbHatch
 10
0.0
 20
0.0
 30
0.0
210
0.0
220
0.0
230
1.0
  2
SOLID
 70
     1
 71
     0
 91
        1
 92
        1
 93
        1
 72
     4
 94
        3
 73
     0
 74
     1
 95
       23
 96
       19
 40
0.0
 40
0.0
 40
0.0
 40
0.0
 40
1.0
 40
1.0
 40
1.0
 40
2.0
 40
2.0
 40
2.0
 40
3.0
 40
3.0
 40
3.0
 40
4.0
 40
4.0
 40
4.0
 40
5.0
 40
5.0
 40
5.0
 40
6.0
 40
6.0
 40
6.0
 40
6.0
 10
166.8871957840747
 20
-337.2764000000006
 10
167.7145957631728
 20
-325.1458000000002
 10
177.0457955274469
 20
-325.7057000000004
 10
177.0457955274469
 20
-325.7057000000004
 10
177.0457955274469
 20
-325.7057000000004
 10
186.0405953002191
 20
-324.0836999999992
 10
189.2190952199235
 20
-337.4858000000004
 10
189.9673952010198
 20
-340.6409999999996
 10
190.1635951960634
 20
-343.8991999999998
 10
189.9174952022804
 20
-347.1324999999997
 10
189.6616952087425
 20
-350.4932000000008
 10
189.0665952237759
 20
-355.5126999999993
 10
187.6868952586301
 20
-360.0503000000008
 10
187.6868952586301
 20
-360.0503000000008
 10
170.4346956944573
 20
-358.0984000000008
 10
170.4346956944573
 20
-358.0984000000008
 10
169.4705957188125
 20
-352.402900000001
 10
166.2300958006745
 20
-346.9110000000001
 10
166.8871957840747
 20
-337.2764000000006
 97
        0
 97
        0
 75
     2
 76
     1
 98
        0
  0
SPLINE
  5
222
330
21C
100
AcDbEntity
  8
Objects
370
     0
100
AcDbSpline
210
0.0
220
0.0
230
1.0
 70
    11
 71
     3
 72
    20
 73
    16
 74
     0
 42
0.0000000001
 43
0.0000000001
 12
1.0
 22
0.0
 32
0.0
 13
1.0
 23
0.0
 33
0.0
 40
0.0
 40
0.0
 40
0.0
 40
0.0
 40
1.0
 40
1.0
 40
1.0
 40
2.0
 40
2.0
 40
2.0
 40
3.0
 40
3.0
 40
3.0
 40
4.0
 40
4.0
 40
4.0
 40
5.0
 40
5.0
 40
5.0
 40
5.0
 10
186.1019999999999
 20
-365.7232999999997
 30
0.0
 10
184.9183953285683
 20
-373.0167999999994
 30
0.0
 10
186.0906952989535
 20
-381.7075999999997
 30
0.0
 10
176.8670955319612
 20
-383.3615000000009
 30
0.0
 10
174.6945955868432
 20
-383.7510999999995
 30
0.0
 10
172.4181956443499
 20
-383.1057999999994
 30
0.0
 10
170.8798956832106
 20
-381.5229999999992
 30
0.0
 10
169.6750957136464
 20
-380.2834000000003
 30
0.0
 10
168.6279999999997
 20
-378.4989999999998
 30
0.0
 10
168.6043957406946
 20
-375.0918999999994
 30
0.0
 10
168.5653957416798
 20
-369.4292999999998
 30
0.0
 10
169.7674957113122
 20
-368.1977000000006
 30
0.0
 10
170.5476956916027
 20
-363.9634999999998
 30
0.0
 10
170.5476956916027
 20
-363.9634999999998
 30
0.0
 10
186.1019999999999
 20
-365.7232999999997
 30
0.0
 10
186.1019999999999
 20
-365.7232999999997
 30
0.0
  0
HATCH
  5
223
330
21C
100
AcDbEntity
  8
Objects
 62
     7
420
 16777215
100
AcDbHatch
 10
0.0
 20
0.0
 30
0.0
210
0.0
220
0.0
230
1.0
  2
SOLID
 70
     1
 71
     0
 91
        1
 92
        1
 93
        1
 72
     4
 94
        3
 73
     0
 74
     1
 95
       20
 96
       16
 40
0.0
 40
0.0
 40
0.0
 40
0.0
 40
1.0
 40
1.0
 40
1.0
 40
2.0
 40
2.0
 40
2.0
 40
3.0
 40
3.0
 40
3.0
 40
4.0
 40
4.0
 40
4.0
 40
5.0
 40
5.0
 40
5.0
 40
5.0
 10
186.1019999999999
 20
-365.7232999999997
 10
184.9183953285683
 20
-373.0167999999994
 10
186.0906952989535
 20
-381.7075999999997
 10
176.8670955319612
 20
-383.3615000000009
 10
174.6945955868432
 20
-383.7510999999995
 10
172.4181956443499
 20
-383.1057999999994
 10
170.8798956832106
 20
-381.5229999999992
 10
169.6750957136464
 20
-380.2834000000003
 10
168.6279999999997
 20
-378.4989999999998
 10
168.6043957406946
 20
-375.0918999999994
 10
168.5653957416798
 20
-369.4292999999998
 10
169.7674957113122
 20
-368.1977000000006
 10
170.5476956916027
 20
-363.9634999999998
 10
170.5476956916027
 20
-363.9634999999998
 10
186.1019999999999
 20
-365.7232999999997
 10
186.1019999999999
 20
-365.7232999999997
 97
        0
 97
        0
 75
     2
 76
     1
 98
        0
  0
ENDBLK
  5
21F
330
21C
100
AcDbEntity
  8
0
100
AcDbBlockEnd
  0
BLOCK
  5
226
330
224
100
AcDbEntity
  8
0
100
AcDbBlockBegin
  2
block 40
 70
     0
 10
0.0
 20
0.0
 30
0.0
  3
block 40
  1

  0
INSERT
  5
229
330
224
100
AcDbEntity
  8
Objects
100
AcDbBlockReference
  2
block 41
 10
0.0
 20
0.0
 30
0.0
  0
INSERT
  5
22F
330
224
100
AcDbEntity
  8
Objects
100
AcDbBlockReference
  2
block 42
 10
0.0
 20
0.0
 30
0.0
  0
ENDBLK
  5
227
330
224
100
AcDbEntity
  8
0
100
AcDbBlockEnd
  0
BLOCK
  5
22A
330
228
100
AcDbEntity
  8
0
100
AcDbBlockBegin
  2
block 41
 70
     0
 10
0.0
 20
0.0
 30
0.0
  3
block 41
  1

  0
MTEXT
  5
22C
330
228
100
AcDbEntity
  8
Objects
 62
     7
420
 16777215
100
AcDbMText
 10
119.4042205810547
 20
-358.1534881591797
 30
0.0
 40
8.238797550201415
 41
0.0
 46
0.0
 71
     7
 72
     1
  1
\fFreeSansBold|b0|i0|c0|p34;\W1;2m
 73
     1
 44
1.0
  0
MTEXT
  5
22D
330
228
100
AcDbEntity
  8
Objects
 62
     7
420
 16777215
100
AcDbMText
 10
195.4866943359375
 20
-358.1534881591797
 30
0.0
 40
8.238797550201415
 41
0.0
 46
0.0
 71
     7
 72
     1
  1
\fFreeSansBold|b0|i0|c0|p34;\W1;6ft
 73
     1
 44
1.0
  0
ENDBLK
  5
22B
330
228
100
AcDbEntity
  8
0
100
AcDbBlockEnd
  0
BLOCK
  5
230
330
22E
100
AcDbEntity
  8
0
100
AcDbBlockBegin
  2
block 42
 70
     0
 10
0.0
 20
0.0
 30
0.0
  3
block 42
  1

  0
POLYLINE
  5
232
330
22E
100
AcDbEntity
  8
Objects
370
     0
100
AcDb2dPolyline
 66
     1
 10
0.0
 20
0.0
 30
0.0
  0
VERTEX
  5
233
330
232
100
AcDbEntity
  8
Objects
370
     0
100
AcDbVertex
100
AcDb2dVertex
 10
232.0068941390127
 20
-354.5581999999995
 30
0.0
  0
VERTEX
  5
234
330
232
100
AcDbEntity
  8
Objects
370
     0
100
AcDbVertex
100
AcDb2dVertex
 10
221.6200944014054
 20
-344.3106000000007
 30
0.0
  0
VERTEX
  5
235
330
232
100
AcDbEntity
  8
Objects
370
     0
100
AcDbVertex
100
AcDb2dVertex
 10
221.6200944014054
 20
-350.4573
 30
0.0
  0
VERTEX
  5
236
330
232
100
AcDbEntity
  8
Objects
370
     0
100
AcDbVertex
100
AcDb2dVertex
 10
214.8200945731878
 20
-350.4573
 30
0.0
  0
VERTEX
  5
237
330
232
100
AcDbEntity
  8
Objects
370
     0
100
AcDbVertex
100
AcDb2dVertex
 10
214.8200945731878
 20
-358.6589000000004
 30
0.0
  0
VERTEX
  5
238
330
232
100
AcDbEntity
  8
Objects
370
     0
100
AcDbVertex
100
AcDb2dVertex
 10
221.6200944014054
 20
-358.6589000000004
 30
0.0
  0
VERTEX
  5
239
330
232
100
AcDbEntity
  8
Objects
370
     0
100
AcDbVertex
100
AcDb2dVertex
 10
221.6200944014054
 20
-364.8055999999997
 30
0.0
  0
VERTEX
  5
23A
330
232
100
AcDbEntity
  8
Objects
370
     0
100
AcDbVertex
100
AcDb2dVertex
 10
232.0068941390127
 20
-354.5581999999995
 30
0.0
  0
SEQEND
  5
23C
330
232
100
AcDbEntity
  8
Objects
370
     0
  0
HATCH
  5
23B
330
22E
100
AcDbEntity
  8
Objects
 62
     7
420
 16777215
100
AcDbHatch
 10
0.0
 20
0.0
 30
0.0
210
0.0
220
0.0
230
1.0
  2
SOLID
 70
     1
 71
     0
 91
        1
 92
        1
 93
        7
 72
     1
 10
232.0068941390127
 20
-354.5581999999995
 11
221.6200944014054
 21
-344.3106000000007
 72
     1
 10
221.6200944014054
 20
-344.3106000000007
 11
221.6200944014054
 21
-350.4573
 72
     1
 10
221.6200944014054
 20
-350.4573
 11
214.8200945731878
 21
-350.4573
 72
     1
 10
214.8200945731878
 20
-350.4573
 11
214.8200945731878
 21
-358.6589000000004
 72
     1
 10
214.8200945731878
 20
-358.6589000000004
 11
221.6200944014054
 21
-358.6589000000004
 72
     1
 10
221.6200944014054
 20
-358.6589000000004
 11
221.6200944014054
 21
-364.8055999999997
 72
     1
 10
221.6200944014054
 20
-364.8055999999997
 11
232.0068941390127
 21
-354.5581999999995
 97
        0
 75
     2
 76
     1
 98
        0
  0
POLYLINE
  5
23D
330
22E
100
AcDbEntity
  8
Objects
370
     0
100
AcDb2dPolyline
 66
     1
 10
0.0
 20
0.0
 30
0.0
  0
VERTEX
  5
23E
330
23D
100
AcDbEntity
  8
Objects
370
     0
100
AcDbVertex
100
AcDb2dVertex
 10
96.98160000000007
 20
-354.5581000000002
 30
0.0
  0
VERTEX
  5
23F
330
23D
100
AcDbEntity
  8
Objects
370
     0
100
AcDbVertex
100
AcDb2dVertex
 10
107.3683972876461
 20
-364.8055999999997
 30
0.0
  0
VERTEX
  5
240
330
23D
100
AcDbEntity
  8
Objects
370
     0
100
AcDbVertex
100
AcDb2dVertex
 10
107.3683972876461
 20
-358.6589000000004
 30
0.0
  0
VERTEX
  5
241
330
23D
100
AcDbEntity
  8
Objects
370
     0
100
AcDbVertex
100
AcDb2dVertex
 10
114.1683971158636
 20
-358.6589000000004
 30
0.0
  0
VERTEX
  5
242
330
23D
100
AcDbEntity
  8
Objects
370
     0
100
AcDbVertex
100
AcDb2dVertex
 10
114.1683971158636
 20
-350.4573
 30
0.0
  0
VERTEX
  5
243
330
23D
100
AcDbEntity
  8
Objects
370
     0
100
AcDbVertex
100
AcDb2dVertex
 10
107.3683972876461
 20
-350.4573
 30
0.0
  0
VERTEX
  5
244
330
23D
100
AcDbEntity
  8
Objects
370
     0
100
AcDbVertex
100
AcDb2dVertex
 10
107.3683972876461
 20
-344.3106000000007
 30
0.0
  0
VERTEX
  5
245
330
23D
100
AcDbEntity
  8
Objects
370
     0
100
AcDbVertex
100
AcDb2dVertex
 10
96.98160000000007
 20
-354.5581000000002
 30
0.0
  0
SEQEND
  5
247
330
23D
100
AcDbEntity
  8
Objects
370
     0
  0
HATCH
  5
246
330
22E
100
AcDbEntity
  8
Objects
 62
     7
420
 16777215
100
AcDbHatch
 10
0.0
 20
0.0
 30
0.0
210
0.0
220
0.0
230
1.0
  2
SOLID
 70
     1
 71
     0
 91
        1
 92
        1
 93
        7
 72
     1
 10
96.98160000000007
 20
-354.5581000000002
 11
107.3683972876461
 21
-364.8055999999997
 72
     1
 10
107.3683972876461
 20
-364.8055999999997
 11
107.3683972876461
 21
-358.6589000000004
 72
     1
 10
107.3683972876461
 20
-358.6589000000004
 11
114.1683971158636
 21
-358.6589000000004
 72
     1
 10
114.1683971158636
 20
-358.6589000000004
 11
114.1683971158636
 21
-350.4573
 72
     1
 10
114.1683971158636
 20
-350.4573
 11
107.3683972876461
 21
-350.4573
 72
     1
 10
107.3683972876461
 20
-350.4573
 11
107.3683972876461
 21
-344.3106000000007
 72
     1
 10
107.3683972876461
 20
-344.3106000000007
 11
96.98160000000007
 21
-354.5581000000002
 97
        0
 75
     2
 76
     1
 98
        0
  0
ENDBLK
  5
231
330
22E
100
AcDbEntity
  8
0
100
AcDbBlockEnd
  0
BLOCK
  5
24A
330
248
100
AcDbEntity
  8
0
100
AcDbBlockBegin
  2
block 43
 70
     0
 10
0.0
 20
0.0
 30
0.0
  3
block 43
  1

  0
SPLINE
  5
24C
330
248
100
AcDbEntity
  8
Objects
370
     0
100
AcDbSpline
210
0.0
220
0.0
230
1.0
 70
    11
 71
     3
 72
    29
 73
    25
 74
     0
 42
0.0000000001
 43
0.0000000001
 12
1.0
 22
0.0
 32
0.0
 13
1.0
 23
0.0
 33
0.0
 40
0.0
 40
0.0
 40
0.0
 40
0.0
 40
1.0
 40
1.0
 40
1.0
 40
2.0
 40
2.0
 40
2.0
 40
3.0
 40
3.0
 40
3.0
 40
4.0
 40
4.0
 40
4.0
 40
5.0
 40
5.0
 40
5.0
 40
6.0
 40
6.0
 40
6.0
 40
7.0
 40
7.0
 40
7.0
 40
8.0
 40
8.0
 40
8.0
 40
8.0
 10
430.2097891319863
 20
-430.3194999999996
 30
0.0
 10
430.2097891319863
 20
-430.3194999999996
 30
0.0
 10
319.79019192142
 20
-430.3194999999996
 30
0.0
 10
319.79019192142
 20
-430.3194999999996
 30
0.0
 10
308.4398922081527
 20
-430.3194999999996
 30
0.0
 10
299.2385924405971
 20
-421.1183000000001
 30
0.0
 10
299.2385924405971
 20
-409.768
 30
0.0
 10
299.2385924405971
 20
-409.768
 30
0.0
 10
299.2385924405971
 20
-299.3482999999997
 30
0.0
 10
299.2385924405971
 20
-299.3482999999997
 30
0.0
 10
299.2385924405971
 20
-287.9979999999996
 30
0.0
 10
308.4398922081527
 20
-278.7967000000008
 30
0.0
 10
319.79019192142
 20
-278.7967000000008
 30
0.0
 10
319.79019192142
 20
-278.7967000000008
 30
0.0
 10
430.2097891319863
 20
-278.7967000000008
 30
0.0
 10
430.2097891319863
 20
-278.7967000000008
 30
0.0
 10
441.5600888452536
 20
-278.7967000000008
 30
0.0
 10
450.7613886128092
 20
-287.9979999999996
 30
0.0
 10
450.7613886128092
 20
-299.3482999999997
 30
0.0
 10
450.7613886128092
 20
-299.3482999999997
 30
0.0
 10
450.7613886128092
 20
-409.768
 30
0.0
 10
450.7613886128092
 20
-409.768
 30
0.0
 10
450.7613886128092
 20
-421.1183000000001
 30
0.0
 10
441.5600888452536
 20
-430.3194999999996
 30
0.0
 10
430.2097891319863
 20
-430.3194999999996
 30
0.0
  0
HATCH
  5
24D
330
248
100
AcDbEntity
  8
Objects
 62
   121
420
  8643540
100
AcDbHatch
 10
0.0
 20
0.0
 30
0.0
210
0.0
220
0.0
230
1.0
  2
SOLID
 70
     1
 71
     0
 91
        1
 92
        1
 93
        1
 72
     4
 94
        3
 73
     0
 74
     1
 95
       29
 96
       25
 40
0.0
 40
0.0
 40
0.0
 40
0.0
 40
1.0
 40
1.0
 40
1.0
 40
2.0
 40
2.0
 40
2.0
 40
3.0
 40
3.0
 40
3.0
 40
4.0
 40
4.0
 40
4.0
 40
5.0
 40
5.0
 40
5.0
 40
6.0
 40
6.0
 40
6.0
 40
7.0
 40
7.0
 40
7.0
 40
8.0
 40
8.0
 40
8.0
 40
8.0
 10
430.2097891319863
 20
-430.3194999999996
 10
430.2097891319863
 20
-430.3194999999996
 10
319.79019192142
 20
-430.3194999999996
 10
319.79019192142
 20
-430.3194999999996
 10
308.4398922081527
 20
-430.3194999999996
 10
299.2385924405971
 20
-421.1183000000001
 10
299.2385924405971
 20
-409.768
 10
299.2385924405971
 20
-409.768
 10
299.2385924405971
 20
-299.3482999999997
 10
299.2385924405971
 20
-299.3482999999997
 10
299.2385924405971
 20
-287.9979999999996
 10
308.4398922081527
 20
-278.7967000000008
 10
319.79019192142
 20
-278.7967000000008
 10
319.79019192142
 20
-278.7967000000008
 10
430.2097891319863
 20
-278.7967000000008
 10
430.2097891319863
 20
-278.7967000000008
 10
441.5600888452536
 20
-278.7967000000008
 10
450.7613886128092
 20
-287.9979999999996
 10
450.7613886128092
 20
-299.3482999999997
 10
450.7613886128092
 20
-299.3482999999997
 10
450.7613886128092
 20
-409.768
 10
450.7613886128092
 20
-409.768
 10
450.7613886128092
 20
-421.1183000000001
 10
441.5600888452536
 20
-430.3194999999996
 10
430.2097891319863
 20
-430.3194999999996
 97
        0
 97
        0
 75
     2
 76
     1
 98
        0
  0
INSERT
  5
24F
330
248
100
AcDbEntity
  8
Objects
100
AcDbBlockReference
  2
block 44
 10
0.0
 20
0.0
 30
0.0
  0
ENDBLK
  5
24B
330
248
100
AcDbEntity
  8
0
100
AcDbBlockEnd
  0
BLOCK
  5
250
330
24E
100
AcDbEntity
  8
0
100
AcDbBlockBegin
  2
block 44
 70
     0
 10
0.0
 20
0.0
 30
0.0
  3
block 44
  1

  0
INSERT
  5
253
330
24E
100
AcDbEntity
  8
Objects
100
AcDbBlockReference
  2
block 45
 10
0.0
 20
0.0
 30
0.0
  0
INSERT
  5
28A
330
24E
100
AcDbEntity
  8
Objects
100
AcDbBlockReference
  2
block 52
 10
0.0
 20
0.0
 30
0.0
  0
ENDBLK
  5
251
330
24E
100
AcDbEntity
  8
0
100
AcDbBlockEnd
  0
BLOCK
  5
254
330
252
100
AcDbEntity
  8
0
100
AcDbBlockBegin
  2
block 45
 70
     0
 10
0.0
 20
0.0
 30
0.0
  3
block 45
  1

  0
INSERT
  5
257
330
252
100
AcDbEntity
  8
Objects
100
AcDbBlockReference
  2
block 46
 10
0.0
 20
0.0
 30
0.0
  0
INSERT
  5
25E
330
252
100
AcDbEntity
  8
Objects
100
AcDbBlockReference
  2
block 47
 10
0.0
 20
0.0
 30
0.0
  0
ENDBLK
  5
255
330
252
100
AcDbEntity
  8
0
100
AcDbBlockEnd
  0
BLOCK
  5
258
330
256
100
AcDbEntity
  8
0
100
AcDbBlockBegin
  2
block 46
 70
     0
 10
0.0
 20
0.0
 30
0.0
  3
block 46
  1

  0
MTEXT
  5
25A
330
256
100
AcDbEntity
  8
Objects
 62
     7
420
 16777215
100
AcDbMText
 10
328.8296661376953
 20
-303.4612426757812
 30
0.0
 40
13.452
 41
0.0
 46
0.0
 71
     7
 72
     1
  1
\fGilroy ExtraBold|b0|i0|c0|p34;\W1;KEEP YOUR
 73
     1
 44
1.0
  0
MTEXT
  5
25B
330
256
100
AcDbEntity
  8
Objects
 62
     7
420
 16777215
100
AcDbMText
 10
333.3042755126953
 20
-322.4612426757812
 30
0.0
 40
13.452
 41
0.0
 46
0.0
 71
     7
 72
     1
  1
\fGilroy ExtraBold|b0|i0|c0|p34;\W1;DISTANCE
 73
     1
 44
1.0
  0
MTEXT
  5
25C
330
256
100
AcDbEntity
  8
Objects
 62
     7
420
 16777215
100
AcDbMText
 10
320.9640197753906
 20
-418.1932983398438
 30
0.0
 40
9.203999999999999
 41
0.0
 46
0.0
 71
     7
 72
     1
  1
\fGilroy ExtraBold|b0|i0|c0|p34;\W1.00562;PLEASE WAIT HERE
 73
     1
 44
1.0
  0
ENDBLK
  5
259
330
256
100
AcDbEntity
  8
0
100
AcDbBlockEnd
  0
BLOCK
  5
25F
330
25D
100
AcDbEntity
  8
0
100
AcDbBlockBegin
  2
block 47
 70
     0
 10
0.0
 20
0.0
 30
0.0
  3
block 47
  1

  0
INSERT
  5
262
330
25D
100
AcDbEntity
  8
Objects
100
AcDbBlockReference
  2
block 48
 10
0.0
 20
0.0
 30
0.0
  0
INSERT
  5
284
330
25D
100
AcDbEntity
  8
Objects
100
AcDbBlockReference
  2
block 51
 10
0.0
 20
0.0
 30
0.0
  0
ENDBLK
  5
260
330
25D
100
AcDbEntity
  8
0
100
AcDbBlockEnd
  0
BLOCK
  5
263
330
261
100
AcDbEntity
  8
0
100
AcDbBlockBegin
  2
block 48
 70
     0
 10
0.0
 20
0.0
 30
0.0
  3
block 48
  1

  0
INSERT
  5
266
330
261
100
AcDbEntity
  8
Objects
100
AcDbBlockReference
  2
block 49
 10
0.0
 20
0.0
 30
0.0
  0
INSERT
  5
275
330
261
100
AcDbEntity
  8
Objects
100
AcDbBlockReference
  2
block 50
 10
0.0
 20
0.0
 30
0.0
  0
ENDBLK
  5
264
330
261
100
AcDbEntity
  8
0
100
AcDbBlockEnd
  0
BLOCK
  5
267
330
265
100
AcDbEntity
  8
0
100
AcDbBlockBegin
  2
block 49
 70
     0
 10
0.0
 20
0.0
 30
0.0
  3
block 49
  1

  0
POLYLINE
  5
269
330
265
100
AcDbEntity
  8
Objects
 62
     7
420
 16777215
370
    70
100
AcDb2dPolyline
 66
     1
 10
0.0
 20
0.0
 30
0.0
  0
VERTEX
  5
26A
330
269
100
AcDbEntity
  8
Objects
 62
     7
420
 16777215
370
    70
100
AcDbVertex
100
AcDb2dVertex
 10
316.7568919980476
 20
-360.0228000000006
 30
0.0
  0
VERTEX
  5
26B
330
269
100
AcDbEntity
  8
Objects
 62
     7
420
 16777215
370
    70
100
AcDbVertex
100
AcDb2dVertex
 10
337.3440000000001
 20
-360.0228000000006
 30
0.0
  0
SEQEND
  5
26C
330
269
100
AcDbEntity
  8
Objects
 62
     7
420
 16777215
370
    70
  0
POLYLINE
  5
26D
330
265
100
AcDbEntity
  8
Objects
370
     0
100
AcDb2dPolyline
 66
     1
 10
0.0
 20
0.0
 30
0.0
  0
VERTEX
  5
26E
330
26D
100
AcDbEntity
  8
Objects
370
     0
100
AcDbVertex
100
AcDb2dVertex
 10
309.835292172902
 20
-360.0228000000006
 30
0.0
  0
VERTEX
  5
26F
330
26D
100
AcDbEntity
  8
Objects
370
     0
100
AcDbVertex
100
AcDb2dVertex
 10
316.7568919980476
 20
-364.0190000000002
 30
0.0
  0
VERTEX
  5
270
330
26D
100
AcDbEntity
  8
Objects
370
     0
100
AcDbVertex
100
AcDb2dVertex
 10
316.7568919980476
 20
-356.0264999999999
 30
0.0
  0
VERTEX
  5
271
330
26D
100
AcDbEntity
  8
Objects
370
     0
100
AcDbVertex
100
AcDb2dVertex
 10
309.835292172902
 20
-360.0228000000006
 30
0.0
  0
SEQEND
  5
273
330
26D
100
AcDbEntity
  8
Objects
370
     0
  0
HATCH
  5
272
330
265
100
AcDbEntity
  8
Objects
 62
     7
420
 16777215
100
AcDbHatch
 10
0.0
 20
0.0
 30
0.0
210
0.0
220
0.0
230
1.0
  2
SOLID
 70
     1
 71
     0
 91
        1
 92
        1
 93
        3
 72
     1
 10
309.835292172902
 20
-360.0228000000006
 11
316.7568919980476
 21
-364.0190000000002
 72
     1
 10
316.7568919980476
 20
-364.0190000000002
 11
316.7568919980476
 21
-356.0264999999999
 72
     1
 10
316.7568919980476
 20
-356.0264999999999
 11
309.835292172902
 21
-360.0228000000006
 97
        0
 75
     2
 76
     1
 98
        0
  0
ENDBLK
  5
268
330
265
100
AcDbEntity
  8
0
100
AcDbBlockEnd
  0
BLOCK
  5
276
330
274
100
AcDbEntity
  8
0
100
AcDbBlockBegin
  2
block 50
 70
     0
 10
0.0
 20
0.0
 30
0.0
  3
block 50
  1

  0
POLYLINE
  5
278
330
274
100
AcDbEntity
  8
Objects
 62
     7
420
 16777215
370
    70
100
AcDb2dPolyline
 66
     1
 10
0.0
 20
0.0
 30
0.0
  0
VERTEX
  5
279
330
278
100
AcDbEntity
  8
Objects
 62
     7
420
 16777215
370
    70
100
AcDbVertex
100
AcDb2dVertex
 10
432.9522890627049
 20
-360.0228000000006
 30
0.0
  0
VERTEX
  5
27A
330
278
100
AcDbEntity
  8
Objects
 62
     7
420
 16777215
370
    70
100
AcDbVertex
100
AcDb2dVertex
 10
412.3651895827788
 20
-360.0228000000006
 30
0.0
  0
SEQEND
  5
27B
330
278
100
AcDbEntity
  8
Objects
 62
     7
420
 16777215
370
    70
  0
POLYLINE
  5
27C
330
274
100
AcDbEntity
  8
Objects
370
     0
100
AcDb2dPolyline
 66
     1
 10
0.0
 20
0.0
 30
0.0
  0
VERTEX
  5
27D
330
27C
100
AcDbEntity
  8
Objects
370
     0
100
AcDbVertex
100
AcDb2dVertex
 10
439.8738888878506
 20
-360.0228000000006
 30
0.0
  0
VERTEX
  5
27E
330
27C
100
AcDbEntity
  8
Objects
370
     0
100
AcDbVertex
100
AcDb2dVertex
 10
432.9522890627049
 20
-356.0264999999999
 30
0.0
  0
VERTEX
  5
27F
330
27C
100
AcDbEntity
  8
Objects
370
     0
100
AcDbVertex
100
AcDb2dVertex
 10
432.9522890627049
 20
-364.0190000000002
 30
0.0
  0
VERTEX
  5
280
330
27C
100
AcDbEntity
  8
Objects
370
     0
100
AcDbVertex
100
AcDb2dVertex
 10
439.8738888878506
 20
-360.0228000000006
 30
0.0
  0
SEQEND
  5
282
330
27C
100
AcDbEntity
  8
Objects
370
     0
  0
HATCH
  5
281
330
274
100
AcDbEntity
  8
Objects
 62
     7
420
 16777215
100
AcDbHatch
 10
0.0
 20
0.0
 30
0.0
210
0.0
220
0.0
230
1.0
  2
SOLID
 70
     1
 71
     0
 91
        1
 92
        1
 93
        3
 72
     1
 10
439.8738888878506
 20
-360.0228000000006
 11
432.9522890627049
 21
-356.0264999999999
 72
     1
 10
432.9522890627049
 20
-356.0264999999999
 11
432.9522890627049
 21
-364.0190000000002
 72
     1
 10
432.9522890627049
 20
-364.0190000000002
 11
439.8738888878506
 21
-360.0228000000006
 97
        0
 75
     2
 76
     1
 98
        0
  0
ENDBLK
  5
277
330
274
100
AcDbEntity
  8
0
100
AcDbBlockEnd
  0
BLOCK
  5
285
330
283
100
AcDbEntity
  8
0
100
AcDbBlockBegin
  2
block 51
 70
     0
 10
0.0
 20
0.0
 30
0.0
  3
block 51
  1

  0
MTEXT
  5
287
330
283
100
AcDbEntity
  8
Objects
 62
     7
420
 16777215
100
AcDbMText
 10
319.0487294197083
 20
-354.0802764892578
 30
0.0
 40
7.787999999999999
 41
0.0
 46
0.0
 71
     7
 72
     1
  1
\fFreeSansBold|b0|i0|c0|p34;\W1;2m
 73
     1
 44
1.0
  0
MTEXT
  5
288
330
283
100
AcDbEntity
  8
Objects
 62
     7
420
 16777215
100
AcDbMText
 10
415.2509765625
 20
-354.0802764892578
 30
0.0
 40
7.787999999999999
 41
0.0
 46
0.0
 71
     7
 72
     1
  1
\fFreeSansBold|b0|i0|c0|p34;\W1;2m
 73
     1
 44
1.0
  0
ENDBLK
  5
286
330
283
100
AcDbEntity
  8
0
100
AcDbBlockEnd
  0
BLOCK
  5
28B
330
289
100
AcDbEntity
  8
0
100
AcDbBlockBegin
  2
block 52
 70
     0
 10
0.0
 20
0.0
 30
0.0
  3
block 52
  1

  0
INSERT
  5
28E
330
289
100
AcDbEntity
  8
Objects
100
AcDbBlockReference
  2
block 53
 10
0.0
 20
0.0
 30
0.0
  0
INSERT
  5
296
330
289
100
AcDbEntity
  8
Objects
100
AcDbBlockReference
  2
block 54
 10
0.0
 20
0.0
 30
0.0
  0
ENDBLK
  5
28C
330
289
100
AcDbEntity
  8
0
100
AcDbBlockEnd
  0
BLOCK
  5
28F
330
28D
100
AcDbEntity
  8
0
100
AcDbBlockBegin
  2
block 53
 70
     0
 10
0.0
 20
0.0
 30
0.0
  3
block 53
  1

  0
SPLINE
  5
291
330
28D
100
AcDbEntity
  8
Objects
370
     0
100
AcDbSpline
210
0.0
220
0.0
230
1.0
 70
    11
 71
     3
 72
    23
 73
    19
 74
     0
 42
0.0000000001
 43
0.0000000001
 12
1.0
 22
0.0
 32
0.0
 13
1.0
 23
0.0
 33
0.0
 40
0.0
 40
0.0
 40
0.0
 40
0.0
 40
1.0
 40
1.0
 40
1.0
 40
2.0
 40
2.0
 40
2.0
 40
3.0
 40
3.0
 40
3.0
 40
4.0
 40
4.0
 40
4.0
 40
5.0
 40
5.0
 40
5.0
 40
6.0
 40
6.0
 40
6.0
 40
6.0
 10
371.7868906078729
 20
-347.7291999999998
 30
0.0
 10
370.9089999999997
 20
-334.9290999999994
 30
0.0
 10
361.007390880186
 20
-335.5198999999993
 30
0.0
 10
361.007390880186
 20
-335.5198999999993
 30
0.0
 10
361.007390880186
 20
-335.5198999999993
 30
0.0
 10
351.4627911213029
 20
-333.8083000000006
 30
0.0
 10
348.0900000000001
 20
-347.9501
 30
0.0
 10
347.2958912265676
 20
-351.2795000000006
 30
0.0
 10
347.0876912318272
 20
-354.7175000000007
 30
0.0
 10
347.3488912252287
 20
-358.1293000000005
 30
0.0
 10
347.6202912183726
 20
-361.6754999999994
 30
0.0
 10
348.2517912024196
 20
-366.9719999999998
 30
0.0
 10
349.7157911654358
 20
-371.7600999999995
 30
0.0
 10
349.7157911654358
 20
-371.7600999999995
 30
0.0
 10
368.0224907029697
 20
-369.7003999999997
 30
0.0
 10
368.0224907029697
 20
-369.7003999999997
 30
0.0
 10
369.045590677124
 20
-363.6905999999999
 30
0.0
 10
372.4841905902576
 20
-357.8955999999998
 30
0.0
 10
371.7868906078729
 20
-347.7291999999998
 30
0.0
  0
HATCH
  5
292
330
28D
100
AcDbEntity
  8
Objects
 62
     7
420
 16777215
100
AcDbHatch
 10
0.0
 20
0.0
 30
0.0
210
0.0
220
0.0
230
1.0
  2
SOLID
 70
     1
 71
     0
 91
        1
 92
        1
 93
        1
 72
     4
 94
        3
 73
     0
 74
     1
 95
       23
 96
       19
 40
0.0
 40
0.0
 40
0.0
 40
0.0
 40
1.0
 40
1.0
 40
1.0
 40
2.0
 40
2.0
 40
2.0
 40
3.0
 40
3.0
 40
3.0
 40
4.0
 40
4.0
 40
4.0
 40
5.0
 40
5.0
 40
5.0
 40
6.0
 40
6.0
 40
6.0
 40
6.0
 10
371.7868906078729
 20
-347.7291999999998
 10
370.9089999999997
 20
-334.9290999999994
 10
361.007390880186
 20
-335.5198999999993
 10
361.007390880186
 20
-335.5198999999993
 10
361.007390880186
 20
-335.5198999999993
 10
351.4627911213029
 20
-333.8083000000006
 10
348.0900000000001
 20
-347.9501
 10
347.2958912265676
 20
-351.2795000000006
 10
347.0876912318272
 20
-354.7175000000007
 10
347.3488912252287
 20
-358.1293000000005
 10
347.6202912183726
 20
-361.6754999999994
 10
348.2517912024196
 20
-366.9719999999998
 10
349.7157911654358
 20
-371.7600999999995
 10
349.7157911654358
 20
-371.7600999999995
 10
368.0224907029697
 20
-369.7003999999997
 10
368.0224907029697
 20
-369.7003999999997
 10
369.045590677124
 20
-363.6905999999999
 10
372.4841905902576
 20
-357.8955999999998
 10
371.7868906078729
 20
-347.7291999999998
 97
        0
 97
        0
 75
     2
 76
     1
 98
        0
  0
SPLINE
  5
293
330
28D
100
AcDbEntity
  8
Objects
370
     0
100
AcDbSpline
210
0.0
220
0.0
230
1.0
 70
    11
 71
     3
 72
    20
 73
    16
 74
     0
 42
0.0000000001
 43
0.0000000001
 12
1.0
 22
0.0
 32
0.0
 13
1.0
 23
0.0
 33
0.0
 40
0.0
 40
0.0
 40
0.0
 40
0.0
 40
1.0
 40
1.0
 40
1.0
 40
2.0
 40
2.0
 40
2.0
 40
3.0
 40
3.0
 40
3.0
 40
4.0
 40
4.0
 40
4.0
 40
5.0
 40
5.0
 40
5.0
 40
5.0
 10
351.39759112295
 20
-377.7461999999996
 30
0.0
 10
352.6534910912233
 20
-385.4421999999995
 30
0.0
 10
351.4096911226443
 20
-394.6126999999997
 30
0.0
 10
361.1970000000001
 20
-396.3579000000009
 30
0.0
 10
363.502390817157
 20
-396.7690000000002
 30
0.0
 10
365.9177907561389
 20
-396.0881000000008
 30
0.0
 10
367.550190714901
 20
-394.4179000000004
 30
0.0
 10
368.8285906826059
 20
-393.1098000000002
 30
0.0
 10
369.9397906545346
 20
-391.2270000000008
 30
0.0
 10
369.9646906539056
 20
-387.6319000000003
 30
0.0
 10
370.0061906528572
 20
-381.6566999999995
 30
0.0
 10
368.7305906850816
 20
-380.3570999999993
 30
0.0
 10
367.9026907059961
 20
-375.8891999999996
 30
0.0
 10
367.9026907059961
 20
-375.8891999999996
 30
0.0
 10
351.39759112295
 20
-377.7461999999996
 30
0.0
 10
351.39759112295
 20
-377.7461999999996
 30
0.0
  0
HATCH
  5
294
330
28D
100
AcDbEntity
  8
Objects
 62
     7
420
 16777215
100
AcDbHatch
 10
0.0
 20
0.0
 30
0.0
210
0.0
220
0.0
230
1.0
  2
SOLID
 70
     1
 71
     0
 91
        1
 92
        1
 93
        1
 72
     4
 94
        3
 73
     0
 74
     1
 95
       20
 96
       16
 40
0.0
 40
0.0
 40
0.0
 40
0.0
 40
1.0
 40
1.0
 40
1.0
 40
2.0
 40
2.0
 40
2.0
 40
3.0
 40
3.0
 40
3.0
 40
4.0
 40
4.0
 40
4.0
 40
5.0
 40
5.0
 40
5.0
 40
5.0
 10
351.39759112295
 20
-377.7461999999996
 10
352.6534910912233
 20
-385.4421999999995
 10
351.4096911226443
 20
-394.6126999999997
 10
361.1970000000001
 20
-396.3579000000009
 10
363.502390817157
 20
-396.7690000000002
 10
365.9177907561389
 20
-396.0881000000008
 10
367.550190714901
 20
-394.4179000000004
 10
368.8285906826059
 20
-393.1098000000002
 10
369.9397906545346
 20
-391.2270000000008
 10
369.9646906539056
 20
-387.6319000000003
 10
370.0061906528572
 20
-381.6566999999995
 10
368.7305906850816
 20
-380.3570999999993
 10
367.9026907059961
 20
-375.8891999999996
 10
367.9026907059961
 20
-375.8891999999996
 10
351.39759112295
 20
-377.7461999999996
 10
351.39759112295
 20
-377.7461999999996
 97
        0
 97
        0
 75
     2
 76
     1
 98
        0
  0
ENDBLK
  5
290
330
28D
100
AcDbEntity
  8
0
100
AcDbBlockEnd
  0
BLOCK
  5
297
330
295
100
AcDbEntity
  8
0
100
AcDbBlockBegin
  2
block 54
 70
     0
 10
0.0
 20
0.0
 30
0.0
  3
block 54
  1

  0
SPLINE
  5
299
330
295
100
AcDbEntity
  8
Objects
370
     0
100
AcDbSpline
210
0.0
220
0.0
230
1.0
 70
    11
 71
     3
 72
    23
 73
    19
 74
     0
 42
0.0000000001
 43
0.0000000001
 12
1.0
 22
0.0
 32
0.0
 13
1.0
 23
0.0
 33
0.0
 40
0.0
 40
0.0
 40
0.0
 40
0.0
 40
1.0
 40
1.0
 40
1.0
 40
2.0
 40
2.0
 40
2.0
 40
3.0
 40
3.0
 40
3.0
 40
4.0
 40
4.0
 40
4.0
 40
5.0
 40
5.0
 40
5.0
 40
6.0
 40
6.0
 40
6.0
 40
6.0
 10
378.9333904273371
 20
-347.7291999999998
 30
0.0
 10
379.8112904051595
 20
-334.9290999999994
 30
0.0
 10
389.7128901550241
 20
-335.5198999999993
 30
0.0
 10
389.7128901550241
 20
-335.5198999999993
 30
0.0
 10
389.7128901550241
 20
-335.5198999999993
 30
0.0
 10
399.2574899139072
 20
-333.8083000000006
 30
0.0
 10
402.6302898287031
 20
-347.9501
 30
0.0
 10
403.4243898086424
 20
-351.2795000000006
 30
0.0
 10
403.6324898033854
 20
-354.7175000000007
 30
0.0
 10
403.3713898099813
 20
-358.1293000000005
 30
0.0
 10
403.1000000000004
 20
-361.6754999999994
 30
0.0
 10
402.4684898327905
 20
-366.9719999999998
 30
0.0
 10
401.0044898697743
 20
-371.7600999999995
 30
0.0
 10
401.0044898697743
 20
-371.7600999999995
 30
0.0
 10
382.6976903322429
 20
-369.7003999999997
 30
0.0
 10
382.6976903322429
 20
-369.7003999999997
 30
0.0
 10
381.6746903580861
 20
-363.6905999999999
 30
0.0
 10
378.2360904449524
 20
-357.8955999999998
 30
0.0
 10
378.9333904273371
 20
-347.7291999999998
 30
0.0
  0
HATCH
  5
29A
330
295
100
AcDbEntity
  8
Objects
 62
     7
420
 16777215
100
AcDbHatch
 10
0.0
 20
0.0
 30
0.0
210
0.0
220
0.0
230
1.0
  2
SOLID
 70
     1
 71
     0
 91
        1
 92
        1
 93
        1
 72
     4
 94
        3
 73
     0
 74
     1
 95
       23
 96
       19
 40
0.0
 40
0.0
 40
0.0
 40
0.0
 40
1.0
 40
1.0
 40
1.0
 40
2.0
 40
2.0
 40
2.0
 40
3.0
 40
3.0
 40
3.0
 40
4.0
 40
4.0
 40
4.0
 40
5.0
 40
5.0
 40
5.0
 40
6.0
 40
6.0
 40
6.0
 40
6.0
 10
378.9333904273371
 20
-347.7291999999998
 10
379.8112904051595
 20
-334.9290999999994
 10
389.7128901550241
 20
-335.5198999999993
 10
389.7128901550241
 20
-335.5198999999993
 10
389.7128901550241
 20
-335.5198999999993
 10
399.2574899139072
 20
-333.8083000000006
 10
402.6302898287031
 20
-347.9501
 10
403.4243898086424
 20
-351.2795000000006
 10
403.6324898033854
 20
-354.7175000000007
 10
403.3713898099813
 20
-358.1293000000005
 10
403.1000000000004
 20
-361.6754999999994
 10
402.4684898327905
 20
-366.9719999999998
 10
401.0044898697743
 20
-371.7600999999995
 10
401.0044898697743
 20
-371.7600999999995
 10
382.6976903322429
 20
-369.7003999999997
 10
382.6976903322429
 20
-369.7003999999997
 10
381.6746903580861
 20
-363.6905999999999
 10
378.2360904449524
 20
-357.8955999999998
 10
378.9333904273371
 20
-347.7291999999998
 97
        0
 97
        0
 75
     2
 76
     1
 98
        0
  0
SPLINE
  5
29B
330
295
100
AcDbEntity
  8
Objects
370
     0
100
AcDbSpline
210
0.0
220
0.0
230
1.0
 70
    11
 71
     3
 72
    20
 73
    16
 74
     0
 42
0.0000000001
 43
0.0000000001
 12
1.0
 22
0.0
 32
0.0
 13
1.0
 23
0.0
 33
0.0
 40
0.0
 40
0.0
 40
0.0
 40
0.0
 40
1.0
 40
1.0
 40
1.0
 40
2.0
 40
2.0
 40
2.0
 40
3.0
 40
3.0
 40
3.0
 40
4.0
 40
4.0
 40
4.0
 40
5.0
 40
5.0
 40
5.0
 40
5.0
 10
399.3226899122601
 20
-377.7461999999996
 30
0.0
 10
398.0667899439868
 20
-385.4421999999995
 30
0.0
 10
399.3105899125658
 20
-394.6126999999997
 30
0.0
 10
389.5232901598138
 20
-396.3579000000009
 30
0.0
 10
387.2178902180531
 20
-396.7690000000002
 30
0.0
 10
384.8024902790712
 20
-396.0881000000008
 30
0.0
 10
383.1700903203091
 20
-394.4179000000004
 30
0.0
 10
381.8916903526042
 20
-393.1098000000002
 30
0.0
 10
380.7804903806755
 20
-391.2270000000008
 30
0.0
 10
380.7555903813045
 20
-387.6319000000003
 30
0.0
 10
380.7140903823529
 20
-381.6566999999995
 30
0.0
 10
381.9896903501285
 20
-380.3570999999993
 30
0.0
 10
382.817590329214
 20
-375.8891999999996
 30
0.0
 10
382.817590329214
 20
-375.8891999999996
 30
0.0
 10
399.3226899122601
 20
-377.7461999999996
 30
0.0
 10
399.3226899122601
 20
-377.7461999999996
 30
0.0
  0
HATCH
  5
29C
330
295
100
AcDbEntity
  8
Objects
 62
     7
420
 16777215
100
AcDbHatch
 10
0.0
 20
0.0
 30
0.0
210
0.0
220
0.0
230
1.0
  2
SOLID
 70
     1
 71
     0
 91
        1
 92
        1
 93
        1
 72
     4
 94
        3
 73
     0
 74
     1
 95
       20
 96
       16
 40
0.0
 40
0.0
 40
0.0
 40
0.0
 40
1.0
 40
1.0
 40
1.0
 40
2.0
 40
2.0
 40
2.0
 40
3.0
 40
3.0
 40
3.0
 40
4.0
 40
4.0
 40
4.0
 40
5.0
 40
5.0
 40
5.0
 40
5.0
 10
399.3226899122601
 20
-377.7461999999996
 10
398.0667899439868
 20
-385.4421999999995
 10
399.3105899125658
 20
-394.6126999999997
 10
389.5232901598138
 20
-396.3579000000009
 10
387.2178902180531
 20
-396.7690000000002
 10
384.8024902790712
 20
-396.0881000000008
 10
383.1700903203091
 20
-394.4179000000004
 10
381.8916903526042
 20
-393.1098000000002
 10
380.7804903806755
 20
-391.2270000000008
 10
380.7555903813045
 20
-387.6319000000003
 10
380.7140903823529
 20
-381.6566999999995
 10
381.9896903501285
 20
-380.3570999999993
 10
382.817590329214
 20
-375.8891999999996
 10
382.817590329214
 20
-375.8891999999996
 10
399.3226899122601
 20
-377.7461999999996
 10
399.3226899122601
 20
-377.7461999999996
 97
        0
 97
        0
 75
     2
 76
     1
 98
        0
  0
ENDBLK
  5
298
330
295
100
AcDbEntity
  8
0
100
AcDbBlockEnd
  0
BLOCK
  5
29F
330
29D
100
AcDbEntity
  8
0
100
AcDbBlockBegin
  2
block 55
 70
     0
 10
0.0
 20
0.0
 30
0.0
  3
block 55
  1

  0
INSERT
  5
2A2
330
29D
100
AcDbEntity
  8
Objects
100
AcDbBlockReference
  2
block 56
 10
0.0
 20
0.0
 30
0.0
  0
INSERT
  5
2AA
330
29D
100
AcDbEntity
  8
Objects
100
AcDbBlockReference
  2
block 57
 10
0.0
 20
0.0
 30
0.0
  0
ENDBLK
  5
2A0
330
29D
100
AcDbEntity
  8
0
100
AcDbBlockEnd
  0
BLOCK
  5
2A3
330
2A1
100
AcDbEntity
  8
0
100
AcDbBlockBegin
  2
block 56
 70
     0
 10
0.0
 20
0.0
 30
0.0
  3
block 56
  1

  0
SPLINE
  5
2A5
330
2A1
100
AcDbEntity
  8
Objects
370
     0
100
AcDbSpline
210
0.0
220
0.0
230
1.0
 70
    11
 71
     3
 72
    23
 73
    19
 74
     0
 42
0.0000000001
 43
0.0000000001
 12
1.0
 22
0.0
 32
0.0
 13
1.0
 23
0.0
 33
0.0
 40
0.0
 40
0.0
 40
0.0
 40
0.0
 40
1.0
 40
1.0
 40
1.0
 40
2.0
 40
2.0
 40
2.0
 40
3.0
 40
3.0
 40
3.0
 40
4.0
 40
4.0
 40
4.0
 40
5.0
 40
5.0
 40
5.0
 40
6.0
 40
6.0
 40
6.0
 40
6.0
 10
661.1884832969736
 20
-299.3482999999997
 30
0.0
 10
661.1884832969736
 20
-287.9979999999996
 30
0.0
 10
651.9872835294154
 20
-278.7967000000008
 30
0.0
 10
640.6370000000006
 20
-278.7967000000008
 30
0.0
 10
640.6370000000006
 20
-278.7967000000008
 30
0.0
 10
530.2172866055844
 20
-278.7967000000008
 30
0.0
 10
530.2172866055844
 20
-278.7967000000008
 30
0.0
 10
518.8670000000002
 20
-278.7967000000008
 30
0.0
 10
509.6657871247589
 20
-287.9979999999996
 30
0.0
 10
509.6657871247589
 20
-299.3482999999997
 30
0.0
 10
509.6657871247589
 20
-299.3482999999997
 30
0.0
 10
509.6657871247589
 20
-353.6075000000001
 30
0.0
 10
509.6657871247589
 20
-353.6075000000001
 30
0.0
 10
509.6657871247589
 20
-353.6075000000001
 30
0.0
 10
661.1884832969736
 20
-353.6075000000001
 30
0.0
 10
661.1884832969736
 20
-353.6075000000001
 30
0.0
 10
661.1884832969736
 20
-353.6075000000001
 30
0.0
 10
661.1884832969736
 20
-299.3482999999997
 30
0.0
 10
661.1884832969736
 20
-299.3482999999997
 30
0.0
  0
HATCH
  5
2A6
330
2A1
100
AcDbEntity
  8
Objects
 62
   121
420
  8643540
100
AcDbHatch
 10
0.0
 20
0.0
 30
0.0
210
0.0
220
0.0
230
1.0
  2
SOLID
 70
     1
 71
     0
 91
        1
 92
        1
 93
        1
 72
     4
 94
        3
 73
     0
 74
     1
 95
       23
 96
       19
 40
0.0
 40
0.0
 40
0.0
 40
0.0
 40
1.0
 40
1.0
 40
1.0
 40
2.0
 40
2.0
 40
2.0
 40
3.0
 40
3.0
 40
3.0
 40
4.0
 40
4.0
 40
4.0
 40
5.0
 40
5.0
 40
5.0
 40
6.0
 40
6.0
 40
6.0
 40
6.0
 10
661.1884832969736
 20
-299.3482999999997
 10
661.1884832969736
 20
-287.9979999999996
 10
651.9872835294154
 20
-278.7967000000008
 10
640.6370000000006
 20
-278.7967000000008
 10
640.6370000000006
 20
-278.7967000000008
 10
530.2172866055844
 20
-278.7967000000008
 10
530.2172866055844
 20
-278.7967000000008
 10
518.8670000000002
 20
-278.7967000000008
 10
509.6657871247589
 20
-287.9979999999996
 10
509.6657871247589
 20
-299.3482999999997
 10
509.6657871247589
 20
-299.3482999999997
 10
509.6657871247589
 20
-353.6075000000001
 10
509.6657871247589
 20
-353.6075000000001
 10
509.6657871247589
 20
-353.6075000000001
 10
661.1884832969736
 20
-353.6075000000001
 10
661.1884832969736
 20
-353.6075000000001
 10
661.1884832969736
 20
-353.6075000000001
 10
661.1884832969736
 20
-299.3482999999997
 10
661.1884832969736
 20
-299.3482999999997
 97
        0
 97
        0
 75
     2
 76
     1
 98
        0
  0
SPLINE
  5
2A7
330
2A1
100
AcDbEntity
  8
Objects
370
     0
100
AcDbSpline
210
0.0
220
0.0
230
1.0
 70
    11
 71
     3
 72
    23
 73
    19
 74
     0
 42
0.0000000001
 43
0.0000000001
 12
1.0
 22
0.0
 32
0.0
 13
1.0
 23
0.0
 33
0.0
 40
0.0
 40
0.0
 40
0.0
 40
0.0
 40
1.0
 40
1.0
 40
1.0
 40
2.0
 40
2.0
 40
2.0
 40
3.0
 40
3.0
 40
3.0
 40
4.0
 40
4.0
 40
4.0
 40
5.0
 40
5.0
 40
5.0
 40
6.0
 40
6.0
 40
6.0
 40
6.0
 10
509.6657871247589
 20
-353.6075000000001
 30
0.0
 10
509.6657871247589
 20
-353.6075000000001
 30
0.0
 10
509.6657871247589
 20
-409.7679000000007
 30
0.0
 10
509.6657871247589
 20
-409.7679000000007
 30
0.0
 10
509.6657871247589
 20
-421.1183000000001
 30
0.0
 10
518.8670000000002
 20
-430.3194999999996
 30
0.0
 10
530.2172866055844
 20
-430.3194999999996
 30
0.0
 10
530.2172866055844
 20
-430.3194999999996
 30
0.0
 10
640.6370000000006
 20
-430.3194999999996
 30
0.0
 10
640.6370000000006
 20
-430.3194999999996
 30
0.0
 10
651.9872835294154
 20
-430.3194999999996
 30
0.0
 10
661.1884832969736
 20
-421.1183000000001
 30
0.0
 10
661.1884832969736
 20
-409.7679000000007
 30
0.0
 10
661.1884832969736
 20
-409.7679000000007
 30
0.0
 10
661.1884832969736
 20
-353.6075000000001
 30
0.0
 10
661.1884832969736
 20
-353.6075000000001
 30
0.0
 10
661.1884832969736
 20
-353.6075000000001
 30
0.0
 10
509.6657871247589
 20
-353.6075000000001
 30
0.0
 10
509.6657871247589
 20
-353.6075000000001
 30
0.0
  0
HATCH
  5
2A8
330
2A1
100
AcDbEntity
  8
Objects
 62
     7
420
 16777215
100
AcDbHatch
 10
0.0
 20
0.0
 30
0.0
210
0.0
220
0.0
230
1.0
  2
SOLID
 70
     1
 71
     0
 91
        1
 92
        1
 93
        1
 72
     4
 94
        3
 73
     0
 74
     1
 95
       23
 96
       19
 40
0.0
 40
0.0
 40
0.0
 40
0.0
 40
1.0
 40
1.0
 40
1.0
 40
2.0
 40
2.0
 40
2.0
 40
3.0
 40
3.0
 40
3.0
 40
4.0
 40
4.0
 40
4.0
 40
5.0
 40
5.0
 40
5.0
 40
6.0
 40
6.0
 40
6.0
 40
6.0
 10
509.6657871247589
 20
-353.6075000000001
 10
509.6657871247589
 20
-353.6075000000001
 10
509.6657871247589
 20
-409.7679000000007
 10
509.6657871247589
 20
-409.7679000000007
 10
509.6657871247589
 20
-421.1183000000001
 10
518.8670000000002
 20
-430.3194999999996
 10
530.2172866055844
 20
-430.3194999999996
 10
530.2172866055844
 20
-430.3194999999996
 10
640.6370000000006
 20
-430.3194999999996
 10
640.6370000000006
 20
-430.3194999999996
 10
651.9872835294154
 20
-430.3194999999996
 10
661.1884832969736
 20
-421.1183000000001
 10
661.1884832969736
 20
-409.7679000000007
 10
661.1884832969736
 20
-409.7679000000007
 10
661.1884832969736
 20
-353.6075000000001
 10
661.1884832969736
 20
-353.6075000000001
 10
661.1884832969736
 20
-353.6075000000001
 10
509.6657871247589
 20
-353.6075000000001
 10
509.6657871247589
 20
-353.6075000000001
 97
        0
 97
        0
 75
     2
 76
     1
 98
        0
  0
ENDBLK
  5
2A4
330
2A1
100
AcDbEntity
  8
0
100
AcDbBlockEnd
  0
BLOCK
  5
2AB
330
2A9
100
AcDbEntity
  8
0
100
AcDbBlockBegin
  2
block 57
 70
     0
 10
0.0
 20
0.0
 30
0.0
  3
block 57
  1

  0
INSERT
  5
2AE
330
2A9
100
AcDbEntity
  8
Objects
100
AcDbBlockReference
  2
block 58
 10
0.0
 20
0.0
 30
0.0
  0
INSERT
  5
2B5
330
2A9
100
AcDbEntity
  8
Objects
100
AcDbBlockReference
  2
block 59
 10
0.0
 20
0.0
 30
0.0
  0
ENDBLK
  5
2AC
330
2A9
100
AcDbEntity
  8
0
100
AcDbBlockEnd
  0
BLOCK
  5
2AF
330
2AD
100
AcDbEntity
  8
0
100
AcDbBlockBegin
  2
block 58
 70
     0
 10
0.0
 20
0.0
 30
0.0
  3
block 58
  1

  0
MTEXT
  5
2B1
330
2AD
100
AcDbEntity
  8
Objects
 62
   121
420
  8643540
100
AcDbMText
 10
534.7751159667969
 20
-417.1926574707031
 30
0.0
 40
8.495999999999999
 41
0.0
 46
0.0
 71
     7
 72
     1
  1
\fFreeMono|b0|i0|c0|p34;\W1.00562;#SOCIALDISTANCING
 73
     1
 44
1.0
  0
MTEXT
  5
2B2
330
2AD
100
AcDbEntity
  8
Objects
 62
   121
420
  8643540
100
AcDbMText
 10
539.33544921875
 20
-378.891357421875
 30
0.0
 40
13.452
 41
0.0
 46
0.0
 71
     7
 72
     1
  1
\fGilroy ExtraBold|b0|i0|c0|p34;\W1;KEEP YOUR
 73
     1
 44
1.0
  0
MTEXT
  5
2B3
330
2AD
100
AcDbEntity
  8
Objects
 62
   121
420
  8643540
100
AcDbMText
 10
543.81005859375
 20
-398.891357421875
 30
0.0
 40
13.452
 41
0.0
 46
0.0
 71
     7
 72
     1
  1
\fGilroy ExtraBold|b0|i0|c0|p34;\W1;DISTANCE
 73
     1
 44
1.0
  0
ENDBLK
  5
2B0
330
2AD
100
AcDbEntity
  8
0
100
AcDbBlockEnd
  0
BLOCK
  5
2B6
330
2B4
100
AcDbEntity
  8
0
100
AcDbBlockBegin
  2
block 59
 70
     0
 10
0.0
 20
0.0
 30
0.0
  3
block 59
  1

  0
INSERT
  5
2B9
330
2B4
100
AcDbEntity
  8
Objects
100
AcDbBlockReference
  2
block 60
 10
0.0
 20
0.0
 30
0.0
  0
INSERT
  5
2CD
330
2B4
100
AcDbEntity
  8
Objects
100
AcDbBlockReference
  2
block 63
 10
0.0
 20
0.0
 30
0.0
  0
ENDBLK
  5
2B7
330
2B4
100
AcDbEntity
  8
0
100
AcDbBlockEnd
  0
BLOCK
  5
2BA
330
2B8
100
AcDbEntity
  8
0
100
AcDbBlockBegin
  2
block 60
 70
     0
 10
0.0
 20
0.0
 30
0.0
  3
block 60
  1

  0
INSERT
  5
2BD
330
2B8
100
AcDbEntity
  8
Objects
100
AcDbBlockReference
  2
block 61
 10
0.0
 20
0.0
 30
0.0
  0
INSERT
  5
2C5
330
2B8
100
AcDbEntity
  8
Objects
100
AcDbBlockReference
  2
block 62
 10
0.0
 20
0.0
 30
0.0
  0
ENDBLK
  5
2BB
330
2B8
100
AcDbEntity
  8
0
100
AcDbBlockEnd
  0
BLOCK
  5
2BE
330
2BC
100
AcDbEntity
  8
0
100
AcDbBlockBegin
  2
block 61
 70
     0
 10
0.0
 20
0.0
 30
0.0
  3
block 61
  1

  0
SPLINE
  5
2C0
330
2BC
100
AcDbEntity
  8
Objects
370
     0
100
AcDbSpline
210
0.0
220
0.0
230
1.0
 70
    11
 71
     3
 72
    23
 73
    19
 74
     0
 42
0.0000000001
 43
0.0000000001
 12
1.0
 22
0.0
 32
0.0
 13
1.0
 23
0.0
 33
0.0
 40
0.0
 40
0.0
 40
0.0
 40
0.0
 40
1.0
 40
1.0
 40
1.0
 40
2.0
 40
2.0
 40
2.0
 40
3.0
 40
3.0
 40
3.0
 40
4.0
 40
4.0
 40
4.0
 40
5.0
 40
5.0
 40
5.0
 40
6.0
 40
6.0
 40
6.0
 40
6.0
 10
582.5501852835441
 20
-300.9109000000008
 30
0.0
 10
581.7661853033496
 20
-289.4809000000005
 30
0.0
 10
572.9244855267098
 20
-290.0084000000006
 30
0.0
 10
572.9244855267098
 20
-290.0084000000006
 30
0.0
 10
572.9244855267098
 20
-290.0084000000006
 30
0.0
 10
564.4014857420188
 20
-288.4799999999996
 30
0.0
 10
561.3897858181008
 20
-301.1082000000006
 30
0.0
 10
560.6806858360142
 20
-304.0810999999994
 30
0.0
 10
560.4947858407104
 20
-307.1512000000002
 30
0.0
 10
560.7279999999992
 20
-310.1977999999999
 30
0.0
 10
560.9702858286983
 20
-313.3644000000004
 30
0.0
 10
561.5342858144504
 20
-318.0939999999991
 30
0.0
 10
562.8415857814252
 20
-322.3695000000007
 30
0.0
 10
562.8415857814252
 20
-322.3695000000007
 30
0.0
 10
579.1887853684602
 20
-320.5303000000004
 30
0.0
 10
579.1887853684602
 20
-320.5303000000004
 30
0.0
 10
580.1022853453833
 20
-315.1638000000003
 30
0.0
 10
583.1728852678134
 20
-309.9891000000007
 30
0.0
 10
582.5501852835441
 20
-300.9109000000008
 30
0.0
  0
HATCH
  5
2C1
330
2BC
100
AcDbEntity
  8
Objects
 62
     7
420
 16777215
100
AcDbHatch
 10
0.0
 20
0.0
 30
0.0
210
0.0
220
0.0
230
1.0
  2
SOLID
 70
     1
 71
     0
 91
        1
 92
        1
 93
        1
 72
     4
 94
        3
 73
     0
 74
     1
 95
       23
 96
       19
 40
0.0
 40
0.0
 40
0.0
 40
0.0
 40
1.0
 40
1.0
 40
1.0
 40
2.0
 40
2.0
 40
2.0
 40
3.0
 40
3.0
 40
3.0
 40
4.0
 40
4.0
 40
4.0
 40
5.0
 40
5.0
 40
5.0
 40
6.0
 40
6.0
 40
6.0
 40
6.0
 10
582.5501852835441
 20
-300.9109000000008
 10
581.7661853033496
 20
-289.4809000000005
 10
572.9244855267098
 20
-290.0084000000006
 10
572.9244855267098
 20
-290.0084000000006
 10
572.9244855267098
 20
-290.0084000000006
 10
564.4014857420188
 20
-288.4799999999996
 10
561.3897858181008
 20
-301.1082000000006
 10
560.6806858360142
 20
-304.0810999999994
 10
560.4947858407104
 20
-307.1512000000002
 10
560.7279999999992
 20
-310.1977999999999
 10
560.9702858286983
 20
-313.3644000000004
 10
561.5342858144504
 20
-318.0939999999991
 10
562.8415857814252
 20
-322.3695000000007
 10
562.8415857814252
 20
-322.3695000000007
 10
579.1887853684602
 20
-320.5303000000004
 10
579.1887853684602
 20
-320.5303000000004
 10
580.1022853453833
 20
-315.1638000000003
 10
583.1728852678134
 20
-309.9891000000007
 10
582.5501852835441
 20
-300.9109000000008
 97
        0
 97
        0
 75
     2
 76
     1
 98
        0
  0
SPLINE
  5
2C2
330
2BC
100
AcDbEntity
  8
Objects
370
     0
100
AcDbSpline
210
0.0
220
0.0
230
1.0
 70
    11
 71
     3
 72
    20
 73
    16
 74
     0
 42
0.0000000001
 43
0.0000000001
 12
1.0
 22
0.0
 32
0.0
 13
1.0
 23
0.0
 33
0.0
 40
0.0
 40
0.0
 40
0.0
 40
0.0
 40
1.0
 40
1.0
 40
1.0
 40
2.0
 40
2.0
 40
2.0
 40
3.0
 40
3.0
 40
3.0
 40
4.0
 40
4.0
 40
4.0
 40
5.0
 40
5.0
 40
5.0
 40
5.0
 10
564.3433857434866
 20
-327.7149000000009
 30
0.0
 10
565.4647857151576
 20
-334.5871000000006
 30
0.0
 10
564.3540857432163
 20
-342.7759999999998
 30
0.0
 10
573.0937855224329
 20
-344.3343999999997
 30
0.0
 10
575.1523854704283
 20
-344.7014999999992
 30
0.0
 10
577.3092854159404
 20
-344.0935000000009
 30
0.0
 10
578.7669999999998
 20
-342.6021000000001
 30
0.0
 10
579.9084853502791
 20
-341.4339999999993
 30
0.0
 10
580.9007853252115
 20
-339.7528000000002
 30
0.0
 10
580.9230000000007
 20
-336.5424000000003
 30
0.0
 10
580.9600853237134
 20
-331.2067999999999
 30
0.0
 10
579.8209999999999
 20
-330.0463
 30
0.0
 10
579.0817853711633
 20
-326.0566999999992
 30
0.0
 10
579.0817853711633
 20
-326.0566999999992
 30
0.0
 10
564.3433857434866
 20
-327.7149000000009
 30
0.0
 10
564.3433857434866
 20
-327.7149000000009
 30
0.0
  0
HATCH
  5
2C3
330
2BC
100
AcDbEntity
  8
Objects
 62
     7
420
 16777215
100
AcDbHatch
 10
0.0
 20
0.0
 30
0.0
210
0.0
220
0.0
230
1.0
  2
SOLID
 70
     1
 71
     0
 91
        1
 92
        1
 93
        1
 72
     4
 94
        3
 73
     0
 74
     1
 95
       20
 96
       16
 40
0.0
 40
0.0
 40
0.0
 40
0.0
 40
1.0
 40
1.0
 40
1.0
 40
2.0
 40
2.0
 40
2.0
 40
3.0
 40
3.0
 40
3.0
 40
4.0
 40
4.0
 40
4.0
 40
5.0
 40
5.0
 40
5.0
 40
5.0
 10
564.3433857434866
 20
-327.7149000000009
 10
565.4647857151576
 20
-334.5871000000006
 10
564.3540857432163
 20
-342.7759999999998
 10
573.0937855224329
 20
-344.3343999999997
 10
575.1523854704283
 20
-344.7014999999992
 10
577.3092854159404
 20
-344.0935000000009
 10
578.7669999999998
 20
-342.6021000000001
 10
579.9084853502791
 20
-341.4339999999993
 10
580.9007853252115
 20
-339.7528000000002
 10
580.9230000000007
 20
-336.5424000000003
 10
580.9600853237134
 20
-331.2067999999999
 10
579.8209999999999
 20
-330.0463
 10
579.0817853711633
 20
-326.0566999999992
 10
579.0817853711633
 20
-326.0566999999992
 10
564.3433857434866
 20
-327.7149000000009
 10
564.3433857434866
 20
-327.7149000000009
 97
        0
 97
        0
 75
     2
 76
     1
 98
        0
  0
ENDBLK
  5
2BF
330
2BC
100
AcDbEntity
  8
0
100
AcDbBlockEnd
  0
BLOCK
  5
2C6
330
2C4
100
AcDbEntity
  8
0
100
AcDbBlockBegin
  2
block 62
 70
     0
 10
0.0
 20
0.0
 30
0.0
  3
block 62
  1

  0
SPLINE
  5
2C8
330
2C4
100
AcDbEntity
  8
Objects
370
     0
100
AcDbSpline
210
0.0
220
0.0
230
1.0
 70
    11
 71
     3
 72
    23
 73
    19
 74
     0
 42
0.0000000001
 43
0.0000000001
 12
1.0
 22
0.0
 32
0.0
 13
1.0
 23
0.0
 33
0.0
 40
0.0
 40
0.0
 40
0.0
 40
0.0
 40
1.0
 40
1.0
 40
1.0
 40
2.0
 40
2.0
 40
2.0
 40
3.0
 40
3.0
 40
3.0
 40
4.0
 40
4.0
 40
4.0
 40
5.0
 40
5.0
 40
5.0
 40
6.0
 40
6.0
 40
6.0
 40
6.0
 10
588.9316851223339
 20
-300.9109000000008
 30
0.0
 10
589.7156851025284
 20
-289.4809000000005
 30
0.0
 10
598.5573848791682
 20
-290.0084000000006
 30
0.0
 10
598.5573848791682
 20
-290.0084000000006
 30
0.0
 10
598.5573848791682
 20
-290.0084000000006
 30
0.0
 10
607.0803846638591
 20
-288.4799999999996
 30
0.0
 10
610.0921845877747
 20
-301.1082000000006
 30
0.0
 10
610.8011845698638
 20
-304.0810999999994
 30
0.0
 10
610.9870845651676
 20
-307.1512000000002
 30
0.0
 10
610.7540000000008
 20
-310.1977999999999
 30
0.0
 10
610.5115845771797
 20
-313.3644000000004
 30
0.0
 10
609.9476845914251
 20
-318.0939999999991
 30
0.0
 10
608.6403846244502
 20
-322.3695000000007
 30
0.0
 10
608.6403846244502
 20
-322.3695000000007
 30
0.0
 10
592.2931850374152
 20
-320.5303000000004
 30
0.0
 10
592.2931850374152
 20
-320.5303000000004
 30
0.0
 10
591.3795850604947
 20
-315.1638000000003
 30
0.0
 10
588.3090851380621
 20
-309.9891000000007
 30
0.0
 10
588.9316851223339
 20
-300.9109000000008
 30
0.0
  0
HATCH
  5
2C9
330
2C4
100
AcDbEntity
  8
Objects
 62
     7
420
 16777215
100
AcDbHatch
 10
0.0
 20
0.0
 30
0.0
210
0.0
220
0.0
230
1.0
  2
SOLID
 70
     1
 71
     0
 91
        1
 92
        1
 93
        1
 72
     4
 94
        3
 73
     0
 74
     1
 95
       23
 96
       19
 40
0.0
 40
0.0
 40
0.0
 40
0.0
 40
1.0
 40
1.0
 40
1.0
 40
2.0
 40
2.0
 40
2.0
 40
3.0
 40
3.0
 40
3.0
 40
4.0
 40
4.0
 40
4.0
 40
5.0
 40
5.0
 40
5.0
 40
6.0
 40
6.0
 40
6.0
 40
6.0
 10
588.9316851223339
 20
-300.9109000000008
 10
589.7156851025284
 20
-289.4809000000005
 10
598.5573848791682
 20
-290.0084000000006
 10
598.5573848791682
 20
-290.0084000000006
 10
598.5573848791682
 20
-290.0084000000006
 10
607.0803846638591
 20
-288.4799999999996
 10
610.0921845877747
 20
-301.1082000000006
 10
610.8011845698638
 20
-304.0810999999994
 10
610.9870845651676
 20
-307.1512000000002
 10
610.7540000000008
 20
-310.1977999999999
 10
610.5115845771797
 20
-313.3644000000004
 10
609.9476845914251
 20
-318.0939999999991
 10
608.6403846244502
 20
-322.3695000000007
 10
608.6403846244502
 20
-322.3695000000007
 10
592.2931850374152
 20
-320.5303000000004
 10
592.2931850374152
 20
-320.5303000000004
 10
591.3795850604947
 20
-315.1638000000003
 10
588.3090851380621
 20
-309.9891000000007
 10
588.9316851223339
 20
-300.9109000000008
 97
        0
 97
        0
 75
     2
 76
     1
 98
        0
  0
SPLINE
  5
2CA
330
2C4
100
AcDbEntity
  8
Objects
370
     0
100
AcDbSpline
210
0.0
220
0.0
230
1.0
 70
    11
 71
     3
 72
    20
 73
    16
 74
     0
 42
0.0000000001
 43
0.0000000001
 12
1.0
 22
0.0
 32
0.0
 13
1.0
 23
0.0
 33
0.0
 40
0.0
 40
0.0
 40
0.0
 40
0.0
 40
1.0
 40
1.0
 40
1.0
 40
2.0
 40
2.0
 40
2.0
 40
3.0
 40
3.0
 40
3.0
 40
4.0
 40
4.0
 40
4.0
 40
5.0
 40
5.0
 40
5.0
 40
5.0
 10
607.1385846623889
 20
-327.7149000000009
 30
0.0
 10
606.0170846907204
 20
-334.5871000000006
 30
0.0
 10
607.1277846626617
 20
-342.7759999999998
 30
0.0
 10
598.3880848834451
 20
-344.3343999999997
 30
0.0
 10
596.3294849354497
 20
-344.7014999999992
 30
0.0
 10
594.1725849899376
 20
-344.0935000000009
 30
0.0
 10
592.7150000000001
 20
-342.6021000000001
 30
0.0
 10
591.5733850555989
 20
-341.4339999999993
 30
0.0
 10
590.581185080664
 20
-339.7528000000002
 30
0.0
 10
590.5588850812273
 20
-336.5424000000003
 30
0.0
 10
590.521885082162
 20
-331.2067999999999
 30
0.0
 10
591.6608850533885
 20
-330.0463
 30
0.0
 10
592.4001850347122
 20
-326.0566999999992
 30
0.0
 10
592.4001850347122
 20
-326.0566999999992
 30
0.0
 10
607.1385846623889
 20
-327.7149000000009
 30
0.0
 10
607.1385846623889
 20
-327.7149000000009
 30
0.0
  0
HATCH
  5
2CB
330
2C4
100
AcDbEntity
  8
Objects
 62
     7
420
 16777215
100
AcDbHatch
 10
0.0
 20
0.0
 30
0.0
210
0.0
220
0.0
230
1.0
  2
SOLID
 70
     1
 71
     0
 91
        1
 92
        1
 93
        1
 72
     4
 94
        3
 73
     0
 74
     1
 95
       20
 96
       16
 40
0.0
 40
0.0
 40
0.0
 40
0.0
 40
1.0
 40
1.0
 40
1.0
 40
2.0
 40
2.0
 40
2.0
 40
3.0
 40
3.0
 40
3.0
 40
4.0
 40
4.0
 40
4.0
 40
5.0
 40
5.0
 40
5.0
 40
5.0
 10
607.1385846623889
 20
-327.7149000000009
 10
606.0170846907204
 20
-334.5871000000006
 10
607.1277846626617
 20
-342.7759999999998
 10
598.3880848834451
 20
-344.3343999999997
 10
596.3294849354497
 20
-344.7014999999992
 10
594.1725849899376
 20
-344.0935000000009
 10
592.7150000000001
 20
-342.6021000000001
 10
591.5733850555989
 20
-341.4339999999993
 10
590.581185080664
 20
-339.7528000000002
 10
590.5588850812273
 20
-336.5424000000003
 10
590.521885082162
 20
-331.2067999999999
 10
591.6608850533885
 20
-330.0463
 10
592.4001850347122
 20
-326.0566999999992
 10
592.4001850347122
 20
-326.0566999999992
 10
607.1385846623889
 20
-327.7149000000009
 10
607.1385846623889
 20
-327.7149000000009
 97
        0
 97
        0
 75
     2
 76
     1
 98
        0
  0
ENDBLK
  5
2C7
330
2C4
100
AcDbEntity
  8
0
100
AcDbBlockEnd
  0
BLOCK
  5
2CE
330
2CC
100
AcDbEntity
  8
0
100
AcDbBlockBegin
  2
block 63
 70
     0
 10
0.0
 20
0.0
 30
0.0
  3
block 63
  1

  0
INSERT
  5
2D1
330
2CC
100
AcDbEntity
  8
Objects
100
AcDbBlockReference
  2
block 64
 10
0.0
 20
0.0
 30
0.0
  0
INSERT
  5
2EB
330
2CC
100
AcDbEntity
  8
Objects
100
AcDbBlockReference
  2
block 65
 10
0.0
 20
0.0
 30
0.0
  0
ENDBLK
  5
2CF
330
2CC
100
AcDbEntity
  8
0
100
AcDbBlockEnd
  0
BLOCK
  5
2D2
330
2D0
100
AcDbEntity
  8
0
100
AcDbBlockBegin
  2
block 64
 70
     0
 10
0.0
 20
0.0
 30
0.0
  3
block 64
  1

  0
POLYLINE
  5
2D4
330
2D0
100
AcDbEntity
  8
Objects
370
     0
100
AcDb2dPolyline
 66
     1
 10
0.0
 20
0.0
 30
0.0
  0
VERTEX
  5
2D5
330
2D4
100
AcDbEntity
  8
Objects
370
     0
100
AcDbVertex
100
AcDb2dVertex
 10
650.9128835565571
 20
-318.3143999999993
 30
0.0
  0
VERTEX
  5
2D6
330
2D4
100
AcDbEntity
  8
Objects
370
     0
100
AcDbVertex
100
AcDb2dVertex
 10
641.0701838052046
 20
-308.6036999999997
 30
0.0
  0
VERTEX
  5
2D7
330
2D4
100
AcDbEntity
  8
Objects
370
     0
100
AcDbVertex
100
AcDb2dVertex
 10
641.0701838052046
 20
-315.4290000000001
 30
0.0
  0
VERTEX
  5
2D8
330
2D4
100
AcDbEntity
  8
Objects
370
     0
100
AcDbVertex
100
AcDb2dVertex
 10
636.6274839174366
 20
-315.4290000000001
 30
0.0
  0
VERTEX
  5
2D9
330
2D4
100
AcDbEntity
  8
Objects
370
     0
100
AcDbVertex
100
AcDb2dVertex
 10
636.6274839174366
 20
-321.1998000000003
 30
0.0
  0
VERTEX
  5
2DA
330
2D4
100
AcDbEntity
  8
Objects
370
     0
100
AcDbVertex
100
AcDb2dVertex
 10
641.0701838052046
 20
-321.1998000000003
 30
0.0
  0
VERTEX
  5
2DB
330
2D4
100
AcDbEntity
  8
Objects
370
     0
100
AcDbVertex
100
AcDb2dVertex
 10
641.0701838052046
 20
-328.0252
 30
0.0
  0
VERTEX
  5
2DC
330
2D4
100
AcDbEntity
  8
Objects
370
     0
100
AcDbVertex
100
AcDb2dVertex
 10
650.9128835565571
 20
-318.3143999999993
 30
0.0
  0
SEQEND
  5
2DE
330
2D4
100
AcDbEntity
  8
Objects
370
     0
  0
HATCH
  5
2DD
330
2D0
100
AcDbEntity
  8
Objects
 62
     7
420
 16777215
100
AcDbHatch
 10
0.0
 20
0.0
 30
0.0
210
0.0
220
0.0
230
1.0
  2
SOLID
 70
     1
 71
     0
 91
        1
 92
        1
 93
        7
 72
     1
 10
650.9128835565571
 20
-318.3143999999993
 11
641.0701838052046
 21
-308.6036999999997
 72
     1
 10
641.0701838052046
 20
-308.6036999999997
 11
641.0701838052046
 21
-315.4290000000001
 72
     1
 10
641.0701838052046
 20
-315.4290000000001
 11
636.6274839174366
 21
-315.4290000000001
 72
     1
 10
636.6274839174366
 20
-315.4290000000001
 11
636.6274839174366
 21
-321.1998000000003
 72
     1
 10
636.6274839174366
 20
-321.1998000000003
 11
641.0701838052046
 21
-321.1998000000003
 72
     1
 10
641.0701838052046
 20
-321.1998000000003
 11
641.0701838052046
 21
-328.0252
 72
     1
 10
641.0701838052046
 20
-328.0252
 11
650.9128835565571
 21
-318.3143999999993
 97
        0
 75
     2
 76
     1
 98
        0
  0
POLYLINE
  5
2DF
330
2D0
100
AcDbEntity
  8
Objects
370
     0
100
AcDb2dPolyline
 66
     1
 10
0.0
 20
0.0
 30
0.0
  0
VERTEX
  5
2E0
330
2DF
100
AcDbEntity
  8
Objects
370
     0
100
AcDbVertex
100
AcDb2dVertex
 10
520.223286858054
 20
-318.3143999999993
 30
0.0
  0
VERTEX
  5
2E1
330
2DF
100
AcDbEntity
  8
Objects
370
     0
100
AcDbVertex
100
AcDb2dVertex
 10
530.0660000000007
 20
-328.0252
 30
0.0
  0
VERTEX
  5
2E2
330
2DF
100
AcDbEntity
  8
Objects
370
     0
100
AcDbVertex
100
AcDb2dVertex
 10
530.0660000000007
 20
-321.1998000000003
 30
0.0
  0
VERTEX
  5
2E3
330
2DF
100
AcDbEntity
  8
Objects
370
     0
100
AcDbVertex
100
AcDb2dVertex
 10
534.5086864971745
 20
-321.1998000000003
 30
0.0
  0
VERTEX
  5
2E4
330
2DF
100
AcDbEntity
  8
Objects
370
     0
100
AcDbVertex
100
AcDb2dVertex
 10
534.5086864971745
 20
-315.4290000000001
 30
0.0
  0
VERTEX
  5
2E5
330
2DF
100
AcDbEntity
  8
Objects
370
     0
100
AcDbVertex
100
AcDb2dVertex
 10
530.0660000000007
 20
-315.4290000000001
 30
0.0
  0
VERTEX
  5
2E6
330
2DF
100
AcDbEntity
  8
Objects
370
     0
100
AcDbVertex
100
AcDb2dVertex
 10
530.0660000000007
 20
-308.6036999999997
 30
0.0
  0
VERTEX
  5
2E7
330
2DF
100
AcDbEntity
  8
Objects
370
     0
100
AcDbVertex
100
AcDb2dVertex
 10
520.223286858054
 20
-318.3143999999993
 30
0.0
  0
SEQEND
  5
2E9
330
2DF
100
AcDbEntity
  8
Objects
370
     0
  0
HATCH
  5
2E8
330
2D0
100
AcDbEntity
  8
Objects
 62
     7
420
 16777215
100
AcDbHatch
 10
0.0
 20
0.0
 30
0.0
210
0.0
220
0.0
230
1.0
  2
SOLID
 70
     1
 71
     0
 91
        1
 92
        1
 93
        7
 72
     1
 10
520.223286858054
 20
-318.3143999999993
 11
530.0660000000007
 21
-328.0252
 72
     1
 10
530.0660000000007
 20
-328.0252
 11
530.0660000000007
 21
-321.1998000000003
 72
     1
 10
530.0660000000007
 20
-321.1998000000003
 11
534.5086864971745
 21
-321.1998000000003
 72
     1
 10
534.5086864971745
 20
-321.1998000000003
 11
534.5086864971745
 21
-315.4290000000001
 72
     1
 10
534.5086864971745
 20
-315.4290000000001
 11
530.0660000000007
 21
-315.4290000000001
 72
     1
 10
530.0660000000007
 20
-315.4290000000001
 11
530.0660000000007
 21
-308.6036999999997
 72
     1
 10
530.0660000000007
 20
-308.6036999999997
 11
520.223286858054
 21
-318.3143999999993
 97
        0
 75
     2
 76
     1
 98
        0
  0
ENDBLK
  5
2D3
330
2D0
100
AcDbEntity
  8
0
100
AcDbBlockEnd
  0
BLOCK
  5
2EC
330
2EA
100
AcDbEntity
  8
0
100
AcDbBlockBegin
  2
block 65
 70
     0
 10
0.0
 20
0.0
 30
0.0
  3
block 65
  1

  0
MTEXT
  5
2EE
330
2EA
100
AcDbEntity
  8
Objects
 62
     7
420
 16777215
100
AcDbMText
 10
617.560302734375
 20
-321.6687240600586
 30
0.0
 40
7.787999999999999
 41
0.0
 46
0.0
 71
     7
 72
     1
  1
\fFreeSansBold|b0|i0|c0|p34;\W1;6ft
 73
     1
 44
1.0
  0
MTEXT
  5
2EF
330
2EA
100
AcDbEntity
  8
Objects
 62
     7
420
 16777215
100
AcDbMText
 10
540.5890502929688
 20
-321.6687240600586
 30
0.0
 40
7.787999999999999
 41
0.0
 46
0.0
 71
     7
 72
     1
  1
\fFreeSansBold|b0|i0|c0|p34;\W1;2m
 73
     1
 44
1.0
  0
ENDBLK
  5
2ED
330
2EA
100
AcDbEntity
  8
0
100
AcDbBlockEnd
  0
ENDSEC
  0
SECTION
  2
ENTITIES
  0
INSERT
  5
43
330
1F
100
AcDbEntity
  8
Objects
100
AcDbBlockReference
  2
block 2
 10
0.0
 20
0.0
 30
0.0
  0
INSERT
  5
E9
330
1F
100
AcDbEntity
  8
Objects
100
AcDbBlockReference
  2
block 12
 10
0.0
 20
0.0
 30
0.0
  0
SPLINE
  5
15C
330
1F
100
AcDbEntity
  8
Objects
370
     0
100
AcDbSpline
210
0.0
220
0.0
230
1.0
 70
    11
 71
     3
 72
    23
 73
    19
 74
     0
 42
0.0000000001
 43
0.0000000001
 12
1.0
 22
0.0
 32
0.0
 13
1.0
 23
0.0
 33
0.0
 40
0.0
 40
0.0
 40
0.0
 40
0.0
 40
1.0
 40
1.0
 40
1.0
 40
2.0
 40
2.0
 40
2.0
 40
3.0
 40
3.0
 40
3.0
 40
4.0
 40
4.0
 40
4.0
 40
5.0
 40
5.0
 40
5.0
 40
6.0
 40
6.0
 40
6.0
 40
6.0
 10
585.343185212987
 20
-69.6805000000004
 30
0.0
 10
538.8539999999994
 20
-69.6805000000004
 30
0.0
 10
501.1670873394542
 20
-107.3674000000001
 30
0.0
 10
501.1670873394542
 20
-153.8566000000001
 30
0.0
 10
501.1670873394542
 20
-171.6895000000004
 30
0.0
 10
506.7277871989791
 20
-188.2154
 30
0.0
 10
516.1881869599893
 20
-201.8275000000003
 30
0.0
 10
531.3903865759494
 20
-223.7015000000001
 30
0.0
 10
556.6867859369086
 20
-238.0328
 30
0.0
 10
585.343185212987
 20
-238.0328
 30
0.0
 10
613.9995844890655
 20
-238.0328
 30
0.0
 10
639.2960000000003
 20
-223.7015000000001
 30
0.0
 10
654.4981834659848
 20
-201.8275000000003
 30
0.0
 10
663.958583226995
 20
-188.2154
 30
0.0
 10
669.5192830865199
 20
-171.6895000000004
 30
0.0
 10
669.5192830865199
 20
-153.8566000000001
 30
0.0
 10
669.5192830865199
 20
-107.3674000000001
 30
0.0
 10
631.832384038571
 20
-69.6805000000004
 30
0.0
 10
585.343185212987
 20
-69.6805000000004
 30
0.0
  0
HATCH
  5
15D
330
1F
100
AcDbEntity
  8
Objects
 62
     2
420
 16777020
100
AcDbHatch
 10
0.0
 20
0.0
 30
0.0
210
0.0
220
0.0
230
1.0
  2
SOLID
 70
     1
 71
     0
 91
        1
 92
        1
 93
        1
 72
     4
 94
        3
 73
     0
 74
     1
 95
       23
 96
       19
 40
0.0
 40
0.0
 40
0.0
 40
0.0
 40
1.0
 40
1.0
 40
1.0
 40
2.0
 40
2.0
 40
2.0
 40
3.0
 40
3.0
 40
3.0
 40
4.0
 40
4.0
 40
4.0
 40
5.0
 40
5.0
 40
5.0
 40
6.0
 40
6.0
 40
6.0
 40
6.0
 10
585.343185212987
 20
-69.6805000000004
 10
538.8539999999994
 20
-69.6805000000004
 10
501.1670873394542
 20
-107.3674000000001
 10
501.1670873394542
 20
-153.8566000000001
 10
501.1670873394542
 20
-171.6895000000004
 10
506.7277871989791
 20
-188.2154
 10
516.1881869599893
 20
-201.8275000000003
 10
531.3903865759494
 20
-223.7015000000001
 10
556.6867859369086
 20
-238.0328
 10
585.343185212987
 20
-238.0328
 10
613.9995844890655
 20
-238.0328
 10
639.2960000000003
 20
-223.7015000000001
 10
654.4981834659848
 20
-201.8275000000003
 10
663.958583226995
 20
-188.2154
 10
669.5192830865199
 20
-171.6895000000004
 10
669.5192830865199
 20
-153.8566000000001
 10
669.5192830865199
 20
-107.3674000000001
 10
631.832384038571
 20
-69.6805000000004
 10
585.343185212987
 20
-69.6805000000004
 97
        0
 97
        0
 75
     2
 76
     1
 98
        0
  0
INSERT
  5
15F
330
1F
100
AcDbEntity
  8
Objects
100
AcDbBlockReference
  2
block 21
 10
0.0
 20
0.0
 30
0.0
  0
INSERT
  5
1F3
330
1F
100
AcDbEntity
  8
Objects
100
AcDbBlockReference
  2
block 33
 10
0.0
 20
0.0
 30
0.0
  0
INSERT
  5
249
330
1F
100
AcDbEntity
  8
Objects
100
AcDbBlockReference
  2
block 43
 10
0.0
 20
0.0
 30
0.0
  0
INSERT
  5
29E
330
1F
100
AcDbEntity
  8
Objects
100
AcDbBlockReference
  2
block 55
 10
0.0
 20
0.0
 30
0.0
  0
ENDSEC
  0
SECTION
  2
OBJECTS
  0
DICTIONARY
  5
C
330
0
100
AcDbDictionary
281
     1
  3
ACAD_GROUP
350
D
  3
ACAD_LAYOUT
350
1A
  3
ACAD_MATERIAL
350
3B
  3
ACAD_MLEADERSTYLE
350
2F1
  3
ACAD_MLINESTYLE
350
17
  3
ACAD_PLOTSETTINGS
350
19
  3
ACAD_PLOTSTYLENAME
350
E
  3
ACAD_TABLESTYLE
350
2F0
  3
ACAD_VISUALSTYLE
350
2A
  0
SUN
  5
3F
330
29
100
AcDbSun
 90
        1
290
     0
 63
     7
421
 16777215
 40
1.0
291
     1
 91
  2455826
 92
 54000000
292
     0
 70
     2
 71
   256
280
     1
  0
DICTIONARY
  5
D
102
{ACAD_REACTORS
330
C
102
}
330
C
100
AcDbDictionary
281
     1
  0
DICTIONARY
  5
1A
102
{ACAD_REACTORS
330
C
102
}
330
C
100
AcDbDictionary
281
     1
  3
Layout1
350
1E
  3
Layout2
350
26
  3
Model
350
22
  0
DICTIONARY
  5
3B
102
{ACAD_REACTORS
330
C
102
}
330
C
100
AcDbDictionary
281
     1
  3
ByBlock
350
3D
  3
ByLayer
350
3C
  3
Global
350
3E
  0
DICTIONARY
  5
2F1
102
{ACAD_REACTORS
330
C
102
}
330
C
100
AcDbDictionary
281
     1
  0
DICTIONARY
  5
17
102
{ACAD_REACTORS
330
C
102
}
330
C
100
AcDbDictionary
281
     1
  3
Standard
350
18
  0
DICTIONARY
  5
19
102
{ACAD_REACTORS
330
C
102
}
330
C
100
AcDbDictionary
281
     1
  0
ACDBDICTIONARYWDFLT
  5
E
102
{ACAD_REACTORS
330
C
102
}
330
C
100
AcDbDictionary
281
     1
  3
Normal
350
F
100
AcDbDictionaryWithDefault
340
F
  0
DICTIONARY
  5
2F0
102
{ACAD_REACTORS
330
C
102
}
330
C
100
AcDbDictionary
281
     1
  0
DICTIONARY
  5
2A
102
{ACAD_REACTORS
330
C
102
}
330
C
100
AcDbDictionary
281
     1
  3
2dWireframe
350
2F
  3
3D Hidden
350
31
  3
3dWireframe
350
30
  3
Basic
350
32
  3
Brighten
350
36
  3
ColorChange
350
3A
  3
Conceptual
350
34
  3
Dim
350
35
  3
Facepattern
350
39
  3
Flat
350
2B
  3
FlatWithEdges
350
2C
  3
Gouraud
350
2D
  3
GouraudWithEdges
350
2E
  3
Linepattern
350
38
  3
Realistic
350
33
  3
Thicken
350
37
  0
LAYOUT
  5
1E
102
{ACAD_REACTORS
330
1A
102
}
330
1A
100
AcDbPlotSettings
  1

  2
none_device
  4

  6

 40
0.0
 41
0.0
 42
0.0
 43
0.0
 44
0.0
 45
0.0
 46
0.0
 47
0.0
 48
0.0
 49
0.0
140
0.0
141
0.0
142
1.0
143
1.0
 70
   688
 72
     0
 73
     0
 74
     5
  7

 75
    16
 76
     0
 77
     2
 78
   300
147
1.0
148
0.0
149
0.0
100
AcDbLayout
  1
Layout1
 70
     1
 71
     1
 10
0.0
 20
0.0
 11
12.0
 21
9.0
 12
0.0
 22
0.0
 32
0.0
 14
1.000000000000000E+20
 24
1.000000000000000E+20
 34
1.000000000000000E+20
 15
-1.000000000000000E+20
 25
-1.000000000000000E+20
 35
-1.000000000000000E+20
146
0.0
 13
0.0
 23
0.0
 33
0.0
 16
1.0
 26
0.0
 36
0.0
 17
0.0
 27
1.0
 37
0.0
 76
     0
330
1B
  0
LAYOUT
  5
26
102
{ACAD_REACTORS
330
1A
102
}
330
1A
100
AcDbPlotSettings
  1

  2
none_device
  4

  6

 40
0.0
 41
0.0
 42
0.0
 43
0.0
 44
0.0
 45
0.0
 46
0.0
 47
0.0
 48
0.0
 49
0.0
140
0.0
141
0.0
142
1.0
143
1.0
 70
   688
 72
     0
 73
     0
 74
     5
  7

 75
    16
 76
     0
 77
     2
 78
   300
147
1.0
148
0.0
149
0.0
100
AcDbLayout
  1
Layout2
 70
     1
 71
     2
 10
0.0
 20
0.0
 11
0.0
 21
0.0
 12
0.0
 22
0.0
 32
0.0
 14
0.0
 24
0.0
 34
0.0
 15
0.0
 25
0.0
 35
0.0
146
0.0
 13
0.0
 23
0.0
 33
0.0
 16
1.0
 26
0.0
 36
0.0
 17
0.0
 27
1.0
 37
0.0
 76
     0
330
23
  0
LAYOUT
  5
22
102
{ACAD_REACTORS
330
1A
102
}
330
1A
100
AcDbPlotSettings
  1

  2
none_device
  4

  6

 40
0.0
 41
0.0
 42
0.0
 43
0.0
 44
0.0
 45
0.0
 46
0.0
 47
0.0
 48
0.0
 49
0.0
140
0.0
141
0.0
142
1.0
143
1.0
 70
  1712
 72
     0
 73
     0
 74
     0
  7

 75
     0
 76
     0
 77
     2
 78
   300
147
1.0
148
0.0
149
0.0
100
AcDbLayout
  1
Model
 70
     1
 71
     0
 10
0.0
 20
0.0
 11
12.0
 21
9.0
 12
0.0
 22
0.0
 32
0.0
 14
1.000000000000000E+20
 24
1.000000000000000E+20
 34
1.000000000000000E+20
 15
-1.000000000000000E+20
 25
-1.000000000000000E+20
 35
-1.000000000000000E+20
146
0.0
 13
0.0
 23
0.0
 33
0.0
 16
1.0
 26
0.0
 36
0.0
 17
0.0
 27
1.0
 37
0.0
 76
     0
330
1F
331
29
  0
MATERIAL
  5
3D
102
{ACAD_REACTORS
330
3B
102
}
330
3B
100
AcDbMaterial
  1
ByBlock
 72
     1
 94
      127
  0
MATERIAL
  5
3C
102
{ACAD_REACTORS
330
3B
102
}
330
3B
100
AcDbMaterial
  1
ByLayer
 72
     1
 94
      127
  0
MATERIAL
  5
3E
102
{ACAD_REACTORS
330
3B
102
}
330
3B
100
AcDbMaterial
  1
Global
 72
     1
 94
      127
  0
MLINESTYLE
  5
18
102
{ACAD_REACTORS
330
17
102
}
330
17
100
AcDbMlineStyle
  2
Standard
 70
     0
  3

 62
   256
 51
90.0
 52
90.0
 71
     2
 49
0.5
 62
   256
  6
BYLAYER
 49
-0.5
 62
   256
  6
BYLAYER
  0
ACDBPLACEHOLDER
  5
F
102
{ACAD_REACTORS
330
E
102
}
330
E
  0
VISUALSTYLE
  5
2F
102
{ACAD_REACTORS
330
2A
102
}
330
2A
100
AcDbVisualStyle
  2
2dWireframe
 70
     4
177
     2
291
     0
 71
     0
176
     1
 72
     2
176
     1
 73
     0
176
     1
 90
        0
176
     1
 40
-0.6
176
     1
 41
-30.0
176
     1
 62
     5
 63
     7
421
 16777215
176
     1
 74
     1
176
     1
 91
        4
176
     1
 64
     7
176
     1
 65
   257
176
     1
 75
     1
176
     1
175
     1
176
     1
 42
1.0
176
     1
 92
        0
176
     1
 66
   257
176
     1
 43
1.0
176
     1
 76
     1
176
     1
 77
     6
176
     1
 78
     2
176
     1
 67
     7
176
     1
 79
     5
176
     1
170
     0
176
     1
171
     0
176
     1
290
     0
176
     1
 93
        1
176
     1
 44
0.0
176
     1
173
     0
176
     1
  0
VISUALSTYLE
  5
31
102
{ACAD_REACTORS
330
2A
102
}
330
2A
100
AcDbVisualStyle
  2
3D Hidden
 70
     6
177
     2
291
     0
 71
     1
176
     1
 72
     2
176
     1
 73
     2
176
     1
 90
        0
176
     1
 40
-0.6
176
     1
 41
-30.0
176
     1
 62
     5
 63
     7
421
 16777215
176
     1
 74
     2
176
     1
 91
        2
176
     1
 64
     7
176
     1
 65
   257
176
     1
 75
     2
176
     1
175
     1
176
     1
 42
40.0
176
     1
 92
        0
176
     1
 66
   257
176
     1
 43
1.0
176
     1
 76
     1
176
     1
 77
     6
176
     1
 78
     2
176
     1
 67
     7
176
     1
 79
     3
176
     1
170
     0
176
     1
171
     0
176
     1
290
     0
176
     1
 93
        1
176
     1
 44
0.0
176
     1
173
     0
176
     1
  0
VISUALSTYLE
  5
30
102
{ACAD_REACTORS
330
2A
102
}
330
2A
100
AcDbVisualStyle
  2
3dWireframe
 70
     5
177
     2
291
     0
 71
     0
176
     1
 72
     2
176
     1
 73
     0
176
     1
 90
        0
176
     1
 40
-0.6
176
     1
 41
-30.0
176
     1
 62
     5
 63
     7
421
 16777215
176
     1
 74
     1
176
     1
 91
        4
176
     1
 64
     7
176
     1
 65
   257
176
     1
 75
     1
176
     1
175
     1
176
     1
 42
1.0
176
     1
 92
        0
176
     1
 66
   257
176
     1
 43
1.0
176
     1
 76
     1
176
     1
 77
     6
176
     1
 78
     2
176
     1
 67
     7
176
     1
 79
     5
176
     1
170
     0
176
     1
171
     0
176
     1
290
     0
176
     1
 93
        1
176
     1
 44
0.0
176
     1
173
     0
176
     1
  0
VISUALSTYLE
  5
32
102
{ACAD_REACTORS
330
2A
102
}
330
2A
100
AcDbVisualStyle
  2
Basic
 70
     7
177
     2
291
     1
 71
     1
176
     1
 72
     0
176
     1
 73
     1
176
     1
 90
        0
176
     1
 40
-0.6
176
     1
 41
-30.0
176
     1
 62
     5
 63
     7
421
 16777215
176
     1
 74
     0
176
     1
 91
        4
176
     1
 64
     7
176
     1
 65
   257
176
     1
 75
     1
176
     1
175
     1
176
     1
 42
1.0
176
     1
 92
        8
176
     1
 66
     7
176
     1
 43
1.0
176
     1
 76
     1
176
     1
 77
     6
176
     1
 78
     2
176
     1
 67
     7
176
     1
 79
     5
176
     1
170
     0
176
     1
171
     0
176
     1
290
     0
176
     1
 93
        1
176
     1
 44
0.0
176
     1
173
     0
176
     1
  0
VISUALSTYLE
  5
36
102
{ACAD_REACTORS
330
2A
102
}
330
2A
100
AcDbVisualStyle
  2
Brighten
 70
    12
177
     2
291
     1
 71
     2
176
     1
 72
     2
176
     1
 73
     0
176
     1
 90
        0
176
     1
 40
-0.6
176
     1
 41
-30.0
176
     1
 62
     5
 63
     7
421
 16777215
176
     1
 74
     1
176
     1
 91
        4
176
     1
 64
     7
176
     1
 65
   257
176
     1
 75
     1
176
     1
175
     1
176
     1
 42
1.0
176
     1
 92
        8
176
     1
 66
     7
176
     1
 43
1.0
176
     1
 76
     1
176
     1
 77
     6
176
     1
 78
     2
176
     1
 67
     7
176
     1
 79
     5
176
     1
170
     0
176
     1
171
     0
176
     1
290
     0
176
     1
 93
        1
176
     1
 44
50.0
176
     1
173
     0
176
     1
  0
VISUALSTYLE
  5
3A
102
{ACAD_REACTORS
330
2A
102
}
330
2A
100
AcDbVisualStyle
  2
ColorChange
 70
    16
177
     2
291
     1
 71
     2
176
     1
 72
     2
176
     1
 73
     3
176
     1
 90
        0
176
     1
 40
-0.6
176
     1
 41
-30.0
176
     1
 62
     5
 63
     8
421
  8421504
176
     1
 74
     1
176
     1
 91
        4
176
     1
 64
     7
176
     1
 65
   257
176
     1
 75
     1
176
     1
175
     1
176
     1
 42
1.0
176
     1
 92
        8
176
     1
 66
     8
424
  8421504
176
     1
 43
1.0
176
     1
 76
     1
176
     1
 77
     6
176
     1
 78
     2
176
     1
 67
     7
176
     1
 79
     5
176
     1
170
     0
176
     1
171
     0
176
     1
290
     0
176
     1
 93
        1
176
     1
 44
0.0
176
     1
173
     0
176
     1
  0
VISUALSTYLE
  5
34
102
{ACAD_REACTORS
330
2A
102
}
330
2A
100
AcDbVisualStyle
  2
Conceptual
 70
     9
177
     2
291
     0
 71
     3
176
     1
 72
     2
176
     1
 73
     0
176
     1
 90
        0
176
     1
 40
-0.6
176
     1
 41
-30.0
176
     1
 62
     5
 63
     7
421
 16777215
176
     1
 74
     2
176
     1
 91
        2
176
     1
 64
     7
176
     1
 65
   257
176
     1
 75
     1
176
     1
175
     1
176
     1
 42
40.0
176
     1
 92
        8
176
     1
 66
     7
176
     1
 43
1.0
176
     1
 76
     1
176
     1
 77
     6
176
     1
 78
     2
176
     1
 67
     7
176
     1
 79
     3
176
     1
170
     0
176
     1
171
     0
176
     1
290
     0
176
     1
 93
        1
176
     1
 44
0.0
176
     1
173
     0
176
     1
  0
VISUALSTYLE
  5
35
102
{ACAD_REACTORS
330
2A
102
}
330
2A
100
AcDbVisualStyle
  2
Dim
 70
    11
177
     2
291
     1
 71
     2
176
     1
 72
     2
176
     1
 73
     0
176
     1
 90
        0
176
     1
 40
-0.6
176
     1
 41
-30.0
176
     1
 62
     5
 63
     7
421
 16777215
176
     1
 74
     1
176
     1
 91
        4
176
     1
 64
     7
176
     1
 65
   257
176
     1
 75
     1
176
     1
175
     1
176
     1
 42
1.0
176
     1
 92
        8
176
     1
 66
     7
176
     1
 43
1.0
176
     1
 76
     1
176
     1
 77
     6
176
     1
 78
     2
176
     1
 67
     7
176
     1
 79
     5
176
     1
170
     0
176
     1
171
     0
176
     1
290
     0
176
     1
 93
        1
176
     1
 44
-50.0
176
     1
173
     0
176
     1
  0
VISUALSTYLE
  5
39
102
{ACAD_REACTORS
330
2A
102
}
330
2A
100
AcDbVisualStyle
  2
Facepattern
 70
    15
177
     2
291
     1
 71
     2
176
     1
 72
     2
176
     1
 73
     0
176
     1
 90
        0
176
     1
 40
-0.6
176
     1
 41
-30.0
176
     1
 62
     5
 63
     7
421
 16777215
176
     1
 74
     1
176
     1
 91
        4
176
     1
 64
     7
176
     1
 65
   257
176
     1
 75
     1
176
     1
175
     1
176
     1
 42
1.0
176
     1
 92
        8
176
     1
 66
     7
176
     1
 43
1.0
176
     1
 76
     1
176
     1
 77
     6
176
     1
 78
     2
176
     1
 67
     7
176
     1
 79
     5
176
     1
170
     0
176
     1
171
     0
176
     1
290
     0
176
     1
 93
        1
176
     1
 44
0.0
176
     1
173
     0
176
     1
  0
VISUALSTYLE
  5
2B
102
{ACAD_REACTORS
330
2A
102
}
330
2A
100
AcDbVisualStyle
  2
Flat
 70
     0
177
     2
291
     1
 71
     2
176
     1
 72
     1
176
     1
 73
     1
176
     1
 90
        2
176
     1
 40
-0.6
176
     1
 41
30.0
176
     1
 62
     5
 63
     7
421
 16777215
176
     1
 74
     0
176
     1
 91
        4
176
     1
 64
     7
176
     1
 65
   257
176
     1
 75
     1
176
     1
175
     1
176
     1
 42
1.0
176
     1
 92
        8
176
     1
 66
     7
176
     1
 43
1.0
176
     1
 76
     1
176
     1
 77
     6
176
     1
 78
     2
176
     1
 67
     7
176
     1
 79
     5
176
     1
170
     0
176
     1
171
     0
176
     1
290
     0
176
     1
 93
       13
176
     1
 44
0.0
176
     1
173
     0
176
     1
  0
VISUALSTYLE
  5
2C
102
{ACAD_REACTORS
330
2A
102
}
330
2A
100
AcDbVisualStyle
  2
FlatWithEdges
 70
     1
177
     2
291
     1
 71
     2
176
     1
 72
     1
176
     1
 73
     1
176
     1
 90
        2
176
     1
 40
-0.6
176
     1
 41
30.0
176
     1
 62
     5
 63
     7
421
 16777215
176
     1
 74
     1
176
     1
 91
        4
176
     1
 64
     7
176
     1
 65
   257
176
     1
 75
     1
176
     1
175
     1
176
     1
 42
1.0
176
     1
 92
        0
176
     1
 66
   257
176
     1
 43
1.0
176
     1
 76
     1
176
     1
 77
     6
176
     1
 78
     2
176
     1
 67
     7
176
     1
 79
     5
176
     1
170
     0
176
     1
171
     0
176
     1
290
     0
176
     1
 93
       13
176
     1
 44
0.0
176
     1
173
     0
176
     1
  0
VISUALSTYLE
  5
2D
102
{ACAD_REACTORS
330
2A
102
}
330
2A
100
AcDbVisualStyle
  2
Gouraud
 70
     2
177
     2
291
     1
 71
     2
176
     1
 72
     2
176
     1
 73
     1
176
     1
 90
        2
176
     1
 40
-0.6
176
     1
 41
30.0
176
     1
 62
     5
 63
     7
421
 16777215
176
     1
 74
     0
176
     1
 91
        4
176
     1
 64
     7
176
     1
 65
   257
176
     1
 75
     1
176
     1
175
     1
176
     1
 42
1.0
176
     1
 92
        0
176
     1
 66
     7
176
     1
 43
1.0
176
     1
 76
     1
176
     1
 77
     6
176
     1
 78
     2
176
     1
 67
     7
176
     1
 79
     5
176
     1
170
     0
176
     1
171
     0
176
     1
290
     0
176
     1
 93
       13
176
     1
 44
0.0
176
     1
173
     0
176
     1
  0
VISUALSTYLE
  5
2E
102
{ACAD_REACTORS
330
2A
102
}
330
2A
100
AcDbVisualStyle
  2
GouraudWithEdges
 70
     3
177
     2
291
     1
 71
     2
176
     1
 72
     2
176
     1
 73
     1
176
     1
 90
        2
176
     1
 40
-0.6
176
     1
 41
30.0
176
     1
 62
     5
 63
     7
421
 16777215
176
     1
 74
     1
176
     1
 91
        4
176
     1
 64
     7
176
     1
 65
   257
176
     1
 75
     1
176
     1
175
     1
176
     1
 42
1.0
176
     1
 92
        0
176
     1
 66
   257
176
     1
 43
1.0
176
     1
 76
     1
176
     1
 77
     6
176
     1
 78
     2
176
     1
 67
     7
176
     1
 79
     5
176
     1
170
     0
176
     1
171
     0
176
     1
290
     0
176
     1
 93
       13
176
     1
 44
0.0
176
     1
173
     0
176
     1
  0
VISUALSTYLE
  5
38
102
{ACAD_REACTORS
330
2A
102
}
330
2A
100
AcDbVisualStyle
  2
Linepattern
 70
    14
177
     2
291
     1
 71
     2
176
     1
 72
     2
176
     1
 73
     0
176
     1
 90
        0
176
     1
 40
-0.6
176
     1
 41
-30.0
176
     1
 62
     5
 63
     7
421
 16777215
176
     1
 74
     1
176
     1
 91
        4
176
     1
 64
     7
176
     1
 65
   257
176
     1
 75
     7
176
     1
175
     7
176
     1
 42
1.0
176
     1
 92
        8
176
     1
 66
     7
176
     1
 43
1.0
176
     1
 76
     1
176
     1
 77
     6
176
     1
 78
     2
176
     1
 67
     7
176
     1
 79
     5
176
     1
170
     0
176
     1
171
     0
176
     1
290
     0
176
     1
 93
        1
176
     1
 44
0.0
176
     1
173
     0
176
     1
  0
VISUALSTYLE
  5
33
102
{ACAD_REACTORS
330
2A
102
}
330
2A
100
AcDbVisualStyle
  2
Realistic
 70
     8
177
     2
291
     0
 71
     2
176
     1
 72
     2
176
     1
 73
     0
176
     1
 90
        0
176
     1
 40
-0.6
176
     1
 41
-30.0
176
     1
 62
     5
 63
     7
421
 16777215
176
     1
 74
     1
176
     1
 91
        0
176
     1
 64
     7
176
     1
 65
   257
176
     1
 75
     1
176
     1
175
     1
176
     1
 42
1.0
176
     1
 92
        8
176
     1
 66
     8
424
  7895160
176
     1
 43
1.0
176
     1
 76
     1
176
     1
 77
     6
176
     1
 78
     2
176
     1
 67
     7
176
     1
 79
     5
176
     1
170
     0
176
     1
171
     0
176
     1
290
     0
176
     1
 93
       13
176
     1
 44
0.0
176
     1
173
     0
176
     1
  0
VISUALSTYLE
  5
37
102
{ACAD_REACTORS
330
2A
102
}
330
2A
100
AcDbVisualStyle
  2
Thicken
 70
    13
177
     2
291
     1
 71
     2
176
     1
 72
     2
176
     1
 73
     0
176
     1
 90
        0
176
     1
 40
-0.6
176
     1
 41
-30.0
176
     1
 62
     5
 63
     7
421
 16777215
176
     1
 74
     1
176
     1
 91
        4
176
     1
 64
     7
176
     1
 65
   257
176
     1
 75
     1
176
     1
175
     1
176
     1
 42
1.0
176
     1
 92
       12
176
     1
 66
     7
176
     1
 43
1.0
176
     1
 76
     1
176
     1
 77
     6
176
     1
 78
     2
176
     1
 67
     7
176
     1
 79
     5
176
     1
170
     0
176
     1
171
     0
176
     1
290
     0
176
     1
 93
        1
176
     1
 44
0.0
176
     1
173
     0
176
     1
  0
ENDSEC
  0
EOF
