  0
SECTION
  2
HEADER
  9
$ACADVER
  1
AC1021
  9
$ACADMAINTVER
 70
    25
  9
$DWGCODEPAGE
  3
ANSI_1251
  9
$INSBASE
 10
0.0
 20
0.0
 30
0.0
  9
$EXTMIN
 10
-102.4582
 20
-96.5609
 30
0.0
  9
$EXTMAX
 10
105.5686
 20
128.8848
 30
0.0
  9
$LIMMIN
 10
0.0
 20
0.0
  9
$LIMMAX
 10
12.0
 20
9.0
  9
$ORTHOMODE
 70
     0
  9
$REGENMODE
 70
     1
  9
$FILLMODE
 70
     1
  9
$QTEXTMODE
 70
     0
  9
$MIRRTEXT
 70
     1
  9
$LTSCALE
 40
1.0
  9
$ATTMODE
 70
     1
  9
$TEXTSIZE
 40
0.2
  9
$TRACEWID
 40
0.05
  9
$TEXTSTYLE
  7
Standard
  9
$CLAYER
  8
0
  9
$CELTYPE
  6
ByLayer
  9
$CECOLOR
 62
   256
  9
$CELTSCALE
 40
1.0
  9
$DISPSILH
 70
     0
  9
$DIMSCALE
 40
1.0
  9
$DIMASZ
 40
0.18
  9
$DIMEXO
 40
0.0625
  9
$DIMDLI
 40
0.38
  9
$DIMRND
 40
0.0
  9
$DIMDLE
 40
0.0
  9
$DIMEXE
 40
0.18
  9
$DIMTP
 40
0.0
  9
$DIMTM
 40
0.0
  9
$DIMTXT
 40
0.18
  9
$DIMCEN
 40
0.09
  9
$DIMTSZ
 40
0.0
  9
$DIMTOL
 70
     0
  9
$DIMLIM
 70
     0
  9
$DIMTIH
 70
     1
  9
$DIMTOH
 70
     1
  9
$DIMSE1
 70
     0
  9
$DIMSE2
 70
     0
  9
$DIMTAD
 70
     0
  9
$DIMZIN
 70
     0
  9
$DIMBLK
  1

  9
$DIMASO
 70
     1
  9
$DIMSHO
 70
     1
  9
$DIMPOST
  1

  9
$DIMAPOST
  1

  9
$DIMALT
 70
     0
  9
$DIMALTD
 70
     2
  9
$DIMALTF
 40
25.4
  9
$DIMLFAC
 40
1.0
  9
$DIMTOFL
 70
     0
  9
$DIMTVP
 40
0.0
  9
$DIMTIX
 70
     0
  9
$DIMSOXD
 70
     0
  9
$DIMSAH
 70
     0
  9
$DIMBLK1
  1

  9
$DIMBLK2
  1

  9
$DIMSTYLE
  2
Standard
  9
$DIMCLRD
 70
     0
  9
$DIMCLRE
 70
     0
  9
$DIMCLRT
 70
     0
  9
$DIMTFAC
 40
1.0
  9
$DIMGAP
 40
0.09
  9
$DIMJUST
 70
     0
  9
$DIMSD1
 70
     0
  9
$DIMSD2
 70
     0
  9
$DIMTOLJ
 70
     1
  9
$DIMTZIN
 70
     0
  9
$DIMALTZ
 70
     0
  9
$DIMALTTZ
 70
     0
  9
$DIMUPT
 70
     0
  9
$DIMDEC
 70
     4
  9
$DIMTDEC
 70
     4
  9
$DIMALTU
 70
     2
  9
$DIMALTTD
 70
     2
  9
$DIMTXSTY
  7
Standard
  9
$DIMAUNIT
 70
     0
  9
$DIMADEC
 70
     0
  9
$DIMALTRND
 40
0.0
  9
$DIMAZIN
 70
     0
  9
$DIMDSEP
 70
    46
  9
$DIMATFIT
 70
     3
  9
$DIMFRAC
 70
     0
  9
$DIMLDRBLK
  1

  9
$DIMLUNIT
 70
     2
  9
$DIMLWD
 70
    -2
  9
$DIMLWE
 70
    -2
  9
$DIMTMOVE
 70
     0
  9
$DIMFXL
 40
1.0
  9
$DIMFXLON
 70
     0
  9
$DIMJOGANG
 40
0.7853981633974483
  9
$DIMTFILL
 70
     0
  9
$DIMTFILLCLR
 70
     0
  9
$DIMARCSYM
 70
     0
  9
$DIMLTYPE
  6

  9
$DIMLTEX1
  6

  9
$DIMLTEX2
  6

  9
$LUNITS
 70
     2
  9
$LUPREC
 70
     4
  9
$SKETCHINC
 40
0.1
  9
$FILLETRAD
 40
0.5
  9
$AUNITS
 70
     0
  9
$AUPREC
 70
     0
  9
$MENU
  1
.
  9
$ELEVATION
 40
0.0
  9
$PELEVATION
 40
0.0
  9
$THICKNESS
 40
0.0
  9
$LIMCHECK
 70
     0
  9
$CHAMFERA
 40
0.5
  9
$CHAMFERB
 40
0.5
  9
$CHAMFERC
 40
1.0
  9
$CHAMFERD
 40
0.0
  9
$SKPOLY
 70
     0
  9
$TDCREATE
 40
2458770.334769004
  9
$TDUCREATE
 40
2458770.209769004
  9
$TDUPDATE
 40
2458770.334769016
  9
$TDUUPDATE
 40
2458770.209769016
  9
$TDINDWG
 40
0.0000000116
  9
$TDUSRTIMER
 40
0.0000000116
  9
$USRTIMER
 70
     1
  9
$ANGBASE
 50
0.0
  9
$ANGDIR
 70
     0
  9
$PDMODE
 70
     0
  9
$PDSIZE
 40
0.0
  9
$PLINEWID
 40
0.0
  9
$SPLFRAME
 70
     0
  9
$SPLINETYPE
 70
     6
  9
$SPLINESEGS
 70
     8
  9
$HANDSEED
  5
98
  9
$SURFTAB1
 70
     6
  9
$SURFTAB2
 70
     6
  9
$SURFTYPE
 70
     6
  9
$SURFU
 70
     6
  9
$SURFV
 70
     6
  9
$UCSBASE
  2

  9
$UCSNAME
  2

  9
$UCSORG
 10
0.0
 20
0.0
 30
0.0
  9
$UCSXDIR
 10
1.0
 20
0.0
 30
0.0
  9
$UCSYDIR
 10
0.0
 20
1.0
 30
0.0
  9
$UCSORTHOREF
  2

  9
$UCSORTHOVIEW
 70
     0
  9
$UCSORGTOP
 10
0.0
 20
0.0
 30
0.0
  9
$UCSORGBOTTOM
 10
0.0
 20
0.0
 30
0.0
  9
$UCSORGLEFT
 10
0.0
 20
0.0
 30
0.0
  9
$UCSORGRIGHT
 10
0.0
 20
0.0
 30
0.0
  9
$UCSORGFRONT
 10
0.0
 20
0.0
 30
0.0
  9
$UCSORGBACK
 10
0.0
 20
0.0
 30
0.0
  9
$PUCSBASE
  2

  9
$PUCSNAME
  2

  9
$PUCSORG
 10
0.0
 20
0.0
 30
0.0
  9
$PUCSXDIR
 10
1.0
 20
0.0
 30
0.0
  9
$PUCSYDIR
 10
0.0
 20
1.0
 30
0.0
  9
$PUCSORTHOREF
  2

  9
$PUCSORTHOVIEW
 70
     0
  9
$PUCSORGTOP
 10
0.0
 20
0.0
 30
0.0
  9
$PUCSORGBOTTOM
 10
0.0
 20
0.0
 30
0.0
  9
$PUCSORGLEFT
 10
0.0
 20
0.0
 30
0.0
  9
$PUCSORGRIGHT
 10
0.0
 20
0.0
 30
0.0
  9
$PUCSORGFRONT
 10
0.0
 20
0.0
 30
0.0
  9
$PUCSORGBACK
 10
0.0
 20
0.0
 30
0.0
  9
$USERI1
 70
     0
  9
$USERI2
 70
     0
  9
$USERI3
 70
     0
  9
$USERI4
 70
     0
  9
$USERI5
 70
     0
  9
$USERR1
 40
0.0
  9
$USERR2
 40
0.0
  9
$USERR3
 40
0.0
  9
$USERR4
 40
0.0
  9
$USERR5
 40
0.0
  9
$WORLDVIEW
 70
     1
  9
$SHADEDGE
 70
     3
  9
$SHADEDIF
 70
    70
  9
$TILEMODE
 70
     1
  9
$MAXACTVP
 70
    64
  9
$PINSBASE
 10
0.0
 20
0.0
 30
0.0
  9
$PLIMCHECK
 70
     0
  9
$PEXTMIN
 10
1.000000000000000E+20
 20
1.000000000000000E+20
 30
1.000000000000000E+20
  9
$PEXTMAX
 10
-1.000000000000000E+20
 20
-1.000000000000000E+20
 30
-1.000000000000000E+20
  9
$PLIMMIN
 10
0.0
 20
0.0
  9
$PLIMMAX
 10
12.0
 20
9.0
  9
$UNITMODE
 70
     0
  9
$VISRETAIN
 70
     1
  9
$PLINEGEN
 70
     0
  9
$PSLTSCALE
 70
     1
  9
$TREEDEPTH
 70
  3020
  9
$CMLSTYLE
  2
Standard
  9
$CMLJUST
 70
     0
  9
$CMLSCALE
 40
1.0
  9
$PROXYGRAPHICS
 70
     1
  9
$MEASUREMENT
 70
     0
  9
$CELWEIGHT
370
    -1
  9
$ENDCAPS
280
     0
  9
$JOINSTYLE
280
     0
  9
$LWDISPLAY
290
     0
  9
$INSUNITS
 70
     4
  9
$HYPERLINKBASE
  1

  9
$STYLESHEET
  1

  9
$XEDIT
290
     1
  9
$CEPSNTYPE
380
     0
  9
$PSTYLEMODE
290
     1
  9
$FINGERPRINTGUID
  2
{31122AC7-6161-4323-A68A-4B2CE74F2F54}
  9
$VERSIONGUID
  2
{FAEB1C32-E019-11D5-929B-00C0DF256EC4}
  9
$EXTNAMES
290
     1
  9
$PSVPSCALE
 40
0.0
  9
$OLESTARTUP
290
     0
  9
$SORTENTS
280
   127
  9
$INDEXCTL
280
     0
  9
$HIDETEXT
280
     1
  9
$XCLIPFRAME
290
     0
  9
$HALOGAP
280
     0
  9
$OBSCOLOR
 70
   257
  9
$OBSLTYPE
280
     0
  9
$INTERSECTIONDISPLAY
280
     0
  9
$INTERSECTIONCOLOR
 70
   257
  9
$DIMASSOC
280
     2
  9
$PROJECTNAME
  1

  9
$CAMERADISPLAY
290
     0
  9
$LENSLENGTH
 40
50.0
  9
$CAMERAHEIGHT
 40
0.0
  9
$STEPSPERSEC
 40
2.0
  9
$STEPSIZE
 40
6.0
  9
$3DDWFPREC
 40
2.0
  9
$PSOLWIDTH
 40
0.25
  9
$PSOLHEIGHT
 40
4.0
  9
$LOFTANG1
 40
1.570796326794897
  9
$LOFTANG2
 40
1.570796326794897
  9
$LOFTMAG1
 40
0.0
  9
$LOFTMAG2
 40
0.0
  9
$LOFTPARAM
 70
     7
  9
$LOFTNORMALS
280
     1
  9
$LATITUDE
 40
37.795
  9
$LONGITUDE
 40
-122.394
  9
$NORTHDIRECTION
 40
0.0
  9
$TIMEZONE
 70
 -8000
  9
$LIGHTGLYPHDISPLAY
280
     1
  9
$TILEMODELIGHTSYNCH
280
     1
  9
$SOLIDHIST
280
     1
  9
$SHOWHIST
280
     1
  9
$DWFFRAME
280
     2
  9
$DGNFRAME
280
     2
  9
$REALWORLDSCALE
290
     1
  9
$INTERFERECOLOR
 62
   256
  9
$CSHADOW
280
     0
  9
$SHADOWPLANELOCATION
 40
0.0
  0
ENDSEC
  0
SECTION
  2
CLASSES
  0
CLASS
  1
ACDBDICTIONARYWDFLT
  2
AcDbDictionaryWithDefault
  3
ObjectDBX Classes
 90
        0
 91
        3
280
     0
281
     0
  0
CLASS
  1
VISUALSTYLE
  2
AcDbVisualStyle
  3
ObjectDBX Classes
 90
     4095
 91
        3
280
     0
281
     0
  0
CLASS
  1
SCALE
  2
AcDbScale
  3
ObjectDBX Classes
 90
     1153
 91
        3
280
     0
281
     0
  0
ENDSEC
  0
SECTION
  2
TABLES
  0
TABLE
  2
VPORT
  5
8
330
0
100
AcDbSymbolTable
 70
     1
  0
VPORT
  5
29
330
8
100
AcDbSymbolTableRecord
100
AcDbViewportTableRecord
  2
*Active
 70
     0
 10
0.0
 20
0.0
 11
1.0
 21
1.0
 12
10.42990654205607
 22
4.5
 13
0.0
 23
0.0
 14
0.5
 24
0.5
 15
0.5
 25
0.5
 16
0.0
 26
0.0
 36
1.0
 17
0.0
 27
0.0
 37
0.0
 40
9.0
 41
1.972972972850329
 42
50.0
 43
0.0
 44
0.0
 50
0.0
 51
0.0
 71
     0
 72
   100
 73
     1
 74
     3
 75
     0
 76
     0
 77
     0
 78
     0
281
     0
 65
     1
110
0.0
120
0.0
130
0.0
111
1.0
121
0.0
131
0.0
112
0.0
122
1.0
132
0.0
 79
     0
146
0.0
 60
     3
 61
     5
292
     1
282
     1
141
0.0
142
0.0
 63
   256
  0
ENDTAB
  0
TABLE
  2
LTYPE
  5
5
330
0
100
AcDbSymbolTable
 70
     1
  0
LTYPE
  5
14
330
5
100
AcDbSymbolTableRecord
100
AcDbLinetypeTableRecord
  2
ByBlock
 70
     0
  3

 72
    65
 73
     0
 40
0.0
  0
LTYPE
  5
15
330
5
100
AcDbSymbolTableRecord
100
AcDbLinetypeTableRecord
  2
ByLayer
 70
     0
  3

 72
    65
 73
     0
 40
0.0
  0
LTYPE
  5
16
330
5
100
AcDbSymbolTableRecord
100
AcDbLinetypeTableRecord
  2
Continuous
 70
     0
  3
Solid line
 72
    65
 73
     0
 40
0.0
  0
ENDTAB
  0
TABLE
  2
LAYER
  5
2
330
0
100
AcDbSymbolTable
 70
     2
  0
LAYER
  5
10
330
2
100
AcDbSymbolTableRecord
100
AcDbLayerTableRecord
  2
0
 70
     0
 62
     7
  6
Continuous
370
    -3
390
F
347
0
  0
LAYER
  5
5E
330
2
100
AcDbSymbolTableRecord
100
AcDbLayerTableRecord
  2
layer 1
 70
     0
 62
     7
  6
Continuous
370
    -3
390
F
347
0
  0
ENDTAB
  0
TABLE
  2
STYLE
  5
3
330
0
100
AcDbSymbolTable
 70
     1
  0
STYLE
  5
11
330
3
100
AcDbSymbolTableRecord
100
AcDbTextStyleTableRecord
  2
Standard
 70
     0
 40
0.0
 41
1.0
 50
0.0
 71
     0
 42
0.2
  3
txt
  4

  0
ENDTAB
  0
TABLE
  2
VIEW
  5
6
330
0
100
AcDbSymbolTable
 70
     0
  0
ENDTAB
  0
TABLE
  2
UCS
  5
7
330
0
100
AcDbSymbolTable
 70
     0
  0
ENDTAB
  0
TABLE
  2
APPID
  5
9
330
0
100
AcDbSymbolTable
 70
     2
  0
APPID
  5
12
330
9
100
AcDbSymbolTableRecord
100
AcDbRegAppTableRecord
  2
ACAD
 70
     0
  0
APPID
  5
5D
330
9
100
AcDbSymbolTableRecord
100
AcDbRegAppTableRecord
  2
ODA
 70
     0
  0
ENDTAB
  0
TABLE
  2
DIMSTYLE
  5
A
330
0
100
AcDbSymbolTable
 70
     1
100
AcDbDimStyleTable
  0
DIMSTYLE
105
27
330
A
100
AcDbSymbolTableRecord
100
AcDbDimStyleTableRecord
  2
Standard
 70
     0
340
11
  0
ENDTAB
  0
TABLE
  2
BLOCK_RECORD
  5
1
330
0
100
AcDbSymbolTable
 70
     1
  0
BLOCK_RECORD
  5
1F
330
1
100
AcDbSymbolTableRecord
100
AcDbBlockTableRecord
  2
*Model_Space
340
22
 70
     0
280
     1
281
     0
  0
BLOCK_RECORD
  5
1B
330
1
100
AcDbSymbolTableRecord
100
AcDbBlockTableRecord
  2
*Paper_Space
340
1E
 70
     0
280
     1
281
     0
  0
BLOCK_RECORD
  5
23
330
1
100
AcDbSymbolTableRecord
100
AcDbBlockTableRecord
  2
*Paper_Space0
340
26
 70
     0
280
     1
281
     0
  0
ENDTAB
  0
ENDSEC
  0
SECTION
  2
BLOCKS
  0
BLOCK
  5
20
330
1F
100
AcDbEntity
  8
0
100
AcDbBlockBegin
  2
*Model_Space
 70
     0
 10
0.0
 20
0.0
 30
0.0
  3
*Model_Space
  1

  0
ENDBLK
  5
21
330
1F
100
AcDbEntity
  8
0
100
AcDbBlockEnd
  0
BLOCK
  5
1C
330
1B
100
AcDbEntity
 67
     1
  8
0
100
AcDbBlockBegin
  2
*Paper_Space
 70
     0
 10
0.0
 20
0.0
 30
0.0
  3
*Paper_Space
  1

  0
ENDBLK
  5
1D
330
1B
100
AcDbEntity
 67
     1
  8
0
100
AcDbBlockEnd
  0
BLOCK
  5
24
330
23
100
AcDbEntity
  8
0
100
AcDbBlockBegin
  2
*Paper_Space0
 70
     0
 10
0.0
 20
0.0
 30
0.0
  3
*Paper_Space0
  1

  0
ENDBLK
  5
25
330
23
100
AcDbEntity
  8
0
100
AcDbBlockEnd
  0
ENDSEC
  0
SECTION
  2
ENTITIES
  0
SPLINE
  5
5F
330
1F
100
AcDbEntity
  8
layer 1
 62
   250
370
    20
100
AcDbSpline
210
0.0
220
0.0
230
1.0
 70
    11
 71
     3
 72
   124
 73
   120
 74
     0
 42
0.0000000001
 43
0.0000000001
 40
0.0
 40
0.0
 40
0.0
 40
0.0
 40
0.0333333333333333
 40
0.0333333333333333
 40
0.0333333333333333
 40
0.0333333333333333
 40
0.0666666666666667
 40
0.0666666666666667
 40
0.0666666666666667
 40
0.0666666666666667
 40
0.1
 40
0.1
 40
0.1
 40
0.1
 40
0.1333333333333333
 40
0.1333333333333333
 40
0.1333333333333333
 40
0.1333333333333333
 40
0.1666666666666667
 40
0.1666666666666667
 40
0.1666666666666667
 40
0.1666666666666667
 40
0.2
 40
0.2
 40
0.2
 40
0.2
 40
0.2333333333333333
 40
0.2333333333333333
 40
0.2333333333333333
 40
0.2333333333333333
 40
0.2666666666666667
 40
0.2666666666666667
 40
0.2666666666666667
 40
0.2666666666666667
 40
0.3
 40
0.3
 40
0.3
 40
0.3
 40
0.3333333333333333
 40
0.3333333333333333
 40
0.3333333333333333
 40
0.3333333333333333
 40
0.3666666666666666
 40
0.3666666666666666
 40
0.3666666666666666
 40
0.3666666666666666
 40
0.4
 40
0.4
 40
0.4
 40
0.4
 40
0.4333333333333333
 40
0.4333333333333333
 40
0.4333333333333333
 40
0.4333333333333333
 40
0.4666666666666666
 40
0.4666666666666666
 40
0.4666666666666666
 40
0.4666666666666666
 40
0.4999999999999999
 40
0.4999999999999999
 40
0.4999999999999999
 40
0.4999999999999999
 40
0.5333333333333333
 40
0.5333333333333333
 40
0.5333333333333333
 40
0.5333333333333333
 40
0.5666666666666667
 40
0.5666666666666667
 40
0.5666666666666667
 40
0.5666666666666667
 40
0.6
 40
0.6
 40
0.6
 40
0.6
 40
0.6333333333333333
 40
0.6333333333333333
 40
0.6333333333333333
 40
0.6333333333333333
 40
0.6666666666666666
 40
0.6666666666666666
 40
0.6666666666666666
 40
0.6666666666666666
 40
0.7
 40
0.7
 40
0.7
 40
0.7
 40
0.7333333333333333
 40
0.7333333333333333
 40
0.7333333333333333
 40
0.7333333333333333
 40
0.7666666666666666
 40
0.7666666666666666
 40
0.7666666666666666
 40
0.7666666666666666
 40
0.7999999999999999
 40
0.7999999999999999
 40
0.7999999999999999
 40
0.7999999999999999
 40
0.8333333333333333
 40
0.8333333333333333
 40
0.8333333333333333
 40
0.8333333333333333
 40
0.8666666666666666
 40
0.8666666666666666
 40
0.8666666666666666
 40
0.8666666666666666
 40
0.8999999999999999
 40
0.8999999999999999
 40
0.8999999999999999
 40
0.8999999999999999
 40
0.9333333333333332
 40
0.9333333333333332
 40
0.9333333333333332
 40
0.9333333333333332
 40
0.9666666666666666
 40
0.9666666666666666
 40
0.9666666666666666
 40
0.9666666666666666
 40
1.0
 40
1.0
 40
1.0
 40
1.0
 10
89.435
 20
34.7367
 30
0.0
 10
87.9526
 20
30.5966
 30
0.0
 10
85.6518
 20
26.3097
 30
0.0
 10
82.7157
 20
22.5731
 30
0.0
 10
82.7157
 20
22.5731
 30
0.0
 10
85.5139
 20
21.7841
 30
0.0
 10
87.5654
 20
19.2122
 30
0.0
 10
87.5654
 20
16.162
 30
0.0
 10
87.5654
 20
16.162
 30
0.0
 10
87.5654
 20
13.2032
 30
0.0
 10
85.6349
 20
10.6949
 30
0.0
 10
82.9652
 20
9.8269
 30
0.0
 10
82.9652
 20
9.8269
 30
0.0
 10
85.7859
 20
5.8726
 30
0.0
 10
88.0014
 20
1.7419
 30
0.0
 10
89.4351
 20
-2.4128
 30
0.0
 10
89.4351
 20
-2.4128
 30
0.0
 10
97.7659
 20
-26.5545
 30
0.0
 10
86.9501
 20
-46.0471
 30
0.0
 10
61.5813
 20
-50.6568
 30
0.0
 10
61.5813
 20
-50.6568
 30
0.0
 10
57.2547
 20
-51.4429
 30
0.0
 10
52.3919
 20
-51.5938
 30
0.0
 10
47.688
 20
-50.9194
 30
0.0
 10
47.688
 20
-50.9194
 30
0.0
 10
48.4036
 20
-53.7372
 30
0.0
 10
47.2021
 20
-56.7998
 30
0.0
 10
44.5606
 20
-58.3248
 30
0.0
 10
44.5606
 20
-58.3248
 30
0.0
 10
41.9982
 20
-59.8042
 30
0.0
 10
38.8607
 20
-59.3865
 30
0.0
 10
36.7741
 20
-57.5085
 30
0.0
 10
36.7741
 20
-57.5085
 30
0.0
 10
34.76
 20
-61.9285
 30
0.0
 10
32.2902
 20
-65.9124
 30
0.0
 10
29.4089
 20
-69.2315
 30
0.0
 10
29.4089
 20
-69.2315
 30
0.0
 10
12.6671
 20
-88.5171
 30
0.0
 10
-9.6218
 20
-88.8968
 30
0.0
 10
-26.2984
 20
-69.2316
 30
0.0
 10
-26.2984
 20
-69.2316
 30
0.0
 10
-29.1426
 20
-65.8777
 30
0.0
 10
-31.7046
 20
-61.7417
 30
0.0
 10
-33.4725
 20
-57.3307
 30
0.0
 10
-33.4725
 20
-57.3307
 30
0.0
 10
-35.5549
 20
-59.3594
 30
0.0
 10
-38.808
 20
-59.85
 30
0.0
 10
-41.4494
 20
-58.325
 30
0.0
 10
-41.4494
 20
-58.325
 30
0.0
 10
-44.0117
 20
-56.8456
 30
0.0
 10
-45.2189
 20
-53.9196
 30
0.0
 10
-44.6358
 20
-51.1737
 30
0.0
 10
-44.6358
 20
-51.1737
 30
0.0
 10
-49.4707
 20
-51.6394
 30
0.0
 10
-54.1557
 20
-51.4925
 30
0.0
 10
-58.4708
 20
-50.6568
 30
0.0
 10
-58.4708
 20
-50.6568
 30
0.0
 10
-83.5435
 20
-45.8008
 30
0.0
 10
-95.0167
 20
-26.6876
 30
0.0
 10
-86.3245
 20
-2.4128
 30
0.0
 10
-86.3245
 20
-2.4128
 30
0.0
 10
-84.8419
 20
1.7273
 30
0.0
 10
-82.5412
 20
6.0142
 30
0.0
 10
-79.605
 20
9.7507
 30
0.0
 10
-79.605
 20
9.7507
 30
0.0
 10
-82.4031
 20
10.5399
 30
0.0
 10
-84.4546
 20
13.1118
 30
0.0
 10
-84.4545
 20
16.1618
 30
0.0
 10
-84.4545
 20
16.1618
 30
0.0
 10
-84.4546
 20
19.1204
 30
0.0
 10
-82.5242
 20
21.6288
 30
0.0
 10
-79.8546
 20
22.4968
 30
0.0
 10
-79.8546
 20
22.4968
 30
0.0
 10
-82.6754
 20
26.4511
 30
0.0
 10
-84.8908
 20
30.5818
 30
0.0
 10
-86.3245
 20
34.7367
 30
0.0
 10
-86.3245
 20
34.7367
 30
0.0
 10
-94.6553
 20
58.8782
 30
0.0
 10
-83.8394
 20
78.371
 30
0.0
 10
-58.4708
 20
82.9806
 30
0.0
 10
-58.4708
 20
82.9806
 30
0.0
 10
-54.1441
 20
83.7668
 30
0.0
 10
-49.2811
 20
83.9176
 30
0.0
 10
-44.5771
 20
83.2432
 30
0.0
 10
-44.5771
 20
83.2432
 30
0.0
 10
-45.2929
 20
86.0611
 30
0.0
 10
-44.0913
 20
89.1237
 30
0.0
 10
-41.4497
 20
90.6487
 30
0.0
 10
-41.4497
 20
90.6487
 30
0.0
 10
-38.8874
 20
92.128
 30
0.0
 10
-35.7499
 20
91.7104
 30
0.0
 10
-33.6634
 20
89.8326
 30
0.0
 10
-33.6634
 20
89.8326
 30
0.0
 10
-31.6492
 20
94.2525
 30
0.0
 10
-29.1796
 20
98.2363
 30
0.0
 10
-26.2984
 20
101.5554
 30
0.0
 10
-26.2984
 20
101.5554
 30
0.0
 10
-9.5566
 20
120.841
 30
0.0
 10
12.7325
 20
121.2205
 30
0.0
 10
29.409
 20
101.5554
 30
0.0
 10
29.409
 20
101.5554
 30
0.0
 10
32.2532
 20
98.2014
 30
0.0
 10
34.8153
 20
94.0654
 30
0.0
 10
36.5831
 20
89.6544
 30
0.0
 10
36.5831
 20
89.6544
 30
0.0
 10
38.6655
 20
91.6832
 30
0.0
 10
41.9188
 20
92.174
 30
0.0
 10
44.5602
 20
90.6488
 30
0.0
 10
44.5602
 20
90.6488
 30
0.0
 10
47.1226
 20
89.1694
 30
0.0
 10
48.3296
 20
86.2432
 30
0.0
 10
47.7465
 20
83.4973
 30
0.0
 10
47.7465
 20
83.4973
 30
0.0
 10
52.5812
 20
83.963
 30
0.0
 10
57.2662
 20
83.8162
 30
0.0
 10
61.5813
 20
82.9806
 30
0.0
 10
61.5813
 20
82.9806
 30
0.0
 10
86.654
 20
78.1246
 30
0.0
 10
98.1273
 20
59.0114
 30
0.0
 10
89.435
 20
34.7367
 30
0.0
  0
SPLINE
  5
60
330
1F
100
AcDbEntity
  8
layer 1
 62
   250
370
    20
100
AcDbSpline
210
0.0
220
0.0
230
1.0
 70
    11
 71
     3
 72
   124
 73
   120
 74
     0
 42
0.0000000001
 43
0.0000000001
 40
0.0
 40
0.0
 40
0.0
 40
0.0
 40
0.0333333333333333
 40
0.0333333333333333
 40
0.0333333333333333
 40
0.0333333333333333
 40
0.0666666666666667
 40
0.0666666666666667
 40
0.0666666666666667
 40
0.0666666666666667
 40
0.1
 40
0.1
 40
0.1
 40
0.1
 40
0.1333333333333333
 40
0.1333333333333333
 40
0.1333333333333333
 40
0.1333333333333333
 40
0.1666666666666667
 40
0.1666666666666667
 40
0.1666666666666667
 40
0.1666666666666667
 40
0.2
 40
0.2
 40
0.2
 40
0.2
 40
0.2333333333333333
 40
0.2333333333333333
 40
0.2333333333333333
 40
0.2333333333333333
 40
0.2666666666666667
 40
0.2666666666666667
 40
0.2666666666666667
 40
0.2666666666666667
 40
0.3
 40
0.3
 40
0.3
 40
0.3
 40
0.3333333333333333
 40
0.3333333333333333
 40
0.3333333333333333
 40
0.3333333333333333
 40
0.3666666666666666
 40
0.3666666666666666
 40
0.3666666666666666
 40
0.3666666666666666
 40
0.4
 40
0.4
 40
0.4
 40
0.4
 40
0.4333333333333333
 40
0.4333333333333333
 40
0.4333333333333333
 40
0.4333333333333333
 40
0.4666666666666666
 40
0.4666666666666666
 40
0.4666666666666666
 40
0.4666666666666666
 40
0.4999999999999999
 40
0.4999999999999999
 40
0.4999999999999999
 40
0.4999999999999999
 40
0.5333333333333333
 40
0.5333333333333333
 40
0.5333333333333333
 40
0.5333333333333333
 40
0.5666666666666667
 40
0.5666666666666667
 40
0.5666666666666667
 40
0.5666666666666667
 40
0.6
 40
0.6
 40
0.6
 40
0.6
 40
0.6333333333333333
 40
0.6333333333333333
 40
0.6333333333333333
 40
0.6333333333333333
 40
0.6666666666666666
 40
0.6666666666666666
 40
0.6666666666666666
 40
0.6666666666666666
 40
0.7
 40
0.7
 40
0.7
 40
0.7
 40
0.7333333333333333
 40
0.7333333333333333
 40
0.7333333333333333
 40
0.7333333333333333
 40
0.7666666666666666
 40
0.7666666666666666
 40
0.7666666666666666
 40
0.7666666666666666
 40
0.7999999999999999
 40
0.7999999999999999
 40
0.7999999999999999
 40
0.7999999999999999
 40
0.8333333333333333
 40
0.8333333333333333
 40
0.8333333333333333
 40
0.8333333333333333
 40
0.8666666666666666
 40
0.8666666666666666
 40
0.8666666666666666
 40
0.8666666666666666
 40
0.8999999999999999
 40
0.8999999999999999
 40
0.8999999999999999
 40
0.8999999999999999
 40
0.9333333333333332
 40
0.9333333333333332
 40
0.9333333333333332
 40
0.9333333333333332
 40
0.9666666666666666
 40
0.9666666666666666
 40
0.9666666666666666
 40
0.9666666666666666
 40
1.0
 40
1.0
 40
1.0
 40
1.0
 10
85.4405
 20
33.8925
 30
0.0
 10
84.0295
 20
29.9519
 30
0.0
 10
81.8417
 20
25.872
 30
0.0
 10
79.0504
 20
22.3128
 30
0.0
 10
79.0504
 20
22.3128
 30
0.0
 10
81.6583
 20
21.5042
 30
0.0
 10
83.5609
 20
19.055
 30
0.0
 10
83.5609
 20
16.1621
 30
0.0
 10
83.5609
 20
16.1621
 30
0.0
 10
83.5609
 20
13.356
 30
0.0
 10
81.7706
 20
10.9677
 30
0.0
 10
79.2831
 20
10.0889
 30
0.0
 10
79.2831
 20
10.0889
 30
0.0
 10
81.9668
 20
6.3223
 30
0.0
 10
84.0752
 20
2.3884
 30
0.0
 10
85.4406
 20
-1.5683
 30
0.0
 10
85.4406
 20
-1.5683
 30
0.0
 10
93.3927
 20
-24.6126
 30
0.0
 10
83.0685
 20
-43.2192
 30
0.0
 10
58.8528
 20
-47.6194
 30
0.0
 10
58.8528
 20
-47.6194
 30
0.0
 10
54.7348
 20
-48.3676
 30
0.0
 10
50.1077
 20
-48.5129
 30
0.0
 10
45.6298
 20
-47.8752
 30
0.0
 10
45.6298
 20
-47.8752
 30
0.0
 10
46.2333
 20
-50.5379
 30
0.0
 10
45.0636
 20
-53.4103
 30
0.0
 10
42.5583
 20
-54.8566
 30
0.0
 10
42.5583
 20
-54.8566
 30
0.0
 10
40.1282
 20
-56.2597
 30
0.0
 10
37.1647
 20
-55.9034
 30
0.0
 10
35.1599
 20
-54.1885
 30
0.0
 10
35.1599
 20
-54.1885
 30
0.0
 10
33.2398
 20
-58.3961
 30
0.0
 10
30.8868
 20
-62.1888
 30
0.0
 10
28.1428
 20
-65.3498
 30
0.0
 10
28.1428
 20
-65.3498
 30
0.0
 10
12.162
 20
-83.7588
 30
0.0
 10
-9.1137
 20
-84.1212
 30
0.0
 10
-25.0322
 20
-65.3499
 30
0.0
 10
-25.0322
 20
-65.3499
 30
0.0
 10
-27.7393
 20
-62.1576
 30
0.0
 10
-30.1786
 20
-58.223
 30
0.0
 10
-31.8653
 20
-54.0261
 30
0.0
 10
-31.8653
 20
-54.0261
 30
0.0
 10
-33.8695
 20
-55.8802
 30
0.0
 10
-36.9419
 20
-56.3031
 30
0.0
 10
-39.4471
 20
-54.8568
 30
0.0
 10
-39.4471
 20
-54.8568
 30
0.0
 10
-41.8772
 20
-53.4538
 30
0.0
 10
-43.0505
 20
-50.7091
 30
0.0
 10
-42.5678
 20
-48.1156
 30
0.0
 10
-42.5678
 20
-48.1156
 30
0.0
 10
-47.1717
 20
-48.5566
 30
0.0
 10
-51.6327
 20
-48.4153
 30
0.0
 10
-55.7422
 20
-47.6194
 30
0.0
 10
-55.7422
 20
-47.6194
 30
0.0
 10
-79.6753
 20
-42.9841
 30
0.0
 10
-90.627
 20
-24.7397
 30
0.0
 10
-82.3299
 20
-1.5683
 30
0.0
 10
-82.3299
 20
-1.5683
 30
0.0
 10
-80.9187
 20
2.3722
 30
0.0
 10
-78.731
 20
6.4521
 30
0.0
 10
-75.9396
 20
10.0112
 30
0.0
 10
-75.9396
 20
10.0112
 30
0.0
 10
-78.5474
 20
10.82
 30
0.0
 10
-80.45
 20
13.2692
 30
0.0
 10
-80.4499
 20
16.1619
 30
0.0
 10
-80.4499
 20
16.1619
 30
0.0
 10
-80.45
 20
18.9678
 30
0.0
 10
-78.6598
 20
21.3562
 30
0.0
 10
-76.1724
 20
22.235
 30
0.0
 10
-76.1724
 20
22.235
 30
0.0
 10
-78.8562
 20
26.0016
 30
0.0
 10
-80.9645
 20
29.9356
 30
0.0
 10
-82.3299
 20
33.8925
 30
0.0
 10
-82.3299
 20
33.8925
 30
0.0
 10
-90.282
 20
56.9367
 30
0.0
 10
-79.9577
 20
75.5434
 30
0.0
 10
-55.7422
 20
79.9435
 30
0.0
 10
-55.7422
 20
79.9435
 30
0.0
 10
-51.6241
 20
80.6918
 30
0.0
 10
-46.9968
 20
80.837
 30
0.0
 10
-42.5189
 20
80.1993
 30
0.0
 10
-42.5189
 20
80.1993
 30
0.0
 10
-43.1225
 20
82.8621
 30
0.0
 10
-41.9527
 20
85.7345
 30
0.0
 10
-39.4474
 20
87.1808
 30
0.0
 10
-39.4474
 20
87.1808
 30
0.0
 10
-37.0173
 20
88.5838
 30
0.0
 10
-34.0538
 20
88.2276
 30
0.0
 10
-32.0491
 20
86.5129
 30
0.0
 10
-32.0491
 20
86.5129
 30
0.0
 10
-30.1289
 20
90.7204
 30
0.0
 10
-27.7762
 20
94.513
 30
0.0
 10
-25.0322
 20
97.674
 30
0.0
 10
-25.0322
 20
97.674
 30
0.0
 10
-9.0514
 20
116.083
 30
0.0
 10
12.2244
 20
116.4452
 30
0.0
 10
28.1429
 20
97.674
 30
0.0
 10
28.1429
 20
97.674
 30
0.0
 10
30.85
 20
94.4816
 30
0.0
 10
33.2894
 20
90.547
 30
0.0
 10
34.976
 20
86.3501
 30
0.0
 10
34.976
 20
86.3501
 30
0.0
 10
36.9802
 20
88.2043
 30
0.0
 10
40.0528
 20
88.6274
 30
0.0
 10
42.558
 20
87.1809
 30
0.0
 10
42.558
 20
87.1809
 30
0.0
 10
44.9881
 20
85.7779
 30
0.0
 10
46.1613
 20
83.0331
 30
0.0
 10
45.6786
 20
80.4396
 30
0.0
 10
45.6786
 20
80.4396
 30
0.0
 10
50.2823
 20
80.8805
 30
0.0
 10
54.7433
 20
80.7393
 30
0.0
 10
58.8528
 20
79.9435
 30
0.0
 10
58.8528
 20
79.9435
 30
0.0
 10
82.7859
 20
75.3082
 30
0.0
 10
93.7377
 20
57.0638
 30
0.0
 10
85.4405
 20
33.8925
 30
0.0
  0
SPLINE
  5
61
330
1F
100
AcDbEntity
  8
layer 1
 62
   250
370
    20
100
AcDbSpline
210
0.0
220
0.0
230
1.0
 70
    11
 71
     3
 72
   124
 73
   120
 74
     0
 42
0.0000000001
 43
0.0000000001
 40
0.0
 40
0.0
 40
0.0
 40
0.0
 40
0.0333333333333333
 40
0.0333333333333333
 40
0.0333333333333333
 40
0.0333333333333333
 40
0.0666666666666667
 40
0.0666666666666667
 40
0.0666666666666667
 40
0.0666666666666667
 40
0.1
 40
0.1
 40
0.1
 40
0.1
 40
0.1333333333333333
 40
0.1333333333333333
 40
0.1333333333333333
 40
0.1333333333333333
 40
0.1666666666666667
 40
0.1666666666666667
 40
0.1666666666666667
 40
0.1666666666666667
 40
0.2
 40
0.2
 40
0.2
 40
0.2
 40
0.2333333333333333
 40
0.2333333333333333
 40
0.2333333333333333
 40
0.2333333333333333
 40
0.2666666666666667
 40
0.2666666666666667
 40
0.2666666666666667
 40
0.2666666666666667
 40
0.3
 40
0.3
 40
0.3
 40
0.3
 40
0.3333333333333333
 40
0.3333333333333333
 40
0.3333333333333333
 40
0.3333333333333333
 40
0.3666666666666666
 40
0.3666666666666666
 40
0.3666666666666666
 40
0.3666666666666666
 40
0.4
 40
0.4
 40
0.4
 40
0.4
 40
0.4333333333333333
 40
0.4333333333333333
 40
0.4333333333333333
 40
0.4333333333333333
 40
0.4666666666666666
 40
0.4666666666666666
 40
0.4666666666666666
 40
0.4666666666666666
 40
0.4999999999999999
 40
0.4999999999999999
 40
0.4999999999999999
 40
0.4999999999999999
 40
0.5333333333333333
 40
0.5333333333333333
 40
0.5333333333333333
 40
0.5333333333333333
 40
0.5666666666666667
 40
0.5666666666666667
 40
0.5666666666666667
 40
0.5666666666666667
 40
0.6
 40
0.6
 40
0.6
 40
0.6
 40
0.6333333333333333
 40
0.6333333333333333
 40
0.6333333333333333
 40
0.6333333333333333
 40
0.6666666666666666
 40
0.6666666666666666
 40
0.6666666666666666
 40
0.6666666666666666
 40
0.7
 40
0.7
 40
0.7
 40
0.7
 40
0.7333333333333333
 40
0.7333333333333333
 40
0.7333333333333333
 40
0.7333333333333333
 40
0.7666666666666666
 40
0.7666666666666666
 40
0.7666666666666666
 40
0.7666666666666666
 40
0.7999999999999999
 40
0.7999999999999999
 40
0.7999999999999999
 40
0.7999999999999999
 40
0.8333333333333333
 40
0.8333333333333333
 40
0.8333333333333333
 40
0.8333333333333333
 40
0.8666666666666666
 40
0.8666666666666666
 40
0.8666666666666666
 40
0.8666666666666666
 40
0.8999999999999999
 40
0.8999999999999999
 40
0.8999999999999999
 40
0.8999999999999999
 40
0.9333333333333332
 40
0.9333333333333332
 40
0.9333333333333332
 40
0.9333333333333332
 40
0.9666666666666666
 40
0.9666666666666666
 40
0.9666666666666666
 40
0.9666666666666666
 40
1.0
 40
1.0
 40
1.0
 40
1.0
 10
81.4459
 20
33.0482
 30
0.0
 10
80.1064
 20
29.3072
 30
0.0
 10
78.0316
 20
25.4343
 30
0.0
 10
75.3851
 20
22.0524
 30
0.0
 10
75.3851
 20
22.0524
 30
0.0
 10
77.8027
 20
21.2242
 30
0.0
 10
79.5564
 20
18.8976
 30
0.0
 10
79.5564
 20
16.1621
 30
0.0
 10
79.5564
 20
16.1621
 30
0.0
 10
79.5564
 20
13.5087
 30
0.0
 10
77.9062
 20
11.2404
 30
0.0
 10
75.601
 20
10.3509
 30
0.0
 10
75.601
 20
10.3509
 30
0.0
 10
78.1478
 20
6.7719
 30
0.0
 10
80.1489
 20
3.0347
 30
0.0
 10
81.446
 20
-0.724
 30
0.0
 10
81.446
 20
-0.724
 30
0.0
 10
89.0195
 20
-22.671
 30
0.0
 10
79.1869
 20
-40.3915
 30
0.0
 10
56.1244
 20
-44.5822
 30
0.0
 10
56.1244
 20
-44.5822
 30
0.0
 10
52.2148
 20
-45.2925
 30
0.0
 10
47.8235
 20
-45.4321
 30
0.0
 10
43.5716
 20
-44.8312
 30
0.0
 10
43.5716
 20
-44.8312
 30
0.0
 10
44.063
 20
-47.3389
 30
0.0
 10
42.925
 20
-50.021
 30
0.0
 10
40.556
 20
-51.3887
 30
0.0
 10
40.556
 20
-51.3887
 30
0.0
 10
38.2581
 20
-52.7153
 30
0.0
 10
35.4686
 20
-52.4204
 30
0.0
 10
33.5456
 20
-50.8688
 30
0.0
 10
33.5456
 20
-50.8688
 30
0.0
 10
31.7197
 20
-54.8639
 30
0.0
 10
29.4835
 20
-58.4654
 30
0.0
 10
26.8768
 20
-61.4683
 30
0.0
 10
26.8768
 20
-61.4683
 30
0.0
 10
11.6569
 20
-79.0006
 30
0.0
 10
-8.6056
 20
-79.3458
 30
0.0
 10
-23.7661
 20
-61.4684
 30
0.0
 10
-23.7661
 20
-61.4684
 30
0.0
 10
-26.3362
 20
-58.4378
 30
0.0
 10
-28.6527
 20
-54.7044
 30
0.0
 10
-30.2582
 20
-50.7216
 30
0.0
 10
-30.2582
 20
-50.7216
 30
0.0
 10
-32.1842
 20
-52.4011
 30
0.0
 10
-35.076
 20
-52.7565
 30
0.0
 10
-37.4449
 20
-51.3888
 30
0.0
 10
-37.4449
 20
-51.3888
 30
0.0
 10
-39.7427
 20
-50.0621
 30
0.0
 10
-40.8822
 20
-47.4989
 30
0.0
 10
-40.4999
 20
-45.0578
 30
0.0
 10
-40.4999
 20
-45.0578
 30
0.0
 10
-44.8728
 20
-45.474
 30
0.0
 10
-49.1099
 20
-45.3382
 30
0.0
 10
-53.0138
 20
-44.5822
 30
0.0
 10
-53.0138
 20
-44.5822
 30
0.0
 10
-75.8072
 20
-40.1676
 30
0.0
 10
-86.2373
 20
-22.792
 30
0.0
 10
-78.3353
 20
-0.724
 30
0.0
 10
-78.3353
 20
-0.724
 30
0.0
 10
-76.9957
 20
3.0169
 30
0.0
 10
-74.921
 20
6.8898
 30
0.0
 10
-72.2744
 20
10.2716
 30
0.0
 10
-72.2744
 20
10.2716
 30
0.0
 10
-74.6918
 20
11.0999
 30
0.0
 10
-76.4456
 20
13.4266
 30
0.0
 10
-76.4455
 20
16.1619
 30
0.0
 10
-76.4455
 20
16.1619
 30
0.0
 10
-76.4456
 20
18.8152
 30
0.0
 10
-74.7955
 20
21.0836
 30
0.0
 10
-72.4903
 20
21.973
 30
0.0
 10
-72.4903
 20
21.973
 30
0.0
 10
-75.0372
 20
25.552
 30
0.0
 10
-77.0382
 20
29.2892
 30
0.0
 10
-78.3353
 20
33.0482
 30
0.0
 10
-78.3353
 20
33.0482
 30
0.0
 10
-85.9088
 20
54.995
 30
0.0
 10
-76.0762
 20
72.7157
 30
0.0
 10
-53.0138
 20
76.9063
 30
0.0
 10
-53.0138
 20
76.9063
 30
0.0
 10
-49.1042
 20
77.6167
 30
0.0
 10
-44.7127
 20
77.7562
 30
0.0
 10
-40.4607
 20
77.1553
 30
0.0
 10
-40.4607
 20
77.1553
 30
0.0
 10
-40.9523
 20
79.663
 30
0.0
 10
-39.8142
 20
82.3451
 30
0.0
 10
-37.4451
 20
83.7128
 30
0.0
 10
-37.4451
 20
83.7128
 30
0.0
 10
-35.1473
 20
85.0394
 30
0.0
 10
-32.3578
 20
84.7446
 30
0.0
 10
-30.4349
 20
83.1931
 30
0.0
 10
-30.4349
 20
83.1931
 30
0.0
 10
-28.6088
 20
87.1882
 30
0.0
 10
-26.3728
 20
90.7896
 30
0.0
 10
-23.7662
 20
93.7924
 30
0.0
 10
-23.7662
 20
93.7924
 30
0.0
 10
-8.5463
 20
111.3248
 30
0.0
 10
11.7164
 20
111.6698
 30
0.0
 10
26.8768
 20
93.7925
 30
0.0
 10
26.8768
 20
93.7925
 30
0.0
 10
29.4469
 20
90.7618
 30
0.0
 10
31.7634
 20
87.0285
 30
0.0
 10
33.3689
 20
83.0456
 30
0.0
 10
33.3689
 20
83.0456
 30
0.0
 10
35.2948
 20
84.7252
 30
0.0
 10
38.1868
 20
85.0808
 30
0.0
 10
40.5557
 20
83.7129
 30
0.0
 10
40.5557
 20
83.7129
 30
0.0
 10
42.8536
 20
82.3862
 30
0.0
 10
43.993
 20
79.8228
 30
0.0
 10
43.6107
 20
77.3817
 30
0.0
 10
43.6107
 20
77.3817
 30
0.0
 10
47.9834
 20
77.798
 30
0.0
 10
52.2205
 20
77.6623
 30
0.0
 10
56.1244
 20
76.9063
 30
0.0
 10
56.1244
 20
76.9063
 30
0.0
 10
78.9177
 20
72.4917
 30
0.0
 10
89.348
 20
55.1161
 30
0.0
 10
81.4459
 20
33.0482
 30
0.0
  0
SPLINE
  5
62
330
1F
100
AcDbEntity
  8
layer 1
 62
   250
370
    20
100
AcDbSpline
210
0.0
220
0.0
230
1.0
 70
    11
 71
     3
 72
   124
 73
   120
 74
     0
 42
0.0000000001
 43
0.0000000001
 40
0.0
 40
0.0
 40
0.0
 40
0.0
 40
0.0333333333333333
 40
0.0333333333333333
 40
0.0333333333333333
 40
0.0333333333333333
 40
0.0666666666666667
 40
0.0666666666666667
 40
0.0666666666666667
 40
0.0666666666666667
 40
0.1
 40
0.1
 40
0.1
 40
0.1
 40
0.1333333333333333
 40
0.1333333333333333
 40
0.1333333333333333
 40
0.1333333333333333
 40
0.1666666666666667
 40
0.1666666666666667
 40
0.1666666666666667
 40
0.1666666666666667
 40
0.2
 40
0.2
 40
0.2
 40
0.2
 40
0.2333333333333333
 40
0.2333333333333333
 40
0.2333333333333333
 40
0.2333333333333333
 40
0.2666666666666667
 40
0.2666666666666667
 40
0.2666666666666667
 40
0.2666666666666667
 40
0.3
 40
0.3
 40
0.3
 40
0.3
 40
0.3333333333333333
 40
0.3333333333333333
 40
0.3333333333333333
 40
0.3333333333333333
 40
0.3666666666666666
 40
0.3666666666666666
 40
0.3666666666666666
 40
0.3666666666666666
 40
0.4
 40
0.4
 40
0.4
 40
0.4
 40
0.4333333333333333
 40
0.4333333333333333
 40
0.4333333333333333
 40
0.4333333333333333
 40
0.4666666666666666
 40
0.4666666666666666
 40
0.4666666666666666
 40
0.4666666666666666
 40
0.4999999999999999
 40
0.4999999999999999
 40
0.4999999999999999
 40
0.4999999999999999
 40
0.5333333333333333
 40
0.5333333333333333
 40
0.5333333333333333
 40
0.5333333333333333
 40
0.5666666666666667
 40
0.5666666666666667
 40
0.5666666666666667
 40
0.5666666666666667
 40
0.6
 40
0.6
 40
0.6
 40
0.6
 40
0.6333333333333333
 40
0.6333333333333333
 40
0.6333333333333333
 40
0.6333333333333333
 40
0.6666666666666666
 40
0.6666666666666666
 40
0.6666666666666666
 40
0.6666666666666666
 40
0.7
 40
0.7
 40
0.7
 40
0.7
 40
0.7333333333333333
 40
0.7333333333333333
 40
0.7333333333333333
 40
0.7333333333333333
 40
0.7666666666666666
 40
0.7666666666666666
 40
0.7666666666666666
 40
0.7666666666666666
 40
0.7999999999999999
 40
0.7999999999999999
 40
0.7999999999999999
 40
0.7999999999999999
 40
0.8333333333333333
 40
0.8333333333333333
 40
0.8333333333333333
 40
0.8333333333333333
 40
0.8666666666666666
 40
0.8666666666666666
 40
0.8666666666666666
 40
0.8666666666666666
 40
0.8999999999999999
 40
0.8999999999999999
 40
0.8999999999999999
 40
0.8999999999999999
 40
0.9333333333333332
 40
0.9333333333333332
 40
0.9333333333333332
 40
0.9333333333333332
 40
0.9666666666666666
 40
0.9666666666666666
 40
0.9666666666666666
 40
0.9666666666666666
 40
1.0
 40
1.0
 40
1.0
 40
1.0
 10
77.4514
 20
32.2039
 30
0.0
 10
76.1833
 20
28.6624
 30
0.0
 10
74.2215
 20
24.9965
 30
0.0
 10
71.7199
 20
21.792
 30
0.0
 10
71.7199
 20
21.792
 30
0.0
 10
73.947
 20
20.9443
 30
0.0
 10
75.5519
 20
18.7403
 30
0.0
 10
75.5519
 20
16.1621
 30
0.0
 10
75.5519
 20
16.1621
 30
0.0
 10
75.5519
 20
13.6614
 30
0.0
 10
74.0419
 20
11.5131
 30
0.0
 10
71.9188
 20
10.6128
 30
0.0
 10
71.9188
 20
10.6128
 30
0.0
 10
74.3287
 20
7.2215
 30
0.0
 10
76.2227
 20
3.6811
 30
0.0
 10
77.4515
 20
0.1202
 30
0.0
 10
77.4515
 20
0.1202
 30
0.0
 10
84.6462
 20
-20.7293
 30
0.0
 10
75.3053
 20
-37.5639
 30
0.0
 10
53.3959
 20
-41.5449
 30
0.0
 10
53.3959
 20
-41.5449
 30
0.0
 10
49.6949
 20
-42.2174
 30
0.0
 10
45.5393
 20
-42.3514
 30
0.0
 10
41.5134
 20
-41.7871
 30
0.0
 10
41.5134
 20
-41.7871
 30
0.0
 10
41.8927
 20
-44.1398
 30
0.0
 10
40.7865
 20
-46.6316
 30
0.0
 10
38.5537
 20
-47.9207
 30
0.0
 10
38.5537
 20
-47.9207
 30
0.0
 10
36.3881
 20
-49.171
 30
0.0
 10
33.7726
 20
-48.9375
 30
0.0
 10
31.9314
 20
-47.549
 30
0.0
 10
31.9314
 20
-47.549
 30
0.0
 10
30.1995
 20
-51.3317
 30
0.0
 10
28.0801
 20
-54.7421
 30
0.0
 10
25.6107
 20
-57.5867
 30
0.0
 10
25.6107
 20
-57.5867
 30
0.0
 10
11.1519
 20
-74.2425
 30
0.0
 10
-8.0976
 20
-74.5704
 30
0.0
 10
-22.5001
 20
-57.5868
 30
0.0
 10
-22.5001
 20
-57.5868
 30
0.0
 10
-24.933
 20
-54.7179
 30
0.0
 10
-27.1268
 20
-51.1859
 30
0.0
 10
-28.6511
 20
-47.4172
 30
0.0
 10
-28.6511
 20
-47.4172
 30
0.0
 10
-30.4988
 20
-48.9221
 30
0.0
 10
-33.21
 20
-49.2098
 30
0.0
 10
-35.4427
 20
-47.9208
 30
0.0
 10
-35.4427
 20
-47.9208
 30
0.0
 10
-37.6083
 20
-46.6705
 30
0.0
 10
-38.7139
 20
-44.2886
 30
0.0
 10
-38.4321
 20
-41.9999
 30
0.0
 10
-38.4321
 20
-41.9999
 30
0.0
 10
-42.574
 20
-42.3914
 30
0.0
 10
-46.587
 20
-42.2612
 30
0.0
 10
-50.2853
 20
-41.545
 30
0.0
 10
-50.2853
 20
-41.545
 30
0.0
 10
-71.939
 20
-37.3511
 30
0.0
 10
-81.8477
 20
-20.8443
 30
0.0
 10
-74.3408
 20
0.1202
 30
0.0
 10
-74.3408
 20
0.1202
 30
0.0
 10
-73.0726
 20
3.6617
 30
0.0
 10
-71.1109
 20
7.3276
 30
0.0
 10
-68.6091
 20
10.532
 30
0.0
 10
-68.6091
 20
10.532
 30
0.0
 10
-70.8363
 20
11.3799
 30
0.0
 10
-72.4411
 20
13.5839
 30
0.0
 10
-72.441
 20
16.162
 30
0.0
 10
-72.441
 20
16.162
 30
0.0
 10
-72.4411
 20
18.6625
 30
0.0
 10
-70.9312
 20
20.8109
 30
0.0
 10
-68.8082
 20
21.7111
 30
0.0
 10
-68.8082
 20
21.7111
 30
0.0
 10
-71.2181
 20
25.1024
 30
0.0
 10
-73.112
 20
28.6429
 30
0.0
 10
-74.3408
 20
32.2039
 30
0.0
 10
-74.3408
 20
32.2039
 30
0.0
 10
-81.5356
 20
53.0534
 30
0.0
 10
-72.1946
 20
69.888
 30
0.0
 10
-50.2853
 20
73.8691
 30
0.0
 10
-50.2853
 20
73.8691
 30
0.0
 10
-46.5842
 20
74.5416
 30
0.0
 10
-42.4285
 20
74.6755
 30
0.0
 10
-38.4026
 20
74.1112
 30
0.0
 10
-38.4026
 20
74.1112
 30
0.0
 10
-38.782
 20
76.464
 30
0.0
 10
-37.6757
 20
78.9558
 30
0.0
 10
-35.4429
 20
80.2449
 30
0.0
 10
-35.4429
 20
80.2449
 30
0.0
 10
-33.2773
 20
81.4951
 30
0.0
 10
-30.6618
 20
81.2617
 30
0.0
 10
-28.8206
 20
79.8733
 30
0.0
 10
-28.8206
 20
79.8733
 30
0.0
 10
-27.0886
 20
83.656
 30
0.0
 10
-24.9695
 20
87.0662
 30
0.0
 10
-22.5001
 20
89.9109
 30
0.0
 10
-22.5001
 20
89.9109
 30
0.0
 10
-8.0413
 20
106.5667
 30
0.0
 10
11.2083
 20
106.8944
 30
0.0
 10
25.6108
 20
89.9109
 30
0.0
 10
25.6108
 20
89.9109
 30
0.0
 10
28.0437
 20
87.0419
 30
0.0
 10
30.2375
 20
83.5099
 30
0.0
 10
31.7618
 20
79.7412
 30
0.0
 10
31.7618
 20
79.7412
 30
0.0
 10
33.6095
 20
81.2462
 30
0.0
 10
36.3208
 20
81.5341
 30
0.0
 10
38.5535
 20
80.2449
 30
0.0
 10
38.5535
 20
80.2449
 30
0.0
 10
40.7191
 20
78.9946
 30
0.0
 10
41.8246
 20
76.6126
 30
0.0
 10
41.5428
 20
74.3239
 30
0.0
 10
41.5428
 20
74.3239
 30
0.0
 10
45.6845
 20
74.7154
 30
0.0
 10
49.6976
 20
74.5852
 30
0.0
 10
53.3959
 20
73.8691
 30
0.0
 10
53.3959
 20
73.8691
 30
0.0
 10
75.0496
 20
69.6752
 30
0.0
 10
84.9584
 20
53.1684
 30
0.0
 10
77.4514
 20
32.2039
 30
0.0
  0
SPLINE
  5
63
330
1F
100
AcDbEntity
  8
layer 1
 62
   250
370
    20
100
AcDbSpline
210
0.0
220
0.0
230
1.0
 70
    11
 71
     3
 72
   124
 73
   120
 74
     0
 42
0.0000000001
 43
0.0000000001
 40
0.0
 40
0.0
 40
0.0
 40
0.0
 40
0.0333333333333333
 40
0.0333333333333333
 40
0.0333333333333333
 40
0.0333333333333333
 40
0.0666666666666667
 40
0.0666666666666667
 40
0.0666666666666667
 40
0.0666666666666667
 40
0.1
 40
0.1
 40
0.1
 40
0.1
 40
0.1333333333333333
 40
0.1333333333333333
 40
0.1333333333333333
 40
0.1333333333333333
 40
0.1666666666666667
 40
0.1666666666666667
 40
0.1666666666666667
 40
0.1666666666666667
 40
0.2
 40
0.2
 40
0.2
 40
0.2
 40
0.2333333333333333
 40
0.2333333333333333
 40
0.2333333333333333
 40
0.2333333333333333
 40
0.2666666666666667
 40
0.2666666666666667
 40
0.2666666666666667
 40
0.2666666666666667
 40
0.3
 40
0.3
 40
0.3
 40
0.3
 40
0.3333333333333333
 40
0.3333333333333333
 40
0.3333333333333333
 40
0.3333333333333333
 40
0.3666666666666666
 40
0.3666666666666666
 40
0.3666666666666666
 40
0.3666666666666666
 40
0.4
 40
0.4
 40
0.4
 40
0.4
 40
0.4333333333333333
 40
0.4333333333333333
 40
0.4333333333333333
 40
0.4333333333333333
 40
0.4666666666666666
 40
0.4666666666666666
 40
0.4666666666666666
 40
0.4666666666666666
 40
0.4999999999999999
 40
0.4999999999999999
 40
0.4999999999999999
 40
0.4999999999999999
 40
0.5333333333333333
 40
0.5333333333333333
 40
0.5333333333333333
 40
0.5333333333333333
 40
0.5666666666666667
 40
0.5666666666666667
 40
0.5666666666666667
 40
0.5666666666666667
 40
0.6
 40
0.6
 40
0.6
 40
0.6
 40
0.6333333333333333
 40
0.6333333333333333
 40
0.6333333333333333
 40
0.6333333333333333
 40
0.6666666666666666
 40
0.6666666666666666
 40
0.6666666666666666
 40
0.6666666666666666
 40
0.7
 40
0.7
 40
0.7
 40
0.7
 40
0.7333333333333333
 40
0.7333333333333333
 40
0.7333333333333333
 40
0.7333333333333333
 40
0.7666666666666666
 40
0.7666666666666666
 40
0.7666666666666666
 40
0.7666666666666666
 40
0.7999999999999999
 40
0.7999999999999999
 40
0.7999999999999999
 40
0.7999999999999999
 40
0.8333333333333333
 40
0.8333333333333333
 40
0.8333333333333333
 40
0.8333333333333333
 40
0.8666666666666666
 40
0.8666666666666666
 40
0.8666666666666666
 40
0.8666666666666666
 40
0.8999999999999999
 40
0.8999999999999999
 40
0.8999999999999999
 40
0.8999999999999999
 40
0.9333333333333332
 40
0.9333333333333332
 40
0.9333333333333332
 40
0.9333333333333332
 40
0.9666666666666666
 40
0.9666666666666666
 40
0.9666666666666666
 40
0.9666666666666666
 40
1.0
 40
1.0
 40
1.0
 40
1.0
 10
73.4569
 20
31.3596
 30
0.0
 10
72.2602
 20
28.0176
 30
0.0
 10
70.4114
 20
24.5587
 30
0.0
 10
68.0546
 20
21.5316
 30
0.0
 10
68.0546
 20
21.5316
 30
0.0
 10
70.0914
 20
20.6643
 30
0.0
 10
71.5474
 20
18.583
 30
0.0
 10
71.5474
 20
16.1621
 30
0.0
 10
71.5474
 20
16.1621
 30
0.0
 10
71.5474
 20
13.8141
 30
0.0
 10
70.1776
 20
11.7858
 30
0.0
 10
68.2367
 20
10.8747
 30
0.0
 10
68.2367
 20
10.8747
 30
0.0
 10
70.5097
 20
7.6711
 30
0.0
 10
72.2965
 20
4.3275
 30
0.0
 10
73.4569
 20
0.9645
 30
0.0
 10
73.4569
 20
0.9645
 30
0.0
 10
80.273
 20
-18.7877
 30
0.0
 10
71.4237
 20
-34.7362
 30
0.0
 10
50.6675
 20
-38.5077
 30
0.0
 10
50.6675
 20
-38.5077
 30
0.0
 10
47.175
 20
-39.1423
 30
0.0
 10
43.2551
 20
-39.2706
 30
0.0
 10
39.4552
 20
-38.7431
 30
0.0
 10
39.4552
 20
-38.7431
 30
0.0
 10
39.7224
 20
-40.9407
 30
0.0
 10
38.648
 20
-43.2423
 30
0.0
 10
36.5514
 20
-44.4527
 30
0.0
 10
36.5514
 20
-44.4527
 30
0.0
 10
34.5181
 20
-45.6267
 30
0.0
 10
32.0766
 20
-45.4546
 30
0.0
 10
30.3172
 20
-44.2292
 30
0.0
 10
30.3172
 20
-44.2292
 30
0.0
 10
28.6793
 20
-47.7995
 30
0.0
 10
26.6768
 20
-51.0187
 30
0.0
 10
24.3446
 20
-53.7052
 30
0.0
 10
24.3446
 20
-53.7052
 30
0.0
 10
10.6468
 20
-69.4844
 30
0.0
 10
-7.5896
 20
-69.795
 30
0.0
 10
-21.234
 20
-53.7053
 30
0.0
 10
-21.234
 20
-53.7053
 30
0.0
 10
-23.5299
 20
-50.998
 30
0.0
 10
-25.6009
 20
-47.6674
 30
0.0
 10
-27.044
 20
-44.1128
 30
0.0
 10
-27.044
 20
-44.1128
 30
0.0
 10
-28.8135
 20
-45.443
 30
0.0
 10
-31.344
 20
-45.6632
 30
0.0
 10
-33.4405
 20
-44.4528
 30
0.0
 10
-33.4405
 20
-44.4528
 30
0.0
 10
-35.4738
 20
-43.2788
 30
0.0
 10
-36.5456
 20
-41.0784
 30
0.0
 10
-36.3642
 20
-38.9421
 30
0.0
 10
-36.3642
 20
-38.9421
 30
0.0
 10
-40.2751
 20
-39.3088
 30
0.0
 10
-44.0641
 20
-39.1842
 30
0.0
 10
-47.5569
 20
-38.5078
 30
0.0
 10
-47.5569
 20
-38.5078
 30
0.0
 10
-68.0709
 20
-34.5346
 30
0.0
 10
-77.4581
 20
-18.8966
 30
0.0
 10
-70.3463
 20
0.9645
 30
0.0
 10
-70.3463
 20
0.9645
 30
0.0
 10
-69.1495
 20
4.3065
 30
0.0
 10
-67.3008
 20
7.7654
 30
0.0
 10
-64.9439
 20
10.7924
 30
0.0
 10
-64.9439
 20
10.7924
 30
0.0
 10
-66.9807
 20
11.6599
 30
0.0
 10
-68.4366
 20
13.7412
 30
0.0
 10
-68.4365
 20
16.162
 30
0.0
 10
-68.4365
 20
16.162
 30
0.0
 10
-68.4366
 20
18.5098
 30
0.0
 10
-67.0669
 20
20.5382
 30
0.0
 10
-65.1261
 20
21.4492
 30
0.0
 10
-65.1261
 20
21.4492
 30
0.0
 10
-67.3991
 20
24.6528
 30
0.0
 10
-69.1858
 20
27.9965
 30
0.0
 10
-70.3463
 20
31.3596
 30
0.0
 10
-70.3463
 20
31.3596
 30
0.0
 10
-77.1624
 20
51.1117
 30
0.0
 10
-68.313
 20
67.0603
 30
0.0
 10
-47.5569
 20
70.8319
 30
0.0
 10
-47.5569
 20
70.8319
 30
0.0
 10
-44.0643
 20
71.4665
 30
0.0
 10
-40.1444
 20
71.5948
 30
0.0
 10
-36.3444
 20
71.0672
 30
0.0
 10
-36.3444
 20
71.0672
 30
0.0
 10
-36.6118
 20
73.2649
 30
0.0
 10
-35.5372
 20
75.5665
 30
0.0
 10
-33.4406
 20
76.7769
 30
0.0
 10
-33.4406
 20
76.7769
 30
0.0
 10
-31.4073
 20
77.9508
 30
0.0
 10
-28.9658
 20
77.7788
 30
0.0
 10
-27.2064
 20
76.5535
 30
0.0
 10
-27.2064
 20
76.5535
 30
0.0
 10
-25.5685
 20
80.1238
 30
0.0
 10
-23.5661
 20
83.3428
 30
0.0
 10
-21.234
 20
86.0294
 30
0.0
 10
-21.234
 20
86.0294
 30
0.0
 10
-7.5362
 20
101.8086
 30
0.0
 10
10.7002
 20
102.119
 30
0.0
 10
24.3447
 20
86.0294
 30
0.0
 10
24.3447
 20
86.0294
 30
0.0
 10
26.6405
 20
83.322
 30
0.0
 10
28.7116
 20
79.9914
 30
0.0
 10
30.1547
 20
76.4368
 30
0.0
 10
30.1547
 20
76.4368
 30
0.0
 10
31.9242
 20
77.7671
 30
0.0
 10
34.4548
 20
77.9874
 30
0.0
 10
36.5512
 20
76.7769
 30
0.0
 10
36.5512
 20
76.7769
 30
0.0
 10
38.5846
 20
75.6029
 30
0.0
 10
39.6563
 20
73.4024
 30
0.0
 10
39.4749
 20
71.2661
 30
0.0
 10
39.4749
 20
71.2661
 30
0.0
 10
43.3856
 20
71.6328
 30
0.0
 10
47.1747
 20
71.5082
 30
0.0
 10
50.6674
 20
70.8319
 30
0.0
 10
50.6674
 20
70.8319
 30
0.0
 10
71.1815
 20
66.8587
 30
0.0
 10
80.5688
 20
51.2207
 30
0.0
 10
73.4569
 20
31.3596
 30
0.0
  0
SPLINE
  5
64
330
1F
100
AcDbEntity
  8
layer 1
 62
   250
370
    20
100
AcDbSpline
210
0.0
220
0.0
230
1.0
 70
    11
 71
     3
 72
   124
 73
   120
 74
     0
 42
0.0000000001
 43
0.0000000001
 40
0.0
 40
0.0
 40
0.0
 40
0.0
 40
0.0333333333333333
 40
0.0333333333333333
 40
0.0333333333333333
 40
0.0333333333333333
 40
0.0666666666666667
 40
0.0666666666666667
 40
0.0666666666666667
 40
0.0666666666666667
 40
0.1
 40
0.1
 40
0.1
 40
0.1
 40
0.1333333333333333
 40
0.1333333333333333
 40
0.1333333333333333
 40
0.1333333333333333
 40
0.1666666666666667
 40
0.1666666666666667
 40
0.1666666666666667
 40
0.1666666666666667
 40
0.2
 40
0.2
 40
0.2
 40
0.2
 40
0.2333333333333333
 40
0.2333333333333333
 40
0.2333333333333333
 40
0.2333333333333333
 40
0.2666666666666667
 40
0.2666666666666667
 40
0.2666666666666667
 40
0.2666666666666667
 40
0.3
 40
0.3
 40
0.3
 40
0.3
 40
0.3333333333333333
 40
0.3333333333333333
 40
0.3333333333333333
 40
0.3333333333333333
 40
0.3666666666666666
 40
0.3666666666666666
 40
0.3666666666666666
 40
0.3666666666666666
 40
0.4
 40
0.4
 40
0.4
 40
0.4
 40
0.4333333333333333
 40
0.4333333333333333
 40
0.4333333333333333
 40
0.4333333333333333
 40
0.4666666666666666
 40
0.4666666666666666
 40
0.4666666666666666
 40
0.4666666666666666
 40
0.4999999999999999
 40
0.4999999999999999
 40
0.4999999999999999
 40
0.4999999999999999
 40
0.5333333333333333
 40
0.5333333333333333
 40
0.5333333333333333
 40
0.5333333333333333
 40
0.5666666666666667
 40
0.5666666666666667
 40
0.5666666666666667
 40
0.5666666666666667
 40
0.6
 40
0.6
 40
0.6
 40
0.6
 40
0.6333333333333333
 40
0.6333333333333333
 40
0.6333333333333333
 40
0.6333333333333333
 40
0.6666666666666666
 40
0.6666666666666666
 40
0.6666666666666666
 40
0.6666666666666666
 40
0.7
 40
0.7
 40
0.7
 40
0.7
 40
0.7333333333333333
 40
0.7333333333333333
 40
0.7333333333333333
 40
0.7333333333333333
 40
0.7666666666666666
 40
0.7666666666666666
 40
0.7666666666666666
 40
0.7666666666666666
 40
0.7999999999999999
 40
0.7999999999999999
 40
0.7999999999999999
 40
0.7999999999999999
 40
0.8333333333333333
 40
0.8333333333333333
 40
0.8333333333333333
 40
0.8333333333333333
 40
0.8666666666666666
 40
0.8666666666666666
 40
0.8666666666666666
 40
0.8666666666666666
 40
0.8999999999999999
 40
0.8999999999999999
 40
0.8999999999999999
 40
0.8999999999999999
 40
0.9333333333333332
 40
0.9333333333333332
 40
0.9333333333333332
 40
0.9333333333333332
 40
0.9666666666666666
 40
0.9666666666666666
 40
0.9666666666666666
 40
0.9666666666666666
 40
1.0
 40
1.0
 40
1.0
 40
1.0
 10
69.4623
 20
30.5153
 30
0.0
 10
68.3371
 20
27.3728
 30
0.0
 10
66.6013
 20
24.1209
 30
0.0
 10
64.3893
 20
21.2712
 30
0.0
 10
64.3893
 20
21.2712
 30
0.0
 10
66.2358
 20
20.3843
 30
0.0
 10
67.5429
 20
18.4256
 30
0.0
 10
67.5429
 20
16.1621
 30
0.0
 10
67.5429
 20
16.1621
 30
0.0
 10
67.5429
 20
13.9668
 30
0.0
 10
66.3133
 20
12.0585
 30
0.0
 10
64.5546
 20
11.1367
 30
0.0
 10
64.5546
 20
11.1367
 30
0.0
 10
66.6906
 20
8.1207
 30
0.0
 10
68.3702
 20
4.9738
 30
0.0
 10
69.4624
 20
1.8088
 30
0.0
 10
69.4624
 20
1.8088
 30
0.0
 10
75.8998
 20
-16.846
 30
0.0
 10
67.5421
 20
-31.9085
 30
0.0
 10
47.939
 20
-35.4705
 30
0.0
 10
47.939
 20
-35.4705
 30
0.0
 10
44.655
 20
-36.0672
 30
0.0
 10
40.9709
 20
-36.1899
 30
0.0
 10
37.397
 20
-35.6991
 30
0.0
 10
37.397
 20
-35.6991
 30
0.0
 10
37.5521
 20
-37.7416
 30
0.0
 10
36.5094
 20
-39.853
 30
0.0
 10
34.5491
 20
-40.9847
 30
0.0
 10
34.5491
 20
-40.9847
 30
0.0
 10
32.648
 20
-42.0823
 30
0.0
 10
30.3806
 20
-41.9716
 30
0.0
 10
28.703
 20
-40.9095
 30
0.0
 10
28.703
 20
-40.9095
 30
0.0
 10
27.1591
 20
-44.2673
 30
0.0
 10
25.2734
 20
-47.2953
 30
0.0
 10
23.0785
 20
-49.8237
 30
0.0
 10
23.0785
 20
-49.8237
 30
0.0
 10
10.1417
 20
-64.7262
 30
0.0
 10
-7.0815
 20
-65.0196
 30
0.0
 10
-19.9679
 20
-49.8238
 30
0.0
 10
-19.9679
 20
-49.8238
 30
0.0
 10
-22.1267
 20
-47.2781
 30
0.0
 10
-24.075
 20
-44.1488
 30
0.0
 10
-25.4369
 20
-40.8083
 30
0.0
 10
-25.4369
 20
-40.8083
 30
0.0
 10
-27.1282
 20
-41.964
 30
0.0
 10
-29.4781
 20
-42.1165
 30
0.0
 10
-31.4383
 20
-40.9848
 30
0.0
 10
-31.4383
 20
-40.9848
 30
0.0
 10
-33.3394
 20
-39.8872
 30
0.0
 10
-34.3773
 20
-37.8681
 30
0.0
 10
-34.2963
 20
-35.8842
 30
0.0
 10
-34.2963
 20
-35.8842
 30
0.0
 10
-37.9762
 20
-36.2262
 30
0.0
 10
-41.5413
 20
-36.1072
 30
0.0
 10
-44.8284
 20
-35.4706
 30
0.0
 10
-44.8284
 20
-35.4706
 30
0.0
 10
-64.2028
 20
-31.7181
 30
0.0
 10
-73.0684
 20
-16.9489
 30
0.0
 10
-66.3518
 20
1.8088
 30
0.0
 10
-66.3518
 20
1.8088
 30
0.0
 10
-65.2265
 20
4.9512
 30
0.0
 10
-63.4907
 20
8.2031
 30
0.0
 10
-61.2786
 20
11.0528
 30
0.0
 10
-61.2786
 20
11.0528
 30
0.0
 10
-63.1251
 20
11.9399
 30
0.0
 10
-64.4321
 20
13.8985
 30
0.0
 10
-64.4321
 20
16.162
 30
0.0
 10
-64.4321
 20
16.162
 30
0.0
 10
-64.4321
 20
18.3571
 30
0.0
 10
-63.2026
 20
20.2655
 30
0.0
 10
-61.444
 20
21.1873
 30
0.0
 10
-61.444
 20
21.1873
 30
0.0
 10
-63.58
 20
24.2032
 30
0.0
 10
-65.2595
 20
27.3502
 30
0.0
 10
-66.3517
 20
30.5153
 30
0.0
 10
-66.3517
 20
30.5153
 30
0.0
 10
-72.7892
 20
49.1701
 30
0.0
 10
-64.4314
 20
64.2326
 30
0.0
 10
-44.8284
 20
67.7947
 30
0.0
 10
-44.8284
 20
67.7947
 30
0.0
 10
-41.5444
 20
68.3914
 30
0.0
 10
-37.8602
 20
68.514
 30
0.0
 10
-34.2863
 20
68.0232
 30
0.0
 10
-34.2863
 20
68.0232
 30
0.0
 10
-34.4415
 20
70.0658
 30
0.0
 10
-33.3987
 20
72.1772
 30
0.0
 10
-31.4384
 20
73.3089
 30
0.0
 10
-31.4384
 20
73.3089
 30
0.0
 10
-29.5373
 20
74.4065
 30
0.0
 10
-27.2698
 20
74.2958
 30
0.0
 10
-25.5922
 20
73.2337
 30
0.0
 10
-25.5922
 20
73.2337
 30
0.0
 10
-24.0483
 20
76.5916
 30
0.0
 10
-22.1628
 20
79.6194
 30
0.0
 10
-19.9679
 20
82.1479
 30
0.0
 10
-19.9679
 20
82.1479
 30
0.0
 10
-7.0311
 20
97.0504
 30
0.0
 10
10.1922
 20
97.3436
 30
0.0
 10
23.0786
 20
82.1479
 30
0.0
 10
23.0786
 20
82.1479
 30
0.0
 10
25.2374
 20
79.6022
 30
0.0
 10
27.1857
 20
76.4729
 30
0.0
 10
28.5476
 20
73.1324
 30
0.0
 10
28.5476
 20
73.1324
 30
0.0
 10
30.2388
 20
74.2881
 30
0.0
 10
32.5888
 20
74.4408
 30
0.0
 10
34.549
 20
73.3089
 30
0.0
 10
34.549
 20
73.3089
 30
0.0
 10
36.4501
 20
72.2113
 30
0.0
 10
37.488
 20
70.1921
 30
0.0
 10
37.407
 20
68.2083
 30
0.0
 10
37.407
 20
68.2083
 30
0.0
 10
41.0867
 20
68.5502
 30
0.0
 10
44.6518
 20
68.4312
 30
0.0
 10
47.939
 20
67.7947
 30
0.0
 10
47.939
 20
67.7947
 30
0.0
 10
67.3134
 20
64.0422
 30
0.0
 10
76.1791
 20
49.273
 30
0.0
 10
69.4623
 20
30.5153
 30
0.0
  0
SPLINE
  5
65
330
1F
100
AcDbEntity
  8
layer 1
 62
   250
370
    20
100
AcDbSpline
210
0.0
220
0.0
230
1.0
 70
    11
 71
     3
 72
   124
 73
   120
 74
     0
 42
0.0000000001
 43
0.0000000001
 40
0.0
 40
0.0
 40
0.0
 40
0.0
 40
0.0333333333333333
 40
0.0333333333333333
 40
0.0333333333333333
 40
0.0333333333333333
 40
0.0666666666666667
 40
0.0666666666666667
 40
0.0666666666666667
 40
0.0666666666666667
 40
0.1
 40
0.1
 40
0.1
 40
0.1
 40
0.1333333333333333
 40
0.1333333333333333
 40
0.1333333333333333
 40
0.1333333333333333
 40
0.1666666666666667
 40
0.1666666666666667
 40
0.1666666666666667
 40
0.1666666666666667
 40
0.2
 40
0.2
 40
0.2
 40
0.2
 40
0.2333333333333333
 40
0.2333333333333333
 40
0.2333333333333333
 40
0.2333333333333333
 40
0.2666666666666667
 40
0.2666666666666667
 40
0.2666666666666667
 40
0.2666666666666667
 40
0.3
 40
0.3
 40
0.3
 40
0.3
 40
0.3333333333333333
 40
0.3333333333333333
 40
0.3333333333333333
 40
0.3333333333333333
 40
0.3666666666666666
 40
0.3666666666666666
 40
0.3666666666666666
 40
0.3666666666666666
 40
0.4
 40
0.4
 40
0.4
 40
0.4
 40
0.4333333333333333
 40
0.4333333333333333
 40
0.4333333333333333
 40
0.4333333333333333
 40
0.4666666666666666
 40
0.4666666666666666
 40
0.4666666666666666
 40
0.4666666666666666
 40
0.4999999999999999
 40
0.4999999999999999
 40
0.4999999999999999
 40
0.4999999999999999
 40
0.5333333333333333
 40
0.5333333333333333
 40
0.5333333333333333
 40
0.5333333333333333
 40
0.5666666666666667
 40
0.5666666666666667
 40
0.5666666666666667
 40
0.5666666666666667
 40
0.6
 40
0.6
 40
0.6
 40
0.6
 40
0.6333333333333333
 40
0.6333333333333333
 40
0.6333333333333333
 40
0.6333333333333333
 40
0.6666666666666666
 40
0.6666666666666666
 40
0.6666666666666666
 40
0.6666666666666666
 40
0.7
 40
0.7
 40
0.7
 40
0.7
 40
0.7333333333333333
 40
0.7333333333333333
 40
0.7333333333333333
 40
0.7333333333333333
 40
0.7666666666666666
 40
0.7666666666666666
 40
0.7666666666666666
 40
0.7666666666666666
 40
0.7999999999999999
 40
0.7999999999999999
 40
0.7999999999999999
 40
0.7999999999999999
 40
0.8333333333333333
 40
0.8333333333333333
 40
0.8333333333333333
 40
0.8333333333333333
 40
0.8666666666666666
 40
0.8666666666666666
 40
0.8666666666666666
 40
0.8666666666666666
 40
0.8999999999999999
 40
0.8999999999999999
 40
0.8999999999999999
 40
0.8999999999999999
 40
0.9333333333333332
 40
0.9333333333333332
 40
0.9333333333333332
 40
0.9333333333333332
 40
0.9666666666666666
 40
0.9666666666666666
 40
0.9666666666666666
 40
0.9666666666666666
 40
1.0
 40
1.0
 40
1.0
 40
1.0
 10
65.4678
 20
29.6708
 30
0.0
 10
64.4141
 20
26.728
 30
0.0
 10
62.7912
 20
23.6831
 30
0.0
 10
60.724
 20
21.0106
 30
0.0
 10
60.724
 20
21.0106
 30
0.0
 10
62.3802
 20
20.1042
 30
0.0
 10
63.5383
 20
18.2682
 30
0.0
 10
63.5383
 20
16.1619
 30
0.0
 10
63.5383
 20
16.1619
 30
0.0
 10
63.5383
 20
14.1194
 30
0.0
 10
62.4489
 20
12.331
 30
0.0
 10
60.8725
 20
11.3985
 30
0.0
 10
60.8725
 20
11.3985
 30
0.0
 10
62.8716
 20
8.5703
 30
0.0
 10
64.444
 20
5.6201
 30
0.0
 10
65.4678
 20
2.653
 30
0.0
 10
65.4678
 20
2.653
 30
0.0
 10
71.5266
 20
-14.9045
 30
0.0
 10
63.6606
 20
-29.0809
 30
0.0
 10
45.2106
 20
-32.4334
 30
0.0
 10
45.2106
 20
-32.4334
 30
0.0
 10
42.1351
 20
-32.9922
 30
0.0
 10
38.6866
 20
-33.1092
 30
0.0
 10
35.3388
 20
-32.6552
 30
0.0
 10
35.3388
 20
-32.6552
 30
0.0
 10
35.3819
 20
-34.5427
 30
0.0
 10
34.3709
 20
-36.4638
 30
0.0
 10
32.5469
 20
-37.5169
 30
0.0
 10
32.5469
 20
-37.5169
 30
0.0
 10
30.778
 20
-38.5381
 30
0.0
 10
28.6845
 20
-38.4888
 30
0.0
 10
27.0887
 20
-37.5898
 30
0.0
 10
27.0887
 20
-37.5898
 30
0.0
 10
25.639
 20
-40.7353
 30
0.0
 10
23.8701
 20
-43.572
 30
0.0
 10
21.8125
 20
-45.9423
 30
0.0
 10
21.8125
 20
-45.9423
 30
0.0
 10
9.6366
 20
-59.9682
 30
0.0
 10
-6.5735
 20
-60.2443
 30
0.0
 10
-18.7018
 20
-45.9424
 30
0.0
 10
-18.7018
 20
-45.9424
 30
0.0
 10
-20.7236
 20
-43.5584
 30
0.0
 10
-22.549
 20
-40.6304
 30
0.0
 10
-23.8298
 20
-37.504
 30
0.0
 10
-23.8298
 20
-37.504
 30
0.0
 10
-25.4429
 20
-38.485
 30
0.0
 10
-27.6121
 20
-38.57
 30
0.0
 10
-29.4361
 20
-37.5169
 30
0.0
 10
-29.4361
 20
-37.5169
 30
0.0
 10
-31.2049
 20
-36.4956
 30
0.0
 10
-32.2091
 20
-34.658
 30
0.0
 10
-32.2284
 20
-32.8265
 30
0.0
 10
-32.2284
 20
-32.8265
 30
0.0
 10
-35.6773
 20
-33.1437
 30
0.0
 10
-39.0184
 20
-33.0302
 30
0.0
 10
-42.1
 20
-32.4334
 30
0.0
 10
-42.1
 20
-32.4334
 30
0.0
 10
-60.3347
 20
-28.9018
 30
0.0
 10
-68.6788
 20
-15.0013
 30
0.0
 10
-62.3572
 20
2.6531
 30
0.0
 10
-62.3572
 20
2.6531
 30
0.0
 10
-61.3034
 20
5.5959
 30
0.0
 10
-59.6807
 20
8.6408
 30
0.0
 10
-57.6134
 20
11.3132
 30
0.0
 10
-57.6134
 20
11.3132
 30
0.0
 10
-59.2695
 20
12.2197
 30
0.0
 10
-60.4277
 20
14.0558
 30
0.0
 10
-60.4276
 20
16.1619
 30
0.0
 10
-60.4276
 20
16.1619
 30
0.0
 10
-60.4277
 20
18.2044
 30
0.0
 10
-59.3382
 20
19.9928
 30
0.0
 10
-57.7618
 20
20.9252
 30
0.0
 10
-57.7618
 20
20.9252
 30
0.0
 10
-59.761
 20
23.7535
 30
0.0
 10
-61.3333
 20
26.7037
 30
0.0
 10
-62.3572
 20
29.6708
 30
0.0
 10
-62.3572
 20
29.6708
 30
0.0
 10
-68.4159
 20
47.2283
 30
0.0
 10
-60.5499
 20
61.4049
 30
0.0
 10
-42.1
 20
64.7573
 30
0.0
 10
-42.1
 20
64.7573
 30
0.0
 10
-39.0245
 20
65.3162
 30
0.0
 10
-35.5761
 20
65.4332
 30
0.0
 10
-32.2281
 20
64.9791
 30
0.0
 10
-32.2281
 20
64.9791
 30
0.0
 10
-32.2713
 20
66.8666
 30
0.0
 10
-31.2602
 20
68.7877
 30
0.0
 10
-29.4361
 20
69.8408
 30
0.0
 10
-29.4361
 20
69.8408
 30
0.0
 10
-27.6672
 20
70.862
 30
0.0
 10
-25.5737
 20
70.8128
 30
0.0
 10
-23.978
 20
69.9139
 30
0.0
 10
-23.978
 20
69.9139
 30
0.0
 10
-22.5282
 20
73.0593
 30
0.0
 10
-20.7594
 20
75.896
 30
0.0
 10
-18.7019
 20
78.2662
 30
0.0
 10
-18.7019
 20
78.2662
 30
0.0
 10
-6.526
 20
92.2922
 30
0.0
 10
9.6841
 20
92.5682
 30
0.0
 10
21.8125
 20
78.2663
 30
0.0
 10
21.8125
 20
78.2663
 30
0.0
 10
23.8342
 20
75.8822
 30
0.0
 10
25.6597
 20
72.9543
 30
0.0
 10
26.9404
 20
69.8278
 30
0.0
 10
26.9404
 20
69.8278
 30
0.0
 10
28.5535
 20
70.8089
 30
0.0
 10
30.7228
 20
70.894
 30
0.0
 10
32.5467
 20
69.8408
 30
0.0
 10
32.5467
 20
69.8408
 30
0.0
 10
34.3157
 20
68.8195
 30
0.0
 10
35.3197
 20
66.9818
 30
0.0
 10
35.339
 20
65.1503
 30
0.0
 10
35.339
 20
65.1503
 30
0.0
 10
38.7879
 20
65.4676
 30
0.0
 10
42.129
 20
65.3541
 30
0.0
 10
45.2105
 20
64.7573
 30
0.0
 10
45.2105
 20
64.7573
 30
0.0
 10
63.4452
 20
61.2257
 30
0.0
 10
71.7895
 20
47.3252
 30
0.0
 10
65.4678
 20
29.6708
 30
0.0
  0
SPLINE
  5
66
330
1F
100
AcDbEntity
  8
layer 1
 62
   250
370
    20
100
AcDbSpline
210
0.0
220
0.0
230
1.0
 70
    11
 71
     3
 72
   124
 73
   120
 74
     0
 42
0.0000000001
 43
0.0000000001
 40
0.0
 40
0.0
 40
0.0
 40
0.0
 40
0.0333333333333333
 40
0.0333333333333333
 40
0.0333333333333333
 40
0.0333333333333333
 40
0.0666666666666667
 40
0.0666666666666667
 40
0.0666666666666667
 40
0.0666666666666667
 40
0.1
 40
0.1
 40
0.1
 40
0.1
 40
0.1333333333333333
 40
0.1333333333333333
 40
0.1333333333333333
 40
0.1333333333333333
 40
0.1666666666666667
 40
0.1666666666666667
 40
0.1666666666666667
 40
0.1666666666666667
 40
0.2
 40
0.2
 40
0.2
 40
0.2
 40
0.2333333333333333
 40
0.2333333333333333
 40
0.2333333333333333
 40
0.2333333333333333
 40
0.2666666666666667
 40
0.2666666666666667
 40
0.2666666666666667
 40
0.2666666666666667
 40
0.3
 40
0.3
 40
0.3
 40
0.3
 40
0.3333333333333333
 40
0.3333333333333333
 40
0.3333333333333333
 40
0.3333333333333333
 40
0.3666666666666666
 40
0.3666666666666666
 40
0.3666666666666666
 40
0.3666666666666666
 40
0.4
 40
0.4
 40
0.4
 40
0.4
 40
0.4333333333333333
 40
0.4333333333333333
 40
0.4333333333333333
 40
0.4333333333333333
 40
0.4666666666666666
 40
0.4666666666666666
 40
0.4666666666666666
 40
0.4666666666666666
 40
0.4999999999999999
 40
0.4999999999999999
 40
0.4999999999999999
 40
0.4999999999999999
 40
0.5333333333333333
 40
0.5333333333333333
 40
0.5333333333333333
 40
0.5333333333333333
 40
0.5666666666666667
 40
0.5666666666666667
 40
0.5666666666666667
 40
0.5666666666666667
 40
0.6
 40
0.6
 40
0.6
 40
0.6
 40
0.6333333333333333
 40
0.6333333333333333
 40
0.6333333333333333
 40
0.6333333333333333
 40
0.6666666666666666
 40
0.6666666666666666
 40
0.6666666666666666
 40
0.6666666666666666
 40
0.7
 40
0.7
 40
0.7
 40
0.7
 40
0.7333333333333333
 40
0.7333333333333333
 40
0.7333333333333333
 40
0.7333333333333333
 40
0.7666666666666666
 40
0.7666666666666666
 40
0.7666666666666666
 40
0.7666666666666666
 40
0.7999999999999999
 40
0.7999999999999999
 40
0.7999999999999999
 40
0.7999999999999999
 40
0.8333333333333333
 40
0.8333333333333333
 40
0.8333333333333333
 40
0.8333333333333333
 40
0.8666666666666666
 40
0.8666666666666666
 40
0.8666666666666666
 40
0.8666666666666666
 40
0.8999999999999999
 40
0.8999999999999999
 40
0.8999999999999999
 40
0.8999999999999999
 40
0.9333333333333332
 40
0.9333333333333332
 40
0.9333333333333332
 40
0.9333333333333332
 40
0.9666666666666666
 40
0.9666666666666666
 40
0.9666666666666666
 40
0.9666666666666666
 40
1.0
 40
1.0
 40
1.0
 40
1.0
 10
61.4732
 20
28.8265
 30
0.0
 10
60.491
 20
26.0832
 30
0.0
 10
58.9811
 20
23.2453
 30
0.0
 10
57.0587
 20
20.7502
 30
0.0
 10
57.0587
 20
20.7502
 30
0.0
 10
58.5246
 20
19.8242
 30
0.0
 10
59.5338
 20
18.1108
 30
0.0
 10
59.5338
 20
16.1619
 30
0.0
 10
59.5338
 20
16.1619
 30
0.0
 10
59.5338
 20
14.2721
 30
0.0
 10
58.5846
 20
12.6037
 30
0.0
 10
57.1904
 20
11.6605
 30
0.0
 10
57.1904
 20
11.6605
 30
0.0
 10
59.0525
 20
9.0199
 30
0.0
 10
60.5177
 20
6.2664
 30
0.0
 10
61.4733
 20
3.4973
 30
0.0
 10
61.4733
 20
3.4973
 30
0.0
 10
67.1534
 20
-12.9628
 30
0.0
 10
59.779
 20
-26.2532
 30
0.0
 10
42.4821
 20
-29.3962
 30
0.0
 10
42.4821
 20
-29.3962
 30
0.0
 10
39.6151
 20
-29.9171
 30
0.0
 10
36.4024
 20
-30.0285
 30
0.0
 10
33.2806
 20
-29.6112
 30
0.0
 10
33.2806
 20
-29.6112
 30
0.0
 10
33.2116
 20
-31.3436
 30
0.0
 10
32.2323
 20
-33.0745
 30
0.0
 10
30.5446
 20
-34.0489
 30
0.0
 10
30.5446
 20
-34.0489
 30
0.0
 10
28.9079
 20
-34.9937
 30
0.0
 10
26.9885
 20
-35.0058
 30
0.0
 10
25.4745
 20
-34.2701
 30
0.0
 10
25.4745
 20
-34.2701
 30
0.0
 10
24.1188
 20
-37.2031
 30
0.0
 10
22.4667
 20
-39.8486
 30
0.0
 10
20.5464
 20
-42.0608
 30
0.0
 10
20.5464
 20
-42.0608
 30
0.0
 10
9.1315
 20
-55.21
 30
0.0
 10
-6.0654
 20
-55.4689
 30
0.0
 10
-17.4357
 20
-42.0609
 30
0.0
 10
-17.4357
 20
-42.0609
 30
0.0
 10
-19.3204
 20
-39.8385
 30
0.0
 10
-21.0231
 20
-37.1118
 30
0.0
 10
-22.2227
 20
-34.1995
 30
0.0
 10
-22.2227
 20
-34.1995
 30
0.0
 10
-23.7576
 20
-35.006
 30
0.0
 10
-25.7462
 20
-35.0233
 30
0.0
 10
-27.4339
 20
-34.0489
 30
0.0
 10
-27.4339
 20
-34.0489
 30
0.0
 10
-29.0705
 20
-33.104
 30
0.0
 10
-30.0408
 20
-31.4477
 30
0.0
 10
-30.1605
 20
-29.7686
 30
0.0
 10
-30.1605
 20
-29.7686
 30
0.0
 10
-33.3784
 20
-30.0611
 30
0.0
 10
-36.4956
 20
-29.9532
 30
0.0
 10
-39.3715
 20
-29.3962
 30
0.0
 10
-39.3715
 20
-29.3962
 30
0.0
 10
-56.4666
 20
-26.0853
 30
0.0
 10
-64.2891
 20
-13.0536
 30
0.0
 10
-58.3627
 20
3.4974
 30
0.0
 10
-58.3627
 20
3.4974
 30
0.0
 10
-57.3804
 20
6.2406
 30
0.0
 10
-55.8706
 20
9.0785
 30
0.0
 10
-53.9481
 20
11.5736
 30
0.0
 10
-53.9481
 20
11.5736
 30
0.0
 10
-55.4139
 20
12.4997
 30
0.0
 10
-56.4232
 20
14.2131
 30
0.0
 10
-56.4232
 20
16.1619
 30
0.0
 10
-56.4232
 20
16.1619
 30
0.0
 10
-56.4232
 20
18.0517
 30
0.0
 10
-55.4739
 20
19.7201
 30
0.0
 10
-54.0797
 20
20.6633
 30
0.0
 10
-54.0797
 20
20.6633
 30
0.0
 10
-55.9419
 20
23.3039
 30
0.0
 10
-57.407
 20
26.0574
 30
0.0
 10
-58.3626
 20
28.8265
 30
0.0
 10
-58.3626
 20
28.8265
 30
0.0
 10
-64.0427
 20
45.2867
 30
0.0
 10
-56.6683
 20
58.5772
 30
0.0
 10
-39.3715
 20
61.7201
 30
0.0
 10
-39.3715
 20
61.7201
 30
0.0
 10
-36.5046
 20
62.2411
 30
0.0
 10
-33.2919
 20
62.3524
 30
0.0
 10
-30.17
 20
61.9351
 30
0.0
 10
-30.17
 20
61.9351
 30
0.0
 10
-30.101
 20
63.6675
 30
0.0
 10
-29.1217
 20
65.3984
 30
0.0
 10
-27.4339
 20
66.3728
 30
0.0
 10
-27.4339
 20
66.3728
 30
0.0
 10
-25.7972
 20
67.3177
 30
0.0
 10
-23.8777
 20
67.3298
 30
0.0
 10
-22.3638
 20
66.5941
 30
0.0
 10
-22.3638
 20
66.5941
 30
0.0
 10
-21.008
 20
69.5271
 30
0.0
 10
-19.3561
 20
72.1726
 30
0.0
 10
-17.4358
 20
74.3847
 30
0.0
 10
-17.4358
 20
74.3847
 30
0.0
 10
-6.0209
 20
87.534
 30
0.0
 10
9.1761
 20
87.7928
 30
0.0
 10
20.5464
 20
74.3848
 30
0.0
 10
20.5464
 20
74.3848
 30
0.0
 10
22.4311
 20
72.1624
 30
0.0
 10
24.1338
 20
69.4358
 30
0.0
 10
25.3333
 20
66.5234
 30
0.0
 10
25.3333
 20
66.5234
 30
0.0
 10
26.8681
 20
67.3299
 30
0.0
 10
28.8568
 20
67.3474
 30
0.0
 10
30.5445
 20
66.3728
 30
0.0
 10
30.5445
 20
66.3728
 30
0.0
 10
32.1812
 20
65.4279
 30
0.0
 10
33.1514
 20
63.7715
 30
0.0
 10
33.2711
 20
62.0925
 30
0.0
 10
33.2711
 20
62.0925
 30
0.0
 10
36.489
 20
62.385
 30
0.0
 10
39.6061
 20
62.2771
 30
0.0
 10
42.4821
 20
61.7201
 30
0.0
 10
42.4821
 20
61.7201
 30
0.0
 10
59.5771
 20
58.4092
 30
0.0
 10
67.3998
 20
45.3775
 30
0.0
 10
61.4732
 20
28.8265
 30
0.0
  0
SPLINE
  5
67
330
1F
100
AcDbEntity
  8
layer 1
 62
   250
370
    20
100
AcDbSpline
210
0.0
220
0.0
230
1.0
 70
    11
 71
     3
 72
   124
 73
   120
 74
     0
 42
0.0000000001
 43
0.0000000001
 40
0.0
 40
0.0
 40
0.0
 40
0.0
 40
0.0333333333333333
 40
0.0333333333333333
 40
0.0333333333333333
 40
0.0333333333333333
 40
0.0666666666666667
 40
0.0666666666666667
 40
0.0666666666666667
 40
0.0666666666666667
 40
0.1
 40
0.1
 40
0.1
 40
0.1
 40
0.1333333333333333
 40
0.1333333333333333
 40
0.1333333333333333
 40
0.1333333333333333
 40
0.1666666666666667
 40
0.1666666666666667
 40
0.1666666666666667
 40
0.1666666666666667
 40
0.2
 40
0.2
 40
0.2
 40
0.2
 40
0.2333333333333333
 40
0.2333333333333333
 40
0.2333333333333333
 40
0.2333333333333333
 40
0.2666666666666667
 40
0.2666666666666667
 40
0.2666666666666667
 40
0.2666666666666667
 40
0.3
 40
0.3
 40
0.3
 40
0.3
 40
0.3333333333333333
 40
0.3333333333333333
 40
0.3333333333333333
 40
0.3333333333333333
 40
0.3666666666666666
 40
0.3666666666666666
 40
0.3666666666666666
 40
0.3666666666666666
 40
0.4
 40
0.4
 40
0.4
 40
0.4
 40
0.4333333333333333
 40
0.4333333333333333
 40
0.4333333333333333
 40
0.4333333333333333
 40
0.4666666666666666
 40
0.4666666666666666
 40
0.4666666666666666
 40
0.4666666666666666
 40
0.4999999999999999
 40
0.4999999999999999
 40
0.4999999999999999
 40
0.4999999999999999
 40
0.5333333333333333
 40
0.5333333333333333
 40
0.5333333333333333
 40
0.5333333333333333
 40
0.5666666666666667
 40
0.5666666666666667
 40
0.5666666666666667
 40
0.5666666666666667
 40
0.6
 40
0.6
 40
0.6
 40
0.6
 40
0.6333333333333333
 40
0.6333333333333333
 40
0.6333333333333333
 40
0.6333333333333333
 40
0.6666666666666666
 40
0.6666666666666666
 40
0.6666666666666666
 40
0.6666666666666666
 40
0.7
 40
0.7
 40
0.7
 40
0.7
 40
0.7333333333333333
 40
0.7333333333333333
 40
0.7333333333333333
 40
0.7333333333333333
 40
0.7666666666666666
 40
0.7666666666666666
 40
0.7666666666666666
 40
0.7666666666666666
 40
0.7999999999999999
 40
0.7999999999999999
 40
0.7999999999999999
 40
0.7999999999999999
 40
0.8333333333333333
 40
0.8333333333333333
 40
0.8333333333333333
 40
0.8333333333333333
 40
0.8666666666666666
 40
0.8666666666666666
 40
0.8666666666666666
 40
0.8666666666666666
 40
0.8999999999999999
 40
0.8999999999999999
 40
0.8999999999999999
 40
0.8999999999999999
 40
0.9333333333333332
 40
0.9333333333333332
 40
0.9333333333333332
 40
0.9333333333333332
 40
0.9666666666666666
 40
0.9666666666666666
 40
0.9666666666666666
 40
0.9666666666666666
 40
1.0
 40
1.0
 40
1.0
 40
1.0
 10
57.4787
 20
27.9822
 30
0.0
 10
56.5679
 20
25.4384
 30
0.0
 10
55.171
 20
22.8075
 30
0.0
 10
53.3934
 20
20.4898
 30
0.0
 10
53.3934
 20
20.4898
 30
0.0
 10
54.669
 20
19.5442
 30
0.0
 10
55.5293
 20
17.9535
 30
0.0
 10
55.5293
 20
16.1619
 30
0.0
 10
55.5293
 20
16.1619
 30
0.0
 10
55.5293
 20
14.4248
 30
0.0
 10
54.7203
 20
12.8764
 30
0.0
 10
53.5083
 20
11.9224
 30
0.0
 10
53.5083
 20
11.9224
 30
0.0
 10
55.2335
 20
9.4695
 30
0.0
 10
56.5915
 20
6.9128
 30
0.0
 10
57.4787
 20
4.3416
 30
0.0
 10
57.4787
 20
4.3416
 30
0.0
 10
62.7802
 20
-11.0212
 30
0.0
 10
55.8974
 20
-23.4255
 30
0.0
 10
39.7537
 20
-26.359
 30
0.0
 10
39.7537
 20
-26.359
 30
0.0
 10
37.0952
 20
-26.842
 30
0.0
 10
34.1182
 20
-26.9477
 30
0.0
 10
31.2224
 20
-26.5672
 30
0.0
 10
31.2224
 20
-26.5672
 30
0.0
 10
31.0413
 20
-28.1445
 30
0.0
 10
30.0938
 20
-29.6852
 30
0.0
 10
28.5423
 20
-30.5809
 30
0.0
 10
28.5423
 20
-30.5809
 30
0.0
 10
27.0379
 20
-31.4494
 30
0.0
 10
25.2925
 20
-31.5229
 30
0.0
 10
23.8603
 20
-30.9503
 30
0.0
 10
23.8603
 20
-30.9503
 30
0.0
 10
22.5986
 20
-33.6709
 30
0.0
 10
21.0634
 20
-36.1252
 30
0.0
 10
19.2803
 20
-38.1793
 30
0.0
 10
19.2803
 20
-38.1793
 30
0.0
 10
8.6264
 20
-50.4519
 30
0.0
 10
-5.5574
 20
-50.6935
 30
0.0
 10
-16.1696
 20
-38.1794
 30
0.0
 10
-16.1696
 20
-38.1794
 30
0.0
 10
-17.9173
 20
-36.1186
 30
0.0
 10
-19.4972
 20
-33.5933
 30
0.0
 10
-20.6156
 20
-30.8951
 30
0.0
 10
-20.6156
 20
-30.8951
 30
0.0
 10
-22.0723
 20
-31.5269
 30
0.0
 10
-23.8802
 20
-31.4767
 30
0.0
 10
-25.4317
 20
-30.5809
 30
0.0
 10
-25.4317
 20
-30.5809
 30
0.0
 10
-26.936
 20
-29.7123
 30
0.0
 10
-27.8725
 20
-28.2375
 30
0.0
 10
-28.0926
 20
-26.7108
 30
0.0
 10
-28.0926
 20
-26.7108
 30
0.0
 10
-31.0795
 20
-26.9785
 30
0.0
 10
-33.9727
 20
-26.8762
 30
0.0
 10
-36.6431
 20
-26.359
 30
0.0
 10
-36.6431
 20
-26.359
 30
0.0
 10
-52.5985
 20
-23.2688
 30
0.0
 10
-59.8995
 20
-11.1059
 30
0.0
 10
-54.3682
 20
4.3417
 30
0.0
 10
-54.3682
 20
4.3417
 30
0.0
 10
-53.4573
 20
6.8854
 30
0.0
 10
-52.0605
 20
9.5163
 30
0.0
 10
-50.2829
 20
11.834
 30
0.0
 10
-50.2829
 20
11.834
 30
0.0
 10
-51.5583
 20
12.7797
 30
0.0
 10
-52.4187
 20
14.3704
 30
0.0
 10
-52.4187
 20
16.1619
 30
0.0
 10
-52.4187
 20
16.1619
 30
0.0
 10
-52.4187
 20
17.899
 30
0.0
 10
-51.6096
 20
19.4474
 30
0.0
 10
-50.3976
 20
20.4014
 30
0.0
 10
-50.3976
 20
20.4014
 30
0.0
 10
-52.1229
 20
22.8543
 30
0.0
 10
-53.4808
 20
25.411
 30
0.0
 10
-54.3681
 20
27.9822
 30
0.0
 10
-54.3681
 20
27.9822
 30
0.0
 10
-59.6695
 20
43.345
 30
0.0
 10
-52.7867
 20
55.7495
 30
0.0
 10
-36.6431
 20
58.6829
 30
0.0
 10
-36.6431
 20
58.6829
 30
0.0
 10
-33.9847
 20
59.166
 30
0.0
 10
-31.0078
 20
59.2717
 30
0.0
 10
-28.1118
 20
58.8911
 30
0.0
 10
-28.1118
 20
58.8911
 30
0.0
 10
-27.9308
 20
60.4684
 30
0.0
 10
-26.9832
 20
62.0091
 30
0.0
 10
-25.4316
 20
62.9048
 30
0.0
 10
-25.4316
 20
62.9048
 30
0.0
 10
-23.9272
 20
63.7734
 30
0.0
 10
-22.1817
 20
63.8469
 30
0.0
 10
-20.7496
 20
63.2743
 30
0.0
 10
-20.7496
 20
63.2743
 30
0.0
 10
-19.4879
 20
65.9949
 30
0.0
 10
-17.9527
 20
68.4492
 30
0.0
 10
-16.1697
 20
70.5032
 30
0.0
 10
-16.1697
 20
70.5032
 30
0.0
 10
-5.5158
 20
82.7759
 30
0.0
 10
8.668
 20
83.0174
 30
0.0
 10
19.2803
 20
70.5033
 30
0.0
 10
19.2803
 20
70.5033
 30
0.0
 10
21.0279
 20
68.4425
 30
0.0
 10
22.6079
 20
65.9173
 30
0.0
 10
23.7262
 20
63.219
 30
0.0
 10
23.7262
 20
63.219
 30
0.0
 10
25.1828
 20
63.8508
 30
0.0
 10
26.9908
 20
63.8007
 30
0.0
 10
28.5422
 20
62.9048
 30
0.0
 10
28.5422
 20
62.9048
 30
0.0
 10
30.0467
 20
62.0362
 30
0.0
 10
30.9831
 20
60.5613
 30
0.0
 10
31.2032
 20
59.0347
 30
0.0
 10
31.2032
 20
59.0347
 30
0.0
 10
34.1901
 20
59.3024
 30
0.0
 10
37.0832
 20
59.2001
 30
0.0
 10
39.7536
 20
58.6829
 30
0.0
 10
39.7536
 20
58.6829
 30
0.0
 10
55.709
 20
55.5927
 30
0.0
 10
63.0102
 20
43.4298
 30
0.0
 10
57.4787
 20
27.9822
 30
0.0
  0
SPLINE
  5
68
330
1F
100
AcDbEntity
  8
layer 1
 62
   250
370
    20
100
AcDbSpline
210
0.0
220
0.0
230
1.0
 70
    11
 71
     3
 72
   124
 73
   120
 74
     0
 42
0.0000000001
 43
0.0000000001
 40
0.0
 40
0.0
 40
0.0
 40
0.0
 40
0.0333333333333333
 40
0.0333333333333333
 40
0.0333333333333333
 40
0.0333333333333333
 40
0.0666666666666667
 40
0.0666666666666667
 40
0.0666666666666667
 40
0.0666666666666667
 40
0.1
 40
0.1
 40
0.1
 40
0.1
 40
0.1333333333333333
 40
0.1333333333333333
 40
0.1333333333333333
 40
0.1333333333333333
 40
0.1666666666666667
 40
0.1666666666666667
 40
0.1666666666666667
 40
0.1666666666666667
 40
0.2
 40
0.2
 40
0.2
 40
0.2
 40
0.2333333333333333
 40
0.2333333333333333
 40
0.2333333333333333
 40
0.2333333333333333
 40
0.2666666666666667
 40
0.2666666666666667
 40
0.2666666666666667
 40
0.2666666666666667
 40
0.3
 40
0.3
 40
0.3
 40
0.3
 40
0.3333333333333333
 40
0.3333333333333333
 40
0.3333333333333333
 40
0.3333333333333333
 40
0.3666666666666666
 40
0.3666666666666666
 40
0.3666666666666666
 40
0.3666666666666666
 40
0.4
 40
0.4
 40
0.4
 40
0.4
 40
0.4333333333333333
 40
0.4333333333333333
 40
0.4333333333333333
 40
0.4333333333333333
 40
0.4666666666666666
 40
0.4666666666666666
 40
0.4666666666666666
 40
0.4666666666666666
 40
0.4999999999999999
 40
0.4999999999999999
 40
0.4999999999999999
 40
0.4999999999999999
 40
0.5333333333333333
 40
0.5333333333333333
 40
0.5333333333333333
 40
0.5333333333333333
 40
0.5666666666666667
 40
0.5666666666666667
 40
0.5666666666666667
 40
0.5666666666666667
 40
0.6
 40
0.6
 40
0.6
 40
0.6
 40
0.6333333333333333
 40
0.6333333333333333
 40
0.6333333333333333
 40
0.6333333333333333
 40
0.6666666666666666
 40
0.6666666666666666
 40
0.6666666666666666
 40
0.6666666666666666
 40
0.7
 40
0.7
 40
0.7
 40
0.7
 40
0.7333333333333333
 40
0.7333333333333333
 40
0.7333333333333333
 40
0.7333333333333333
 40
0.7666666666666666
 40
0.7666666666666666
 40
0.7666666666666666
 40
0.7666666666666666
 40
0.7999999999999999
 40
0.7999999999999999
 40
0.7999999999999999
 40
0.7999999999999999
 40
0.8333333333333333
 40
0.8333333333333333
 40
0.8333333333333333
 40
0.8333333333333333
 40
0.8666666666666666
 40
0.8666666666666666
 40
0.8666666666666666
 40
0.8666666666666666
 40
0.8999999999999999
 40
0.8999999999999999
 40
0.8999999999999999
 40
0.8999999999999999
 40
0.9333333333333332
 40
0.9333333333333332
 40
0.9333333333333332
 40
0.9333333333333332
 40
0.9666666666666666
 40
0.9666666666666666
 40
0.9666666666666666
 40
0.9666666666666666
 40
1.0
 40
1.0
 40
1.0
 40
1.0
 10
53.4842
 20
27.1379
 30
0.0
 10
52.6448
 20
24.7936
 30
0.0
 10
51.3609
 20
22.3697
 30
0.0
 10
49.7282
 20
20.2294
 30
0.0
 10
49.7282
 20
20.2294
 30
0.0
 10
50.8133
 20
19.2643
 30
0.0
 10
51.5248
 20
17.7962
 30
0.0
 10
51.5248
 20
16.1619
 30
0.0
 10
51.5248
 20
16.1619
 30
0.0
 10
51.5248
 20
14.5775
 30
0.0
 10
50.856
 20
13.1491
 30
0.0
 10
49.8261
 20
12.1843
 30
0.0
 10
49.8261
 20
12.1843
 30
0.0
 10
51.4144
 20
9.9191
 30
0.0
 10
52.6653
 20
7.5592
 30
0.0
 10
53.4842
 20
5.1859
 30
0.0
 10
53.4842
 20
5.1859
 30
0.0
 10
58.4069
 20
-9.0795
 30
0.0
 10
52.0158
 20
-20.5979
 30
0.0
 10
37.0252
 20
-23.3217
 30
0.0
 10
37.0252
 20
-23.3217
 30
0.0
 10
34.5753
 20
-23.7669
 30
0.0
 10
31.834
 20
-23.867
 30
0.0
 10
29.1642
 20
-23.5231
 30
0.0
 10
29.1642
 20
-23.5231
 30
0.0
 10
28.871
 20
-24.9454
 30
0.0
 10
27.9553
 20
-26.2958
 30
0.0
 10
26.54
 20
-27.1129
 30
0.0
 10
26.54
 20
-27.1129
 30
0.0
 10
25.1679
 20
-27.9051
 30
0.0
 10
23.5965
 20
-28.04
 30
0.0
 10
22.2461
 20
-27.6305
 30
0.0
 10
22.2461
 20
-27.6305
 30
0.0
 10
21.0784
 20
-30.1387
 30
0.0
 10
19.66
 20
-32.4019
 30
0.0
 10
18.0142
 20
-34.2977
 30
0.0
 10
18.0142
 20
-34.2977
 30
0.0
 10
8.1214
 20
-45.6938
 30
0.0
 10
-5.0494
 20
-45.9181
 30
0.0
 10
-14.9036
 20
-34.2978
 30
0.0
 10
-14.9036
 20
-34.2978
 30
0.0
 10
-16.5141
 20
-32.3987
 30
0.0
 10
-17.9713
 20
-30.0748
 30
0.0
 10
-19.0085
 20
-27.5907
 30
0.0
 10
-19.0085
 20
-27.5907
 30
0.0
 10
-20.3869
 20
-28.0479
 30
0.0
 10
-22.0142
 20
-27.93
 30
0.0
 10
-23.4295
 20
-27.1129
 30
0.0
 10
-23.4295
 20
-27.1129
 30
0.0
 10
-24.8016
 20
-26.3207
 30
0.0
 10
-25.7042
 20
-25.0272
 30
0.0
 10
-26.0248
 20
-23.6529
 30
0.0
 10
-26.0248
 20
-23.6529
 30
0.0
 10
-28.7807
 20
-23.8959
 30
0.0
 10
-31.4498
 20
-23.7992
 30
0.0
 10
-33.9146
 20
-23.3218
 30
0.0
 10
-33.9146
 20
-23.3218
 30
0.0
 10
-48.7303
 20
-20.4523
 30
0.0
 10
-55.5099
 20
-9.1582
 30
0.0
 10
-50.3737
 20
5.186
 30
0.0
 10
-50.3737
 20
5.186
 30
0.0
 10
-49.5342
 20
7.5302
 30
0.0
 10
-48.2504
 20
9.9541
 30
0.0
 10
-46.6176
 20
12.0944
 30
0.0
 10
-46.6176
 20
12.0944
 30
0.0
 10
-47.7028
 20
13.0597
 30
0.0
 10
-48.4142
 20
14.5277
 30
0.0
 10
-48.4142
 20
16.162
 30
0.0
 10
-48.4142
 20
16.162
 30
0.0
 10
-48.4142
 20
17.7463
 30
0.0
 10
-47.7453
 20
19.1747
 30
0.0
 10
-46.7155
 20
20.1395
 30
0.0
 10
-46.7155
 20
20.1395
 30
0.0
 10
-48.3038
 20
22.4047
 30
0.0
 10
-49.5546
 20
24.7647
 30
0.0
 10
-50.3736
 20
27.1379
 30
0.0
 10
-50.3736
 20
27.1379
 30
0.0
 10
-55.2963
 20
41.4034
 30
0.0
 10
-48.9051
 20
52.9218
 30
0.0
 10
-33.9146
 20
55.6457
 30
0.0
 10
-33.9146
 20
55.6457
 30
0.0
 10
-31.4647
 20
56.0909
 30
0.0
 10
-28.7236
 20
56.191
 30
0.0
 10
-26.0537
 20
55.847
 30
0.0
 10
-26.0537
 20
55.847
 30
0.0
 10
-25.7605
 20
57.2694
 30
0.0
 10
-24.8447
 20
58.6198
 30
0.0
 10
-23.4294
 20
59.4369
 30
0.0
 10
-23.4294
 20
59.4369
 30
0.0
 10
-22.0572
 20
60.2291
 30
0.0
 10
-20.4857
 20
60.364
 30
0.0
 10
-19.1353
 20
59.9545
 30
0.0
 10
-19.1353
 20
59.9545
 30
0.0
 10
-17.9677
 20
62.4627
 30
0.0
 10
-16.5494
 20
64.7258
 30
0.0
 10
-14.9036
 20
66.6217
 30
0.0
 10
-14.9036
 20
66.6217
 30
0.0
 10
-5.0108
 20
78.0178
 30
0.0
 10
8.1599
 20
78.242
 30
0.0
 10
18.0143
 20
66.6217
 30
0.0
 10
18.0143
 20
66.6217
 30
0.0
 10
19.6247
 20
64.7226
 30
0.0
 10
21.082
 20
62.3987
 30
0.0
 10
22.1191
 20
59.9146
 30
0.0
 10
22.1191
 20
59.9146
 30
0.0
 10
23.4975
 20
60.3718
 30
0.0
 10
25.1248
 20
60.254
 30
0.0
 10
26.54
 20
59.4368
 30
0.0
 10
26.54
 20
59.4368
 30
0.0
 10
27.9122
 20
58.6446
 30
0.0
 10
28.8147
 20
57.3511
 30
0.0
 10
29.1353
 20
55.9769
 30
0.0
 10
29.1353
 20
55.9769
 30
0.0
 10
31.8912
 20
56.2198
 30
0.0
 10
34.5603
 20
56.123
 30
0.0
 10
37.0251
 20
55.6457
 30
0.0
 10
37.0251
 20
55.6457
 30
0.0
 10
51.8409
 20
52.7762
 30
0.0
 10
58.6206
 20
41.4821
 30
0.0
 10
53.4842
 20
27.1379
 30
0.0
  0
SPLINE
  5
69
330
1F
100
AcDbEntity
  8
layer 1
 62
   250
370
    20
100
AcDbSpline
210
0.0
220
0.0
230
1.0
 70
    11
 71
     3
 72
   124
 73
   120
 74
     0
 42
0.0000000001
 43
0.0000000001
 40
0.0
 40
0.0
 40
0.0
 40
0.0
 40
0.0333333333333333
 40
0.0333333333333333
 40
0.0333333333333333
 40
0.0333333333333333
 40
0.0666666666666667
 40
0.0666666666666667
 40
0.0666666666666667
 40
0.0666666666666667
 40
0.1
 40
0.1
 40
0.1
 40
0.1
 40
0.1333333333333333
 40
0.1333333333333333
 40
0.1333333333333333
 40
0.1333333333333333
 40
0.1666666666666667
 40
0.1666666666666667
 40
0.1666666666666667
 40
0.1666666666666667
 40
0.2
 40
0.2
 40
0.2
 40
0.2
 40
0.2333333333333333
 40
0.2333333333333333
 40
0.2333333333333333
 40
0.2333333333333333
 40
0.2666666666666667
 40
0.2666666666666667
 40
0.2666666666666667
 40
0.2666666666666667
 40
0.3
 40
0.3
 40
0.3
 40
0.3
 40
0.3333333333333333
 40
0.3333333333333333
 40
0.3333333333333333
 40
0.3333333333333333
 40
0.3666666666666666
 40
0.3666666666666666
 40
0.3666666666666666
 40
0.3666666666666666
 40
0.4
 40
0.4
 40
0.4
 40
0.4
 40
0.4333333333333333
 40
0.4333333333333333
 40
0.4333333333333333
 40
0.4333333333333333
 40
0.4666666666666666
 40
0.4666666666666666
 40
0.4666666666666666
 40
0.4666666666666666
 40
0.4999999999999999
 40
0.4999999999999999
 40
0.4999999999999999
 40
0.4999999999999999
 40
0.5333333333333333
 40
0.5333333333333333
 40
0.5333333333333333
 40
0.5333333333333333
 40
0.5666666666666667
 40
0.5666666666666667
 40
0.5666666666666667
 40
0.5666666666666667
 40
0.6
 40
0.6
 40
0.6
 40
0.6
 40
0.6333333333333333
 40
0.6333333333333333
 40
0.6333333333333333
 40
0.6333333333333333
 40
0.6666666666666666
 40
0.6666666666666666
 40
0.6666666666666666
 40
0.6666666666666666
 40
0.7
 40
0.7
 40
0.7
 40
0.7
 40
0.7333333333333333
 40
0.7333333333333333
 40
0.7333333333333333
 40
0.7333333333333333
 40
0.7666666666666666
 40
0.7666666666666666
 40
0.7666666666666666
 40
0.7666666666666666
 40
0.7999999999999999
 40
0.7999999999999999
 40
0.7999999999999999
 40
0.7999999999999999
 40
0.8333333333333333
 40
0.8333333333333333
 40
0.8333333333333333
 40
0.8333333333333333
 40
0.8666666666666666
 40
0.8666666666666666
 40
0.8666666666666666
 40
0.8666666666666666
 40
0.8999999999999999
 40
0.8999999999999999
 40
0.8999999999999999
 40
0.8999999999999999
 40
0.9333333333333332
 40
0.9333333333333332
 40
0.9333333333333332
 40
0.9333333333333332
 40
0.9666666666666666
 40
0.9666666666666666
 40
0.9666666666666666
 40
0.9666666666666666
 40
1.0
 40
1.0
 40
1.0
 40
1.0
 10
49.4896
 20
26.2936
 30
0.0
 10
48.7217
 20
24.1489
 30
0.0
 10
47.5508
 20
21.932
 30
0.0
 10
46.0629
 20
19.969
 30
0.0
 10
46.0629
 20
19.969
 30
0.0
 10
46.9577
 20
18.9843
 30
0.0
 10
47.5203
 20
17.6388
 30
0.0
 10
47.5203
 20
16.1619
 30
0.0
 10
47.5203
 20
16.1619
 30
0.0
 10
47.5203
 20
14.7302
 30
0.0
 10
46.9916
 20
13.4218
 30
0.0
 10
46.144
 20
12.4463
 30
0.0
 10
46.144
 20
12.4463
 30
0.0
 10
47.5954
 20
10.3687
 30
0.0
 10
48.739
 20
8.2055
 30
0.0
 10
49.4896
 20
6.0302
 30
0.0
 10
49.4896
 20
6.0302
 30
0.0
 10
54.0337
 20
-7.1379
 30
0.0
 10
48.1342
 20
-17.7702
 30
0.0
 10
34.2968
 20
-20.2845
 30
0.0
 10
34.2968
 20
-20.2845
 30
0.0
 10
32.0553
 20
-20.6918
 30
0.0
 10
29.5498
 20
-20.7862
 30
0.0
 10
27.106
 20
-20.4791
 30
0.0
 10
27.106
 20
-20.4791
 30
0.0
 10
26.7007
 20
-21.7464
 30
0.0
 10
25.8167
 20
-22.9065
 30
0.0
 10
24.5377
 20
-23.645
 30
0.0
 10
24.5377
 20
-23.645
 30
0.0
 10
23.2978
 20
-24.3607
 30
0.0
 10
21.9004
 20
-24.557
 30
0.0
 10
20.6318
 20
-24.3108
 30
0.0
 10
20.6318
 20
-24.3108
 30
0.0
 10
19.5583
 20
-26.6065
 30
0.0
 10
18.2567
 20
-28.6785
 30
0.0
 10
16.7482
 20
-30.4162
 30
0.0
 10
16.7482
 20
-30.4162
 30
0.0
 10
7.6163
 20
-40.9356
 30
0.0
 10
-4.5413
 20
-41.1427
 30
0.0
 10
-13.6375
 20
-30.4163
 30
0.0
 10
-13.6375
 20
-30.4163
 30
0.0
 10
-15.111
 20
-28.6789
 30
0.0
 10
-16.4454
 20
-26.5562
 30
0.0
 10
-17.4014
 20
-24.2862
 30
0.0
 10
-17.4014
 20
-24.2862
 30
0.0
 10
-18.7016
 20
-24.5688
 30
0.0
 10
-20.1483
 20
-24.3834
 30
0.0
 10
-21.4273
 20
-23.6449
 30
0.0
 10
-21.4273
 20
-23.6449
 30
0.0
 10
-22.6671
 20
-22.929
 30
0.0
 10
-23.5359
 20
-21.817
 30
0.0
 10
-23.9569
 20
-20.5951
 30
0.0
 10
-23.9569
 20
-20.5951
 30
0.0
 10
-26.4818
 20
-20.8133
 30
0.0
 10
-28.927
 20
-20.7221
 30
0.0
 10
-31.1862
 20
-20.2846
 30
0.0
 10
-31.1862
 20
-20.2846
 30
0.0
 10
-44.8622
 20
-17.6358
 30
0.0
 10
-51.1202
 20
-7.2105
 30
0.0
 10
-46.3791
 20
6.0303
 30
0.0
 10
-46.3791
 20
6.0303
 30
0.0
 10
-45.6112
 20
8.1749
 30
0.0
 10
-44.4404
 20
10.3918
 30
0.0
 10
-42.9524
 20
12.3548
 30
0.0
 10
-42.9524
 20
12.3548
 30
0.0
 10
-43.8472
 20
13.3396
 30
0.0
 10
-44.4098
 20
14.6851
 30
0.0
 10
-44.4098
 20
16.162
 30
0.0
 10
-44.4098
 20
16.162
 30
0.0
 10
-44.4098
 20
17.5937
 30
0.0
 10
-43.881
 20
18.9021
 30
0.0
 10
-43.0334
 20
19.8775
 30
0.0
 10
-43.0334
 20
19.8775
 30
0.0
 10
-44.4848
 20
21.9551
 30
0.0
 10
-45.6283
 20
24.1183
 30
0.0
 10
-46.379
 20
26.2936
 30
0.0
 10
-46.379
 20
26.2936
 30
0.0
 10
-50.9231
 20
39.4617
 30
0.0
 10
-45.0236
 20
50.0941
 30
0.0
 10
-31.1862
 20
52.6085
 30
0.0
 10
-31.1862
 20
52.6085
 30
0.0
 10
-28.9448
 20
53.0158
 30
0.0
 10
-26.4395
 20
53.1102
 30
0.0
 10
-23.9955
 20
52.803
 30
0.0
 10
-23.9955
 20
52.803
 30
0.0
 10
-23.5903
 20
54.0703
 30
0.0
 10
-22.7062
 20
55.2304
 30
0.0
 10
-21.4271
 20
55.9689
 30
0.0
 10
-21.4271
 20
55.9689
 30
0.0
 10
-20.1872
 20
56.6847
 30
0.0
 10
-18.7897
 20
56.881
 30
0.0
 10
-17.5211
 20
56.6347
 30
0.0
 10
-17.5211
 20
56.6347
 30
0.0
 10
-16.4476
 20
58.9305
 30
0.0
 10
-15.146
 20
61.0024
 30
0.0
 10
-13.6376
 20
62.7401
 30
0.0
 10
-13.6376
 20
62.7401
 30
0.0
 10
-4.5057
 20
73.2596
 30
0.0
 10
7.6519
 20
73.4666
 30
0.0
 10
16.7482
 20
62.7402
 30
0.0
 10
16.7482
 20
62.7402
 30
0.0
 10
18.2216
 20
61.0028
 30
0.0
 10
19.556
 20
58.8802
 30
0.0
 10
20.512
 20
56.6101
 30
0.0
 10
20.512
 20
56.6101
 30
0.0
 10
21.8121
 20
56.8927
 30
0.0
 10
23.2588
 20
56.7074
 30
0.0
 10
24.5377
 20
55.9688
 30
0.0
 10
24.5377
 20
55.9688
 30
0.0
 10
25.7777
 20
55.2529
 30
0.0
 10
26.6464
 20
54.1408
 30
0.0
 10
27.0674
 20
52.919
 30
0.0
 10
27.0674
 20
52.919
 30
0.0
 10
29.5923
 20
53.1373
 30
0.0
 10
32.0375
 20
53.046
 30
0.0
 10
34.2967
 20
52.6085
 30
0.0
 10
34.2967
 20
52.6085
 30
0.0
 10
47.9727
 20
49.9597
 30
0.0
 10
54.2309
 20
39.5344
 30
0.0
 10
49.4896
 20
26.2936
 30
0.0
  0
SPLINE
  5
6A
330
1F
100
AcDbEntity
  8
layer 1
 62
   250
370
    20
100
AcDbSpline
210
0.0
220
0.0
230
1.0
 70
    11
 71
     3
 72
   124
 73
   120
 74
     0
 42
0.0000000001
 43
0.0000000001
 40
0.0
 40
0.0
 40
0.0
 40
0.0
 40
0.0333333333333333
 40
0.0333333333333333
 40
0.0333333333333333
 40
0.0333333333333333
 40
0.0666666666666667
 40
0.0666666666666667
 40
0.0666666666666667
 40
0.0666666666666667
 40
0.1
 40
0.1
 40
0.1
 40
0.1
 40
0.1333333333333333
 40
0.1333333333333333
 40
0.1333333333333333
 40
0.1333333333333333
 40
0.1666666666666667
 40
0.1666666666666667
 40
0.1666666666666667
 40
0.1666666666666667
 40
0.2
 40
0.2
 40
0.2
 40
0.2
 40
0.2333333333333333
 40
0.2333333333333333
 40
0.2333333333333333
 40
0.2333333333333333
 40
0.2666666666666667
 40
0.2666666666666667
 40
0.2666666666666667
 40
0.2666666666666667
 40
0.3
 40
0.3
 40
0.3
 40
0.3
 40
0.3333333333333333
 40
0.3333333333333333
 40
0.3333333333333333
 40
0.3333333333333333
 40
0.3666666666666666
 40
0.3666666666666666
 40
0.3666666666666666
 40
0.3666666666666666
 40
0.4
 40
0.4
 40
0.4
 40
0.4
 40
0.4333333333333333
 40
0.4333333333333333
 40
0.4333333333333333
 40
0.4333333333333333
 40
0.4666666666666666
 40
0.4666666666666666
 40
0.4666666666666666
 40
0.4666666666666666
 40
0.4999999999999999
 40
0.4999999999999999
 40
0.4999999999999999
 40
0.4999999999999999
 40
0.5333333333333333
 40
0.5333333333333333
 40
0.5333333333333333
 40
0.5333333333333333
 40
0.5666666666666667
 40
0.5666666666666667
 40
0.5666666666666667
 40
0.5666666666666667
 40
0.6
 40
0.6
 40
0.6
 40
0.6
 40
0.6333333333333333
 40
0.6333333333333333
 40
0.6333333333333333
 40
0.6333333333333333
 40
0.6666666666666666
 40
0.6666666666666666
 40
0.6666666666666666
 40
0.6666666666666666
 40
0.7
 40
0.7
 40
0.7
 40
0.7
 40
0.7333333333333333
 40
0.7333333333333333
 40
0.7333333333333333
 40
0.7333333333333333
 40
0.7666666666666666
 40
0.7666666666666666
 40
0.7666666666666666
 40
0.7666666666666666
 40
0.7999999999999999
 40
0.7999999999999999
 40
0.7999999999999999
 40
0.7999999999999999
 40
0.8333333333333333
 40
0.8333333333333333
 40
0.8333333333333333
 40
0.8333333333333333
 40
0.8666666666666666
 40
0.8666666666666666
 40
0.8666666666666666
 40
0.8666666666666666
 40
0.8999999999999999
 40
0.8999999999999999
 40
0.8999999999999999
 40
0.8999999999999999
 40
0.9333333333333332
 40
0.9333333333333332
 40
0.9333333333333332
 40
0.9333333333333332
 40
0.9666666666666666
 40
0.9666666666666666
 40
0.9666666666666666
 40
0.9666666666666666
 40
1.0
 40
1.0
 40
1.0
 40
1.0
 10
45.4951
 20
25.4493
 30
0.0
 10
44.7986
 20
23.5041
 30
0.0
 10
43.7407
 20
21.4942
 30
0.0
 10
42.3976
 20
19.7086
 30
0.0
 10
42.3976
 20
19.7086
 30
0.0
 10
43.1021
 20
18.7043
 30
0.0
 10
43.5158
 20
17.4815
 30
0.0
 10
43.5158
 20
16.1619
 30
0.0
 10
43.5158
 20
16.1619
 30
0.0
 10
43.5158
 20
14.8829
 30
0.0
 10
43.1273
 20
13.6945
 30
0.0
 10
42.4619
 20
12.7082
 30
0.0
 10
42.4619
 20
12.7082
 30
0.0
 10
43.7763
 20
10.8183
 30
0.0
 10
44.8128
 20
8.8519
 30
0.0
 10
45.4951
 20
6.8745
 30
0.0
 10
45.4951
 20
6.8745
 30
0.0
 10
49.6605
 20
-5.1963
 30
0.0
 10
44.2526
 20
-14.9426
 30
0.0
 10
31.5683
 20
-17.2474
 30
0.0
 10
31.5683
 20
-17.2474
 30
0.0
 10
29.5354
 20
-17.6168
 30
0.0
 10
27.2656
 20
-17.7056
 30
0.0
 10
25.0478
 20
-17.4352
 30
0.0
 10
25.0478
 20
-17.4352
 30
0.0
 10
24.5304
 20
-18.5474
 30
0.0
 10
23.6782
 20
-19.5173
 30
0.0
 10
22.5354
 20
-20.1771
 30
0.0
 10
22.5354
 20
-20.1771
 30
0.0
 10
21.4278
 20
-20.8165
 30
0.0
 10
20.2044
 20
-21.0742
 30
0.0
 10
19.0176
 20
-20.9911
 30
0.0
 10
19.0176
 20
-20.9911
 30
0.0
 10
18.0381
 20
-23.0744
 30
0.0
 10
16.8533
 20
-24.9552
 30
0.0
 10
15.4821
 20
-26.5348
 30
0.0
 10
15.4821
 20
-26.5348
 30
0.0
 10
7.1112
 20
-36.1776
 30
0.0
 10
-4.0334
 20
-36.3674
 30
0.0
 10
-12.3715
 20
-26.5349
 30
0.0
 10
-12.3715
 20
-26.5349
 30
0.0
 10
-13.7079
 20
-24.9591
 30
0.0
 10
-14.9196
 20
-23.0378
 30
0.0
 10
-15.7944
 20
-20.9819
 30
0.0
 10
-15.7944
 20
-20.9819
 30
0.0
 10
-17.0164
 20
-21.0899
 30
0.0
 10
-18.2824
 20
-20.8368
 30
0.0
 10
-19.4252
 20
-20.177
 30
0.0
 10
-19.4252
 20
-20.177
 30
0.0
 10
-20.5328
 20
-19.5375
 30
0.0
 10
-21.3677
 20
-18.6068
 30
0.0
 10
-21.8891
 20
-17.5373
 30
0.0
 10
-21.8891
 20
-17.5373
 30
0.0
 10
-24.183
 20
-17.7308
 30
0.0
 10
-26.4042
 20
-17.6452
 30
0.0
 10
-28.4578
 20
-17.2475
 30
0.0
 10
-28.4578
 20
-17.2475
 30
0.0
 10
-40.9942
 20
-14.8194
 30
0.0
 10
-46.7307
 20
-5.2629
 30
0.0
 10
-42.3847
 20
6.8746
 30
0.0
 10
-42.3847
 20
6.8746
 30
0.0
 10
-41.6882
 20
8.8197
 30
0.0
 10
-40.6304
 20
10.8296
 30
0.0
 10
-39.2872
 20
12.6152
 30
0.0
 10
-39.2872
 20
12.6152
 30
0.0
 10
-39.9917
 20
13.6196
 30
0.0
 10
-40.4054
 20
14.8424
 30
0.0
 10
-40.4054
 20
16.162
 30
0.0
 10
-40.4054
 20
16.162
 30
0.0
 10
-40.4054
 20
17.441
 30
0.0
 10
-40.0168
 20
18.6294
 30
0.0
 10
-39.3514
 20
19.6156
 30
0.0
 10
-39.3514
 20
19.6156
 30
0.0
 10
-40.6658
 20
21.5055
 30
0.0
 10
-41.7022
 20
23.472
 30
0.0
 10
-42.3846
 20
25.4493
 30
0.0
 10
-42.3846
 20
25.4493
 30
0.0
 10
-46.55
 20
37.5201
 30
0.0
 10
-41.1421
 20
47.2664
 30
0.0
 10
-28.4578
 20
49.5713
 30
0.0
 10
-28.4578
 20
49.5713
 30
0.0
 10
-26.425
 20
49.9407
 30
0.0
 10
-24.1554
 20
50.0295
 30
0.0
 10
-21.9375
 20
49.759
 30
0.0
 10
-21.9375
 20
49.759
 30
0.0
 10
-21.4201
 20
50.8712
 30
0.0
 10
-20.5678
 20
51.8411
 30
0.0
 10
-19.425
 20
52.5009
 30
0.0
 10
-19.425
 20
52.5009
 30
0.0
 10
-18.3173
 20
53.1404
 30
0.0
 10
-17.0938
 20
53.3981
 30
0.0
 10
-15.907
 20
53.3149
 30
0.0
 10
-15.907
 20
53.3149
 30
0.0
 10
-14.9275
 20
55.3983
 30
0.0
 10
-13.7428
 20
57.279
 30
0.0
 10
-12.3716
 20
58.8586
 30
0.0
 10
-12.3716
 20
58.8586
 30
0.0
 10
-4.0007
 20
68.5015
 30
0.0
 10
7.1438
 20
68.6912
 30
0.0
 10
15.4821
 20
58.8587
 30
0.0
 10
15.4821
 20
58.8587
 30
0.0
 10
16.8184
 20
57.2829
 30
0.0
 10
18.0301
 20
55.3617
 30
0.0
 10
18.9049
 20
53.3057
 30
0.0
 10
18.9049
 20
53.3057
 30
0.0
 10
20.1268
 20
53.4137
 30
0.0
 10
21.3928
 20
53.1607
 30
0.0
 10
22.5355
 20
52.5008
 30
0.0
 10
22.5355
 20
52.5008
 30
0.0
 10
23.6432
 20
51.8613
 30
0.0
 10
24.4781
 20
50.9306
 30
0.0
 10
24.9995
 20
49.8612
 30
0.0
 10
24.9995
 20
49.8612
 30
0.0
 10
27.2934
 20
50.0547
 30
0.0
 10
29.5146
 20
49.969
 30
0.0
 10
31.5682
 20
49.5713
 30
0.0
 10
31.5682
 20
49.5713
 30
0.0
 10
44.1046
 20
47.1432
 30
0.0
 10
49.8413
 20
37.5867
 30
0.0
 10
45.4951
 20
25.4493
 30
0.0
  0
SPLINE
  5
6B
330
1F
100
AcDbEntity
  8
layer 1
 62
   250
370
    20
100
AcDbSpline
210
0.0
220
0.0
230
1.0
 70
    11
 71
     3
 72
   148
 73
   144
 74
     0
 42
0.0000000001
 43
0.0000000001
 40
0.0
 40
0.0
 40
0.0
 40
0.0
 40
0.0277777777777778
 40
0.0277777777777778
 40
0.0277777777777778
 40
0.0277777777777778
 40
0.0555555555555556
 40
0.0555555555555556
 40
0.0555555555555556
 40
0.0555555555555556
 40
0.0833333333333333
 40
0.0833333333333333
 40
0.0833333333333333
 40
0.0833333333333333
 40
0.1111111111111111
 40
0.1111111111111111
 40
0.1111111111111111
 40
0.1111111111111111
 40
0.1388888888888889
 40
0.1388888888888889
 40
0.1388888888888889
 40
0.1388888888888889
 40
0.1666666666666667
 40
0.1666666666666667
 40
0.1666666666666667
 40
0.1666666666666667
 40
0.1944444444444445
 40
0.1944444444444445
 40
0.1944444444444445
 40
0.1944444444444445
 40
0.2222222222222223
 40
0.2222222222222223
 40
0.2222222222222223
 40
0.2222222222222223
 40
0.2500000000000001
 40
0.2500000000000001
 40
0.2500000000000001
 40
0.2500000000000001
 40
0.2777777777777778
 40
0.2777777777777778
 40
0.2777777777777778
 40
0.2777777777777778
 40
0.3055555555555556
 40
0.3055555555555556
 40
0.3055555555555556
 40
0.3055555555555556
 40
0.3333333333333334
 40
0.3333333333333334
 40
0.3333333333333334
 40
0.3333333333333334
 40
0.3611111111111112
 40
0.3611111111111112
 40
0.3611111111111112
 40
0.3611111111111112
 40
0.388888888888889
 40
0.388888888888889
 40
0.388888888888889
 40
0.388888888888889
 40
0.4166666666666668
 40
0.4166666666666668
 40
0.4166666666666668
 40
0.4166666666666668
 40
0.4444444444444446
 40
0.4444444444444446
 40
0.4444444444444446
 40
0.4444444444444446
 40
0.4722222222222224
 40
0.4722222222222224
 40
0.4722222222222224
 40
0.4722222222222224
 40
0.5000000000000001
 40
0.5000000000000001
 40
0.5000000000000001
 40
0.5000000000000001
 40
0.5277777777777779
 40
0.5277777777777779
 40
0.5277777777777779
 40
0.5277777777777779
 40
0.5555555555555557
 40
0.5555555555555557
 40
0.5555555555555557
 40
0.5555555555555557
 40
0.5833333333333335
 40
0.5833333333333335
 40
0.5833333333333335
 40
0.5833333333333335
 40
0.6111111111111113
 40
0.6111111111111113
 40
0.6111111111111113
 40
0.6111111111111113
 40
0.6388888888888891
 40
0.6388888888888891
 40
0.6388888888888891
 40
0.6388888888888891
 40
0.6666666666666669
 40
0.6666666666666669
 40
0.6666666666666669
 40
0.6666666666666669
 40
0.6944444444444446
 40
0.6944444444444446
 40
0.6944444444444446
 40
0.6944444444444446
 40
0.7222222222222224
 40
0.7222222222222224
 40
0.7222222222222224
 40
0.7222222222222224
 40
0.7500000000000002
 40
0.7500000000000002
 40
0.7500000000000002
 40
0.7500000000000002
 40
0.777777777777778
 40
0.777777777777778
 40
0.777777777777778
 40
0.777777777777778
 40
0.8055555555555558
 40
0.8055555555555558
 40
0.8055555555555558
 40
0.8055555555555558
 40
0.8333333333333336
 40
0.8333333333333336
 40
0.8333333333333336
 40
0.8333333333333336
 40
0.8611111111111114
 40
0.8611111111111114
 40
0.8611111111111114
 40
0.8611111111111114
 40
0.8888888888888892
 40
0.8888888888888892
 40
0.8888888888888892
 40
0.8888888888888892
 40
0.916666666666667
 40
0.916666666666667
 40
0.916666666666667
 40
0.916666666666667
 40
0.9444444444444448
 40
0.9444444444444448
 40
0.9444444444444448
 40
0.9444444444444448
 40
0.9722222222222225
 40
0.9722222222222225
 40
0.9722222222222225
 40
0.9722222222222225
 40
1.0
 40
1.0
 40
1.0
 40
1.0
 10
95.141
 20
35.9426
 30
0.0
 10
93.5842
 20
31.5258
 30
0.0
 10
103.4312
 20
26.9684
 30
0.0
 10
100.3045
 20
22.9893
 30
0.0
 10
100.3045
 20
22.9893
 30
0.0
 10
103.2844
 20
22.1491
 30
0.0
 10
105.4691
 20
19.3614
 30
0.0
 10
105.4691
 20
16.1619
 30
0.0
 10
105.4691
 20
16.1619
 30
0.0
 10
105.4691
 20
12.9624
 30
0.0
 10
103.4133
 20
10.3399
 30
0.0
 10
100.5702
 20
9.4155
 30
0.0
 10
100.5702
 20
9.4155
 30
0.0
 10
103.5741
 20
5.2044
 30
0.0
 10
93.6141
 20
0.8054
 30
0.0
 10
95.141
 20
-3.619
 30
0.0
 10
95.141
 20
-3.619
 30
0.0
 10
99.5769
 20
-16.4732
 30
0.0
 10
104.2374
 20
-31.1332
 30
0.0
 10
99.0898
 20
-40.1498
 30
0.0
 10
99.0898
 20
-40.1498
 30
0.0
 10
93.9424
 20
-49.1663
 30
0.0
 10
78.9865
 20
-52.5406
 30
0.0
 10
65.4788
 20
-54.9953
 30
0.0
 10
65.4788
 20
-54.9953
 30
0.0
 10
60.8716
 20
-55.8325
 30
0.0
 10
61.8517
 20
-66.6621
 30
0.0
 10
56.8425
 20
-65.9439
 30
0.0
 10
56.8425
 20
-65.9439
 30
0.0
 10
57.6045
 20
-68.9447
 30
0.0
 10
56.2828
 20
-72.2304
 30
0.0
 10
53.512
 20
-73.8301
 30
0.0
 10
53.512
 20
-73.8301
 30
0.0
 10
50.7412
 20
-75.4299
 30
0.0
 10
47.442
 20
-74.9608
 30
0.0
 10
45.2199
 20
-72.9609
 30
0.0
 10
45.2199
 20
-72.9609
 30
0.0
 10
43.075
 20
-77.6678
 30
0.0
 10
34.2858
 20
-71.2418
 30
0.0
 10
31.2175
 20
-74.7761
 30
0.0
 10
31.2175
 20
-74.7761
 30
0.0
 10
22.3032
 20
-85.0446
 30
0.0
 10
11.9377
 20
-96.4108
 30
0.0
 10
1.5552
 20
-96.4614
 30
0.0
 10
1.5552
 20
-96.4614
 30
0.0
 10
-8.8271
 20
-96.512
 30
0.0
 10
-19.2275
 20
-85.2472
 30
0.0
 10
-28.1069
 20
-74.7762
 30
0.0
 10
-28.1069
 20
-74.7762
 30
0.0
 10
-31.1355
 20
-71.2046
 30
0.0
 10
-40.0242
 20
-77.4686
 30
0.0
 10
-41.9069
 20
-72.7712
 30
0.0
 10
-41.9069
 20
-72.7712
 30
0.0
 10
-44.1245
 20
-74.9316
 30
0.0
 10
-47.5889
 20
-75.4541
 30
0.0
 10
-50.4017
 20
-73.83
 30
0.0
 10
-50.4017
 20
-73.83
 30
0.0
 10
-53.1304
 20
-72.2546
 30
0.0
 10
-54.4159
 20
-69.1386
 30
0.0
 10
-53.795
 20
-66.2144
 30
0.0
 10
-53.795
 20
-66.2144
 30
0.0
 10
-58.9439
 20
-66.7103
 30
0.0
 10
-57.773
 20
-55.8853
 30
0.0
 10
-62.3682
 20
-54.9954
 30
0.0
 10
-62.3682
 20
-54.9954
 30
0.0
 10
-75.7183
 20
-52.4098
 30
0.0
 10
-90.7571
 20
-49.0934
 30
0.0
 10
-95.9922
 20
-40.1271
 30
0.0
 10
-95.9922
 20
-40.1271
 30
0.0
 10
-101.2272
 20
-31.1609
 30
0.0
 10
-96.6587
 20
-16.5442
 30
0.0
 10
-92.0303
 20
-3.619
 30
0.0
 10
-92.0303
 20
-3.619
 30
0.0
 10
-90.4517
 20
0.7898
 30
0.0
 10
-100.3211
 20
5.3556
 30
0.0
 10
-97.1943
 20
9.3347
 30
0.0
 10
-97.1943
 20
9.3347
 30
0.0
 10
-100.1741
 20
10.1751
 30
0.0
 10
-102.3586
 20
12.9626
 30
0.0
 10
-102.3587
 20
16.162
 30
0.0
 10
-102.3587
 20
16.162
 30
0.0
 10
-102.3587
 20
19.3613
 30
0.0
 10
-100.303
 20
21.9839
 30
0.0
 10
-97.4601
 20
22.9084
 30
0.0
 10
-97.4601
 20
22.9084
 30
0.0
 10
-100.464
 20
27.1194
 30
0.0
 10
-90.5036
 20
31.5182
 30
0.0
 10
-92.0304
 20
35.9426
 30
0.0
 10
-92.0304
 20
35.9426
 30
0.0
 10
-96.4664
 20
48.7969
 30
0.0
 10
-101.1268
 20
63.457
 30
0.0
 10
-95.9793
 20
72.4736
 30
0.0
 10
-95.9793
 20
72.4736
 30
0.0
 10
-90.8319
 20
81.4902
 30
0.0
 10
-75.8758
 20
84.8644
 30
0.0
 10
-62.3682
 20
87.3189
 30
0.0
 10
-62.3682
 20
87.3189
 30
0.0
 10
-57.7608
 20
88.1562
 30
0.0
 10
-58.7414
 20
98.9858
 30
0.0
 10
-53.732
 20
98.2676
 30
0.0
 10
-53.732
 20
98.2676
 30
0.0
 10
-54.4942
 20
101.2684
 30
0.0
 10
-53.1724
 20
104.5542
 30
0.0
 10
-50.4016
 20
106.1539
 30
0.0
 10
-50.4016
 20
106.1539
 30
0.0
 10
-47.6307
 20
107.7536
 30
0.0
 10
-44.3317
 20
107.2846
 30
0.0
 10
-42.1096
 20
105.2848
 30
0.0
 10
-42.1096
 20
105.2848
 30
0.0
 10
-39.9647
 20
109.9918
 30
0.0
 10
-31.175
 20
103.5654
 30
0.0
 10
-28.1068
 20
107.0997
 30
0.0
 10
-28.1068
 20
107.0997
 30
0.0
 10
-19.1924
 20
117.3684
 30
0.0
 10
-8.8272
 20
128.7345
 30
0.0
 10
1.5552
 20
128.7852
 30
0.0
 10
1.5552
 20
128.7852
 30
0.0
 10
11.9375
 20
128.8358
 30
0.0
 10
22.3381
 20
117.5708
 30
0.0
 10
31.2175
 20
107.0998
 30
0.0
 10
31.2175
 20
107.0998
 30
0.0
 10
34.2463
 20
103.5282
 30
0.0
 10
43.1343
 20
109.7923
 30
0.0
 10
45.0169
 20
105.0949
 30
0.0
 10
45.0169
 20
105.0949
 30
0.0
 10
47.2345
 20
107.2555
 30
0.0
 10
50.7411
 20
107.7537
 30
0.0
 10
53.512
 20
106.1539
 30
0.0
 10
53.512
 20
106.1539
 30
0.0
 10
56.2828
 20
104.5542
 30
0.0
 10
57.5262
 20
101.4623
 30
0.0
 10
56.9051
 20
98.5381
 30
0.0
 10
56.9051
 20
98.5381
 30
0.0
 10
62.0538
 20
99.034
 30
0.0
 10
60.8788
 20
88.1819
 30
0.0
 10
65.4788
 20
87.319
 30
0.0
 10
65.4788
 20
87.319
 30
0.0
 10
78.7766
 20
84.8241
 30
0.0
 10
93.855
 20
81.4396
 30
0.0
 10
99.0898
 20
72.4733
 30
0.0
 10
99.0898
 20
72.4733
 30
0.0
 10
104.3246
 20
63.5069
 30
0.0
 10
99.6792
 20
48.8187
 30
0.0
 10
95.141
 20
35.9426
 30
0.0
  0
SPLINE
  5
6C
330
1F
100
AcDbEntity
  8
layer 1
 62
     7
370
    20
100
AcDbSpline
210
0.0
220
0.0
230
1.0
 70
    11
 71
     3
 72
    36
 73
    32
 74
     0
 42
0.0000000001
 43
0.0000000001
 40
0.0
 40
0.0
 40
0.0
 40
0.0
 40
0.125
 40
0.125
 40
0.125
 40
0.125
 40
0.25
 40
0.25
 40
0.25
 40
0.25
 40
0.375
 40
0.375
 40
0.375
 40
0.375
 40
0.5
 40
0.5
 40
0.5
 40
0.5
 40
0.625
 40
0.625
 40
0.625
 40
0.625
 40
0.75
 40
0.75
 40
0.75
 40
0.75
 40
0.875
 40
0.875
 40
0.875
 40
0.875
 40
1.0
 40
1.0
 40
1.0
 40
1.0
 10
92.7193
 20
62.434
 30
0.0
 10
92.6959
 20
62.6097
 30
0.0
 10
92.8849
 20
62.6015
 30
0.0
 10
92.9616
 20
62.5543
 30
0.0
 10
92.9616
 20
62.5543
 30
0.0
 10
94.544
 20
61.583
 30
0.0
 10
97.3532
 20
62.412
 30
0.0
 10
98.4386
 20
59.4346
 30
0.0
 10
98.4386
 20
59.4346
 30
0.0
 10
99.3543
 20
56.9228
 30
0.0
 10
95.681
 20
54.7572
 30
0.0
 10
96.2004
 20
53.3344
 30
0.0
 10
96.2004
 20
53.3344
 30
0.0
 10
96.5683
 20
52.3262
 30
0.0
 10
97.1333
 20
52.8988
 30
0.0
 10
97.3903
 20
52.1949
 30
0.0
 10
97.3903
 20
52.1949
 30
0.0
 10
97.6398
 20
51.5111
 30
0.0
 10
97.0138
 20
51.253
 30
0.0
 10
96.6959
 20
51.1369
 30
0.0
 10
96.6959
 20
51.1369
 30
0.0
 10
95.788
 20
50.8057
 30
0.0
 10
94.9317
 20
51.6037
 30
0.0
 10
94.7194
 20
52.1852
 30
0.0
 10
94.7194
 20
52.1852
 30
0.0
 10
93.8121
 20
54.6694
 30
0.0
 10
96.5841
 20
57.3503
 30
0.0
 10
96.0445
 20
58.8296
 30
0.0
 10
96.0445
 20
58.8296
 30
0.0
 10
95.4719
 20
60.3991
 30
0.0
 10
92.9997
 20
60.3275
 30
0.0
 10
92.7193
 20
62.434
 30
0.0
  0
SPLINE
  5
6D
330
1F
100
AcDbEntity
  8
layer 1
 62
    22
370
    20
100
AcDbSpline
210
0.0
220
0.0
230
1.0
 70
    11
 71
     3
 72
    60
 73
    56
 74
     0
 42
0.0000000001
 43
0.0000000001
 40
0.0
 40
0.0
 40
0.0
 40
0.0
 40
0.0714285714285714
 40
0.0714285714285714
 40
0.0714285714285714
 40
0.0714285714285714
 40
0.1428571428571428
 40
0.1428571428571428
 40
0.1428571428571428
 40
0.1428571428571428
 40
0.2142857142857143
 40
0.2142857142857143
 40
0.2142857142857143
 40
0.2142857142857143
 40
0.2857142857142857
 40
0.2857142857142857
 40
0.2857142857142857
 40
0.2857142857142857
 40
0.3571428571428571
 40
0.3571428571428571
 40
0.3571428571428571
 40
0.3571428571428571
 40
0.4285714285714285
 40
0.4285714285714285
 40
0.4285714285714285
 40
0.4285714285714285
 40
0.4999999999999999
 40
0.4999999999999999
 40
0.4999999999999999
 40
0.4999999999999999
 40
0.5714285714285713
 40
0.5714285714285713
 40
0.5714285714285713
 40
0.5714285714285713
 40
0.6428571428571427
 40
0.6428571428571427
 40
0.6428571428571427
 40
0.6428571428571427
 40
0.7142857142857141
 40
0.7142857142857141
 40
0.7142857142857141
 40
0.7142857142857141
 40
0.7857142857142855
 40
0.7857142857142855
 40
0.7857142857142855
 40
0.7857142857142855
 40
0.8571428571428569
 40
0.8571428571428569
 40
0.8571428571428569
 40
0.8571428571428569
 40
0.9285714285714283
 40
0.9285714285714283
 40
0.9285714285714283
 40
0.9285714285714283
 40
1.0
 40
1.0
 40
1.0
 40
1.0
 10
95.6709
 20
68.1526
 30
0.0
 10
95.5561
 20
68.206
 30
0.0
 10
95.5345
 20
68.4441
 30
0.0
 10
95.6274
 20
68.5299
 30
0.0
 10
95.6274
 20
68.5299
 30
0.0
 10
96.591
 20
69.4204
 30
0.0
 10
97.3865
 20
70.5477
 30
0.0
 10
96.9784
 20
71.2544
 30
0.0
 10
96.9784
 20
71.2544
 30
0.0
 10
96.5704
 20
71.9612
 30
0.0
 10
95.1964
 20
71.836
 30
0.0
 10
93.9434
 20
71.4467
 30
0.0
 10
93.9434
 20
71.4467
 30
0.0
 10
93.8226
 20
71.4091
 30
0.0
 10
93.6272
 20
71.5469
 30
0.0
 10
93.6384
 20
71.673
 30
0.0
 10
93.6384
 20
71.673
 30
0.0
 10
93.7184
 20
72.5777
 30
0.0
 10
93.8112
 20
73.4444
 30
0.0
 10
93.4383
 20
74.0903
 30
0.0
 10
93.4383
 20
74.0903
 30
0.0
 10
92.7378
 20
75.3036
 30
0.0
 10
91.7479
 20
75.5865
 30
0.0
 10
90.9888
 20
75.7028
 30
0.0
 10
90.9888
 20
75.7028
 30
0.0
 10
90.6732
 20
75.7512
 30
0.0
 10
90.5515
 20
75.5112
 30
0.0
 10
90.7139
 20
75.2825
 30
0.0
 10
90.7139
 20
75.2825
 30
0.0
 10
91.7776
 20
73.7849
 30
0.0
 10
90.6602
 20
72.3781
 30
0.0
 10
90.1298
 20
71.6572
 30
0.0
 10
90.1298
 20
71.6572
 30
0.0
 10
89.3063
 20
70.5373
 30
0.0
 10
89.1777
 20
68.9922
 30
0.0
 10
90.1483
 20
67.311
 30
0.0
 10
90.1483
 20
67.311
 30
0.0
 10
91.1189
 20
65.6299
 30
0.0
 10
92.5213
 20
64.9688
 30
0.0
 10
93.9029
 20
65.122
 30
0.0
 10
93.9029
 20
65.122
 30
0.0
 10
94.7924
 20
65.2209
 30
0.0
 10
96.5694
 20
65.4852
 30
0.0
 10
97.3346
 20
63.8152
 30
0.0
 10
97.3346
 20
63.8152
 30
0.0
 10
97.4514
 20
63.5602
 30
0.0
 10
97.7201
 20
63.5456
 30
0.0
 10
97.836
 20
63.8431
 30
0.0
 10
97.836
 20
63.8431
 30
0.0
 10
98.1148
 20
64.5587
 30
0.0
 10
98.3648
 20
65.5574
 30
0.0
 10
97.6643
 20
66.7707
 30
0.0
 10
97.6643
 20
66.7707
 30
0.0
 10
97.2913
 20
67.4166
 30
0.0
 10
96.4944
 20
67.7696
 30
0.0
 10
95.6709
 20
68.1526
 30
0.0
  0
SPLINE
  5
6E
330
1F
100
AcDbEntity
  8
layer 1
 62
     7
370
    20
100
AcDbSpline
210
0.0
220
0.0
230
1.0
 70
    11
 71
     3
 72
    36
 73
    32
 74
     0
 42
0.0000000001
 43
0.0000000001
 40
0.0
 40
0.0
 40
0.0
 40
0.0
 40
0.125
 40
0.125
 40
0.125
 40
0.125
 40
0.25
 40
0.25
 40
0.25
 40
0.25
 40
0.375
 40
0.375
 40
0.375
 40
0.375
 40
0.5
 40
0.5
 40
0.5
 40
0.5
 40
0.625
 40
0.625
 40
0.625
 40
0.625
 40
0.75
 40
0.75
 40
0.75
 40
0.75
 40
0.875
 40
0.875
 40
0.875
 40
0.875
 40
1.0
 40
1.0
 40
1.0
 40
1.0
 10
87.2099
 20
71.9765
 30
0.0
 10
87.3504
 20
71.8684
 30
0.0
 10
87.4378
 20
72.0362
 30
0.0
 10
87.4352
 20
72.1262
 30
0.0
 10
87.4352
 20
72.1262
 30
0.0
 10
87.3853
 20
73.9822
 30
0.0
 10
89.5078
 20
76.0006
 30
0.0
 10
87.472
 20
78.4293
 30
0.0
 10
87.472
 20
78.4293
 30
0.0
 10
85.7546
 20
80.4782
 30
0.0
 10
82.0425
 20
78.3799
 30
0.0
 10
81.07
 20
79.541
 30
0.0
 10
81.07
 20
79.541
 30
0.0
 10
80.3808
 20
80.3637
 30
0.0
 10
81.1591
 20
80.5667
 30
0.0
 10
80.6781
 20
81.1412
 30
0.0
 10
80.6781
 20
81.1412
 30
0.0
 10
80.2107
 20
81.6992
 30
0.0
 10
79.6741
 20
81.2862
 30
0.0
 10
79.4147
 20
81.0689
 30
0.0
 10
79.4147
 20
81.0689
 30
0.0
 10
78.6739
 20
80.4482
 30
0.0
 10
78.9368
 20
79.3077
 30
0.0
 10
79.3342
 20
78.8331
 30
0.0
 10
79.3342
 20
78.8331
 30
0.0
 10
81.032
 20
76.8052
 30
0.0
 10
84.7397
 20
77.8653
 30
0.0
 10
85.7511
 20
76.6584
 30
0.0
 10
85.7511
 20
76.6584
 30
0.0
 10
86.824
 20
75.3778
 30
0.0
 10
85.5258
 20
73.2726
 30
0.0
 10
87.2099
 20
71.9765
 30
0.0
  0
SPLINE
  5
6F
330
1F
100
AcDbEntity
  8
layer 1
 62
    22
370
    20
100
AcDbSpline
210
0.0
220
0.0
230
1.0
 70
    11
 71
     3
 72
    60
 73
    56
 74
     0
 42
0.0000000001
 43
0.0000000001
 40
0.0
 40
0.0
 40
0.0
 40
0.0
 40
0.0714285714285714
 40
0.0714285714285714
 40
0.0714285714285714
 40
0.0714285714285714
 40
0.1428571428571428
 40
0.1428571428571428
 40
0.1428571428571428
 40
0.1428571428571428
 40
0.2142857142857143
 40
0.2142857142857143
 40
0.2142857142857143
 40
0.2142857142857143
 40
0.2857142857142857
 40
0.2857142857142857
 40
0.2857142857142857
 40
0.2857142857142857
 40
0.3571428571428571
 40
0.3571428571428571
 40
0.3571428571428571
 40
0.3571428571428571
 40
0.4285714285714285
 40
0.4285714285714285
 40
0.4285714285714285
 40
0.4285714285714285
 40
0.4999999999999999
 40
0.4999999999999999
 40
0.4999999999999999
 40
0.4999999999999999
 40
0.5714285714285713
 40
0.5714285714285713
 40
0.5714285714285713
 40
0.5714285714285713
 40
0.6428571428571427
 40
0.6428571428571427
 40
0.6428571428571427
 40
0.6428571428571427
 40
0.7142857142857141
 40
0.7142857142857141
 40
0.7142857142857141
 40
0.7142857142857141
 40
0.7857142857142855
 40
0.7857142857142855
 40
0.7857142857142855
 40
0.7857142857142855
 40
0.8571428571428569
 40
0.8571428571428569
 40
0.8571428571428569
 40
0.8571428571428569
 40
0.9285714285714283
 40
0.9285714285714283
 40
0.9285714285714283
 40
0.9285714285714283
 40
1.0
 40
1.0
 40
1.0
 40
1.0
 10
98.7994
 20
14.5977
 30
0.0
 10
98.7267
 20
14.6775
 30
0.0
 10
98.827
 20
14.8444
 30
0.0
 10
98.9504
 20
14.8659
 30
0.0
 10
98.9504
 20
14.8659
 30
0.0
 10
100.2302
 20
15.0886
 30
0.0
 10
101.4827
 20
15.5338
 30
0.0
 10
101.4827
 20
16.1619
 30
0.0
 10
101.4827
 20
16.1619
 30
0.0
 10
101.4827
 20
16.7899
 30
0.0
 10
100.2302
 20
17.2351
 30
0.0
 10
98.9504
 20
17.4579
 30
0.0
 10
98.9504
 20
17.4579
 30
0.0
 10
98.827
 20
17.4793
 30
0.0
 10
98.7267
 20
17.6463
 30
0.0
 10
98.7994
 20
17.7261
 30
0.0
 10
98.7994
 20
17.7261
 30
0.0
 10
99.3211
 20
18.2982
 30
0.0
 10
99.8348
 20
18.8401
 30
0.0
 10
99.8348
 20
19.4141
 30
0.0
 10
99.8348
 20
19.4141
 30
0.0
 10
99.8348
 20
20.4923
 30
0.0
 10
99.119
 20
21.0617
 30
0.0
 10
98.5197
 20
21.4313
 30
0.0
 10
98.5197
 20
21.4313
 30
0.0
 10
98.2706
 20
21.585
 30
0.0
 10
98.0452
 20
21.4719
 30
0.0
 10
98.0715
 20
21.257
 30
0.0
 10
98.0715
 20
21.257
 30
0.0
 10
98.2439
 20
19.8495
 30
0.0
 10
96.5728
 20
19.3419
 30
0.0
 10
95.753
 20
19.0656
 30
0.0
 10
95.753
 20
19.0656
 30
0.0
 10
94.4799
 20
18.6361
 30
0.0
 10
93.5959
 20
17.6558
 30
0.0
 10
93.5959
 20
16.1619
 30
0.0
 10
93.5959
 20
16.1619
 30
0.0
 10
93.5959
 20
14.668
 30
0.0
 10
94.4799
 20
13.6877
 30
0.0
 10
95.753
 20
13.2582
 30
0.0
 10
95.753
 20
13.2582
 30
0.0
 10
96.5728
 20
12.9818
 30
0.0
 10
98.2439
 20
12.4742
 30
0.0
 10
98.0715
 20
11.0668
 30
0.0
 10
98.0715
 20
11.0668
 30
0.0
 10
98.0452
 20
10.8519
 30
0.0
 10
98.2706
 20
10.7388
 30
0.0
 10
98.5197
 20
10.8924
 30
0.0
 10
98.5197
 20
10.8924
 30
0.0
 10
99.119
 20
11.2621
 30
0.0
 10
99.8348
 20
11.8315
 30
0.0
 10
99.8348
 20
12.9097
 30
0.0
 10
99.8348
 20
12.9097
 30
0.0
 10
99.8348
 20
13.4837
 30
0.0
 10
99.3211
 20
14.0255
 30
0.0
 10
98.7994
 20
14.5977
 30
0.0
  0
SPLINE
  5
70
330
1F
100
AcDbEntity
  8
layer 1
 62
     7
370
    18
100
AcDbSpline
210
0.0
220
0.0
230
1.0
 70
    11
 71
     3
 72
    28
 73
    24
 74
     0
 42
0.0000000001
 43
0.0000000001
 40
0.0
 40
0.0
 40
0.0
 40
0.0
 40
0.1666666666666667
 40
0.1666666666666667
 40
0.1666666666666667
 40
0.1666666666666667
 40
0.3333333333333333
 40
0.3333333333333333
 40
0.3333333333333333
 40
0.3333333333333333
 40
0.5
 40
0.5
 40
0.5
 40
0.5
 40
0.6666666666666666
 40
0.6666666666666666
 40
0.6666666666666666
 40
0.6666666666666666
 40
0.8333333333333333
 40
0.8333333333333333
 40
0.8333333333333333
 40
0.8333333333333333
 40
1.0
 40
1.0
 40
1.0
 40
1.0
 10
89.8255
 20
3.2944
 30
0.0
 10
89.5447
 20
4.803
 30
0.0
 10
90.985
 20
6.1631
 30
0.0
 10
91.8738
 20
5.1238
 30
0.0
 10
91.8738
 20
5.1238
 30
0.0
 10
93.4718
 20
3.2554
 30
0.0
 10
94.3909
 20
8.9184
 30
0.0
 10
93.1258
 20
11.9649
 30
0.0
 10
93.1258
 20
11.9649
 30
0.0
 10
92.9555
 20
12.3752
 30
0.0
 10
93.6005
 20
12.831
 30
0.0
 10
93.8472
 20
12.3161
 30
0.0
 10
93.8472
 20
12.3161
 30
0.0
 10
94.7029
 20
10.5308
 30
0.0
 10
95.8069
 20
7.8911
 30
0.0
 10
95.1618
 20
5.1622
 30
0.0
 10
95.1618
 20
5.1622
 30
0.0
 10
94.7812
 20
3.5525
 30
0.0
 10
94.0024
 20
2.5226
 30
0.0
 10
93.3244
 20
2.0758
 30
0.0
 10
93.3244
 20
2.0758
 30
0.0
 10
92.4078
 20
1.361
 30
0.0
 10
90.156
 20
1.5185
 30
0.0
 10
89.8255
 20
3.2944
 30
0.0
  0
SPLINE
  5
71
330
1F
100
AcDbEntity
  8
layer 1
 62
     7
370
    18
100
AcDbSpline
210
0.0
220
0.0
230
1.0
 70
    11
 71
     3
 72
    60
 73
    56
 74
     0
 42
0.0000000001
 43
0.0000000001
 40
0.0
 40
0.0
 40
0.0
 40
0.0
 40
0.0714285714285714
 40
0.0714285714285714
 40
0.0714285714285714
 40
0.0714285714285714
 40
0.1428571428571428
 40
0.1428571428571428
 40
0.1428571428571428
 40
0.1428571428571428
 40
0.2142857142857143
 40
0.2142857142857143
 40
0.2142857142857143
 40
0.2142857142857143
 40
0.2857142857142857
 40
0.2857142857142857
 40
0.2857142857142857
 40
0.2857142857142857
 40
0.3571428571428571
 40
0.3571428571428571
 40
0.3571428571428571
 40
0.3571428571428571
 40
0.4285714285714285
 40
0.4285714285714285
 40
0.4285714285714285
 40
0.4285714285714285
 40
0.4999999999999999
 40
0.4999999999999999
 40
0.4999999999999999
 40
0.4999999999999999
 40
0.5714285714285713
 40
0.5714285714285713
 40
0.5714285714285713
 40
0.5714285714285713
 40
0.6428571428571427
 40
0.6428571428571427
 40
0.6428571428571427
 40
0.6428571428571427
 40
0.7142857142857141
 40
0.7142857142857141
 40
0.7142857142857141
 40
0.7142857142857141
 40
0.7857142857142855
 40
0.7857142857142855
 40
0.7857142857142855
 40
0.7857142857142855
 40
0.8571428571428569
 40
0.8571428571428569
 40
0.8571428571428569
 40
0.8571428571428569
 40
0.9285714285714283
 40
0.9285714285714283
 40
0.9285714285714283
 40
0.9285714285714283
 40
1.0
 40
1.0
 40
1.0
 40
1.0
 10
87.2113
 20
23.2319
 30
0.0
 10
87.2112
 20
22.061
 30
0.0
 10
88.4338
 20
21.2418
 30
0.0
 10
88.9359
 20
22.1456
 30
0.0
 10
88.9359
 20
22.1456
 30
0.0
 10
89.8169
 20
23.7313
 30
0.0
 10
91.1947
 20
19.8448
 30
0.0
 10
90.7916
 20
17.3684
 30
0.0
 10
90.7916
 20
17.3684
 30
0.0
 10
90.1365
 20
17.3552
 30
0.0
 10
89.6094
 20
16.8201
 30
0.0
 10
89.6094
 20
16.1619
 30
0.0
 10
89.6094
 20
16.1619
 30
0.0
 10
89.6094
 20
15.5037
 30
0.0
 10
90.1367
 20
14.9685
 30
0.0
 10
90.7917
 20
14.9554
 30
0.0
 10
90.7917
 20
14.9554
 30
0.0
 10
91.1946
 20
12.4789
 30
0.0
 10
89.8168
 20
8.593
 30
0.0
 10
88.9359
 20
10.1786
 30
0.0
 10
88.9359
 20
10.1786
 30
0.0
 10
88.4338
 20
11.0824
 30
0.0
 10
87.2112
 20
10.2631
 30
0.0
 10
87.2113
 20
9.0923
 30
0.0
 10
87.2113
 20
9.0923
 30
0.0
 10
87.2112
 20
7.7138
 30
0.0
 10
88.8159
 20
7.2814
 30
0.0
 10
89.5736
 20
7.6896
 30
0.0
 10
89.5736
 20
7.6896
 30
0.0
 10
90.1232
 20
7.9302
 30
0.0
 10
90.8238
 20
8.594
 30
0.0
 10
91.3149
 20
9.7485
 30
0.0
 10
91.3149
 20
9.7485
 30
0.0
 10
92.1092
 20
11.616
 30
0.0
 10
91.7427
 20
13.6449
 30
0.0
 10
91.3791
 20
15.0943
 30
0.0
 10
91.3791
 20
15.0943
 30
0.0
 10
91.762
 20
15.2966
 30
0.0
 10
92.023
 20
15.6988
 30
0.0
 10
92.023
 20
16.1619
 30
0.0
 10
92.023
 20
16.1619
 30
0.0
 10
92.023
 20
16.625
 30
0.0
 10
91.762
 20
17.0273
 30
0.0
 10
91.379
 20
17.2296
 30
0.0
 10
91.379
 20
17.2296
 30
0.0
 10
91.7426
 20
18.6789
 30
0.0
 10
92.1093
 20
20.7081
 30
0.0
 10
91.3149
 20
22.5758
 30
0.0
 10
91.3149
 20
22.5758
 30
0.0
 10
90.8238
 20
23.7302
 30
0.0
 10
90.1232
 20
24.3941
 30
0.0
 10
89.5736
 20
24.6345
 30
0.0
 10
89.5736
 20
24.6345
 30
0.0
 10
88.8159
 20
25.0428
 30
0.0
 10
87.2112
 20
24.6103
 30
0.0
 10
87.2113
 20
23.2319
 30
0.0
  0
SPLINE
  5
72
330
1F
100
AcDbEntity
  8
layer 1
 62
     7
370
    18
100
AcDbSpline
210
0.0
220
0.0
230
1.0
 70
    11
 71
     3
 72
    28
 73
    24
 74
     0
 42
0.0000000001
 43
0.0000000001
 40
0.0
 40
0.0
 40
0.0
 40
0.0
 40
0.1666666666666667
 40
0.1666666666666667
 40
0.1666666666666667
 40
0.1666666666666667
 40
0.3333333333333333
 40
0.3333333333333333
 40
0.3333333333333333
 40
0.3333333333333333
 40
0.5
 40
0.5
 40
0.5
 40
0.5
 40
0.6666666666666666
 40
0.6666666666666666
 40
0.6666666666666666
 40
0.6666666666666666
 40
0.8333333333333333
 40
0.8333333333333333
 40
0.8333333333333333
 40
0.8333333333333333
 40
1.0
 40
1.0
 40
1.0
 40
1.0
 10
89.8255
 20
29.0297
 30
0.0
 10
89.5447
 20
27.5212
 30
0.0
 10
90.985
 20
26.1611
 30
0.0
 10
91.8738
 20
27.2004
 30
0.0
 10
91.8738
 20
27.2004
 30
0.0
 10
93.4718
 20
29.0688
 30
0.0
 10
94.3909
 20
23.4058
 30
0.0
 10
93.1258
 20
20.3592
 30
0.0
 10
93.1258
 20
20.3592
 30
0.0
 10
92.9555
 20
19.949
 30
0.0
 10
93.6005
 20
19.4931
 30
0.0
 10
93.8472
 20
20.0081
 30
0.0
 10
93.8472
 20
20.0081
 30
0.0
 10
94.7029
 20
21.7934
 30
0.0
 10
95.8069
 20
24.4331
 30
0.0
 10
95.1618
 20
27.162
 30
0.0
 10
95.1618
 20
27.162
 30
0.0
 10
94.7812
 20
28.7717
 30
0.0
 10
94.0024
 20
29.8016
 30
0.0
 10
93.3244
 20
30.2484
 30
0.0
 10
93.3244
 20
30.2484
 30
0.0
 10
92.4078
 20
30.9632
 30
0.0
 10
90.156
 20
30.8057
 30
0.0
 10
89.8255
 20
29.0297
 30
0.0
  0
SPLINE
  5
73
330
1F
100
AcDbEntity
  8
layer 1
 62
    22
370
    20
100
AcDbSpline
210
0.0
220
0.0
230
1.0
 70
    11
 71
     3
 72
    60
 73
    56
 74
     0
 42
0.0000000001
 43
0.0000000001
 40
0.0
 40
0.0
 40
0.0
 40
0.0
 40
0.0714285714285714
 40
0.0714285714285714
 40
0.0714285714285714
 40
0.0714285714285714
 40
0.1428571428571428
 40
0.1428571428571428
 40
0.1428571428571428
 40
0.1428571428571428
 40
0.2142857142857143
 40
0.2142857142857143
 40
0.2142857142857143
 40
0.2142857142857143
 40
0.2857142857142857
 40
0.2857142857142857
 40
0.2857142857142857
 40
0.2857142857142857
 40
0.3571428571428571
 40
0.3571428571428571
 40
0.3571428571428571
 40
0.3571428571428571
 40
0.4285714285714285
 40
0.4285714285714285
 40
0.4285714285714285
 40
0.4285714285714285
 40
0.4999999999999999
 40
0.4999999999999999
 40
0.4999999999999999
 40
0.4999999999999999
 40
0.5714285714285713
 40
0.5714285714285713
 40
0.5714285714285713
 40
0.5714285714285713
 40
0.6428571428571427
 40
0.6428571428571427
 40
0.6428571428571427
 40
0.6428571428571427
 40
0.7142857142857141
 40
0.7142857142857141
 40
0.7142857142857141
 40
0.7142857142857141
 40
0.7857142857142855
 40
0.7857142857142855
 40
0.7857142857142855
 40
0.7857142857142855
 40
0.8571428571428569
 40
0.8571428571428569
 40
0.8571428571428569
 40
0.8571428571428569
 40
0.9285714285714283
 40
0.9285714285714283
 40
0.9285714285714283
 40
0.9285714285714283
 40
1.0
 40
1.0
 40
1.0
 40
1.0
 10
48.8226
 20
-68.8361
 30
0.0
 10
48.8553
 20
-68.7333
 30
0.0
 10
49.0501
 20
-68.7366
 30
0.0
 10
49.1304
 20
-68.8328
 30
0.0
 10
49.1304
 20
-68.8328
 30
0.0
 10
49.9632
 20
-69.8298
 30
0.0
 10
50.975
 20
-70.6919
 30
0.0
 10
51.5189
 20
-70.3778
 30
0.0
 10
51.5189
 20
-70.3778
 30
0.0
 10
52.0628
 20
-70.0638
 30
0.0
 10
51.8221
 20
-68.7565
 30
0.0
 10
51.3751
 20
-67.5368
 30
0.0
 10
51.3751
 20
-67.5368
 30
0.0
 10
51.332
 20
-67.4192
 30
0.0
 10
51.4264
 20
-67.2488
 30
0.0
 10
51.5318
 20
-67.2719
 30
0.0
 10
51.5318
 20
-67.2719
 30
0.0
 10
52.2882
 20
-67.4377
 30
0.0
 10
53.0143
 20
-67.6116
 30
0.0
 10
53.5115
 20
-67.3246
 30
0.0
 10
53.5115
 20
-67.3246
 30
0.0
 10
54.4452
 20
-66.7855
 30
0.0
 10
54.5804
 20
-65.8809
 30
0.0
 10
54.6009
 20
-65.1771
 30
0.0
 10
54.6009
 20
-65.1771
 30
0.0
 10
54.6094
 20
-64.8845
 30
0.0
 10
54.3987
 20
-64.7459
 30
0.0
 10
54.2258
 20
-64.8761
 30
0.0
 10
54.2258
 20
-64.8761
 30
0.0
 10
53.0931
 20
-65.7291
 30
0.0
 10
51.8179
 20
-64.5357
 30
0.0
 10
51.1687
 20
-63.9639
 30
0.0
 10
51.1687
 20
-63.9639
 30
0.0
 10
50.1602
 20
-63.0761
 30
0.0
 10
48.8692
 20
-62.8007
 30
0.0
 10
47.5755
 20
-63.5477
 30
0.0
 10
47.5755
 20
-63.5477
 30
0.0
 10
46.2817
 20
-64.2946
 30
0.0
 10
45.8748
 20
-65.5503
 30
0.0
 10
46.1394
 20
-66.8676
 30
0.0
 10
46.1394
 20
-66.8676
 30
0.0
 10
46.3099
 20
-67.7158
 30
0.0
 10
46.7059
 20
-69.4168
 30
0.0
 10
45.4008
 20
-69.9712
 30
0.0
 10
45.4008
 20
-69.9712
 30
0.0
 10
45.2015
 20
-70.0559
 30
0.0
 10
45.2163
 20
-70.3076
 30
0.0
 10
45.4739
 20
-70.4465
 30
0.0
 10
45.4739
 20
-70.4465
 30
0.0
 10
46.0937
 20
-70.7807
 30
0.0
 10
46.9447
 20
-71.1159
 30
0.0
 10
47.8784
 20
-70.5768
 30
0.0
 10
47.8784
 20
-70.5768
 30
0.0
 10
48.3755
 20
-70.2898
 30
0.0
 10
48.588
 20
-69.574
 30
0.0
 10
48.8226
 20
-68.8361
 30
0.0
  0
SPLINE
  5
74
330
1F
100
AcDbEntity
  8
layer 1
 62
     7
370
    18
100
AcDbSpline
210
0.0
220
0.0
230
1.0
 70
    11
 71
     3
 72
    28
 73
    24
 74
     0
 42
0.0000000001
 43
0.0000000001
 40
0.0
 40
0.0
 40
0.0
 40
0.0
 40
0.1666666666666667
 40
0.1666666666666667
 40
0.1666666666666667
 40
0.1666666666666667
 40
0.3333333333333333
 40
0.3333333333333333
 40
0.3333333333333333
 40
0.3333333333333333
 40
0.5
 40
0.5
 40
0.5
 40
0.5
 40
0.6666666666666666
 40
0.6666666666666666
 40
0.6666666666666666
 40
0.6666666666666666
 40
0.8333333333333333
 40
0.8333333333333333
 40
0.8333333333333333
 40
0.8333333333333333
 40
1.0
 40
1.0
 40
1.0
 40
1.0
 10
34.5468
 20
-66.7162
 30
0.0
 10
35.7128
 20
-65.7187
 30
0.0
 10
37.6108
 20
-66.286
 30
0.0
 10
37.1552
 20
-67.5754
 30
0.0
 10
37.1552
 20
-67.5754
 30
0.0
 10
36.3361
 20
-69.8934
 30
0.0
 10
41.6999
 20
-67.8579
 30
0.0
 10
43.7058
 20
-65.2391
 30
0.0
 10
43.7058
 20
-65.2391
 30
0.0
 10
43.9759
 20
-64.8864
 30
0.0
 10
44.6932
 20
-65.217
 30
0.0
 10
44.3706
 20
-65.6882
 30
0.0
 10
44.3706
 20
-65.6882
 30
0.0
 10
43.2523
 20
-67.322
 30
0.0
 10
41.5183
 20
-69.5978
 30
0.0
 10
38.8324
 20
-70.4036
 30
0.0
 10
38.8324
 20
-70.4036
 30
0.0
 10
37.2481
 20
-70.8789
 30
0.0
 10
35.9668
 20
-70.7194
 30
0.0
 10
35.2408
 20
-70.3556
 30
0.0
 10
35.2408
 20
-70.3556
 30
0.0
 10
34.1635
 20
-69.9192
 30
0.0
 10
33.174
 20
-67.8903
 30
0.0
 10
34.5468
 20
-66.7162
 30
0.0
  0
SPLINE
  5
75
330
1F
100
AcDbEntity
  8
layer 1
 62
     7
370
    18
100
AcDbSpline
210
0.0
220
0.0
230
1.0
 70
    11
 71
     3
 72
    60
 73
    56
 74
     0
 42
0.0000000001
 43
0.0000000001
 40
0.0
 40
0.0
 40
0.0
 40
0.0
 40
0.0714285714285714
 40
0.0714285714285714
 40
0.0714285714285714
 40
0.0714285714285714
 40
0.1428571428571428
 40
0.1428571428571428
 40
0.1428571428571428
 40
0.1428571428571428
 40
0.2142857142857143
 40
0.2142857142857143
 40
0.2142857142857143
 40
0.2142857142857143
 40
0.2857142857142857
 40
0.2857142857142857
 40
0.2857142857142857
 40
0.2857142857142857
 40
0.3571428571428571
 40
0.3571428571428571
 40
0.3571428571428571
 40
0.3571428571428571
 40
0.4285714285714285
 40
0.4285714285714285
 40
0.4285714285714285
 40
0.4285714285714285
 40
0.4999999999999999
 40
0.4999999999999999
 40
0.4999999999999999
 40
0.4999999999999999
 40
0.5714285714285713
 40
0.5714285714285713
 40
0.5714285714285713
 40
0.5714285714285713
 40
0.6428571428571427
 40
0.6428571428571427
 40
0.6428571428571427
 40
0.6428571428571427
 40
0.7142857142857141
 40
0.7142857142857141
 40
0.7142857142857141
 40
0.7142857142857141
 40
0.7857142857142855
 40
0.7857142857142855
 40
0.7857142857142855
 40
0.7857142857142855
 40
0.8571428571428569
 40
0.8571428571428569
 40
0.8571428571428569
 40
0.8571428571428569
 40
0.9285714285714283
 40
0.9285714285714283
 40
0.9285714285714283
 40
0.9285714285714283
 40
1.0
 40
1.0
 40
1.0
 40
1.0
 10
50.506
 20
-54.4834
 30
0.0
 10
49.4919
 20
-55.0688
 30
0.0
 10
49.3938
 20
-56.5372
 30
0.0
 10
50.4275
 20
-56.5201
 30
0.0
 10
50.4275
 20
-56.5201
 30
0.0
 10
52.2413
 20
-56.4903
 30
0.0
 10
49.5644
 20
-59.6267
 30
0.0
 10
47.2182
 20
-60.5158
 30
0.0
 10
47.2182
 20
-60.5158
 30
0.0
 10
46.8792
 20
-59.9551
 30
0.0
 10
46.1523
 20
-59.7662
 30
0.0
 10
45.5822
 20
-60.0953
 30
0.0
 10
45.5822
 20
-60.0953
 30
0.0
 10
45.0122
 20
-60.4244
 30
0.0
 10
44.8124
 20
-61.1486
 30
0.0
 10
45.1285
 20
-61.7224
 30
0.0
 10
45.1285
 20
-61.7224
 30
0.0
 10
43.1853
 20
-63.3096
 30
0.0
 10
39.1311
 20
-64.0593
 30
0.0
 10
40.0638
 20
-62.5036
 30
0.0
 10
40.0638
 20
-62.5036
 30
0.0
 10
40.5955
 20
-61.6169
 30
0.0
 10
39.2746
 20
-60.9677
 30
0.0
 10
38.2607
 20
-61.5532
 30
0.0
 10
38.2607
 20
-61.5532
 30
0.0
 10
37.0669
 20
-62.2424
 30
0.0
 10
37.4948
 20
-63.8483
 30
0.0
 10
38.2271
 20
-64.3004
 30
0.0
 10
38.2271
 20
-64.3004
 30
0.0
 10
38.7103
 20
-64.6561
 30
0.0
 10
39.6354
 20
-64.9309
 30
0.0
 10
40.8808
 20
-64.779
 30
0.0
 10
40.8808
 20
-64.779
 30
0.0
 10
42.8953
 20
-64.5331
 30
0.0
 10
44.4691
 20
-63.2012
 30
0.0
 10
45.5425
 20
-62.1617
 30
0.0
 10
45.5425
 20
-62.1617
 30
0.0
 10
45.9092
 20
-62.3921
 30
0.0
 10
46.388
 20
-62.417
 30
0.0
 10
46.789
 20
-62.1855
 30
0.0
 10
46.789
 20
-62.1855
 30
0.0
 10
47.1901
 20
-61.9539
 30
0.0
 10
47.408
 20
-61.5268
 30
0.0
 10
47.3917
 20
-61.0939
 30
0.0
 10
47.3917
 20
-61.0939
 30
0.0
 10
48.8286
 20
-60.6842
 30
0.0
 10
50.7693
 20
-59.9871
 30
0.0
 10
51.9896
 20
-58.3653
 30
0.0
 10
51.9896
 20
-58.3653
 30
0.0
 10
52.7438
 20
-57.3628
 30
0.0
 10
52.9684
 20
-56.4241
 30
0.0
 10
52.9018
 20
-55.8279
 30
0.0
 10
52.9018
 20
-55.8279
 30
0.0
 10
52.8766
 20
-54.9676
 30
0.0
 10
51.6997
 20
-53.7941
 30
0.0
 10
50.506
 20
-54.4834
 30
0.0
  0
SPLINE
  5
76
330
1F
100
AcDbEntity
  8
layer 1
 62
     7
370
    18
100
AcDbSpline
210
0.0
220
0.0
230
1.0
 70
    11
 71
     3
 72
    28
 73
    24
 74
     0
 42
0.0000000001
 43
0.0000000001
 40
0.0
 40
0.0
 40
0.0
 40
0.0
 40
0.1666666666666667
 40
0.1666666666666667
 40
0.1666666666666667
 40
0.1666666666666667
 40
0.3333333333333333
 40
0.3333333333333333
 40
0.3333333333333333
 40
0.3333333333333333
 40
0.5
 40
0.5
 40
0.5
 40
0.5
 40
0.6666666666666666
 40
0.6666666666666666
 40
0.6666666666666666
 40
0.6666666666666666
 40
0.8333333333333333
 40
0.8333333333333333
 40
0.8333333333333333
 40
0.8333333333333333
 40
1.0
 40
1.0
 40
1.0
 40
1.0
 10
56.8342
 20
-53.8485
 30
0.0
 10
55.3873
 20
-54.3596
 30
0.0
 10
54.9296
 20
-56.287
 30
0.0
 10
56.2741
 20
-56.5371
 30
0.0
 10
56.2741
 20
-56.5371
 30
0.0
 10
58.6911
 20
-56.9867
 30
0.0
 10
54.2464
 20
-60.6142
 30
0.0
 10
50.9755
 20
-61.0419
 30
0.0
 10
50.9755
 20
-61.0419
 30
0.0
 10
50.535
 20
-61.0995
 30
0.0
 10
50.4627
 20
-61.886
 30
0.0
 10
51.032
 20
-61.8422
 30
0.0
 10
51.032
 20
-61.8422
 30
0.0
 10
53.006
 20
-61.6907
 30
0.0
 10
55.8441
 20
-61.3268
 30
0.0
 10
57.8848
 20
-59.4037
 30
0.0
 10
57.8848
 20
-59.4037
 30
0.0
 10
59.0886
 20
-58.2693
 30
0.0
 10
59.5911
 20
-57.0799
 30
0.0
 10
59.639
 20
-56.2693
 30
0.0
 10
59.639
 20
-56.2693
 30
0.0
 10
59.7998
 20
-55.1181
 30
0.0
 10
58.5375
 20
-53.2467
 30
0.0
 10
56.8342
 20
-53.8485
 30
0.0
  0
SPLINE
  5
77
330
1F
100
AcDbEntity
  8
layer 1
 62
    22
370
    20
100
AcDbSpline
210
0.0
220
0.0
230
1.0
 70
    11
 71
     3
 72
    60
 73
    56
 74
     0
 42
0.0000000001
 43
0.0000000001
 40
0.0
 40
0.0
 40
0.0
 40
0.0
 40
0.0714285714285714
 40
0.0714285714285714
 40
0.0714285714285714
 40
0.0714285714285714
 40
0.1428571428571428
 40
0.1428571428571428
 40
0.1428571428571428
 40
0.1428571428571428
 40
0.2142857142857143
 40
0.2142857142857143
 40
0.2142857142857143
 40
0.2142857142857143
 40
0.2857142857142857
 40
0.2857142857142857
 40
0.2857142857142857
 40
0.2857142857142857
 40
0.3571428571428571
 40
0.3571428571428571
 40
0.3571428571428571
 40
0.3571428571428571
 40
0.4285714285714285
 40
0.4285714285714285
 40
0.4285714285714285
 40
0.4285714285714285
 40
0.4999999999999999
 40
0.4999999999999999
 40
0.4999999999999999
 40
0.4999999999999999
 40
0.5714285714285713
 40
0.5714285714285713
 40
0.5714285714285713
 40
0.5714285714285713
 40
0.6428571428571427
 40
0.6428571428571427
 40
0.6428571428571427
 40
0.6428571428571427
 40
0.7142857142857141
 40
0.7142857142857141
 40
0.7142857142857141
 40
0.7142857142857141
 40
0.7857142857142855
 40
0.7857142857142855
 40
0.7857142857142855
 40
0.7857142857142855
 40
0.8571428571428569
 40
0.8571428571428569
 40
0.8571428571428569
 40
0.8571428571428569
 40
0.9285714285714283
 40
0.9285714285714283
 40
0.9285714285714283
 40
0.9285714285714283
 40
1.0
 40
1.0
 40
1.0
 40
1.0
 10
-48.4215
 20
-67.2718
 30
0.0
 10
-48.3161
 20
-67.2487
 30
0.0
 10
-48.2216
 20
-67.4191
 30
0.0
 10
-48.2647
 20
-67.5367
 30
0.0
 10
-48.2647
 20
-67.5367
 30
0.0
 10
-48.7117
 20
-68.7564
 30
0.0
 10
-48.9524
 20
-70.0637
 30
0.0
 10
-48.4085
 20
-70.3777
 30
0.0
 10
-48.4085
 20
-70.3777
 30
0.0
 10
-47.8646
 20
-70.6918
 30
0.0
 10
-46.8528
 20
-69.8297
 30
0.0
 10
-46.02
 20
-68.8327
 30
0.0
 10
-46.02
 20
-68.8327
 30
0.0
 10
-45.9397
 20
-68.7365
 30
0.0
 10
-45.745
 20
-68.7332
 30
0.0
 10
-45.7123
 20
-68.836
 30
0.0
 10
-45.7123
 20
-68.836
 30
0.0
 10
-45.4776
 20
-69.5739
 30
0.0
 10
-45.2652
 20
-70.2897
 30
0.0
 10
-44.768
 20
-70.5767
 30
0.0
 10
-44.768
 20
-70.5767
 30
0.0
 10
-43.8343
 20
-71.1158
 30
0.0
 10
-42.9833
 20
-70.7806
 30
0.0
 10
-42.3635
 20
-70.4464
 30
0.0
 10
-42.3635
 20
-70.4464
 30
0.0
 10
-42.1059
 20
-70.3075
 30
0.0
 10
-42.0912
 20
-70.0558
 30
0.0
 10
-42.2904
 20
-69.9711
 30
0.0
 10
-42.2904
 20
-69.9711
 30
0.0
 10
-43.5955
 20
-69.4167
 30
0.0
 10
-43.1996
 20
-67.7157
 30
0.0
 10
-43.029
 20
-66.8675
 30
0.0
 10
-43.029
 20
-66.8675
 30
0.0
 10
-42.7644
 20
-65.5502
 30
0.0
 10
-43.1714
 20
-64.2945
 30
0.0
 10
-44.4651
 20
-63.5476
 30
0.0
 10
-44.4651
 20
-63.5476
 30
0.0
 10
-45.7589
 20
-62.8006
 30
0.0
 10
-47.0498
 20
-63.076
 30
0.0
 10
-48.0583
 20
-63.9638
 30
0.0
 10
-48.0583
 20
-63.9638
 30
0.0
 10
-48.7076
 20
-64.5356
 30
0.0
 10
-49.9827
 20
-65.729
 30
0.0
 10
-51.1154
 20
-64.876
 30
0.0
 10
-51.1154
 20
-64.876
 30
0.0
 10
-51.2884
 20
-64.7458
 30
0.0
 10
-51.499
 20
-64.8844
 30
0.0
 10
-51.4905
 20
-65.177
 30
0.0
 10
-51.4905
 20
-65.177
 30
0.0
 10
-51.47
 20
-65.8808
 30
0.0
 10
-51.3348
 20
-66.7854
 30
0.0
 10
-50.4011
 20
-67.3245
 30
0.0
 10
-50.4011
 20
-67.3245
 30
0.0
 10
-49.904
 20
-67.6115
 30
0.0
 10
-49.1778
 20
-67.4376
 30
0.0
 10
-48.4215
 20
-67.2718
 30
0.0
  0
SPLINE
  5
78
330
1F
100
AcDbEntity
  8
layer 1
 62
     7
370
    18
100
AcDbSpline
210
0.0
220
0.0
230
1.0
 70
    11
 71
     3
 72
    28
 73
    24
 74
     0
 42
0.0000000001
 43
0.0000000001
 40
0.0
 40
0.0
 40
0.0
 40
0.0
 40
0.1666666666666667
 40
0.1666666666666667
 40
0.1666666666666667
 40
0.1666666666666667
 40
0.3333333333333333
 40
0.3333333333333333
 40
0.3333333333333333
 40
0.3333333333333333
 40
0.5
 40
0.5
 40
0.5
 40
0.5
 40
0.6666666666666666
 40
0.6666666666666666
 40
0.6666666666666666
 40
0.6666666666666666
 40
0.8333333333333333
 40
0.8333333333333333
 40
0.8333333333333333
 40
0.8333333333333333
 40
1.0
 40
1.0
 40
1.0
 40
1.0
 10
-53.7235
 20
-53.8486
 30
0.0
 10
-52.2766
 20
-54.3597
 30
0.0
 10
-51.8189
 20
-56.2871
 30
0.0
 10
-53.1634
 20
-56.5372
 30
0.0
 10
-53.1634
 20
-56.5372
 30
0.0
 10
-55.5804
 20
-56.9868
 30
0.0
 10
-51.1357
 20
-60.6143
 30
0.0
 10
-47.8648
 20
-61.042
 30
0.0
 10
-47.8648
 20
-61.042
 30
0.0
 10
-47.4243
 20
-61.0996
 30
0.0
 10
-47.352
 20
-61.8861
 30
0.0
 10
-47.9213
 20
-61.8423
 30
0.0
 10
-47.9213
 20
-61.8423
 30
0.0
 10
-49.8953
 20
-61.6908
 30
0.0
 10
-52.7333
 20
-61.3269
 30
0.0
 10
-54.7741
 20
-59.4038
 30
0.0
 10
-54.7741
 20
-59.4038
 30
0.0
 10
-55.9778
 20
-58.2694
 30
0.0
 10
-56.4804
 20
-57.08
 30
0.0
 10
-56.5283
 20
-56.2694
 30
0.0
 10
-56.5283
 20
-56.2694
 30
0.0
 10
-56.689
 20
-55.1182
 30
0.0
 10
-55.4268
 20
-53.2468
 30
0.0
 10
-53.7235
 20
-53.8486
 30
0.0
  0
SPLINE
  5
79
330
1F
100
AcDbEntity
  8
layer 1
 62
     7
370
    18
100
AcDbSpline
210
0.0
220
0.0
230
1.0
 70
    11
 71
     3
 72
    60
 73
    56
 74
     0
 42
0.0000000001
 43
0.0000000001
 40
0.0
 40
0.0
 40
0.0
 40
0.0
 40
0.0714285714285714
 40
0.0714285714285714
 40
0.0714285714285714
 40
0.0714285714285714
 40
0.1428571428571428
 40
0.1428571428571428
 40
0.1428571428571428
 40
0.1428571428571428
 40
0.2142857142857143
 40
0.2142857142857143
 40
0.2142857142857143
 40
0.2142857142857143
 40
0.2857142857142857
 40
0.2857142857142857
 40
0.2857142857142857
 40
0.2857142857142857
 40
0.3571428571428571
 40
0.3571428571428571
 40
0.3571428571428571
 40
0.3571428571428571
 40
0.4285714285714285
 40
0.4285714285714285
 40
0.4285714285714285
 40
0.4285714285714285
 40
0.4999999999999999
 40
0.4999999999999999
 40
0.4999999999999999
 40
0.4999999999999999
 40
0.5714285714285713
 40
0.5714285714285713
 40
0.5714285714285713
 40
0.5714285714285713
 40
0.6428571428571427
 40
0.6428571428571427
 40
0.6428571428571427
 40
0.6428571428571427
 40
0.7142857142857141
 40
0.7142857142857141
 40
0.7142857142857141
 40
0.7142857142857141
 40
0.7857142857142855
 40
0.7857142857142855
 40
0.7857142857142855
 40
0.7857142857142855
 40
0.8571428571428569
 40
0.8571428571428569
 40
0.8571428571428569
 40
0.8571428571428569
 40
0.9285714285714283
 40
0.9285714285714283
 40
0.9285714285714283
 40
0.9285714285714283
 40
1.0
 40
1.0
 40
1.0
 40
1.0
 10
-35.15
 20
-61.5533
 30
0.0
 10
-36.164
 20
-60.9678
 30
0.0
 10
-37.4847
 20
-61.617
 30
0.0
 10
-36.9531
 20
-62.5037
 30
0.0
 10
-36.9531
 20
-62.5037
 30
0.0
 10
-36.0203
 20
-64.0596
 30
0.0
 10
-40.075
 20
-63.3095
 30
0.0
 10
-42.0181
 20
-61.7222
 30
0.0
 10
-42.0181
 20
-61.7222
 30
0.0
 10
-41.702
 20
-61.1483
 30
0.0
 10
-41.9018
 20
-60.4243
 30
0.0
 10
-42.4719
 20
-60.0952
 30
0.0
 10
-42.4719
 20
-60.0952
 30
0.0
 10
-43.0419
 20
-59.7661
 30
0.0
 10
-43.769
 20
-59.9551
 30
0.0
 10
-44.1079
 20
-60.5158
 30
0.0
 10
-44.1079
 20
-60.5158
 30
0.0
 10
-46.454
 20
-59.6265
 30
0.0
 10
-49.1304
 20
-56.4903
 30
0.0
 10
-47.3168
 20
-56.5202
 30
0.0
 10
-47.3168
 20
-56.5202
 30
0.0
 10
-46.283
 20
-56.5373
 30
0.0
 10
-46.3813
 20
-55.0688
 30
0.0
 10
-47.3953
 20
-54.4835
 30
0.0
 10
-47.3953
 20
-54.4835
 30
0.0
 10
-48.589
 20
-53.7942
 30
0.0
 10
-49.7658
 20
-54.9677
 30
0.0
 10
-49.7912
 20
-55.828
 30
0.0
 10
-49.7912
 20
-55.828
 30
0.0
 10
-49.8576
 20
-56.4243
 30
0.0
 10
-49.6331
 20
-57.3629
 30
0.0
 10
-48.8788
 20
-58.3655
 30
0.0
 10
-48.8788
 20
-58.3655
 30
0.0
 10
-47.6586
 20
-59.9871
 30
0.0
 10
-45.7183
 20
-60.6841
 30
0.0
 10
-44.2813
 20
-61.094
 30
0.0
 10
-44.2813
 20
-61.094
 30
0.0
 10
-44.2975
 20
-61.5267
 30
0.0
 10
-44.0797
 20
-61.9538
 30
0.0
 10
-43.6787
 20
-62.1854
 30
0.0
 10
-43.6787
 20
-62.1854
 30
0.0
 10
-43.2776
 20
-62.4169
 30
0.0
 10
-42.7987
 20
-62.3921
 30
0.0
 10
-42.432
 20
-62.1615
 30
0.0
 10
-42.432
 20
-62.1615
 30
0.0
 10
-41.3587
 20
-63.2011
 30
0.0
 10
-39.7847
 20
-64.5332
 30
0.0
 10
-37.77
 20
-64.7791
 30
0.0
 10
-37.77
 20
-64.7791
 30
0.0
 10
-36.5247
 20
-64.931
 30
0.0
 10
-35.5995
 20
-64.6562
 30
0.0
 10
-35.1165
 20
-64.3004
 30
0.0
 10
-35.1165
 20
-64.3004
 30
0.0
 10
-34.384
 20
-63.8484
 30
0.0
 10
-33.9562
 20
-62.2424
 30
0.0
 10
-35.15
 20
-61.5533
 30
0.0
  0
SPLINE
  5
7A
330
1F
100
AcDbEntity
  8
layer 1
 62
     7
370
    18
100
AcDbSpline
210
0.0
220
0.0
230
1.0
 70
    11
 71
     3
 72
    28
 73
    24
 74
     0
 42
0.0000000001
 43
0.0000000001
 40
0.0
 40
0.0
 40
0.0
 40
0.0
 40
0.1666666666666667
 40
0.1666666666666667
 40
0.1666666666666667
 40
0.1666666666666667
 40
0.3333333333333333
 40
0.3333333333333333
 40
0.3333333333333333
 40
0.3333333333333333
 40
0.5
 40
0.5
 40
0.5
 40
0.5
 40
0.6666666666666666
 40
0.6666666666666666
 40
0.6666666666666666
 40
0.6666666666666666
 40
0.8333333333333333
 40
0.8333333333333333
 40
0.8333333333333333
 40
0.8333333333333333
 40
1.0
 40
1.0
 40
1.0
 40
1.0
 10
-31.436
 20
-66.7163
 30
0.0
 10
-32.6021
 20
-65.7188
 30
0.0
 10
-34.5001
 20
-66.2861
 30
0.0
 10
-34.0444
 20
-67.5755
 30
0.0
 10
-34.0444
 20
-67.5755
 30
0.0
 10
-33.2254
 20
-69.8935
 30
0.0
 10
-38.5892
 20
-67.858
 30
0.0
 10
-40.5951
 20
-65.2392
 30
0.0
 10
-40.5951
 20
-65.2392
 30
0.0
 10
-40.8652
 20
-64.8865
 30
0.0
 10
-41.5825
 20
-65.2171
 30
0.0
 10
-41.2599
 20
-65.6883
 30
0.0
 10
-41.2599
 20
-65.6883
 30
0.0
 10
-40.1416
 20
-67.3221
 30
0.0
 10
-38.4075
 20
-69.5979
 30
0.0
 10
-35.7217
 20
-70.4037
 30
0.0
 10
-35.7217
 20
-70.4037
 30
0.0
 10
-34.1374
 20
-70.879
 30
0.0
 10
-32.856
 20
-70.7195
 30
0.0
 10
-32.1301
 20
-70.3557
 30
0.0
 10
-32.1301
 20
-70.3557
 30
0.0
 10
-31.0528
 20
-69.9193
 30
0.0
 10
-30.0632
 20
-67.8904
 30
0.0
 10
-31.436
 20
-66.7163
 30
0.0
  0
SPLINE
  5
7B
330
1F
100
AcDbEntity
  8
layer 1
 62
    22
370
    20
100
AcDbSpline
210
0.0
220
0.0
230
1.0
 70
    11
 71
     3
 72
    60
 73
    56
 74
     0
 42
0.0000000001
 43
0.0000000001
 40
0.0
 40
0.0
 40
0.0
 40
0.0
 40
0.0714285714285714
 40
0.0714285714285714
 40
0.0714285714285714
 40
0.0714285714285714
 40
0.1428571428571428
 40
0.1428571428571428
 40
0.1428571428571428
 40
0.1428571428571428
 40
0.2142857142857143
 40
0.2142857142857143
 40
0.2142857142857143
 40
0.2142857142857143
 40
0.2857142857142857
 40
0.2857142857142857
 40
0.2857142857142857
 40
0.2857142857142857
 40
0.3571428571428571
 40
0.3571428571428571
 40
0.3571428571428571
 40
0.3571428571428571
 40
0.4285714285714285
 40
0.4285714285714285
 40
0.4285714285714285
 40
0.4285714285714285
 40
0.4999999999999999
 40
0.4999999999999999
 40
0.4999999999999999
 40
0.4999999999999999
 40
0.5714285714285713
 40
0.5714285714285713
 40
0.5714285714285713
 40
0.5714285714285713
 40
0.6428571428571427
 40
0.6428571428571427
 40
0.6428571428571427
 40
0.6428571428571427
 40
0.7142857142857141
 40
0.7142857142857141
 40
0.7142857142857141
 40
0.7142857142857141
 40
0.7857142857142855
 40
0.7857142857142855
 40
0.7857142857142855
 40
0.7857142857142855
 40
0.8571428571428569
 40
0.8571428571428569
 40
0.8571428571428569
 40
0.8571428571428569
 40
0.9285714285714283
 40
0.9285714285714283
 40
0.9285714285714283
 40
0.9285714285714283
 40
1.0
 40
1.0
 40
1.0
 40
1.0
 10
-95.6888
 20
17.7262
 30
0.0
 10
-95.6161
 20
17.6464
 30
0.0
 10
-95.7164
 20
17.4794
 30
0.0
 10
-95.8398
 20
17.458
 30
0.0
 10
-95.8398
 20
17.458
 30
0.0
 10
-97.1196
 20
17.2352
 30
0.0
 10
-98.3721
 20
16.79
 30
0.0
 10
-98.3721
 20
16.162
 30
0.0
 10
-98.3721
 20
16.162
 30
0.0
 10
-98.3721
 20
15.5339
 30
0.0
 10
-97.1196
 20
15.0887
 30
0.0
 10
-95.8398
 20
14.866
 30
0.0
 10
-95.8398
 20
14.866
 30
0.0
 10
-95.7164
 20
14.8445
 30
0.0
 10
-95.6161
 20
14.6776
 30
0.0
 10
-95.6888
 20
14.5978
 30
0.0
 10
-95.6888
 20
14.5978
 30
0.0
 10
-96.2105
 20
14.0256
 30
0.0
 10
-96.7242
 20
13.4838
 30
0.0
 10
-96.7242
 20
12.9098
 30
0.0
 10
-96.7242
 20
12.9098
 30
0.0
 10
-96.7242
 20
11.8316
 30
0.0
 10
-96.0084
 20
11.2622
 30
0.0
 10
-95.4091
 20
10.8925
 30
0.0
 10
-95.4091
 20
10.8925
 30
0.0
 10
-95.16
 20
10.7389
 30
0.0
 10
-94.9346
 20
10.852
 30
0.0
 10
-94.9609
 20
11.0669
 30
0.0
 10
-94.9609
 20
11.0669
 30
0.0
 10
-95.1333
 20
12.4743
 30
0.0
 10
-93.4622
 20
12.9819
 30
0.0
 10
-92.6424
 20
13.2583
 30
0.0
 10
-92.6424
 20
13.2583
 30
0.0
 10
-91.3693
 20
13.6878
 30
0.0
 10
-90.4853
 20
14.6681
 30
0.0
 10
-90.4853
 20
16.162
 30
0.0
 10
-90.4853
 20
16.162
 30
0.0
 10
-90.4853
 20
17.6559
 30
0.0
 10
-91.3693
 20
18.6362
 30
0.0
 10
-92.6424
 20
19.0657
 30
0.0
 10
-92.6424
 20
19.0657
 30
0.0
 10
-93.4622
 20
19.342
 30
0.0
 10
-95.1333
 20
19.8496
 30
0.0
 10
-94.9609
 20
21.2571
 30
0.0
 10
-94.9609
 20
21.2571
 30
0.0
 10
-94.9346
 20
21.472
 30
0.0
 10
-95.16
 20
21.5851
 30
0.0
 10
-95.4091
 20
21.4314
 30
0.0
 10
-95.4091
 20
21.4314
 30
0.0
 10
-96.0084
 20
21.0618
 30
0.0
 10
-96.7242
 20
20.4924
 30
0.0
 10
-96.7242
 20
19.4142
 30
0.0
 10
-96.7242
 20
19.4142
 30
0.0
 10
-96.7242
 20
18.8402
 30
0.0
 10
-96.2105
 20
18.2983
 30
0.0
 10
-95.6888
 20
17.7262
 30
0.0
  0
SPLINE
  5
7C
330
1F
100
AcDbEntity
  8
layer 1
 62
     7
370
    18
100
AcDbSpline
210
0.0
220
0.0
230
1.0
 70
    11
 71
     3
 72
    28
 73
    24
 74
     0
 42
0.0000000001
 43
0.0000000001
 40
0.0
 40
0.0
 40
0.0
 40
0.0
 40
0.1666666666666667
 40
0.1666666666666667
 40
0.1666666666666667
 40
0.1666666666666667
 40
0.3333333333333333
 40
0.3333333333333333
 40
0.3333333333333333
 40
0.3333333333333333
 40
0.5
 40
0.5
 40
0.5
 40
0.5
 40
0.6666666666666666
 40
0.6666666666666666
 40
0.6666666666666666
 40
0.6666666666666666
 40
0.8333333333333333
 40
0.8333333333333333
 40
0.8333333333333333
 40
0.8333333333333333
 40
1.0
 40
1.0
 40
1.0
 40
1.0
 10
-86.715
 20
29.0294
 30
0.0
 10
-86.4341
 20
27.5209
 30
0.0
 10
-87.8744
 20
26.1608
 30
0.0
 10
-88.7633
 20
27.2001
 30
0.0
 10
-88.7633
 20
27.2001
 30
0.0
 10
-90.3612
 20
29.0685
 30
0.0
 10
-91.2803
 20
23.4055
 30
0.0
 10
-90.0153
 20
20.3589
 30
0.0
 10
-90.0153
 20
20.3589
 30
0.0
 10
-89.8449
 20
19.9487
 30
0.0
 10
-90.4899
 20
19.4928
 30
0.0
 10
-90.7367
 20
20.0078
 30
0.0
 10
-90.7367
 20
20.0078
 30
0.0
 10
-91.5924
 20
21.7931
 30
0.0
 10
-92.6963
 20
24.4328
 30
0.0
 10
-92.0512
 20
27.1617
 30
0.0
 10
-92.0512
 20
27.1617
 30
0.0
 10
-91.6706
 20
28.7714
 30
0.0
 10
-90.8919
 20
29.8013
 30
0.0
 10
-90.2138
 20
30.2481
 30
0.0
 10
-90.2138
 20
30.2481
 30
0.0
 10
-89.2973
 20
30.9629
 30
0.0
 10
-87.0454
 20
30.8054
 30
0.0
 10
-86.715
 20
29.0294
 30
0.0
  0
SPLINE
  5
7D
330
1F
100
AcDbEntity
  8
layer 1
 62
     7
370
    18
100
AcDbSpline
210
0.0
220
0.0
230
1.0
 70
    11
 71
     3
 72
    60
 73
    56
 74
     0
 42
0.0000000001
 43
0.0000000001
 40
0.0
 40
0.0
 40
0.0
 40
0.0
 40
0.0714285714285714
 40
0.0714285714285714
 40
0.0714285714285714
 40
0.0714285714285714
 40
0.1428571428571428
 40
0.1428571428571428
 40
0.1428571428571428
 40
0.1428571428571428
 40
0.2142857142857143
 40
0.2142857142857143
 40
0.2142857142857143
 40
0.2142857142857143
 40
0.2857142857142857
 40
0.2857142857142857
 40
0.2857142857142857
 40
0.2857142857142857
 40
0.3571428571428571
 40
0.3571428571428571
 40
0.3571428571428571
 40
0.3571428571428571
 40
0.4285714285714285
 40
0.4285714285714285
 40
0.4285714285714285
 40
0.4285714285714285
 40
0.4999999999999999
 40
0.4999999999999999
 40
0.4999999999999999
 40
0.4999999999999999
 40
0.5714285714285713
 40
0.5714285714285713
 40
0.5714285714285713
 40
0.5714285714285713
 40
0.6428571428571427
 40
0.6428571428571427
 40
0.6428571428571427
 40
0.6428571428571427
 40
0.7142857142857141
 40
0.7142857142857141
 40
0.7142857142857141
 40
0.7142857142857141
 40
0.7857142857142855
 40
0.7857142857142855
 40
0.7857142857142855
 40
0.7857142857142855
 40
0.8571428571428569
 40
0.8571428571428569
 40
0.8571428571428569
 40
0.8571428571428569
 40
0.9285714285714283
 40
0.9285714285714283
 40
0.9285714285714283
 40
0.9285714285714283
 40
1.0
 40
1.0
 40
1.0
 40
1.0
 10
-84.1007
 20
9.092
 30
0.0
 10
-84.1006
 20
10.2629
 30
0.0
 10
-85.3232
 20
11.0821
 30
0.0
 10
-85.8253
 20
10.1783
 30
0.0
 10
-85.8253
 20
10.1783
 30
0.0
 10
-86.7063
 20
8.5926
 30
0.0
 10
-88.0841
 20
12.4791
 30
0.0
 10
-87.681
 20
14.9555
 30
0.0
 10
-87.681
 20
14.9555
 30
0.0
 10
-87.0259
 20
14.9687
 30
0.0
 10
-86.4988
 20
15.5038
 30
0.0
 10
-86.4988
 20
16.162
 30
0.0
 10
-86.4988
 20
16.162
 30
0.0
 10
-86.4988
 20
16.8202
 30
0.0
 10
-87.0261
 20
17.3554
 30
0.0
 10
-87.6811
 20
17.3685
 30
0.0
 10
-87.6811
 20
17.3685
 30
0.0
 10
-88.084
 20
19.845
 30
0.0
 10
-86.7062
 20
23.7309
 30
0.0
 10
-85.8253
 20
22.1453
 30
0.0
 10
-85.8253
 20
22.1453
 30
0.0
 10
-85.3232
 20
21.2415
 30
0.0
 10
-84.1006
 20
22.0608
 30
0.0
 10
-84.1007
 20
23.2316
 30
0.0
 10
-84.1007
 20
23.2316
 30
0.0
 10
-84.1006
 20
24.6101
 30
0.0
 10
-85.7053
 20
25.0425
 30
0.0
 10
-86.463
 20
24.6343
 30
0.0
 10
-86.463
 20
24.6343
 30
0.0
 10
-87.0126
 20
24.3937
 30
0.0
 10
-87.7132
 20
23.7299
 30
0.0
 10
-88.2043
 20
22.5754
 30
0.0
 10
-88.2043
 20
22.5754
 30
0.0
 10
-88.9986
 20
20.7079
 30
0.0
 10
-88.6321
 20
18.679
 30
0.0
 10
-88.2685
 20
17.2296
 30
0.0
 10
-88.2685
 20
17.2296
 30
0.0
 10
-88.6514
 20
17.0273
 30
0.0
 10
-88.9124
 20
16.6251
 30
0.0
 10
-88.9124
 20
16.162
 30
0.0
 10
-88.9124
 20
16.162
 30
0.0
 10
-88.9124
 20
15.6989
 30
0.0
 10
-88.6514
 20
15.2966
 30
0.0
 10
-88.2684
 20
15.0943
 30
0.0
 10
-88.2684
 20
15.0943
 30
0.0
 10
-88.632
 20
13.645
 30
0.0
 10
-88.9987
 20
11.6158
 30
0.0
 10
-88.2043
 20
9.7481
 30
0.0
 10
-88.2043
 20
9.7481
 30
0.0
 10
-87.7132
 20
8.5937
 30
0.0
 10
-87.0126
 20
7.9298
 30
0.0
 10
-86.463
 20
7.6894
 30
0.0
 10
-86.463
 20
7.6894
 30
0.0
 10
-85.7053
 20
7.2811
 30
0.0
 10
-84.1006
 20
7.7136
 30
0.0
 10
-84.1007
 20
9.092
 30
0.0
  0
SPLINE
  5
7E
330
1F
100
AcDbEntity
  8
layer 1
 62
     7
370
    18
100
AcDbSpline
210
0.0
220
0.0
230
1.0
 70
    11
 71
     3
 72
    28
 73
    24
 74
     0
 42
0.0000000001
 43
0.0000000001
 40
0.0
 40
0.0
 40
0.0
 40
0.0
 40
0.1666666666666667
 40
0.1666666666666667
 40
0.1666666666666667
 40
0.1666666666666667
 40
0.3333333333333333
 40
0.3333333333333333
 40
0.3333333333333333
 40
0.3333333333333333
 40
0.5
 40
0.5
 40
0.5
 40
0.5
 40
0.6666666666666666
 40
0.6666666666666666
 40
0.6666666666666666
 40
0.6666666666666666
 40
0.8333333333333333
 40
0.8333333333333333
 40
0.8333333333333333
 40
0.8333333333333333
 40
1.0
 40
1.0
 40
1.0
 40
1.0
 10
-86.715
 20
3.2941
 30
0.0
 10
-86.4341
 20
4.8027
 30
0.0
 10
-87.8744
 20
6.1628
 30
0.0
 10
-88.7633
 20
5.1235
 30
0.0
 10
-88.7633
 20
5.1235
 30
0.0
 10
-90.3612
 20
3.2551
 30
0.0
 10
-91.2803
 20
8.9181
 30
0.0
 10
-90.0153
 20
11.9646
 30
0.0
 10
-90.0153
 20
11.9646
 30
0.0
 10
-89.8449
 20
12.3749
 30
0.0
 10
-90.4899
 20
12.8307
 30
0.0
 10
-90.7367
 20
12.3158
 30
0.0
 10
-90.7367
 20
12.3158
 30
0.0
 10
-91.5924
 20
10.5305
 30
0.0
 10
-92.6963
 20
7.8908
 30
0.0
 10
-92.0512
 20
5.1619
 30
0.0
 10
-92.0512
 20
5.1619
 30
0.0
 10
-91.6706
 20
3.5522
 30
0.0
 10
-90.8919
 20
2.5223
 30
0.0
 10
-90.2138
 20
2.0755
 30
0.0
 10
-90.2138
 20
2.0755
 30
0.0
 10
-89.2973
 20
1.3607
 30
0.0
 10
-87.0454
 20
1.5182
 30
0.0
 10
-86.715
 20
3.2941
 30
0.0
  0
SPLINE
  5
7F
330
1F
100
AcDbEntity
  8
layer 1
 62
    22
370
    20
100
AcDbSpline
210
0.0
220
0.0
230
1.0
 70
    11
 71
     3
 72
    60
 73
    56
 74
     0
 42
0.0000000001
 43
0.0000000001
 40
0.0
 40
0.0
 40
0.0
 40
0.0
 40
0.0714285714285714
 40
0.0714285714285714
 40
0.0714285714285714
 40
0.0714285714285714
 40
0.1428571428571428
 40
0.1428571428571428
 40
0.1428571428571428
 40
0.1428571428571428
 40
0.2142857142857143
 40
0.2142857142857143
 40
0.2142857142857143
 40
0.2142857142857143
 40
0.2857142857142857
 40
0.2857142857142857
 40
0.2857142857142857
 40
0.2857142857142857
 40
0.3571428571428571
 40
0.3571428571428571
 40
0.3571428571428571
 40
0.3571428571428571
 40
0.4285714285714285
 40
0.4285714285714285
 40
0.4285714285714285
 40
0.4285714285714285
 40
0.4999999999999999
 40
0.4999999999999999
 40
0.4999999999999999
 40
0.4999999999999999
 40
0.5714285714285713
 40
0.5714285714285713
 40
0.5714285714285713
 40
0.5714285714285713
 40
0.6428571428571427
 40
0.6428571428571427
 40
0.6428571428571427
 40
0.6428571428571427
 40
0.7142857142857141
 40
0.7142857142857141
 40
0.7142857142857141
 40
0.7142857142857141
 40
0.7857142857142855
 40
0.7857142857142855
 40
0.7857142857142855
 40
0.7857142857142855
 40
0.8571428571428569
 40
0.8571428571428569
 40
0.8571428571428569
 40
0.8571428571428569
 40
0.9285714285714283
 40
0.9285714285714283
 40
0.9285714285714283
 40
0.9285714285714283
 40
1.0
 40
1.0
 40
1.0
 40
1.0
 10
-45.712
 20
101.1598
 30
0.0
 10
-45.7447
 20
101.057
 30
0.0
 10
-45.9395
 20
101.0604
 30
0.0
 10
-46.0198
 20
101.1565
 30
0.0
 10
-46.0198
 20
101.1565
 30
0.0
 10
-46.8525
 20
102.1535
 30
0.0
 10
-47.8643
 20
103.0156
 30
0.0
 10
-48.4082
 20
102.7016
 30
0.0
 10
-48.4082
 20
102.7016
 30
0.0
 10
-48.9522
 20
102.3875
 30
0.0
 10
-48.7115
 20
101.0802
 30
0.0
 10
-48.2644
 20
99.8605
 30
0.0
 10
-48.2644
 20
99.8605
 30
0.0
 10
-48.2213
 20
99.7429
 30
0.0
 10
-48.3158
 20
99.5726
 30
0.0
 10
-48.4212
 20
99.5957
 30
0.0
 10
-48.4212
 20
99.5957
 30
0.0
 10
-49.1776
 20
99.7614
 30
0.0
 10
-49.9037
 20
99.9353
 30
0.0
 10
-50.4008
 20
99.6483
 30
0.0
 10
-50.4008
 20
99.6483
 30
0.0
 10
-51.3345
 20
99.1092
 30
0.0
 10
-51.4698
 20
98.2046
 30
0.0
 10
-51.4902
 20
97.5008
 30
0.0
 10
-51.4902
 20
97.5008
 30
0.0
 10
-51.4988
 20
97.2082
 30
0.0
 10
-51.2881
 20
97.0696
 30
0.0
 10
-51.1152
 20
97.1998
 30
0.0
 10
-51.1152
 20
97.1998
 30
0.0
 10
-49.9825
 20
98.0528
 30
0.0
 10
-48.7073
 20
96.8594
 30
0.0
 10
-48.0581
 20
96.2876
 30
0.0
 10
-48.0581
 20
96.2876
 30
0.0
 10
-47.0496
 20
95.3999
 30
0.0
 10
-45.7586
 20
95.1244
 30
0.0
 10
-44.4648
 20
95.8714
 30
0.0
 10
-44.4648
 20
95.8714
 30
0.0
 10
-43.1711
 20
96.6183
 30
0.0
 10
-42.7641
 20
97.874
 30
0.0
 10
-43.0287
 20
99.1913
 30
0.0
 10
-43.0287
 20
99.1913
 30
0.0
 10
-43.1993
 20
100.0395
 30
0.0
 10
-43.5952
 20
101.7405
 30
0.0
 10
-42.2901
 20
102.2949
 30
0.0
 10
-42.2901
 20
102.2949
 30
0.0
 10
-42.0909
 20
102.3796
 30
0.0
 10
-42.1056
 20
102.6314
 30
0.0
 10
-42.3633
 20
102.7702
 30
0.0
 10
-42.3633
 20
102.7702
 30
0.0
 10
-42.983
 20
103.1044
 30
0.0
 10
-43.8341
 20
103.4396
 30
0.0
 10
-44.7678
 20
102.9005
 30
0.0
 10
-44.7678
 20
102.9005
 30
0.0
 10
-45.2649
 20
102.6135
 30
0.0
 10
-45.4773
 20
101.8977
 30
0.0
 10
-45.712
 20
101.1598
 30
0.0
  0
SPLINE
  5
80
330
1F
100
AcDbEntity
  8
layer 1
 62
     7
370
    18
100
AcDbSpline
210
0.0
220
0.0
230
1.0
 70
    11
 71
     3
 72
    28
 73
    24
 74
     0
 42
0.0000000001
 43
0.0000000001
 40
0.0
 40
0.0
 40
0.0
 40
0.0
 40
0.1666666666666667
 40
0.1666666666666667
 40
0.1666666666666667
 40
0.1666666666666667
 40
0.3333333333333333
 40
0.3333333333333333
 40
0.3333333333333333
 40
0.3333333333333333
 40
0.5
 40
0.5
 40
0.5
 40
0.5
 40
0.6666666666666666
 40
0.6666666666666666
 40
0.6666666666666666
 40
0.6666666666666666
 40
0.8333333333333333
 40
0.8333333333333333
 40
0.8333333333333333
 40
0.8333333333333333
 40
1.0
 40
1.0
 40
1.0
 40
1.0
 10
-31.4361
 20
99.0399
 30
0.0
 10
-32.6022
 20
98.0424
 30
0.0
 10
-34.5002
 20
98.6097
 30
0.0
 10
-34.0445
 20
99.8991
 30
0.0
 10
-34.0445
 20
99.8991
 30
0.0
 10
-33.2255
 20
102.2171
 30
0.0
 10
-38.5893
 20
100.1816
 30
0.0
 10
-40.5952
 20
97.5628
 30
0.0
 10
-40.5952
 20
97.5628
 30
0.0
 10
-40.8653
 20
97.2101
 30
0.0
 10
-41.5825
 20
97.5408
 30
0.0
 10
-41.26
 20
98.0119
 30
0.0
 10
-41.26
 20
98.0119
 30
0.0
 10
-40.1417
 20
99.6457
 30
0.0
 10
-38.4076
 20
101.9216
 30
0.0
 10
-35.7218
 20
102.7273
 30
0.0
 10
-35.7218
 20
102.7273
 30
0.0
 10
-34.1374
 20
103.2026
 30
0.0
 10
-32.8561
 20
103.0431
 30
0.0
 10
-32.1302
 20
102.6793
 30
0.0
 10
-32.1302
 20
102.6793
 30
0.0
 10
-31.0529
 20
102.243
 30
0.0
 10
-30.0633
 20
100.2141
 30
0.0
 10
-31.4361
 20
99.0399
 30
0.0
  0
SPLINE
  5
81
330
1F
100
AcDbEntity
  8
layer 1
 62
     7
370
    18
100
AcDbSpline
210
0.0
220
0.0
230
1.0
 70
    11
 71
     3
 72
    60
 73
    56
 74
     0
 42
0.0000000001
 43
0.0000000001
 40
0.0
 40
0.0
 40
0.0
 40
0.0
 40
0.0714285714285714
 40
0.0714285714285714
 40
0.0714285714285714
 40
0.0714285714285714
 40
0.1428571428571428
 40
0.1428571428571428
 40
0.1428571428571428
 40
0.1428571428571428
 40
0.2142857142857143
 40
0.2142857142857143
 40
0.2142857142857143
 40
0.2142857142857143
 40
0.2857142857142857
 40
0.2857142857142857
 40
0.2857142857142857
 40
0.2857142857142857
 40
0.3571428571428571
 40
0.3571428571428571
 40
0.3571428571428571
 40
0.3571428571428571
 40
0.4285714285714285
 40
0.4285714285714285
 40
0.4285714285714285
 40
0.4285714285714285
 40
0.4999999999999999
 40
0.4999999999999999
 40
0.4999999999999999
 40
0.4999999999999999
 40
0.5714285714285713
 40
0.5714285714285713
 40
0.5714285714285713
 40
0.5714285714285713
 40
0.6428571428571427
 40
0.6428571428571427
 40
0.6428571428571427
 40
0.6428571428571427
 40
0.7142857142857141
 40
0.7142857142857141
 40
0.7142857142857141
 40
0.7142857142857141
 40
0.7857142857142855
 40
0.7857142857142855
 40
0.7857142857142855
 40
0.7857142857142855
 40
0.8571428571428569
 40
0.8571428571428569
 40
0.8571428571428569
 40
0.8571428571428569
 40
0.9285714285714283
 40
0.9285714285714283
 40
0.9285714285714283
 40
0.9285714285714283
 40
1.0
 40
1.0
 40
1.0
 40
1.0
 10
-47.3953
 20
86.8072
 30
0.0
 10
-46.3813
 20
87.3925
 30
0.0
 10
-46.2831
 20
88.8609
 30
0.0
 10
-47.3169
 20
88.8439
 30
0.0
 10
-47.3169
 20
88.8439
 30
0.0
 10
-49.1306
 20
88.814
 30
0.0
 10
-46.4537
 20
91.9504
 30
0.0
 10
-44.1076
 20
92.8395
 30
0.0
 10
-44.1076
 20
92.8395
 30
0.0
 10
-43.7686
 20
92.2788
 30
0.0
 10
-43.0416
 20
92.0899
 30
0.0
 10
-42.4716
 20
92.419
 30
0.0
 10
-42.4716
 20
92.419
 30
0.0
 10
-41.9016
 20
92.7481
 30
0.0
 10
-41.7017
 20
93.4723
 30
0.0
 10
-42.0179
 20
94.0461
 30
0.0
 10
-42.0179
 20
94.0461
 30
0.0
 10
-40.0746
 20
95.6333
 30
0.0
 10
-36.0204
 20
96.383
 30
0.0
 10
-36.9532
 20
94.8274
 30
0.0
 10
-36.9532
 20
94.8274
 30
0.0
 10
-37.4848
 20
93.9406
 30
0.0
 10
-36.164
 20
93.2915
 30
0.0
 10
-35.1501
 20
93.877
 30
0.0
 10
-35.1501
 20
93.877
 30
0.0
 10
-33.9562
 20
94.5661
 30
0.0
 10
-34.3841
 20
96.172
 30
0.0
 10
-35.1165
 20
96.6241
 30
0.0
 10
-35.1165
 20
96.6241
 30
0.0
 10
-35.5996
 20
96.9798
 30
0.0
 10
-36.5248
 20
97.2546
 30
0.0
 10
-37.7702
 20
97.1027
 30
0.0
 10
-37.7702
 20
97.1027
 30
0.0
 10
-39.7846
 20
96.8568
 30
0.0
 10
-41.3585
 20
95.525
 30
0.0
 10
-42.4319
 20
94.4854
 30
0.0
 10
-42.4319
 20
94.4854
 30
0.0
 10
-42.7985
 20
94.7158
 30
0.0
 10
-43.2773
 20
94.7408
 30
0.0
 10
-43.6784
 20
94.5092
 30
0.0
 10
-43.6784
 20
94.5092
 30
0.0
 10
-44.0795
 20
94.2777
 30
0.0
 10
-44.2974
 20
93.8505
 30
0.0
 10
-44.2811
 20
93.4176
 30
0.0
 10
-44.2811
 20
93.4176
 30
0.0
 10
-45.718
 20
93.0079
 30
0.0
 10
-47.6587
 20
92.3109
 30
0.0
 10
-48.879
 20
90.689
 30
0.0
 10
-48.879
 20
90.689
 30
0.0
 10
-49.6331
 20
89.6865
 30
0.0
 10
-49.8578
 20
88.7478
 30
0.0
 10
-49.7912
 20
88.1517
 30
0.0
 10
-49.7912
 20
88.1517
 30
0.0
 10
-49.7659
 20
87.2913
 30
0.0
 10
-48.589
 20
86.1179
 30
0.0
 10
-47.3953
 20
86.8072
 30
0.0
  0
SPLINE
  5
82
330
1F
100
AcDbEntity
  8
layer 1
 62
     7
370
    18
100
AcDbSpline
210
0.0
220
0.0
230
1.0
 70
    11
 71
     3
 72
    28
 73
    24
 74
     0
 42
0.0000000001
 43
0.0000000001
 40
0.0
 40
0.0
 40
0.0
 40
0.0
 40
0.1666666666666667
 40
0.1666666666666667
 40
0.1666666666666667
 40
0.1666666666666667
 40
0.3333333333333333
 40
0.3333333333333333
 40
0.3333333333333333
 40
0.3333333333333333
 40
0.5
 40
0.5
 40
0.5
 40
0.5
 40
0.6666666666666666
 40
0.6666666666666666
 40
0.6666666666666666
 40
0.6666666666666666
 40
0.8333333333333333
 40
0.8333333333333333
 40
0.8333333333333333
 40
0.8333333333333333
 40
1.0
 40
1.0
 40
1.0
 40
1.0
 10
-53.7236
 20
86.1722
 30
0.0
 10
-52.2767
 20
86.6833
 30
0.0
 10
-51.819
 20
88.6107
 30
0.0
 10
-53.1635
 20
88.8608
 30
0.0
 10
-53.1635
 20
88.8608
 30
0.0
 10
-55.5805
 20
89.3105
 30
0.0
 10
-51.1357
 20
92.9379
 30
0.0
 10
-47.8648
 20
93.3656
 30
0.0
 10
-47.8648
 20
93.3656
 30
0.0
 10
-47.4244
 20
93.4233
 30
0.0
 10
-47.3521
 20
94.2097
 30
0.0
 10
-47.9214
 20
94.166
 30
0.0
 10
-47.9214
 20
94.166
 30
0.0
 10
-49.8954
 20
94.0144
 30
0.0
 10
-52.7334
 20
93.6506
 30
0.0
 10
-54.7742
 20
91.7274
 30
0.0
 10
-54.7742
 20
91.7274
 30
0.0
 10
-55.9779
 20
90.593
 30
0.0
 10
-56.4805
 20
89.4036
 30
0.0
 10
-56.5284
 20
88.593
 30
0.0
 10
-56.5284
 20
88.593
 30
0.0
 10
-56.6891
 20
87.4419
 30
0.0
 10
-55.4268
 20
85.5704
 30
0.0
 10
-53.7236
 20
86.1722
 30
0.0
  0
SPLINE
  5
83
330
1F
100
AcDbEntity
  8
layer 1
 62
    22
370
    20
100
AcDbSpline
210
0.0
220
0.0
230
1.0
 70
    11
 71
     3
 72
    60
 73
    56
 74
     0
 42
0.0000000001
 43
0.0000000001
 40
0.0
 40
0.0
 40
0.0
 40
0.0
 40
0.0714285714285714
 40
0.0714285714285714
 40
0.0714285714285714
 40
0.0714285714285714
 40
0.1428571428571428
 40
0.1428571428571428
 40
0.1428571428571428
 40
0.1428571428571428
 40
0.2142857142857143
 40
0.2142857142857143
 40
0.2142857142857143
 40
0.2142857142857143
 40
0.2857142857142857
 40
0.2857142857142857
 40
0.2857142857142857
 40
0.2857142857142857
 40
0.3571428571428571
 40
0.3571428571428571
 40
0.3571428571428571
 40
0.3571428571428571
 40
0.4285714285714285
 40
0.4285714285714285
 40
0.4285714285714285
 40
0.4285714285714285
 40
0.4999999999999999
 40
0.4999999999999999
 40
0.4999999999999999
 40
0.4999999999999999
 40
0.5714285714285713
 40
0.5714285714285713
 40
0.5714285714285713
 40
0.5714285714285713
 40
0.6428571428571427
 40
0.6428571428571427
 40
0.6428571428571427
 40
0.6428571428571427
 40
0.7142857142857141
 40
0.7142857142857141
 40
0.7142857142857141
 40
0.7142857142857141
 40
0.7857142857142855
 40
0.7857142857142855
 40
0.7857142857142855
 40
0.7857142857142855
 40
0.8571428571428569
 40
0.8571428571428569
 40
0.8571428571428569
 40
0.8571428571428569
 40
0.9285714285714283
 40
0.9285714285714283
 40
0.9285714285714283
 40
0.9285714285714283
 40
1.0
 40
1.0
 40
1.0
 40
1.0
 10
51.532
 20
99.5955
 30
0.0
 10
51.4266
 20
99.5724
 30
0.0
 10
51.3321
 20
99.7427
 30
0.0
 10
51.3752
 20
99.8603
 30
0.0
 10
51.3752
 20
99.8603
 30
0.0
 10
51.8223
 20
101.08
 30
0.0
 10
52.063
 20
102.3873
 30
0.0
 10
51.519
 20
102.7014
 30
0.0
 10
51.519
 20
102.7014
 30
0.0
 10
50.9751
 20
103.0154
 30
0.0
 10
49.9633
 20
102.1533
 30
0.0
 10
49.1306
 20
101.1563
 30
0.0
 10
49.1306
 20
101.1563
 30
0.0
 10
49.0503
 20
101.0602
 30
0.0
 10
48.8555
 20
101.0568
 30
0.0
 10
48.8228
 20
101.1596
 30
0.0
 10
48.8228
 20
101.1596
 30
0.0
 10
48.5881
 20
101.8975
 30
0.0
 10
48.3757
 20
102.6133
 30
0.0
 10
47.8786
 20
102.9003
 30
0.0
 10
47.8786
 20
102.9003
 30
0.0
 10
46.9449
 20
103.4394
 30
0.0
 10
46.0938
 20
103.1042
 30
0.0
 10
45.4741
 20
102.77
 30
0.0
 10
45.4741
 20
102.77
 30
0.0
 10
45.2164
 20
102.6312
 30
0.0
 10
45.2017
 20
102.3794
 30
0.0
 10
45.4009
 20
102.2947
 30
0.0
 10
45.4009
 20
102.2947
 30
0.0
 10
46.706
 20
101.7403
 30
0.0
 10
46.3101
 20
100.0393
 30
0.0
 10
46.1395
 20
99.1911
 30
0.0
 10
46.1395
 20
99.1911
 30
0.0
 10
45.8749
 20
97.8738
 30
0.0
 10
46.2819
 20
96.6181
 30
0.0
 10
47.5756
 20
95.8712
 30
0.0
 10
47.5756
 20
95.8712
 30
0.0
 10
48.8694
 20
95.1242
 30
0.0
 10
50.1604
 20
95.3997
 30
0.0
 10
51.1689
 20
96.2874
 30
0.0
 10
51.1689
 20
96.2874
 30
0.0
 10
51.8181
 20
96.8592
 30
0.0
 10
53.0933
 20
98.0526
 30
0.0
 10
54.226
 20
97.1996
 30
0.0
 10
54.226
 20
97.1996
 30
0.0
 10
54.3989
 20
97.0694
 30
0.0
 10
54.6096
 20
97.208
 30
0.0
 10
54.601
 20
97.5006
 30
0.0
 10
54.601
 20
97.5006
 30
0.0
 10
54.5806
 20
98.2044
 30
0.0
 10
54.4453
 20
99.109
 30
0.0
 10
53.5116
 20
99.6481
 30
0.0
 10
53.5116
 20
99.6481
 30
0.0
 10
53.0145
 20
99.9351
 30
0.0
 10
52.2884
 20
99.7612
 30
0.0
 10
51.532
 20
99.5955
 30
0.0
  0
SPLINE
  5
84
330
1F
100
AcDbEntity
  8
layer 1
 62
     7
370
    18
100
AcDbSpline
210
0.0
220
0.0
230
1.0
 70
    11
 71
     3
 72
    28
 73
    24
 74
     0
 42
0.0000000001
 43
0.0000000001
 40
0.0
 40
0.0
 40
0.0
 40
0.0
 40
0.1666666666666667
 40
0.1666666666666667
 40
0.1666666666666667
 40
0.1666666666666667
 40
0.3333333333333333
 40
0.3333333333333333
 40
0.3333333333333333
 40
0.3333333333333333
 40
0.5
 40
0.5
 40
0.5
 40
0.5
 40
0.6666666666666666
 40
0.6666666666666666
 40
0.6666666666666666
 40
0.6666666666666666
 40
0.8333333333333333
 40
0.8333333333333333
 40
0.8333333333333333
 40
0.8333333333333333
 40
1.0
 40
1.0
 40
1.0
 40
1.0
 10
56.834
 20
86.1722
 30
0.0
 10
55.3872
 20
86.6833
 30
0.0
 10
54.9294
 20
88.6107
 30
0.0
 10
56.2739
 20
88.8608
 30
0.0
 10
56.2739
 20
88.8608
 30
0.0
 10
58.6909
 20
89.3105
 30
0.0
 10
54.2462
 20
92.9379
 30
0.0
 10
50.9753
 20
93.3656
 30
0.0
 10
50.9753
 20
93.3656
 30
0.0
 10
50.5348
 20
93.4233
 30
0.0
 10
50.4625
 20
94.2097
 30
0.0
 10
51.0318
 20
94.166
 30
0.0
 10
51.0318
 20
94.166
 30
0.0
 10
53.0059
 20
94.0144
 30
0.0
 10
55.8439
 20
93.6506
 30
0.0
 10
57.8846
 20
91.7274
 30
0.0
 10
57.8846
 20
91.7274
 30
0.0
 10
59.0884
 20
90.593
 30
0.0
 10
59.5909
 20
89.4036
 30
0.0
 10
59.6388
 20
88.593
 30
0.0
 10
59.6388
 20
88.593
 30
0.0
 10
59.7996
 20
87.4419
 30
0.0
 10
58.5373
 20
85.5704
 30
0.0
 10
56.834
 20
86.1722
 30
0.0
  0
SPLINE
  5
85
330
1F
100
AcDbEntity
  8
layer 1
 62
     7
370
    18
100
AcDbSpline
210
0.0
220
0.0
230
1.0
 70
    11
 71
     3
 72
    60
 73
    56
 74
     0
 42
0.0000000001
 43
0.0000000001
 40
0.0
 40
0.0
 40
0.0
 40
0.0
 40
0.0714285714285714
 40
0.0714285714285714
 40
0.0714285714285714
 40
0.0714285714285714
 40
0.1428571428571428
 40
0.1428571428571428
 40
0.1428571428571428
 40
0.1428571428571428
 40
0.2142857142857143
 40
0.2142857142857143
 40
0.2142857142857143
 40
0.2142857142857143
 40
0.2857142857142857
 40
0.2857142857142857
 40
0.2857142857142857
 40
0.2857142857142857
 40
0.3571428571428571
 40
0.3571428571428571
 40
0.3571428571428571
 40
0.3571428571428571
 40
0.4285714285714285
 40
0.4285714285714285
 40
0.4285714285714285
 40
0.4285714285714285
 40
0.4999999999999999
 40
0.4999999999999999
 40
0.4999999999999999
 40
0.4999999999999999
 40
0.5714285714285713
 40
0.5714285714285713
 40
0.5714285714285713
 40
0.5714285714285713
 40
0.6428571428571427
 40
0.6428571428571427
 40
0.6428571428571427
 40
0.6428571428571427
 40
0.7142857142857141
 40
0.7142857142857141
 40
0.7142857142857141
 40
0.7142857142857141
 40
0.7857142857142855
 40
0.7857142857142855
 40
0.7857142857142855
 40
0.7857142857142855
 40
0.8571428571428569
 40
0.8571428571428569
 40
0.8571428571428569
 40
0.8571428571428569
 40
0.9285714285714283
 40
0.9285714285714283
 40
0.9285714285714283
 40
0.9285714285714283
 40
1.0
 40
1.0
 40
1.0
 40
1.0
 10
38.2606
 20
93.877
 30
0.0
 10
39.2745
 20
93.2914
 30
0.0
 10
40.5953
 20
93.9406
 30
0.0
 10
40.0636
 20
94.8274
 30
0.0
 10
40.0636
 20
94.8274
 30
0.0
 10
39.1309
 20
96.3832
 30
0.0
 10
43.1856
 20
95.6331
 30
0.0
 10
45.1286
 20
94.0458
 30
0.0
 10
45.1286
 20
94.0458
 30
0.0
 10
44.8125
 20
93.4719
 30
0.0
 10
45.0124
 20
92.7479
 30
0.0
 10
45.5824
 20
92.4188
 30
0.0
 10
45.5824
 20
92.4188
 30
0.0
 10
46.1524
 20
92.0897
 30
0.0
 10
46.8796
 20
92.2787
 30
0.0
 10
47.2184
 20
92.8394
 30
0.0
 10
47.2184
 20
92.8394
 30
0.0
 10
49.5646
 20
91.9501
 30
0.0
 10
52.241
 20
88.8139
 30
0.0
 10
50.4273
 20
88.8439
 30
0.0
 10
50.4273
 20
88.8439
 30
0.0
 10
49.3936
 20
88.8609
 30
0.0
 10
49.4918
 20
87.3925
 30
0.0
 10
50.5058
 20
86.8072
 30
0.0
 10
50.5058
 20
86.8072
 30
0.0
 10
51.6996
 20
86.1178
 30
0.0
 10
52.8764
 20
87.2913
 30
0.0
 10
52.9017
 20
88.1516
 30
0.0
 10
52.9017
 20
88.1516
 30
0.0
 10
52.9682
 20
88.7479
 30
0.0
 10
52.7436
 20
89.6865
 30
0.0
 10
51.9893
 20
90.6891
 30
0.0
 10
51.9893
 20
90.6891
 30
0.0
 10
50.7692
 20
92.3107
 30
0.0
 10
48.8288
 20
93.0078
 30
0.0
 10
47.3918
 20
93.4176
 30
0.0
 10
47.3918
 20
93.4176
 30
0.0
 10
47.4081
 20
93.8503
 30
0.0
 10
47.1903
 20
94.2775
 30
0.0
 10
46.7892
 20
94.509
 30
0.0
 10
46.7892
 20
94.509
 30
0.0
 10
46.3881
 20
94.7406
 30
0.0
 10
45.9092
 20
94.7157
 30
0.0
 10
45.5425
 20
94.4851
 30
0.0
 10
45.5425
 20
94.4851
 30
0.0
 10
44.4692
 20
95.5247
 30
0.0
 10
42.8952
 20
96.8569
 30
0.0
 10
40.8805
 20
97.1027
 30
0.0
 10
40.8805
 20
97.1027
 30
0.0
 10
39.6353
 20
97.2546
 30
0.0
 10
38.71
 20
96.9798
 30
0.0
 10
38.227
 20
96.6241
 30
0.0
 10
38.227
 20
96.6241
 30
0.0
 10
37.4946
 20
96.172
 30
0.0
 10
37.0668
 20
94.5661
 30
0.0
 10
38.2606
 20
93.877
 30
0.0
  0
SPLINE
  5
86
330
1F
100
AcDbEntity
  8
layer 1
 62
     7
370
    18
100
AcDbSpline
210
0.0
220
0.0
230
1.0
 70
    11
 71
     3
 72
    28
 73
    24
 74
     0
 42
0.0000000001
 43
0.0000000001
 40
0.0
 40
0.0
 40
0.0
 40
0.0
 40
0.1666666666666667
 40
0.1666666666666667
 40
0.1666666666666667
 40
0.1666666666666667
 40
0.3333333333333333
 40
0.3333333333333333
 40
0.3333333333333333
 40
0.3333333333333333
 40
0.5
 40
0.5
 40
0.5
 40
0.5
 40
0.6666666666666666
 40
0.6666666666666666
 40
0.6666666666666666
 40
0.6666666666666666
 40
0.8333333333333333
 40
0.8333333333333333
 40
0.8333333333333333
 40
0.8333333333333333
 40
1.0
 40
1.0
 40
1.0
 40
1.0
 10
34.5466
 20
99.0399
 30
0.0
 10
35.7126
 20
98.0424
 30
0.0
 10
37.6106
 20
98.6097
 30
0.0
 10
37.155
 20
99.8991
 30
0.0
 10
37.155
 20
99.8991
 30
0.0
 10
36.3359
 20
102.2171
 30
0.0
 10
41.6998
 20
100.1816
 30
0.0
 10
43.7056
 20
97.5628
 30
0.0
 10
43.7056
 20
97.5628
 30
0.0
 10
43.9757
 20
97.2101
 30
0.0
 10
44.693
 20
97.5408
 30
0.0
 10
44.3704
 20
98.0119
 30
0.0
 10
44.3704
 20
98.0119
 30
0.0
 10
43.2522
 20
99.6457
 30
0.0
 10
41.5181
 20
101.9216
 30
0.0
 10
38.8322
 20
102.7273
 30
0.0
 10
38.8322
 20
102.7273
 30
0.0
 10
37.2479
 20
103.2026
 30
0.0
 10
35.9666
 20
103.0431
 30
0.0
 10
35.2406
 20
102.6793
 30
0.0
 10
35.2406
 20
102.6793
 30
0.0
 10
34.1633
 20
102.243
 30
0.0
 10
33.1738
 20
100.2141
 30
0.0
 10
34.5466
 20
99.0399
 30
0.0
  0
SPLINE
  5
87
330
1F
100
AcDbEntity
  8
layer 1
 62
     7
370
    20
100
AcDbSpline
210
0.0
220
0.0
230
1.0
 70
    11
 71
     3
 72
    36
 73
    32
 74
     0
 42
0.0000000001
 43
0.0000000001
 40
0.0
 40
0.0
 40
0.0
 40
0.0
 40
0.125
 40
0.125
 40
0.125
 40
0.125
 40
0.25
 40
0.25
 40
0.25
 40
0.25
 40
0.375
 40
0.375
 40
0.375
 40
0.375
 40
0.5
 40
0.5
 40
0.5
 40
0.5
 40
0.625
 40
0.625
 40
0.625
 40
0.625
 40
0.75
 40
0.75
 40
0.75
 40
0.75
 40
0.875
 40
0.875
 40
0.875
 40
0.875
 40
1.0
 40
1.0
 40
1.0
 40
1.0
 10
87.21
 20
-39.6524
 30
0.0
 10
87.3505
 20
-39.5443
 30
0.0
 10
87.4379
 20
-39.7121
 30
0.0
 10
87.4354
 20
-39.8022
 30
0.0
 10
87.4354
 20
-39.8022
 30
0.0
 10
87.3854
 20
-41.6582
 30
0.0
 10
89.5079
 20
-43.6765
 30
0.0
 10
87.4721
 20
-46.1052
 30
0.0
 10
87.4721
 20
-46.1052
 30
0.0
 10
85.7547
 20
-48.1541
 30
0.0
 10
82.0426
 20
-46.0558
 30
0.0
 10
81.0701
 20
-47.2169
 30
0.0
 10
81.0701
 20
-47.2169
 30
0.0
 10
80.3809
 20
-48.0397
 30
0.0
 10
81.1593
 20
-48.2427
 30
0.0
 10
80.6782
 20
-48.8172
 30
0.0
 10
80.6782
 20
-48.8172
 30
0.0
 10
80.2108
 20
-49.3752
 30
0.0
 10
79.6743
 20
-48.9621
 30
0.0
 10
79.4148
 20
-48.7449
 30
0.0
 10
79.4148
 20
-48.7449
 30
0.0
 10
78.674
 20
-48.1242
 30
0.0
 10
78.937
 20
-46.9836
 30
0.0
 10
79.3344
 20
-46.509
 30
0.0
 10
79.3344
 20
-46.509
 30
0.0
 10
81.0321
 20
-44.4811
 30
0.0
 10
84.7399
 20
-45.5413
 30
0.0
 10
85.7512
 20
-44.3344
 30
0.0
 10
85.7512
 20
-44.3344
 30
0.0
 10
86.8241
 20
-43.0537
 30
0.0
 10
85.5259
 20
-40.9486
 30
0.0
 10
87.21
 20
-39.6524
 30
0.0
  0
SPLINE
  5
88
330
1F
100
AcDbEntity
  8
layer 1
 62
    22
370
    20
100
AcDbSpline
210
0.0
220
0.0
230
1.0
 70
    11
 71
     3
 72
    60
 73
    56
 74
     0
 42
0.0000000001
 43
0.0000000001
 40
0.0
 40
0.0
 40
0.0
 40
0.0
 40
0.0714285714285714
 40
0.0714285714285714
 40
0.0714285714285714
 40
0.0714285714285714
 40
0.1428571428571428
 40
0.1428571428571428
 40
0.1428571428571428
 40
0.1428571428571428
 40
0.2142857142857143
 40
0.2142857142857143
 40
0.2142857142857143
 40
0.2142857142857143
 40
0.2857142857142857
 40
0.2857142857142857
 40
0.2857142857142857
 40
0.2857142857142857
 40
0.3571428571428571
 40
0.3571428571428571
 40
0.3571428571428571
 40
0.3571428571428571
 40
0.4285714285714285
 40
0.4285714285714285
 40
0.4285714285714285
 40
0.4285714285714285
 40
0.4999999999999999
 40
0.4999999999999999
 40
0.4999999999999999
 40
0.4999999999999999
 40
0.5714285714285713
 40
0.5714285714285713
 40
0.5714285714285713
 40
0.5714285714285713
 40
0.6428571428571427
 40
0.6428571428571427
 40
0.6428571428571427
 40
0.6428571428571427
 40
0.7142857142857141
 40
0.7142857142857141
 40
0.7142857142857141
 40
0.7142857142857141
 40
0.7857142857142855
 40
0.7857142857142855
 40
0.7857142857142855
 40
0.7857142857142855
 40
0.8571428571428569
 40
0.8571428571428569
 40
0.8571428571428569
 40
0.8571428571428569
 40
0.9285714285714283
 40
0.9285714285714283
 40
0.9285714285714283
 40
0.9285714285714283
 40
1.0
 40
1.0
 40
1.0
 40
1.0
 10
93.6383
 20
-39.3493
 30
0.0
 10
93.6271
 20
-39.2232
 30
0.0
 10
93.8225
 20
-39.0854
 30
0.0
 10
93.9433
 20
-39.123
 30
0.0
 10
93.9433
 20
-39.123
 30
0.0
 10
95.1963
 20
-39.5122
 30
0.0
 10
96.5703
 20
-39.6375
 30
0.0
 10
96.9783
 20
-38.9307
 30
0.0
 10
96.9783
 20
-38.9307
 30
0.0
 10
97.3864
 20
-38.224
 30
0.0
 10
96.5909
 20
-37.0967
 30
0.0
 10
95.6273
 20
-36.2062
 30
0.0
 10
95.6273
 20
-36.2062
 30
0.0
 10
95.5344
 20
-36.1203
 30
0.0
 10
95.556
 20
-35.8823
 30
0.0
 10
95.6708
 20
-35.8289
 30
0.0
 10
95.6708
 20
-35.8289
 30
0.0
 10
96.4943
 20
-35.4459
 30
0.0
 10
97.2913
 20
-35.0929
 30
0.0
 10
97.6642
 20
-34.447
 30
0.0
 10
97.6642
 20
-34.447
 30
0.0
 10
98.3647
 20
-33.2337
 30
0.0
 10
98.1148
 20
-32.235
 30
0.0
 10
97.8359
 20
-31.5194
 30
0.0
 10
97.8359
 20
-31.5194
 30
0.0
 10
97.72
 20
-31.2219
 30
0.0
 10
97.4513
 20
-31.2365
 30
0.0
 10
97.3345
 20
-31.4914
 30
0.0
 10
97.3345
 20
-31.4914
 30
0.0
 10
96.5694
 20
-33.1615
 30
0.0
 10
94.7923
 20
-32.8972
 30
0.0
 10
93.9028
 20
-32.7983
 30
0.0
 10
93.9028
 20
-32.7983
 30
0.0
 10
92.5212
 20
-32.6451
 30
0.0
 10
91.1188
 20
-33.3062
 30
0.0
 10
90.1482
 20
-34.9873
 30
0.0
 10
90.1482
 20
-34.9873
 30
0.0
 10
89.1776
 20
-36.6685
 30
0.0
 10
89.3062
 20
-38.2136
 30
0.0
 10
90.1297
 20
-39.3335
 30
0.0
 10
90.1297
 20
-39.3335
 30
0.0
 10
90.6601
 20
-40.0544
 30
0.0
 10
91.7776
 20
-41.4612
 30
0.0
 10
90.7138
 20
-42.9588
 30
0.0
 10
90.7138
 20
-42.9588
 30
0.0
 10
90.5514
 20
-43.1875
 30
0.0
 10
90.6731
 20
-43.4275
 30
0.0
 10
90.9887
 20
-43.3791
 30
0.0
 10
90.9887
 20
-43.3791
 30
0.0
 10
91.7479
 20
-43.2628
 30
0.0
 10
92.7377
 20
-42.9799
 30
0.0
 10
93.4382
 20
-41.7666
 30
0.0
 10
93.4382
 20
-41.7666
 30
0.0
 10
93.8112
 20
-41.1206
 30
0.0
 10
93.7183
 20
-40.254
 30
0.0
 10
93.6383
 20
-39.3493
 30
0.0
  0
SPLINE
  5
89
330
1F
100
AcDbEntity
  8
layer 1
 62
     7
370
    20
100
AcDbSpline
210
0.0
220
0.0
230
1.0
 70
    11
 71
     3
 72
    36
 73
    32
 74
     0
 42
0.0000000001
 43
0.0000000001
 40
0.0
 40
0.0
 40
0.0
 40
0.0
 40
0.125
 40
0.125
 40
0.125
 40
0.125
 40
0.25
 40
0.25
 40
0.25
 40
0.25
 40
0.375
 40
0.375
 40
0.375
 40
0.375
 40
0.5
 40
0.5
 40
0.5
 40
0.5
 40
0.625
 40
0.625
 40
0.625
 40
0.625
 40
0.75
 40
0.75
 40
0.75
 40
0.75
 40
0.875
 40
0.875
 40
0.875
 40
0.875
 40
1.0
 40
1.0
 40
1.0
 40
1.0
 10
92.7194
 20
-30.1099
 30
0.0
 10
92.696
 20
-30.2856
 30
0.0
 10
92.885
 20
-30.2774
 30
0.0
 10
92.9617
 20
-30.2302
 30
0.0
 10
92.9617
 20
-30.2302
 30
0.0
 10
94.5441
 20
-29.2589
 30
0.0
 10
97.3533
 20
-30.0879
 30
0.0
 10
98.4387
 20
-27.1105
 30
0.0
 10
98.4387
 20
-27.1105
 30
0.0
 10
99.3544
 20
-24.5987
 30
0.0
 10
95.6811
 20
-22.4331
 30
0.0
 10
96.2005
 20
-21.0104
 30
0.0
 10
96.2005
 20
-21.0104
 30
0.0
 10
96.5684
 20
-20.0021
 30
0.0
 10
97.1334
 20
-20.5747
 30
0.0
 10
97.3904
 20
-19.8708
 30
0.0
 10
97.3904
 20
-19.8708
 30
0.0
 10
97.6399
 20
-19.1871
 30
0.0
 10
97.0139
 20
-18.9289
 30
0.0
 10
96.6961
 20
-18.8129
 30
0.0
 10
96.6961
 20
-18.8129
 30
0.0
 10
95.7881
 20
-18.4817
 30
0.0
 10
94.9319
 20
-19.2796
 30
0.0
 10
94.7195
 20
-19.8611
 30
0.0
 10
94.7195
 20
-19.8611
 30
0.0
 10
93.8122
 20
-22.3453
 30
0.0
 10
96.5842
 20
-25.0263
 30
0.0
 10
96.0447
 20
-26.5056
 30
0.0
 10
96.0447
 20
-26.5056
 30
0.0
 10
95.472
 20
-28.0751
 30
0.0
 10
92.9998
 20
-28.0034
 30
0.0
 10
92.7194
 20
-30.1099
 30
0.0
  0
SPLINE
  5
8A
330
1F
100
AcDbEntity
  8
layer 1
 62
     7
370
    20
100
AcDbSpline
210
0.0
220
0.0
230
1.0
 70
    11
 71
     3
 72
    36
 73
    32
 74
     0
 42
0.0000000001
 43
0.0000000001
 40
0.0
 40
0.0
 40
0.0
 40
0.0
 40
0.125
 40
0.125
 40
0.125
 40
0.125
 40
0.25
 40
0.25
 40
0.25
 40
0.25
 40
0.375
 40
0.375
 40
0.375
 40
0.375
 40
0.5
 40
0.5
 40
0.5
 40
0.5
 40
0.625
 40
0.625
 40
0.625
 40
0.625
 40
0.75
 40
0.75
 40
0.75
 40
0.75
 40
0.875
 40
0.875
 40
0.875
 40
0.875
 40
1.0
 40
1.0
 40
1.0
 40
1.0
 10
-3.9541
 20
-85.9245
 30
0.0
 10
-3.7902
 20
-85.992
 30
0.0
 10
-3.8918
 20
-86.1517
 30
0.0
 10
-3.9711
 20
-86.1945
 30
0.0
 10
-3.9711
 20
-86.1945
 30
0.0
 10
-5.6034
 20
-87.0792
 30
0.0
 10
-6.2901
 20
-89.9265
 30
0.0
 10
-9.4113
 20
-89.3778
 30
0.0
 10
-9.4113
 20
-89.3778
 30
0.0
 10
-12.0444
 20
-88.9149
 30
0.0
 10
-12.0832
 20
-84.651
 30
0.0
 10
-13.575
 20
-84.3894
 30
0.0
 10
-13.575
 20
-84.3894
 30
0.0
 10
-14.6322
 20
-84.2038
 30
0.0
 10
-14.4188
 20
-84.9795
 30
0.0
 10
-15.1569
 20
-84.8501
 30
0.0
 10
-15.1569
 20
-84.8501
 30
0.0
 10
-15.8738
 20
-84.7243
 30
0.0
 10
-15.7843
 20
-84.0531
 30
0.0
 10
-15.7259
 20
-83.7198
 30
0.0
 10
-15.7259
 20
-83.7198
 30
0.0
 10
-15.5588
 20
-82.7679
 30
0.0
 10
-14.4396
 20
-82.4254
 30
0.0
 10
-13.8298
 20
-82.5322
 30
0.0
 10
-13.8298
 20
-82.5322
 30
0.0
 10
-11.2248
 20
-82.9885
 30
0.0
 10
-10.289
 20
-86.7296
 30
0.0
 10
-8.7381
 20
-87.002
 30
0.0
 10
-8.7381
 20
-87.002
 30
0.0
 10
-7.0926
 20
-87.2909
 30
0.0
 10
-5.9186
 20
-85.114
 30
0.0
 10
-3.9541
 20
-85.9245
 30
0.0
  0
SPLINE
  5
8B
330
1F
100
AcDbEntity
  8
layer 1
 62
    22
370
    20
100
AcDbSpline
210
0.0
220
0.0
230
1.0
 70
    11
 71
     3
 72
    60
 73
    56
 74
     0
 42
0.0000000001
 43
0.0000000001
 40
0.0
 40
0.0
 40
0.0
 40
0.0
 40
0.0714285714285714
 40
0.0714285714285714
 40
0.0714285714285714
 40
0.0714285714285714
 40
0.1428571428571428
 40
0.1428571428571428
 40
0.1428571428571428
 40
0.1428571428571428
 40
0.2142857142857143
 40
0.2142857142857143
 40
0.2142857142857143
 40
0.2142857142857143
 40
0.2857142857142857
 40
0.2857142857142857
 40
0.2857142857142857
 40
0.2857142857142857
 40
0.3571428571428571
 40
0.3571428571428571
 40
0.3571428571428571
 40
0.3571428571428571
 40
0.4285714285714285
 40
0.4285714285714285
 40
0.4285714285714285
 40
0.4285714285714285
 40
0.4999999999999999
 40
0.4999999999999999
 40
0.4999999999999999
 40
0.4999999999999999
 40
0.5714285714285713
 40
0.5714285714285713
 40
0.5714285714285713
 40
0.5714285714285713
 40
0.6428571428571427
 40
0.6428571428571427
 40
0.6428571428571427
 40
0.6428571428571427
 40
0.7142857142857141
 40
0.7142857142857141
 40
0.7142857142857141
 40
0.7142857142857141
 40
0.7857142857142855
 40
0.7857142857142855
 40
0.7857142857142855
 40
0.7857142857142855
 40
0.8571428571428569
 40
0.8571428571428569
 40
0.8571428571428569
 40
0.8571428571428569
 40
0.9285714285714283
 40
0.9285714285714283
 40
0.9285714285714283
 40
0.9285714285714283
 40
1.0
 40
1.0
 40
1.0
 40
1.0
 10
-0.4774
 20
-91.3399
 30
0.0
 10
-0.3738
 20
-91.2672
 30
0.0
 10
-0.1568
 20
-91.3675
 30
0.0
 10
-0.1289
 20
-91.4909
 30
0.0
 10
-0.1289
 20
-91.4909
 30
0.0
 10
0.1605
 20
-92.7707
 30
0.0
 10
0.739
 20
-94.0232
 30
0.0
 10
1.5551
 20
-94.0232
 30
0.0
 10
1.5551
 20
-94.0232
 30
0.0
 10
2.3712
 20
-94.0232
 30
0.0
 10
2.9497
 20
-92.7707
 30
0.0
 10
3.2391
 20
-91.4909
 30
0.0
 10
3.2391
 20
-91.4909
 30
0.0
 10
3.267
 20
-91.3675
 30
0.0
 10
3.484
 20
-91.2672
 30
0.0
 10
3.5876
 20
-91.3399
 30
0.0
 10
3.5876
 20
-91.3399
 30
0.0
 10
4.3311
 20
-91.8616
 30
0.0
 10
5.0352
 20
-92.3753
 30
0.0
 10
5.7811
 20
-92.3753
 30
0.0
 10
5.7811
 20
-92.3753
 30
0.0
 10
7.1821
 20
-92.3753
 30
0.0
 10
7.922
 20
-91.6595
 30
0.0
 10
8.4023
 20
-91.0602
 30
0.0
 10
8.4023
 20
-91.0602
 30
0.0
 10
8.602
 20
-90.8111
 30
0.0
 10
8.455
 20
-90.5857
 30
0.0
 10
8.1758
 20
-90.612
 30
0.0
 10
8.1758
 20
-90.612
 30
0.0
 10
6.3469
 20
-90.7844
 30
0.0
 10
5.6873
 20
-89.1133
 30
0.0
 10
5.3282
 20
-88.2935
 30
0.0
 10
5.3282
 20
-88.2935
 30
0.0
 10
4.7701
 20
-87.0204
 30
0.0
 10
3.4963
 20
-86.1364
 30
0.0
 10
1.5551
 20
-86.1364
 30
0.0
 10
1.5551
 20
-86.1364
 30
0.0
 10
-0.3861
 20
-86.1364
 30
0.0
 10
-1.6599
 20
-87.0204
 30
0.0
 10
-2.218
 20
-88.2935
 30
0.0
 10
-2.218
 20
-88.2935
 30
0.0
 10
-2.5771
 20
-89.1133
 30
0.0
 10
-3.2367
 20
-90.7844
 30
0.0
 10
-5.0656
 20
-90.612
 30
0.0
 10
-5.0656
 20
-90.612
 30
0.0
 10
-5.3448
 20
-90.5857
 30
0.0
 10
-5.4918
 20
-90.8111
 30
0.0
 10
-5.2921
 20
-91.0602
 30
0.0
 10
-5.2921
 20
-91.0602
 30
0.0
 10
-4.8118
 20
-91.6595
 30
0.0
 10
-4.0719
 20
-92.3753
 30
0.0
 10
-2.6709
 20
-92.3753
 30
0.0
 10
-2.6709
 20
-92.3753
 30
0.0
 10
-1.925
 20
-92.3753
 30
0.0
 10
-1.2209
 20
-91.8616
 30
0.0
 10
-0.4774
 20
-91.3399
 30
0.0
  0
SPLINE
  5
8C
330
1F
100
AcDbEntity
  8
layer 1
 62
     7
370
    20
100
AcDbSpline
210
0.0
220
0.0
230
1.0
 70
    11
 71
     3
 72
    36
 73
    32
 74
     0
 42
0.0000000001
 43
0.0000000001
 40
0.0
 40
0.0
 40
0.0
 40
0.0
 40
0.125
 40
0.125
 40
0.125
 40
0.125
 40
0.25
 40
0.25
 40
0.25
 40
0.25
 40
0.375
 40
0.375
 40
0.375
 40
0.375
 40
0.5
 40
0.5
 40
0.5
 40
0.5
 40
0.625
 40
0.625
 40
0.625
 40
0.625
 40
0.75
 40
0.75
 40
0.75
 40
0.75
 40
0.875
 40
0.875
 40
0.875
 40
0.875
 40
1.0
 40
1.0
 40
1.0
 40
1.0
 10
7.0647
 20
-85.9245
 30
0.0
 10
6.9008
 20
-85.992
 30
0.0
 10
7.0024
 20
-86.1517
 30
0.0
 10
7.0817
 20
-86.1945
 30
0.0
 10
7.0817
 20
-86.1945
 30
0.0
 10
8.714
 20
-87.0792
 30
0.0
 10
9.4007
 20
-89.9265
 30
0.0
 10
12.5219
 20
-89.3778
 30
0.0
 10
12.5219
 20
-89.3778
 30
0.0
 10
15.155
 20
-88.9149
 30
0.0
 10
15.1939
 20
-84.651
 30
0.0
 10
16.6857
 20
-84.3894
 30
0.0
 10
16.6857
 20
-84.3894
 30
0.0
 10
17.7428
 20
-84.2038
 30
0.0
 10
17.5294
 20
-84.9795
 30
0.0
 10
18.2675
 20
-84.8501
 30
0.0
 10
18.2675
 20
-84.8501
 30
0.0
 10
18.9844
 20
-84.7243
 30
0.0
 10
18.895
 20
-84.0531
 30
0.0
 10
18.8366
 20
-83.7198
 30
0.0
 10
18.8366
 20
-83.7198
 30
0.0
 10
18.6694
 20
-82.7679
 30
0.0
 10
17.5502
 20
-82.4254
 30
0.0
 10
16.9405
 20
-82.5322
 30
0.0
 10
16.9405
 20
-82.5322
 30
0.0
 10
14.3355
 20
-82.9885
 30
0.0
 10
13.3997
 20
-86.7296
 30
0.0
 10
11.8488
 20
-87.002
 30
0.0
 10
11.8488
 20
-87.002
 30
0.0
 10
10.2032
 20
-87.2909
 30
0.0
 10
9.0292
 20
-85.114
 30
0.0
 10
7.0647
 20
-85.9245
 30
0.0
  0
SPLINE
  5
8D
330
1F
100
AcDbEntity
  8
layer 1
 62
     7
370
    20
100
AcDbSpline
210
0.0
220
0.0
230
1.0
 70
    11
 71
     3
 72
    36
 73
    32
 74
     0
 42
0.0000000001
 43
0.0000000001
 40
0.0
 40
0.0
 40
0.0
 40
0.0
 40
0.125
 40
0.125
 40
0.125
 40
0.125
 40
0.25
 40
0.25
 40
0.25
 40
0.25
 40
0.375
 40
0.375
 40
0.375
 40
0.375
 40
0.5
 40
0.5
 40
0.5
 40
0.5
 40
0.625
 40
0.625
 40
0.625
 40
0.625
 40
0.75
 40
0.75
 40
0.75
 40
0.75
 40
0.875
 40
0.875
 40
0.875
 40
0.875
 40
1.0
 40
1.0
 40
1.0
 40
1.0
 10
-89.6089
 20
-30.1101
 30
0.0
 10
-89.5855
 20
-30.2858
 30
0.0
 10
-89.7745
 20
-30.2776
 30
0.0
 10
-89.8512
 20
-30.2304
 30
0.0
 10
-89.8512
 20
-30.2304
 30
0.0
 10
-91.4336
 20
-29.2591
 30
0.0
 10
-94.2427
 20
-30.0881
 30
0.0
 10
-95.3282
 20
-27.1107
 30
0.0
 10
-95.3282
 20
-27.1107
 30
0.0
 10
-96.2438
 20
-24.5989
 30
0.0
 10
-92.5706
 20
-22.4333
 30
0.0
 10
-93.0899
 20
-21.0105
 30
0.0
 10
-93.0899
 20
-21.0105
 30
0.0
 10
-93.4578
 20
-20.0023
 30
0.0
 10
-94.0228
 20
-20.5749
 30
0.0
 10
-94.2798
 20
-19.871
 30
0.0
 10
-94.2798
 20
-19.871
 30
0.0
 10
-94.5294
 20
-19.1872
 30
0.0
 10
-93.9034
 20
-18.9291
 30
0.0
 10
-93.5855
 20
-18.813
 30
0.0
 10
-93.5855
 20
-18.813
 30
0.0
 10
-92.6776
 20
-18.4818
 30
0.0
 10
-91.8213
 20
-19.2798
 30
0.0
 10
-91.609
 20
-19.8613
 30
0.0
 10
-91.609
 20
-19.8613
 30
0.0
 10
-90.7017
 20
-22.3455
 30
0.0
 10
-93.4737
 20
-25.0264
 30
0.0
 10
-92.9341
 20
-26.5057
 30
0.0
 10
-92.9341
 20
-26.5057
 30
0.0
 10
-92.3615
 20
-28.0752
 30
0.0
 10
-89.8893
 20
-28.0036
 30
0.0
 10
-89.6089
 20
-30.1101
 30
0.0
  0
SPLINE
  5
8E
330
1F
100
AcDbEntity
  8
layer 1
 62
    22
370
    20
100
AcDbSpline
210
0.0
220
0.0
230
1.0
 70
    11
 71
     3
 72
    60
 73
    56
 74
     0
 42
0.0000000001
 43
0.0000000001
 40
0.0
 40
0.0
 40
0.0
 40
0.0
 40
0.0714285714285714
 40
0.0714285714285714
 40
0.0714285714285714
 40
0.0714285714285714
 40
0.1428571428571428
 40
0.1428571428571428
 40
0.1428571428571428
 40
0.1428571428571428
 40
0.2142857142857143
 40
0.2142857142857143
 40
0.2142857142857143
 40
0.2142857142857143
 40
0.2857142857142857
 40
0.2857142857142857
 40
0.2857142857142857
 40
0.2857142857142857
 40
0.3571428571428571
 40
0.3571428571428571
 40
0.3571428571428571
 40
0.3571428571428571
 40
0.4285714285714285
 40
0.4285714285714285
 40
0.4285714285714285
 40
0.4285714285714285
 40
0.4999999999999999
 40
0.4999999999999999
 40
0.4999999999999999
 40
0.4999999999999999
 40
0.5714285714285713
 40
0.5714285714285713
 40
0.5714285714285713
 40
0.5714285714285713
 40
0.6428571428571427
 40
0.6428571428571427
 40
0.6428571428571427
 40
0.6428571428571427
 40
0.7142857142857141
 40
0.7142857142857141
 40
0.7142857142857141
 40
0.7142857142857141
 40
0.7857142857142855
 40
0.7857142857142855
 40
0.7857142857142855
 40
0.7857142857142855
 40
0.8571428571428569
 40
0.8571428571428569
 40
0.8571428571428569
 40
0.8571428571428569
 40
0.9285714285714283
 40
0.9285714285714283
 40
0.9285714285714283
 40
0.9285714285714283
 40
1.0
 40
1.0
 40
1.0
 40
1.0
 10
-92.5605
 20
-35.8287
 30
0.0
 10
-92.4457
 20
-35.8821
 30
0.0
 10
-92.4241
 20
-36.1202
 30
0.0
 10
-92.517
 20
-36.206
 30
0.0
 10
-92.517
 20
-36.206
 30
0.0
 10
-93.4806
 20
-37.0965
 30
0.0
 10
-94.2761
 20
-38.2238
 30
0.0
 10
-93.868
 20
-38.9306
 30
0.0
 10
-93.868
 20
-38.9306
 30
0.0
 10
-93.46
 20
-39.6373
 30
0.0
 10
-92.086
 20
-39.5121
 30
0.0
 10
-90.833
 20
-39.1228
 30
0.0
 10
-90.833
 20
-39.1228
 30
0.0
 10
-90.7122
 20
-39.0853
 30
0.0
 10
-90.5168
 20
-39.223
 30
0.0
 10
-90.528
 20
-39.3491
 30
0.0
 10
-90.528
 20
-39.3491
 30
0.0
 10
-90.608
 20
-40.2538
 30
0.0
 10
-90.7008
 20
-41.1205
 30
0.0
 10
-90.3279
 20
-41.7664
 30
0.0
 10
-90.3279
 20
-41.7664
 30
0.0
 10
-89.6274
 20
-42.9797
 30
0.0
 10
-88.6375
 20
-43.2626
 30
0.0
 10
-87.8784
 20
-43.3789
 30
0.0
 10
-87.8784
 20
-43.3789
 30
0.0
 10
-87.5628
 20
-43.4273
 30
0.0
 10
-87.4411
 20
-43.1873
 30
0.0
 10
-87.6035
 20
-42.9586
 30
0.0
 10
-87.6035
 20
-42.9586
 30
0.0
 10
-88.6672
 20
-41.461
 30
0.0
 10
-87.5498
 20
-40.0542
 30
0.0
 10
-87.0194
 20
-39.3333
 30
0.0
 10
-87.0194
 20
-39.3333
 30
0.0
 10
-86.1959
 20
-38.2134
 30
0.0
 10
-86.0672
 20
-36.6683
 30
0.0
 10
-87.0378
 20
-34.9872
 30
0.0
 10
-87.0378
 20
-34.9872
 30
0.0
 10
-88.0084
 20
-33.306
 30
0.0
 10
-89.4109
 20
-32.6449
 30
0.0
 10
-90.7925
 20
-32.7981
 30
0.0
 10
-90.7925
 20
-32.7981
 30
0.0
 10
-91.682
 20
-32.897
 30
0.0
 10
-93.459
 20
-33.1613
 30
0.0
 10
-94.2242
 20
-31.4913
 30
0.0
 10
-94.2242
 20
-31.4913
 30
0.0
 10
-94.341
 20
-31.2363
 30
0.0
 10
-94.6097
 20
-31.2217
 30
0.0
 10
-94.7256
 20
-31.5192
 30
0.0
 10
-94.7256
 20
-31.5192
 30
0.0
 10
-95.0044
 20
-32.2348
 30
0.0
 10
-95.2544
 20
-33.2335
 30
0.0
 10
-94.5539
 20
-34.4468
 30
0.0
 10
-94.5539
 20
-34.4468
 30
0.0
 10
-94.1809
 20
-35.0927
 30
0.0
 10
-93.384
 20
-35.4457
 30
0.0
 10
-92.5605
 20
-35.8287
 30
0.0
  0
SPLINE
  5
8F
330
1F
100
AcDbEntity
  8
layer 1
 62
     7
370
    20
100
AcDbSpline
210
0.0
220
0.0
230
1.0
 70
    11
 71
     3
 72
    36
 73
    32
 74
     0
 42
0.0000000001
 43
0.0000000001
 40
0.0
 40
0.0
 40
0.0
 40
0.0
 40
0.125
 40
0.125
 40
0.125
 40
0.125
 40
0.25
 40
0.25
 40
0.25
 40
0.25
 40
0.375
 40
0.375
 40
0.375
 40
0.375
 40
0.5
 40
0.5
 40
0.5
 40
0.5
 40
0.625
 40
0.625
 40
0.625
 40
0.625
 40
0.75
 40
0.75
 40
0.75
 40
0.75
 40
0.875
 40
0.875
 40
0.875
 40
0.875
 40
1.0
 40
1.0
 40
1.0
 40
1.0
 10
-84.0995
 20
-39.6526
 30
0.0
 10
-84.24
 20
-39.5445
 30
0.0
 10
-84.3274
 20
-39.7123
 30
0.0
 10
-84.3248
 20
-39.8023
 30
0.0
 10
-84.3248
 20
-39.8023
 30
0.0
 10
-84.2749
 20
-41.6583
 30
0.0
 10
-86.3973
 20
-43.6767
 30
0.0
 10
-84.3616
 20
-46.1054
 30
0.0
 10
-84.3616
 20
-46.1054
 30
0.0
 10
-82.6441
 20
-48.1543
 30
0.0
 10
-78.932
 20
-46.056
 30
0.0
 10
-77.9596
 20
-47.2171
 30
0.0
 10
-77.9596
 20
-47.2171
 30
0.0
 10
-77.2703
 20
-48.0398
 30
0.0
 10
-78.0487
 20
-48.2428
 30
0.0
 10
-77.5677
 20
-48.8174
 30
0.0
 10
-77.5677
 20
-48.8174
 30
0.0
 10
-77.1003
 20
-49.3754
 30
0.0
 10
-76.5637
 20
-48.9623
 30
0.0
 10
-76.3043
 20
-48.745
 30
0.0
 10
-76.3043
 20
-48.745
 30
0.0
 10
-75.5635
 20
-48.1243
 30
0.0
 10
-75.8264
 20
-46.9838
 30
0.0
 10
-76.2238
 20
-46.5092
 30
0.0
 10
-76.2238
 20
-46.5092
 30
0.0
 10
-77.9215
 20
-44.4813
 30
0.0
 10
-81.6293
 20
-45.5414
 30
0.0
 10
-82.6407
 20
-44.3345
 30
0.0
 10
-82.6407
 20
-44.3345
 30
0.0
 10
-83.7136
 20
-43.0539
 30
0.0
 10
-82.4154
 20
-40.9487
 30
0.0
 10
-84.0995
 20
-39.6526
 30
0.0
  0
SPLINE
  5
90
330
1F
100
AcDbEntity
  8
layer 1
 62
     7
370
    20
100
AcDbSpline
210
0.0
220
0.0
230
1.0
 70
    11
 71
     3
 72
    36
 73
    32
 74
     0
 42
0.0000000001
 43
0.0000000001
 40
0.0
 40
0.0
 40
0.0
 40
0.0
 40
0.125
 40
0.125
 40
0.125
 40
0.125
 40
0.25
 40
0.25
 40
0.25
 40
0.25
 40
0.375
 40
0.375
 40
0.375
 40
0.375
 40
0.5
 40
0.5
 40
0.5
 40
0.5
 40
0.625
 40
0.625
 40
0.625
 40
0.625
 40
0.75
 40
0.75
 40
0.75
 40
0.75
 40
0.875
 40
0.875
 40
0.875
 40
0.875
 40
1.0
 40
1.0
 40
1.0
 40
1.0
 10
-84.0995
 20
71.9763
 30
0.0
 10
-84.24
 20
71.8682
 30
0.0
 10
-84.3274
 20
72.036
 30
0.0
 10
-84.3249
 20
72.1261
 30
0.0
 10
-84.3249
 20
72.1261
 30
0.0
 10
-84.2749
 20
73.9821
 30
0.0
 10
-86.3974
 20
76.0004
 30
0.0
 10
-84.3616
 20
78.4291
 30
0.0
 10
-84.3616
 20
78.4291
 30
0.0
 10
-82.6442
 20
80.478
 30
0.0
 10
-78.9321
 20
78.3797
 30
0.0
 10
-77.9596
 20
79.5408
 30
0.0
 10
-77.9596
 20
79.5408
 30
0.0
 10
-77.2704
 20
80.3636
 30
0.0
 10
-78.0488
 20
80.5666
 30
0.0
 10
-77.5677
 20
81.1411
 30
0.0
 10
-77.5677
 20
81.1411
 30
0.0
 10
-77.1003
 20
81.6991
 30
0.0
 10
-76.5638
 20
81.286
 30
0.0
 10
-76.3043
 20
81.0687
 30
0.0
 10
-76.3043
 20
81.0687
 30
0.0
 10
-75.5635
 20
80.4481
 30
0.0
 10
-75.8264
 20
79.3075
 30
0.0
 10
-76.2238
 20
78.8329
 30
0.0
 10
-76.2238
 20
78.8329
 30
0.0
 10
-77.9216
 20
76.805
 30
0.0
 10
-81.6293
 20
77.8652
 30
0.0
 10
-82.6407
 20
76.6583
 30
0.0
 10
-82.6407
 20
76.6583
 30
0.0
 10
-83.7136
 20
75.3776
 30
0.0
 10
-82.4154
 20
73.2725
 30
0.0
 10
-84.0995
 20
71.9763
 30
0.0
  0
SPLINE
  5
91
330
1F
100
AcDbEntity
  8
layer 1
 62
    22
370
    20
100
AcDbSpline
210
0.0
220
0.0
230
1.0
 70
    11
 71
     3
 72
    60
 73
    56
 74
     0
 42
0.0000000001
 43
0.0000000001
 40
0.0
 40
0.0
 40
0.0
 40
0.0
 40
0.0714285714285714
 40
0.0714285714285714
 40
0.0714285714285714
 40
0.0714285714285714
 40
0.1428571428571428
 40
0.1428571428571428
 40
0.1428571428571428
 40
0.1428571428571428
 40
0.2142857142857143
 40
0.2142857142857143
 40
0.2142857142857143
 40
0.2142857142857143
 40
0.2857142857142857
 40
0.2857142857142857
 40
0.2857142857142857
 40
0.2857142857142857
 40
0.3571428571428571
 40
0.3571428571428571
 40
0.3571428571428571
 40
0.3571428571428571
 40
0.4285714285714285
 40
0.4285714285714285
 40
0.4285714285714285
 40
0.4285714285714285
 40
0.4999999999999999
 40
0.4999999999999999
 40
0.4999999999999999
 40
0.4999999999999999
 40
0.5714285714285713
 40
0.5714285714285713
 40
0.5714285714285713
 40
0.5714285714285713
 40
0.6428571428571427
 40
0.6428571428571427
 40
0.6428571428571427
 40
0.6428571428571427
 40
0.7142857142857141
 40
0.7142857142857141
 40
0.7142857142857141
 40
0.7142857142857141
 40
0.7857142857142855
 40
0.7857142857142855
 40
0.7857142857142855
 40
0.7857142857142855
 40
0.8571428571428569
 40
0.8571428571428569
 40
0.8571428571428569
 40
0.8571428571428569
 40
0.9285714285714283
 40
0.9285714285714283
 40
0.9285714285714283
 40
0.9285714285714283
 40
1.0
 40
1.0
 40
1.0
 40
1.0
 10
-90.5278
 20
71.6732
 30
0.0
 10
-90.5166
 20
71.5471
 30
0.0
 10
-90.712
 20
71.4093
 30
0.0
 10
-90.8328
 20
71.4469
 30
0.0
 10
-90.8328
 20
71.4469
 30
0.0
 10
-92.0858
 20
71.8361
 30
0.0
 10
-93.4598
 20
71.9614
 30
0.0
 10
-93.8678
 20
71.2546
 30
0.0
 10
-93.8678
 20
71.2546
 30
0.0
 10
-94.2759
 20
70.5479
 30
0.0
 10
-93.4804
 20
69.4206
 30
0.0
 10
-92.5168
 20
68.5301
 30
0.0
 10
-92.5168
 20
68.5301
 30
0.0
 10
-92.4239
 20
68.4442
 30
0.0
 10
-92.4455
 20
68.2062
 30
0.0
 10
-92.5603
 20
68.1528
 30
0.0
 10
-92.5603
 20
68.1528
 30
0.0
 10
-93.3838
 20
67.7697
 30
0.0
 10
-94.1808
 20
67.4168
 30
0.0
 10
-94.5537
 20
66.7709
 30
0.0
 10
-94.5537
 20
66.7709
 30
0.0
 10
-95.2542
 20
65.5576
 30
0.0
 10
-95.0043
 20
64.5589
 30
0.0
 10
-94.7254
 20
63.8433
 30
0.0
 10
-94.7254
 20
63.8433
 30
0.0
 10
-94.6095
 20
63.5458
 30
0.0
 10
-94.3408
 20
63.5604
 30
0.0
 10
-94.224
 20
63.8153
 30
0.0
 10
-94.224
 20
63.8153
 30
0.0
 10
-93.4588
 20
65.4854
 30
0.0
 10
-91.6818
 20
65.2211
 30
0.0
 10
-90.7923
 20
65.1222
 30
0.0
 10
-90.7923
 20
65.1222
 30
0.0
 10
-89.4107
 20
64.969
 30
0.0
 10
-88.0083
 20
65.6301
 30
0.0
 10
-87.0377
 20
67.3112
 30
0.0
 10
-87.0377
 20
67.3112
 30
0.0
 10
-86.0671
 20
68.9924
 30
0.0
 10
-86.1957
 20
70.5375
 30
0.0
 10
-87.0192
 20
71.6574
 30
0.0
 10
-87.0192
 20
71.6574
 30
0.0
 10
-87.5496
 20
72.3783
 30
0.0
 10
-88.667
 20
73.7851
 30
0.0
 10
-87.6033
 20
75.2827
 30
0.0
 10
-87.6033
 20
75.2827
 30
0.0
 10
-87.4409
 20
75.5114
 30
0.0
 10
-87.5626
 20
75.7514
 30
0.0
 10
-87.8782
 20
75.703
 30
0.0
 10
-87.8782
 20
75.703
 30
0.0
 10
-88.6374
 20
75.5867
 30
0.0
 10
-89.6272
 20
75.3038
 30
0.0
 10
-90.3277
 20
74.0905
 30
0.0
 10
-90.3277
 20
74.0905
 30
0.0
 10
-90.7007
 20
73.4445
 30
0.0
 10
-90.6078
 20
72.5779
 30
0.0
 10
-90.5278
 20
71.6732
 30
0.0
  0
SPLINE
  5
92
330
1F
100
AcDbEntity
  8
layer 1
 62
     7
370
    20
100
AcDbSpline
210
0.0
220
0.0
230
1.0
 70
    11
 71
     3
 72
    36
 73
    32
 74
     0
 42
0.0000000001
 43
0.0000000001
 40
0.0
 40
0.0
 40
0.0
 40
0.0
 40
0.125
 40
0.125
 40
0.125
 40
0.125
 40
0.25
 40
0.25
 40
0.25
 40
0.25
 40
0.375
 40
0.375
 40
0.375
 40
0.375
 40
0.5
 40
0.5
 40
0.5
 40
0.5
 40
0.625
 40
0.625
 40
0.625
 40
0.625
 40
0.75
 40
0.75
 40
0.75
 40
0.75
 40
0.875
 40
0.875
 40
0.875
 40
0.875
 40
1.0
 40
1.0
 40
1.0
 40
1.0
 10
-89.6089
 20
62.4338
 30
0.0
 10
-89.5855
 20
62.6095
 30
0.0
 10
-89.7745
 20
62.6013
 30
0.0
 10
-89.8512
 20
62.5541
 30
0.0
 10
-89.8512
 20
62.5541
 30
0.0
 10
-91.4336
 20
61.5828
 30
0.0
 10
-94.2428
 20
62.4118
 30
0.0
 10
-95.3282
 20
59.4344
 30
0.0
 10
-95.3282
 20
59.4344
 30
0.0
 10
-96.2439
 20
56.9226
 30
0.0
 10
-92.5706
 20
54.757
 30
0.0
 10
-93.09
 20
53.3343
 30
0.0
 10
-93.09
 20
53.3343
 30
0.0
 10
-93.4579
 20
52.326
 30
0.0
 10
-94.0229
 20
52.8986
 30
0.0
 10
-94.2799
 20
52.1947
 30
0.0
 10
-94.2799
 20
52.1947
 30
0.0
 10
-94.5294
 20
51.511
 30
0.0
 10
-93.9034
 20
51.2528
 30
0.0
 10
-93.5855
 20
51.1368
 30
0.0
 10
-93.5855
 20
51.1368
 30
0.0
 10
-92.6776
 20
50.8056
 30
0.0
 10
-91.8213
 20
51.6035
 30
0.0
 10
-91.609
 20
52.185
 30
0.0
 10
-91.609
 20
52.185
 30
0.0
 10
-90.7017
 20
54.6692
 30
0.0
 10
-93.4737
 20
57.3502
 30
0.0
 10
-92.9341
 20
58.8295
 30
0.0
 10
-92.9341
 20
58.8295
 30
0.0
 10
-92.3615
 20
60.399
 30
0.0
 10
-89.8893
 20
60.3273
 30
0.0
 10
-89.6089
 20
62.4338
 30
0.0
  0
SPLINE
  5
93
330
1F
100
AcDbEntity
  8
layer 1
 62
     7
370
    20
100
AcDbSpline
210
0.0
220
0.0
230
1.0
 70
    11
 71
     3
 72
    36
 73
    32
 74
     0
 42
0.0000000001
 43
0.0000000001
 40
0.0
 40
0.0
 40
0.0
 40
0.0
 40
0.125
 40
0.125
 40
0.125
 40
0.125
 40
0.25
 40
0.25
 40
0.25
 40
0.25
 40
0.375
 40
0.375
 40
0.375
 40
0.375
 40
0.5
 40
0.5
 40
0.5
 40
0.5
 40
0.625
 40
0.625
 40
0.625
 40
0.625
 40
0.75
 40
0.75
 40
0.75
 40
0.75
 40
0.875
 40
0.875
 40
0.875
 40
0.875
 40
1.0
 40
1.0
 40
1.0
 40
1.0
 10
7.0647
 20
118.2482
 30
0.0
 10
6.9008
 20
118.3158
 30
0.0
 10
7.0024
 20
118.4754
 30
0.0
 10
7.0817
 20
118.5182
 30
0.0
 10
7.0817
 20
118.5182
 30
0.0
 10
8.714
 20
119.403
 30
0.0
 10
9.4007
 20
122.2503
 30
0.0
 10
12.5219
 20
121.7016
 30
0.0
 10
12.5219
 20
121.7016
 30
0.0
 10
15.155
 20
121.2387
 30
0.0
 10
15.1938
 20
116.9748
 30
0.0
 10
16.6856
 20
116.7132
 30
0.0
 10
16.6856
 20
116.7132
 30
0.0
 10
17.7428
 20
116.5276
 30
0.0
 10
17.5294
 20
117.3032
 30
0.0
 10
18.2675
 20
117.1739
 30
0.0
 10
18.2675
 20
117.1739
 30
0.0
 10
18.9844
 20
117.0481
 30
0.0
 10
18.8949
 20
116.3769
 30
0.0
 10
18.8365
 20
116.0436
 30
0.0
 10
18.8365
 20
116.0436
 30
0.0
 10
18.6694
 20
115.0917
 30
0.0
 10
17.5502
 20
114.7491
 30
0.0
 10
16.9404
 20
114.856
 30
0.0
 10
16.9404
 20
114.856
 30
0.0
 10
14.3354
 20
115.3123
 30
0.0
 10
13.3996
 20
119.0534
 30
0.0
 10
11.8487
 20
119.3258
 30
0.0
 10
11.8487
 20
119.3258
 30
0.0
 10
10.2032
 20
119.6146
 30
0.0
 10
9.0292
 20
117.4378
 30
0.0
 10
7.0647
 20
118.2482
 30
0.0
  0
SPLINE
  5
94
330
1F
100
AcDbEntity
  8
layer 1
 62
    22
370
    20
100
AcDbSpline
210
0.0
220
0.0
230
1.0
 70
    11
 71
     3
 72
    60
 73
    56
 74
     0
 42
0.0000000001
 43
0.0000000001
 40
0.0
 40
0.0
 40
0.0
 40
0.0
 40
0.0714285714285714
 40
0.0714285714285714
 40
0.0714285714285714
 40
0.0714285714285714
 40
0.1428571428571428
 40
0.1428571428571428
 40
0.1428571428571428
 40
0.1428571428571428
 40
0.2142857142857143
 40
0.2142857142857143
 40
0.2142857142857143
 40
0.2142857142857143
 40
0.2857142857142857
 40
0.2857142857142857
 40
0.2857142857142857
 40
0.2857142857142857
 40
0.3571428571428571
 40
0.3571428571428571
 40
0.3571428571428571
 40
0.3571428571428571
 40
0.4285714285714285
 40
0.4285714285714285
 40
0.4285714285714285
 40
0.4285714285714285
 40
0.4999999999999999
 40
0.4999999999999999
 40
0.4999999999999999
 40
0.4999999999999999
 40
0.5714285714285713
 40
0.5714285714285713
 40
0.5714285714285713
 40
0.5714285714285713
 40
0.6428571428571427
 40
0.6428571428571427
 40
0.6428571428571427
 40
0.6428571428571427
 40
0.7142857142857141
 40
0.7142857142857141
 40
0.7142857142857141
 40
0.7142857142857141
 40
0.7857142857142855
 40
0.7857142857142855
 40
0.7857142857142855
 40
0.7857142857142855
 40
0.8571428571428569
 40
0.8571428571428569
 40
0.8571428571428569
 40
0.8571428571428569
 40
0.9285714285714283
 40
0.9285714285714283
 40
0.9285714285714283
 40
0.9285714285714283
 40
1.0
 40
1.0
 40
1.0
 40
1.0
 10
3.588
 20
123.6637
 30
0.0
 10
3.4844
 20
123.591
 30
0.0
 10
3.2674
 20
123.6913
 30
0.0
 10
3.2395
 20
123.8147
 30
0.0
 10
3.2395
 20
123.8147
 30
0.0
 10
2.9501
 20
125.0945
 30
0.0
 10
2.3716
 20
126.347
 30
0.0
 10
1.5555
 20
126.347
 30
0.0
 10
1.5555
 20
126.347
 30
0.0
 10
0.7394
 20
126.347
 30
0.0
 10
0.1609
 20
125.0945
 30
0.0
 10
-0.1285
 20
123.8147
 30
0.0
 10
-0.1285
 20
123.8147
 30
0.0
 10
-0.1564
 20
123.6913
 30
0.0
 10
-0.3734
 20
123.591
 30
0.0
 10
-0.477
 20
123.6637
 30
0.0
 10
-0.477
 20
123.6637
 30
0.0
 10
-1.2205
 20
124.1854
 30
0.0
 10
-1.9246
 20
124.6991
 30
0.0
 10
-2.6705
 20
124.6991
 30
0.0
 10
-2.6705
 20
124.6991
 30
0.0
 10
-4.0715
 20
124.6991
 30
0.0
 10
-4.8114
 20
123.9833
 30
0.0
 10
-5.2917
 20
123.384
 30
0.0
 10
-5.2917
 20
123.384
 30
0.0
 10
-5.4914
 20
123.1349
 30
0.0
 10
-5.3444
 20
122.9095
 30
0.0
 10
-5.0652
 20
122.9358
 30
0.0
 10
-5.0652
 20
122.9358
 30
0.0
 10
-3.2363
 20
123.1082
 30
0.0
 10
-2.5767
 20
121.4371
 30
0.0
 10
-2.2176
 20
120.6173
 30
0.0
 10
-2.2176
 20
120.6173
 30
0.0
 10
-1.6595
 20
119.3442
 30
0.0
 10
-0.3857
 20
118.4602
 30
0.0
 10
1.5555
 20
118.4602
 30
0.0
 10
1.5555
 20
118.4602
 30
0.0
 10
3.4967
 20
118.4602
 30
0.0
 10
4.7705
 20
119.3442
 30
0.0
 10
5.3286
 20
120.6173
 30
0.0
 10
5.3286
 20
120.6173
 30
0.0
 10
5.6877
 20
121.4371
 30
0.0
 10
6.3473
 20
123.1082
 30
0.0
 10
8.1762
 20
122.9358
 30
0.0
 10
8.1762
 20
122.9358
 30
0.0
 10
8.4554
 20
122.9095
 30
0.0
 10
8.6024
 20
123.1349
 30
0.0
 10
8.4027
 20
123.384
 30
0.0
 10
8.4027
 20
123.384
 30
0.0
 10
7.9224
 20
123.9833
 30
0.0
 10
7.1825
 20
124.6991
 30
0.0
 10
5.7815
 20
124.6991
 30
0.0
 10
5.7815
 20
124.6991
 30
0.0
 10
5.0356
 20
124.6991
 30
0.0
 10
4.3315
 20
124.1854
 30
0.0
 10
3.588
 20
123.6637
 30
0.0
  0
SPLINE
  5
95
330
1F
100
AcDbEntity
  8
layer 1
 62
     7
370
    20
100
AcDbSpline
210
0.0
220
0.0
230
1.0
 70
    11
 71
     3
 72
    36
 73
    32
 74
     0
 42
0.0000000001
 43
0.0000000001
 40
0.0
 40
0.0
 40
0.0
 40
0.0
 40
0.125
 40
0.125
 40
0.125
 40
0.125
 40
0.25
 40
0.25
 40
0.25
 40
0.25
 40
0.375
 40
0.375
 40
0.375
 40
0.375
 40
0.5
 40
0.5
 40
0.5
 40
0.5
 40
0.625
 40
0.625
 40
0.625
 40
0.625
 40
0.75
 40
0.75
 40
0.75
 40
0.75
 40
0.875
 40
0.875
 40
0.875
 40
0.875
 40
1.0
 40
1.0
 40
1.0
 40
1.0
 10
-3.9541
 20
118.2482
 30
0.0
 10
-3.7902
 20
118.3158
 30
0.0
 10
-3.8918
 20
118.4754
 30
0.0
 10
-3.9711
 20
118.5182
 30
0.0
 10
-3.9711
 20
118.5182
 30
0.0
 10
-5.6034
 20
119.403
 30
0.0
 10
-6.2901
 20
122.2503
 30
0.0
 10
-9.4113
 20
121.7016
 30
0.0
 10
-9.4113
 20
121.7016
 30
0.0
 10
-12.0444
 20
121.2387
 30
0.0
 10
-12.0833
 20
116.9748
 30
0.0
 10
-13.5751
 20
116.7132
 30
0.0
 10
-13.5751
 20
116.7132
 30
0.0
 10
-14.6322
 20
116.5276
 30
0.0
 10
-14.4188
 20
117.3032
 30
0.0
 10
-15.1569
 20
117.1739
 30
0.0
 10
-15.1569
 20
117.1739
 30
0.0
 10
-15.8738
 20
117.0481
 30
0.0
 10
-15.7844
 20
116.3769
 30
0.0
 10
-15.726
 20
116.0436
 30
0.0
 10
-15.726
 20
116.0436
 30
0.0
 10
-15.5588
 20
115.0917
 30
0.0
 10
-14.4396
 20
114.7491
 30
0.0
 10
-13.8299
 20
114.856
 30
0.0
 10
-13.8299
 20
114.856
 30
0.0
 10
-11.2249
 20
115.3123
 30
0.0
 10
-10.2891
 20
119.0534
 30
0.0
 10
-8.7382
 20
119.3258
 30
0.0
 10
-8.7382
 20
119.3258
 30
0.0
 10
-7.0926
 20
119.6146
 30
0.0
 10
-5.9186
 20
117.4378
 30
0.0
 10
-3.9541
 20
118.2482
 30
0.0
  0
ENDSEC
  0
SECTION
  2
OBJECTS
  0
DICTIONARY
  5
C
330
0
100
AcDbDictionary
281
     1
  3
ACAD_GROUP
350
D
  3
ACAD_LAYOUT
350
1A
  3
ACAD_MLEADERSTYLE
350
97
  3
ACAD_MLINESTYLE
350
17
  3
ACAD_PLOTSETTINGS
350
19
  3
ACAD_PLOTSTYLENAME
350
E
  3
ACAD_SCALELIST
350
3B
  3
ACAD_TABLESTYLE
350
96
  3
ACAD_VISUALSTYLE
350
2A
  0
DICTIONARY
  5
D
102
{ACAD_REACTORS
330
C
102
}
330
C
100
AcDbDictionary
281
     1
  0
DICTIONARY
  5
1A
102
{ACAD_REACTORS
330
C
102
}
330
C
100
AcDbDictionary
281
     1
  3
Layout1
350
1E
  3
Layout2
350
26
  3
Model
350
22
  0
DICTIONARY
  5
97
102
{ACAD_REACTORS
330
C
102
}
330
C
100
AcDbDictionary
281
     1
  0
DICTIONARY
  5
17
102
{ACAD_REACTORS
330
C
102
}
330
C
100
AcDbDictionary
281
     1
  3
Standard
350
18
  0
DICTIONARY
  5
19
102
{ACAD_REACTORS
330
C
102
}
330
C
100
AcDbDictionary
281
     1
  0
ACDBDICTIONARYWDFLT
  5
E
102
{ACAD_REACTORS
330
C
102
}
330
C
100
AcDbDictionary
281
     1
  3
Normal
350
F
100
AcDbDictionaryWithDefault
340
F
  0
DICTIONARY
  5
3B
102
{ACAD_REACTORS
330
C
102
}
330
C
100
AcDbDictionary
281
     1
  3
A0
350
3C
  3
A1
350
3D
  3
A2
350
3E
  3
A3
350
3F
  3
A4
350
40
  3
A5
350
41
  3
A6
350
42
  3
A7
350
43
  3
A8
350
44
  3
A9
350
45
  3
B0
350
46
  3
B1
350
47
  3
B2
350
48
  3
B3
350
49
  3
B4
350
4A
  3
B5
350
4B
  3
B6
350
4C
  3
B7
350
4D
  3
B8
350
4E
  3
B9
350
4F
  3
C0
350
50
  3
C1
350
51
  3
C2
350
52
  3
C3
350
53
  3
C4
350
54
  3
C5
350
55
  3
C6
350
56
  3
C7
350
57
  3
C8
350
58
  3
C9
350
59
  3
D0
350
5A
  3
D1
350
5B
  3
D2
350
5C
  0
DICTIONARY
  5
96
102
{ACAD_REACTORS
330
C
102
}
330
C
100
AcDbDictionary
281
     1
  0
DICTIONARY
  5
2A
102
{ACAD_REACTORS
330
C
102
}
330
C
100
AcDbDictionary
281
     1
  3
2dWireframe
350
2F
  3
3D Hidden
350
31
  3
3dWireframe
350
30
  3
Basic
350
32
  3
Brighten
350
36
  3
ColorChange
350
3A
  3
Conceptual
350
34
  3
Dim
350
35
  3
Facepattern
350
39
  3
Flat
350
2B
  3
FlatWithEdges
350
2C
  3
Gouraud
350
2D
  3
GouraudWithEdges
350
2E
  3
Linepattern
350
38
  3
Realistic
350
33
  3
Thicken
350
37
  0
LAYOUT
  5
1E
102
{ACAD_REACTORS
330
1A
102
}
330
1A
100
AcDbPlotSettings
  1

  2
none_device
  4

  6

 40
0.0
 41
0.0
 42
0.0
 43
0.0
 44
0.0
 45
0.0
 46
0.0
 47
0.0
 48
0.0
 49
0.0
140
0.0
141
0.0
142
1.0
143
1.0
 70
   688
 72
     0
 73
     0
 74
     5
  7

 75
    16
 76
     0
 77
     2
 78
   300
147
1.0
148
0.0
149
0.0
100
AcDbLayout
  1
Layout1
 70
     1
 71
     1
 10
0.0
 20
0.0
 11
12.0
 21
9.0
 12
0.0
 22
0.0
 32
0.0
 14
1.000000000000000E+20
 24
1.000000000000000E+20
 34
1.000000000000000E+20
 15
-1.000000000000000E+20
 25
-1.000000000000000E+20
 35
-1.000000000000000E+20
146
0.0
 13
0.0
 23
0.0
 33
0.0
 16
1.0
 26
0.0
 36
0.0
 17
0.0
 27
1.0
 37
0.0
 76
     0
330
1B
  0
LAYOUT
  5
26
102
{ACAD_REACTORS
330
1A
102
}
330
1A
100
AcDbPlotSettings
  1

  2
none_device
  4

  6

 40
0.0
 41
0.0
 42
0.0
 43
0.0
 44
0.0
 45
0.0
 46
0.0
 47
0.0
 48
0.0
 49
0.0
140
0.0
141
0.0
142
1.0
143
1.0
 70
   688
 72
     0
 73
     0
 74
     5
  7

 75
    16
 76
     0
 77
     2
 78
   300
147
1.0
148
0.0
149
0.0
100
AcDbLayout
  1
Layout2
 70
     1
 71
     2
 10
0.0
 20
0.0
 11
0.0
 21
0.0
 12
0.0
 22
0.0
 32
0.0
 14
0.0
 24
0.0
 34
0.0
 15
0.0
 25
0.0
 35
0.0
146
0.0
 13
0.0
 23
0.0
 33
0.0
 16
1.0
 26
0.0
 36
0.0
 17
0.0
 27
1.0
 37
0.0
 76
     0
330
23
  0
LAYOUT
  5
22
102
{ACAD_REACTORS
330
1A
102
}
330
1A
100
AcDbPlotSettings
  1

  2
none_device
  4

  6

 40
0.0
 41
0.0
 42
0.0
 43
0.0
 44
0.0
 45
0.0
 46
0.0
 47
0.0
 48
0.0
 49
0.0
140
0.0
141
0.0
142
1.0
143
1.0
 70
  1712
 72
     0
 73
     0
 74
     0
  7

 75
     0
 76
     0
 77
     2
 78
   300
147
1.0
148
0.0
149
0.0
100
AcDbLayout
  1
Model
 70
     1
 71
     0
 10
0.0
 20
0.0
 11
12.0
 21
9.0
 12
0.0
 22
0.0
 32
0.0
 14
-102.4582
 24
-96.5609
 34
0.0
 15
105.5686
 25
128.8848
 35
0.0
146
0.0
 13
0.0
 23
0.0
 33
0.0
 16
1.0
 26
0.0
 36
0.0
 17
0.0
 27
1.0
 37
0.0
 76
     0
330
1F
331
29
  0
MLINESTYLE
  5
18
102
{ACAD_REACTORS
330
17
102
}
330
17
100
AcDbMlineStyle
  2
Standard
 70
     0
  3

 62
   256
 51
90.0
 52
90.0
 71
     2
 49
0.5
 62
   256
  6
BYLAYER
 49
-0.5
 62
   256
  6
BYLAYER
  0
ACDBPLACEHOLDER
  5
F
102
{ACAD_REACTORS
330
E
102
}
330
E
  0
SCALE
  5
3C
102
{ACAD_REACTORS
330
3B
102
}
330
3B
100
AcDbScale
 70
     0
300
1:1
140
1.0
141
1.0
290
     1
  0
SCALE
  5
3D
102
{ACAD_REACTORS
330
3B
102
}
330
3B
100
AcDbScale
 70
     0
300
1:2
140
1.0
141
2.0
290
     0
  0
SCALE
  5
3E
102
{ACAD_REACTORS
330
3B
102
}
330
3B
100
AcDbScale
 70
     0
300
1:4
140
1.0
141
4.0
290
     0
  0
SCALE
  5
3F
102
{ACAD_REACTORS
330
3B
102
}
330
3B
100
AcDbScale
 70
     0
300
1:5
140
1.0
141
5.0
290
     0
  0
SCALE
  5
40
102
{ACAD_REACTORS
330
3B
102
}
330
3B
100
AcDbScale
 70
     0
300
1:8
140
1.0
141
8.0
290
     0
  0
SCALE
  5
41
102
{ACAD_REACTORS
330
3B
102
}
330
3B
100
AcDbScale
 70
     0
300
1:10
140
1.0
141
10.0
290
     0
  0
SCALE
  5
42
102
{ACAD_REACTORS
330
3B
102
}
330
3B
100
AcDbScale
 70
     0
300
1:16
140
1.0
141
16.0
290
     0
  0
SCALE
  5
43
102
{ACAD_REACTORS
330
3B
102
}
330
3B
100
AcDbScale
 70
     0
300
1:20
140
1.0
141
20.0
290
     0
  0
SCALE
  5
44
102
{ACAD_REACTORS
330
3B
102
}
330
3B
100
AcDbScale
 70
     0
300
1:30
140
1.0
141
30.0
290
     0
  0
SCALE
  5
45
102
{ACAD_REACTORS
330
3B
102
}
330
3B
100
AcDbScale
 70
     0
300
1:40
140
1.0
141
40.0
290
     0
  0
SCALE
  5
46
102
{ACAD_REACTORS
330
3B
102
}
330
3B
100
AcDbScale
 70
     0
300
1:50
140
1.0
141
50.0
290
     0
  0
SCALE
  5
47
102
{ACAD_REACTORS
330
3B
102
}
330
3B
100
AcDbScale
 70
     0
300
1:100
140
1.0
141
100.0
290
     0
  0
SCALE
  5
48
102
{ACAD_REACTORS
330
3B
102
}
330
3B
100
AcDbScale
 70
     0
300
2:1
140
2.0
141
1.0
290
     0
  0
SCALE
  5
49
102
{ACAD_REACTORS
330
3B
102
}
330
3B
100
AcDbScale
 70
     0
300
4:1
140
4.0
141
1.0
290
     0
  0
SCALE
  5
4A
102
{ACAD_REACTORS
330
3B
102
}
330
3B
100
AcDbScale
 70
     0
300
8:1
140
8.0
141
1.0
290
     0
  0
SCALE
  5
4B
102
{ACAD_REACTORS
330
3B
102
}
330
3B
100
AcDbScale
 70
     0
300
10:1
140
10.0
141
1.0
290
     0
  0
SCALE
  5
4C
102
{ACAD_REACTORS
330
3B
102
}
330
3B
100
AcDbScale
 70
     0
300
100:1
140
100.0
141
1.0
290
     0
  0
SCALE
  5
4D
102
{ACAD_REACTORS
330
3B
102
}
330
3B
100
AcDbScale
 70
     0
300
1/128" = 1'-0"
140
0.0078125
141
12.0
290
     0
  0
SCALE
  5
4E
102
{ACAD_REACTORS
330
3B
102
}
330
3B
100
AcDbScale
 70
     0
300
1/64" = 1'-0"
140
0.015625
141
12.0
290
     0
  0
SCALE
  5
4F
102
{ACAD_REACTORS
330
3B
102
}
330
3B
100
AcDbScale
 70
     0
300
1/32" = 1'-0"
140
0.03125
141
12.0
290
     0
  0
SCALE
  5
50
102
{ACAD_REACTORS
330
3B
102
}
330
3B
100
AcDbScale
 70
     0
300
1/16" = 1'-0"
140
0.0625
141
12.0
290
     0
  0
SCALE
  5
51
102
{ACAD_REACTORS
330
3B
102
}
330
3B
100
AcDbScale
 70
     0
300
3/32" = 1'-0"
140
0.09375
141
12.0
290
     0
  0
SCALE
  5
52
102
{ACAD_REACTORS
330
3B
102
}
330
3B
100
AcDbScale
 70
     0
300
1/8" = 1'-0"
140
0.125
141
12.0
290
     0
  0
SCALE
  5
53
102
{ACAD_REACTORS
330
3B
102
}
330
3B
100
AcDbScale
 70
     0
300
3/16" = 1'-0"
140
0.1875
141
12.0
290
     0
  0
SCALE
  5
54
102
{ACAD_REACTORS
330
3B
102
}
330
3B
100
AcDbScale
 70
     0
300
1/4" = 1'-0"
140
0.25
141
12.0
290
     0
  0
SCALE
  5
55
102
{ACAD_REACTORS
330
3B
102
}
330
3B
100
AcDbScale
 70
     0
300
3/8" = 1'-0"
140
0.375
141
12.0
290
     0
  0
SCALE
  5
56
102
{ACAD_REACTORS
330
3B
102
}
330
3B
100
AcDbScale
 70
     0
300
1/2" = 1'-0"
140
0.5
141
12.0
290
     0
  0
SCALE
  5
57
102
{ACAD_REACTORS
330
3B
102
}
330
3B
100
AcDbScale
 70
     0
300
3/4" = 1'-0"
140
0.75
141
12.0
290
     0
  0
SCALE
  5
58
102
{ACAD_REACTORS
330
3B
102
}
330
3B
100
AcDbScale
 70
     0
300
1" = 1'-0"
140
1.0
141
12.0
290
     0
  0
SCALE
  5
59
102
{ACAD_REACTORS
330
3B
102
}
330
3B
100
AcDbScale
 70
     0
300
1-1/2" = 1'-0"
140
1.5
141
12.0
290
     0
  0
SCALE
  5
5A
102
{ACAD_REACTORS
330
3B
102
}
330
3B
100
AcDbScale
 70
     0
300
3" = 1'-0"
140
3.0
141
12.0
290
     0
  0
SCALE
  5
5B
102
{ACAD_REACTORS
330
3B
102
}
330
3B
100
AcDbScale
 70
     0
300
6" = 1'-0"
140
6.0
141
12.0
290
     0
  0
SCALE
  5
5C
102
{ACAD_REACTORS
330
3B
102
}
330
3B
100
AcDbScale
 70
     0
300
1'-0" = 1'-0"
140
12.0
141
12.0
290
     0
  0
VISUALSTYLE
  5
2F
102
{ACAD_REACTORS
330
2A
102
}
330
2A
100
AcDbVisualStyle
  2
2dWireframe
 70
     4
 71
     0
 72
     2
 73
     0
 90
        0
 40
-0.6
 41
-30.0
 62
     5
 63
     7
421
 16777215
 74
     1
 91
        4
 64
     7
 65
   257
 75
     1
175
     1
 42
1.0
 92
        0
 66
   257
 43
1.0
 76
     1
 77
     6
 78
     2
 67
     7
 79
     5
170
     0
171
     0
290
     0
174
     0
 93
        1
 44
0.0
173
     0
291
     0
 45
0.0
  0
VISUALSTYLE
  5
31
102
{ACAD_REACTORS
330
2A
102
}
330
2A
100
AcDbVisualStyle
  2
3D Hidden
 70
     6
 71
     1
 72
     2
 73
     2
 90
        0
 40
-0.6
 41
-30.0
 62
     5
 63
     7
421
 16777215
 74
     2
 91
        2
 64
     7
 65
   257
 75
     2
175
     1
 42
40.0
 92
        0
 66
   257
 43
1.0
 76
     1
 77
     6
 78
     2
 67
     7
 79
     3
170
     0
171
     0
290
     0
174
     0
 93
        1
 44
0.0
173
     0
291
     0
 45
0.0
  0
VISUALSTYLE
  5
30
102
{ACAD_REACTORS
330
2A
102
}
330
2A
100
AcDbVisualStyle
  2
3dWireframe
 70
     5
 71
     0
 72
     2
 73
     0
 90
        0
 40
-0.6
 41
-30.0
 62
     5
 63
     7
421
 16777215
 74
     1
 91
        4
 64
     7
 65
   257
 75
     1
175
     1
 42
1.0
 92
        0
 66
   257
 43
1.0
 76
     1
 77
     6
 78
     2
 67
     7
 79
     5
170
     0
171
     0
290
     0
174
     0
 93
        1
 44
0.0
173
     0
291
     0
 45
0.0
  0
VISUALSTYLE
  5
32
102
{ACAD_REACTORS
330
2A
102
}
330
2A
100
AcDbVisualStyle
  2
Basic
 70
     7
 71
     1
 72
     0
 73
     1
 90
        0
 40
-0.6
 41
-30.0
 62
     5
 63
     7
421
 16777215
 74
     0
 91
        4
 64
     7
 65
   257
 75
     1
175
     1
 42
1.0
 92
        8
 66
     7
 43
1.0
 76
     1
 77
     6
 78
     2
 67
     7
 79
     5
170
     0
171
     0
290
     0
174
     0
 93
        1
 44
0.0
173
     0
291
     1
 45
0.0
  0
VISUALSTYLE
  5
36
102
{ACAD_REACTORS
330
2A
102
}
330
2A
100
AcDbVisualStyle
  2
Brighten
 70
    12
 71
     2
 72
     2
 73
     0
 90
        0
 40
-0.6
 41
-30.0
 62
     5
 63
     7
421
 16777215
 74
     1
 91
        4
 64
     7
 65
   257
 75
     1
175
     1
 42
1.0
 92
        8
 66
     7
 43
1.0
 76
     1
 77
     6
 78
     2
 67
     7
 79
     5
170
     0
171
     0
290
     0
174
     0
 93
        1
 44
50.0
173
     0
291
     1
 45
0.0
  0
VISUALSTYLE
  5
3A
102
{ACAD_REACTORS
330
2A
102
}
330
2A
100
AcDbVisualStyle
  2
ColorChange
 70
    16
 71
     2
 72
     2
 73
     3
 90
        0
 40
-0.6
 41
-30.0
 62
     5
 63
     8
421
  8421504
 74
     1
 91
        4
 64
     7
 65
   257
 75
     1
175
     1
 42
1.0
 92
        8
 66
     8
424
  8421504
 43
1.0
 76
     1
 77
     6
 78
     2
 67
     7
 79
     5
170
     0
171
     0
290
     0
174
     0
 93
        1
 44
0.0
173
     0
291
     1
 45
0.0
  0
VISUALSTYLE
  5
34
102
{ACAD_REACTORS
330
2A
102
}
330
2A
100
AcDbVisualStyle
  2
Conceptual
 70
     9
 71
     3
 72
     2
 73
     0
 90
        0
 40
-0.6
 41
-30.0
 62
     5
 63
     7
421
 16777215
 74
     2
 91
        2
 64
     7
 65
   257
 75
     1
175
     1
 42
40.0
 92
        8
 66
     7
 43
1.0
 76
     1
 77
     6
 78
     2
 67
     7
 79
     3
170
     0
171
     0
290
     0
174
     0
 93
        1
 44
0.0
173
     0
291
     0
 45
0.0
  0
VISUALSTYLE
  5
35
102
{ACAD_REACTORS
330
2A
102
}
330
2A
100
AcDbVisualStyle
  2
Dim
 70
    11
 71
     2
 72
     2
 73
     0
 90
        0
 40
-0.6
 41
-30.0
 62
     5
 63
     7
421
 16777215
 74
     1
 91
        4
 64
     7
 65
   257
 75
     1
175
     1
 42
1.0
 92
        8
 66
     7
 43
1.0
 76
     1
 77
     6
 78
     2
 67
     7
 79
     5
170
     0
171
     0
290
     0
174
     0
 93
        1
 44
-50.0
173
     0
291
     1
 45
0.0
  0
VISUALSTYLE
  5
39
102
{ACAD_REACTORS
330
2A
102
}
330
2A
100
AcDbVisualStyle
  2
Facepattern
 70
    15
 71
     2
 72
     2
 73
     0
 90
        0
 40
-0.6
 41
-30.0
 62
     5
 63
     7
421
 16777215
 74
     1
 91
        4
 64
     7
 65
   257
 75
     1
175
     1
 42
1.0
 92
        8
 66
     7
 43
1.0
 76
     1
 77
     6
 78
     2
 67
     7
 79
     5
170
     0
171
     0
290
     0
174
     0
 93
        1
 44
0.0
173
     0
291
     1
 45
0.0
  0
VISUALSTYLE
  5
2B
102
{ACAD_REACTORS
330
2A
102
}
330
2A
100
AcDbVisualStyle
  2
Flat
 70
     0
 71
     2
 72
     1
 73
     1
 90
        2
 40
-0.6
 41
30.0
 62
     5
 63
     7
421
 16777215
 74
     0
 91
        4
 64
     7
 65
   257
 75
     1
175
     1
 42
1.0
 92
        8
 66
     7
 43
1.0
 76
     1
 77
     6
 78
     2
 67
     7
 79
     5
170
     0
171
     0
290
     0
174
     0
 93
       13
 44
0.0
173
     0
291
     1
 45
0.0
  0
VISUALSTYLE
  5
2C
102
{ACAD_REACTORS
330
2A
102
}
330
2A
100
AcDbVisualStyle
  2
FlatWithEdges
 70
     1
 71
     2
 72
     1
 73
     1
 90
        2
 40
-0.6
 41
30.0
 62
     5
 63
     7
421
 16777215
 74
     1
 91
        4
 64
     7
 65
   257
 75
     1
175
     1
 42
1.0
 92
        0
 66
   257
 43
1.0
 76
     1
 77
     6
 78
     2
 67
     7
 79
     5
170
     0
171
     0
290
     0
174
     0
 93
       13
 44
0.0
173
     0
291
     1
 45
0.0
  0
VISUALSTYLE
  5
2D
102
{ACAD_REACTORS
330
2A
102
}
330
2A
100
AcDbVisualStyle
  2
Gouraud
 70
     2
 71
     2
 72
     2
 73
     1
 90
        2
 40
-0.6
 41
30.0
 62
     5
 63
     7
421
 16777215
 74
     0
 91
        4
 64
     7
 65
   257
 75
     1
175
     1
 42
1.0
 92
        0
 66
     7
 43
1.0
 76
     1
 77
     6
 78
     2
 67
     7
 79
     5
170
     0
171
     0
290
     0
174
     0
 93
       13
 44
0.0
173
     0
291
     1
 45
0.0
  0
VISUALSTYLE
  5
2E
102
{ACAD_REACTORS
330
2A
102
}
330
2A
100
AcDbVisualStyle
  2
GouraudWithEdges
 70
     3
 71
     2
 72
     2
 73
     1
 90
        2
 40
-0.6
 41
30.0
 62
     5
 63
     7
421
 16777215
 74
     1
 91
        4
 64
     7
 65
   257
 75
     1
175
     1
 42
1.0
 92
        0
 66
   257
 43
1.0
 76
     1
 77
     6
 78
     2
 67
     7
 79
     5
170
     0
171
     0
290
     0
174
     0
 93
       13
 44
0.0
173
     0
291
     1
 45
0.0
  0
VISUALSTYLE
  5
38
102
{ACAD_REACTORS
330
2A
102
}
330
2A
100
AcDbVisualStyle
  2
Linepattern
 70
    14
 71
     2
 72
     2
 73
     0
 90
        0
 40
-0.6
 41
-30.0
 62
     5
 63
     7
421
 16777215
 74
     1
 91
        4
 64
     7
 65
   257
 75
     7
175
     7
 42
1.0
 92
        8
 66
     7
 43
1.0
 76
     1
 77
     6
 78
     2
 67
     7
 79
     5
170
     0
171
     0
290
     0
174
     0
 93
        1
 44
0.0
173
     0
291
     1
 45
0.0
  0
VISUALSTYLE
  5
33
102
{ACAD_REACTORS
330
2A
102
}
330
2A
100
AcDbVisualStyle
  2
Realistic
 70
     8
 71
     2
 72
     2
 73
     0
 90
        0
 40
-0.6
 41
-30.0
 62
     5
 63
     7
421
 16777215
 74
     1
 91
        0
 64
     7
 65
   257
 75
     1
175
     1
 42
1.0
 92
        8
 66
     8
424
  7895160
 43
1.0
 76
     1
 77
     6
 78
     2
 67
     7
 79
     5
170
     0
171
     0
290
     0
174
     0
 93
       13
 44
0.0
173
     0
291
     0
 45
0.0
  0
VISUALSTYLE
  5
37
102
{ACAD_REACTORS
330
2A
102
}
330
2A
100
AcDbVisualStyle
  2
Thicken
 70
    13
 71
     2
 72
     2
 73
     0
 90
        0
 40
-0.6
 41
-30.0
 62
     5
 63
     7
421
 16777215
 74
     1
 91
        4
 64
     7
 65
   257
 75
     1
175
     1
 42
1.0
 92
       12
 66
     7
 43
1.0
 76
     1
 77
     6
 78
     2
 67
     7
 79
     5
170
     0
171
     0
290
     0
174
     0
 93
        1
 44
0.0
173
     0
291
     1
 45
0.0
  0
ENDSEC
  0
EOF
