  0
SECTION
  2
HEADER
  9
$ACADVER
  1
AC1021
  9
$ACADMAINTVER
 70
    25
  9
$DWGCODEPAGE
  3
ANSI_1252
  9
$INSBASE
 10
0.0
 20
0.0
 30
0.0
  9
$EXTMIN
 10
-428.3632
 20
-182.269
 30
0.0
  9
$EXTMAX
 10
405.5174
 20
142.8503
 30
0.0
  9
$LIMMIN
 10
0.0
 20
0.0
  9
$LIMMAX
 10
12.0
 20
9.0
  9
$ORTHOMODE
 70
     0
  9
$REGENMODE
 70
     1
  9
$FILLMODE
 70
     1
  9
$QTEXTMODE
 70
     0
  9
$MIRRTEXT
 70
     1
  9
$LTSCALE
 40
1.0
  9
$ATTMODE
 70
     1
  9
$TEXTSIZE
 40
0.2
  9
$TRACEWID
 40
0.05
  9
$TEXTSTYLE
  7
Standard
  9
$CLAYER
  8
0
  9
$CELTYPE
  6
ByLayer
  9
$CECOLOR
 62
   256
  9
$CELTSCALE
 40
1.0
  9
$DISPSILH
 70
     0
  9
$DIMSCALE
 40
1.0
  9
$DIMASZ
 40
0.18
  9
$DIMEXO
 40
0.0625
  9
$DIMDLI
 40
0.38
  9
$DIMRND
 40
0.0
  9
$DIMDLE
 40
0.0
  9
$DIMEXE
 40
0.18
  9
$DIMTP
 40
0.0
  9
$DIMTM
 40
0.0
  9
$DIMTXT
 40
0.18
  9
$DIMCEN
 40
0.09
  9
$DIMTSZ
 40
0.0
  9
$DIMTOL
 70
     0
  9
$DIMLIM
 70
     0
  9
$DIMTIH
 70
     1
  9
$DIMTOH
 70
     1
  9
$DIMSE1
 70
     0
  9
$DIMSE2
 70
     0
  9
$DIMTAD
 70
     0
  9
$DIMZIN
 70
     0
  9
$DIMBLK
  1

  9
$DIMASO
 70
     1
  9
$DIMSHO
 70
     1
  9
$DIMPOST
  1

  9
$DIMAPOST
  1

  9
$DIMALT
 70
     0
  9
$DIMALTD
 70
     2
  9
$DIMALTF
 40
25.4
  9
$DIMLFAC
 40
1.0
  9
$DIMTOFL
 70
     0
  9
$DIMTVP
 40
0.0
  9
$DIMTIX
 70
     0
  9
$DIMSOXD
 70
     0
  9
$DIMSAH
 70
     0
  9
$DIMBLK1
  1

  9
$DIMBLK2
  1

  9
$DIMSTYLE
  2
Standard
  9
$DIMCLRD
 70
     0
  9
$DIMCLRE
 70
     0
  9
$DIMCLRT
 70
     0
  9
$DIMTFAC
 40
1.0
  9
$DIMGAP
 40
0.09
  9
$DIMJUST
 70
     0
  9
$DIMSD1
 70
     0
  9
$DIMSD2
 70
     0
  9
$DIMTOLJ
 70
     1
  9
$DIMTZIN
 70
     0
  9
$DIMALTZ
 70
     0
  9
$DIMALTTZ
 70
     0
  9
$DIMUPT
 70
     0
  9
$DIMDEC
 70
     4
  9
$DIMTDEC
 70
     4
  9
$DIMALTU
 70
     2
  9
$DIMALTTD
 70
     2
  9
$DIMTXSTY
  7
Standard
  9
$DIMAUNIT
 70
     0
  9
$DIMADEC
 70
     0
  9
$DIMALTRND
 40
0.0
  9
$DIMAZIN
 70
     0
  9
$DIMDSEP
 70
    46
  9
$DIMATFIT
 70
     3
  9
$DIMFRAC
 70
     0
  9
$DIMLDRBLK
  1

  9
$DIMLUNIT
 70
     2
  9
$DIMLWD
 70
    -2
  9
$DIMLWE
 70
    -2
  9
$DIMTMOVE
 70
     0
  9
$DIMFXL
 40
1.0
  9
$DIMFXLON
 70
     0
  9
$DIMJOGANG
 40
0.7853981633974483
  9
$DIMTFILL
 70
     0
  9
$DIMTFILLCLR
 70
     0
  9
$DIMARCSYM
 70
     0
  9
$DIMLTYPE
  6

  9
$DIMLTEX1
  6

  9
$DIMLTEX2
  6

  9
$LUNITS
 70
     2
  9
$LUPREC
 70
     4
  9
$SKETCHINC
 40
0.1
  9
$FILLETRAD
 40
0.5
  9
$AUNITS
 70
     0
  9
$AUPREC
 70
     0
  9
$MENU
  1
.
  9
$ELEVATION
 40
0.0
  9
$PELEVATION
 40
0.0
  9
$THICKNESS
 40
0.0
  9
$LIMCHECK
 70
     0
  9
$CHAMFERA
 40
0.0
  9
$CHAMFERB
 40
0.0
  9
$CHAMFERC
 40
0.0
  9
$CHAMFERD
 40
0.0
  9
$SKPOLY
 70
     0
  9
$TDCREATE
 40
2459063.636380475
  9
$TDUCREATE
 40
2459063.553047141
  9
$TDUPDATE
 40
2459063.63638059
  9
$TDUUPDATE
 40
2459063.553047257
  9
$TDINDWG
 40
0.0000000116
  9
$TDUSRTIMER
 40
0.0000000116
  9
$USRTIMER
 70
     1
  9
$ANGBASE
 50
0.0
  9
$ANGDIR
 70
     0
  9
$PDMODE
 70
     0
  9
$PDSIZE
 40
0.0
  9
$PLINEWID
 40
0.0
  9
$SPLFRAME
 70
     0
  9
$SPLINETYPE
 70
     6
  9
$SPLINESEGS
 70
     8
  9
$HANDSEED
  5
D2
  9
$SURFTAB1
 70
     6
  9
$SURFTAB2
 70
     6
  9
$SURFTYPE
 70
     6
  9
$SURFU
 70
     6
  9
$SURFV
 70
     6
  9
$UCSBASE
  2

  9
$UCSNAME
  2

  9
$UCSORG
 10
0.0
 20
0.0
 30
0.0
  9
$UCSXDIR
 10
1.0
 20
0.0
 30
0.0
  9
$UCSYDIR
 10
0.0
 20
1.0
 30
0.0
  9
$UCSORTHOREF
  2

  9
$UCSORTHOVIEW
 70
     0
  9
$UCSORGTOP
 10
0.0
 20
0.0
 30
0.0
  9
$UCSORGBOTTOM
 10
0.0
 20
0.0
 30
0.0
  9
$UCSORGLEFT
 10
0.0
 20
0.0
 30
0.0
  9
$UCSORGRIGHT
 10
0.0
 20
0.0
 30
0.0
  9
$UCSORGFRONT
 10
0.0
 20
0.0
 30
0.0
  9
$UCSORGBACK
 10
0.0
 20
0.0
 30
0.0
  9
$PUCSBASE
  2

  9
$PUCSNAME
  2

  9
$PUCSORG
 10
0.0
 20
0.0
 30
0.0
  9
$PUCSXDIR
 10
1.0
 20
0.0
 30
0.0
  9
$PUCSYDIR
 10
0.0
 20
1.0
 30
0.0
  9
$PUCSORTHOREF
  2

  9
$PUCSORTHOVIEW
 70
     0
  9
$PUCSORGTOP
 10
0.0
 20
0.0
 30
0.0
  9
$PUCSORGBOTTOM
 10
0.0
 20
0.0
 30
0.0
  9
$PUCSORGLEFT
 10
0.0
 20
0.0
 30
0.0
  9
$PUCSORGRIGHT
 10
0.0
 20
0.0
 30
0.0
  9
$PUCSORGFRONT
 10
0.0
 20
0.0
 30
0.0
  9
$PUCSORGBACK
 10
0.0
 20
0.0
 30
0.0
  9
$USERI1
 70
     0
  9
$USERI2
 70
     0
  9
$USERI3
 70
     0
  9
$USERI4
 70
     0
  9
$USERI5
 70
     0
  9
$USERR1
 40
0.0
  9
$USERR2
 40
0.0
  9
$USERR3
 40
0.0
  9
$USERR4
 40
0.0
  9
$USERR5
 40
0.0
  9
$WORLDVIEW
 70
     1
  9
$SHADEDGE
 70
     3
  9
$SHADEDIF
 70
    70
  9
$TILEMODE
 70
     1
  9
$MAXACTVP
 70
    64
  9
$PINSBASE
 10
0.0
 20
0.0
 30
0.0
  9
$PLIMCHECK
 70
     0
  9
$PEXTMIN
 10
1.000000000000000E+20
 20
1.000000000000000E+20
 30
1.000000000000000E+20
  9
$PEXTMAX
 10
-1.000000000000000E+20
 20
-1.000000000000000E+20
 30
-1.000000000000000E+20
  9
$PLIMMIN
 10
0.0
 20
0.0
  9
$PLIMMAX
 10
12.0
 20
9.0
  9
$UNITMODE
 70
     0
  9
$VISRETAIN
 70
     1
  9
$PLINEGEN
 70
     0
  9
$PSLTSCALE
 70
     1
  9
$TREEDEPTH
 70
  3020
  9
$CMLSTYLE
  2
Standard
  9
$CMLJUST
 70
     0
  9
$CMLSCALE
 40
1.0
  9
$PROXYGRAPHICS
 70
     1
  9
$MEASUREMENT
 70
     0
  9
$CELWEIGHT
370
    -1
  9
$ENDCAPS
280
     0
  9
$JOINSTYLE
280
     0
  9
$LWDISPLAY
290
     0
  9
$INSUNITS
 70
     4
  9
$HYPERLINKBASE
  1

  9
$STYLESHEET
  1

  9
$XEDIT
290
     1
  9
$CEPSNTYPE
380
     0
  9
$PSTYLEMODE
290
     1
  9
$FINGERPRINTGUID
  2
{e5579a08-9cdf-4d19-b773-cba9e95b8e56}
  9
$VERSIONGUID
  2
{FAEB1C32-E019-11D5-929B-00C0DF256EC4}
  9
$EXTNAMES
290
     1
  9
$PSVPSCALE
 40
0.0
  9
$OLESTARTUP
290
     0
  9
$SORTENTS
280
   127
  9
$INDEXCTL
280
     0
  9
$HIDETEXT
280
     1
  9
$XCLIPFRAME
290
     0
  9
$HALOGAP
280
     0
  9
$OBSCOLOR
 70
   257
  9
$OBSLTYPE
280
     0
  9
$INTERSECTIONDISPLAY
280
     0
  9
$INTERSECTIONCOLOR
 70
   257
  9
$DIMASSOC
280
     2
  9
$PROJECTNAME
  1

  9
$CAMERADISPLAY
290
     0
  9
$LENSLENGTH
 40
50.0
  9
$CAMERAHEIGHT
 40
0.0
  9
$STEPSPERSEC
 40
2.0
  9
$STEPSIZE
 40
6.0
  9
$3DDWFPREC
 40
2.0
  9
$PSOLWIDTH
 40
0.25
  9
$PSOLHEIGHT
 40
4.0
  9
$LOFTANG1
 40
1.570796326794897
  9
$LOFTANG2
 40
1.570796326794897
  9
$LOFTMAG1
 40
0.0
  9
$LOFTMAG2
 40
0.0
  9
$LOFTPARAM
 70
     7
  9
$LOFTNORMALS
280
     1
  9
$LATITUDE
 40
37.795
  9
$LONGITUDE
 40
-122.394
  9
$NORTHDIRECTION
 40
0.0
  9
$TIMEZONE
 70
 -8000
  9
$LIGHTGLYPHDISPLAY
280
     1
  9
$TILEMODELIGHTSYNCH
280
     1
  9
$CMATERIAL
347
44
  9
$SOLIDHIST
280
     0
  9
$SHOWHIST
280
     1
  9
$DWFFRAME
280
     2
  9
$DGNFRAME
280
     2
  9
$REALWORLDSCALE
290
     1
  9
$INTERFERECOLOR
 62
   256
  9
$CSHADOW
280
     0
  9
$SHADOWPLANELOCATION
 40
0.0
  0
ENDSEC
  0
SECTION
  2
CLASSES
  0
CLASS
  1
ACDBDICTIONARYWDFLT
  2
AcDbDictionaryWithDefault
  3
ObjectDBX Classes
 90
        0
 91
        3
280
     0
281
     0
  0
CLASS
  1
VISUALSTYLE
  2
AcDbVisualStyle
  3
ObjectDBX Classes
 90
     4095
 91
        3
280
     0
281
     0
  0
CLASS
  1
MATERIAL
  2
AcDbMaterial
  3
ObjectDBX Classes
 90
     1153
 91
        3
280
     0
281
     0
  0
CLASS
  1
SCALE
  2
AcDbScale
  3
ObjectDBX Classes
 90
     1153
 91
        3
280
     0
281
     0
  0
CLASS
  1
TABLESTYLE
  2
AcDbTableStyle
  3
ObjectDBX Classes
 90
     4095
 91
        3
280
     0
281
     0
  0
CLASS
  1
MLEADERSTYLE
  2
AcDbMLeaderStyle
  3
ACDB_MLEADERSTYLE_CLASS
 90
     4095
 91
        3
280
     0
281
     0
  0
CLASS
  1
SUN
  2
AcDbSun
  3
SCENEOE
 90
     1153
 91
        3
280
     0
281
     0
  0
CLASS
  1
DICTIONARYVAR
  2
AcDbDictionaryVar
  3
ObjectDBX Classes
 90
        0
 91
        3
280
     0
281
     0
  0
CLASS
  1
CELLSTYLEMAP
  2
AcDbCellStyleMap
  3
ObjectDBX Classes
 90
     1152
 91
        3
280
     0
281
     0
  0
ENDSEC
  0
SECTION
  2
TABLES
  0
TABLE
  2
VPORT
  5
8
330
0
100
AcDbSymbolTable
 70
     1
  0
VPORT
  5
29
330
8
100
AcDbSymbolTableRecord
100
AcDbViewportTableRecord
  2
*Active
 70
     0
 10
0.0
 20
0.0
 11
1.0
 21
1.0
 12
10.42990654205607
 22
4.5
 13
0.0
 23
0.0
 14
0.5
 24
0.5
 15
0.5
 25
0.5
 16
0.0
 26
0.0
 36
1.0
 17
0.0
 27
0.0
 37
0.0
 40
9.0
 41
1.972972972850329
 42
50.0
 43
0.0
 44
0.0
 50
0.0
 51
0.0
 71
     0
 72
   100
 73
     1
 74
     3
 75
     0
 76
     0
 77
     0
 78
     0
281
     0
 65
     1
110
0.0
120
0.0
130
0.0
111
1.0
121
0.0
131
0.0
112
0.0
122
1.0
132
0.0
 79
     0
146
0.0
348
2F
 60
     3
 61
     5
292
     1
282
     1
141
0.0
142
0.0
 63
   250
361
6D
  0
ENDTAB
  0
TABLE
  2
LTYPE
  5
5
330
0
100
AcDbSymbolTable
 70
     1
  0
LTYPE
  5
14
330
5
100
AcDbSymbolTableRecord
100
AcDbLinetypeTableRecord
  2
ByBlock
 70
     0
  3

 72
    65
 73
     0
 40
0.0
  0
LTYPE
  5
15
330
5
100
AcDbSymbolTableRecord
100
AcDbLinetypeTableRecord
  2
ByLayer
 70
     0
  3

 72
    65
 73
     0
 40
0.0
  0
LTYPE
  5
16
330
5
100
AcDbSymbolTableRecord
100
AcDbLinetypeTableRecord
  2
Continuous
 70
     0
  3
Solid line
 72
    65
 73
     0
 40
0.0
  0
ENDTAB
  0
TABLE
  2
LAYER
  5
2
330
0
100
AcDbSymbolTable
 70
     3
  0
LAYER
  5
10
330
2
100
AcDbSymbolTableRecord
100
AcDbLayerTableRecord
  2
0
 70
     0
 62
     7
  6
Continuous
370
    -3
390
F
347
46
  0
LAYER
  5
6F
330
2
100
AcDbSymbolTableRecord
100
AcDbLayerTableRecord
  2
Layer 1
 70
     0
 62
     7
  6
Continuous
370
    -3
390
F
347
46
  0
LAYER
  5
8E
330
2
100
AcDbSymbolTableRecord
100
AcDbLayerTableRecord
  2
PERIMETER
 70
     0
 62
     7
  6
Continuous
370
    -3
390
F
347
46
  0
ENDTAB
  0
TABLE
  2
STYLE
  5
3
330
0
100
AcDbSymbolTable
 70
     1
  0
STYLE
  5
11
330
3
100
AcDbSymbolTableRecord
100
AcDbTextStyleTableRecord
  2
Standard
 70
     0
 40
0.0
 41
1.0
 50
0.0
 71
     0
 42
0.2
  3
txt
  4

  0
ENDTAB
  0
TABLE
  2
VIEW
  5
6
330
0
100
AcDbSymbolTable
 70
     0
  0
ENDTAB
  0
TABLE
  2
UCS
  5
7
330
0
100
AcDbSymbolTable
 70
     0
  0
ENDTAB
  0
TABLE
  2
APPID
  5
9
330
0
100
AcDbSymbolTable
 70
     3
  0
APPID
  5
12
330
9
100
AcDbSymbolTableRecord
100
AcDbRegAppTableRecord
  2
ACAD
 70
     0
  0
APPID
  5
6E
330
9
100
AcDbSymbolTableRecord
100
AcDbRegAppTableRecord
  2
ODA
 70
     0
  0
APPID
  5
CA
330
9
100
AcDbSymbolTableRecord
100
AcDbRegAppTableRecord
  2
ACAD_MLEADERVER
 70
     0
  0
ENDTAB
  0
TABLE
  2
DIMSTYLE
  5
A
330
0
100
AcDbSymbolTable
 70
     1
100
AcDbDimStyleTable
  0
DIMSTYLE
105
27
330
A
100
AcDbSymbolTableRecord
100
AcDbDimStyleTableRecord
  2
Standard
 70
     0
178
     0
340
11
  0
ENDTAB
  0
TABLE
  2
BLOCK_RECORD
  5
1
330
0
100
AcDbSymbolTable
 70
     1
  0
BLOCK_RECORD
  5
1F
330
1
100
AcDbSymbolTableRecord
100
AcDbBlockTableRecord
  2
*Model_Space
340
22
 70
     0
280
     1
281
     0
  0
BLOCK_RECORD
  5
1B
330
1
100
AcDbSymbolTableRecord
100
AcDbBlockTableRecord
  2
*Paper_Space
340
1E
 70
     0
280
     1
281
     0
  0
BLOCK_RECORD
  5
23
330
1
100
AcDbSymbolTableRecord
100
AcDbBlockTableRecord
  2
*Paper_Space0
340
26
 70
     0
280
     1
281
     0
  0
ENDTAB
  0
ENDSEC
  0
SECTION
  2
BLOCKS
  0
BLOCK
  5
20
330
1F
100
AcDbEntity
  8
0
100
AcDbBlockBegin
  2
*Model_Space
 70
     0
 10
0.0
 20
0.0
 30
0.0
  3
*Model_Space
  1

  0
ENDBLK
  5
21
330
1F
100
AcDbEntity
  8
0
100
AcDbBlockEnd
  0
BLOCK
  5
1C
330
1B
100
AcDbEntity
 67
     1
  8
0
100
AcDbBlockBegin
  2
*Paper_Space
 70
     0
 10
0.0
 20
0.0
 30
0.0
  3
*Paper_Space
  1

  0
ENDBLK
  5
1D
330
1B
100
AcDbEntity
 67
     1
  8
0
100
AcDbBlockEnd
  0
BLOCK
  5
24
330
23
100
AcDbEntity
  8
0
100
AcDbBlockBegin
  2
*Paper_Space0
 70
     0
 10
0.0
 20
0.0
 30
0.0
  3
*Paper_Space0
  1

  0
ENDBLK
  5
25
330
23
100
AcDbEntity
  8
0
100
AcDbBlockEnd
  0
ENDSEC
  0
SECTION
  2
ENTITIES
  0
SPLINE
  5
70
330
1F
100
AcDbEntity
  8
Layer 1
 62
     1
370
     9
100
AcDbSpline
210
0.0
220
0.0
230
1.0
 70
    11
 71
     3
 72
   244
 73
   240
 74
     0
 42
0.000000001
 43
0.0000000001
 40
0.0
 40
0.0
 40
0.0
 40
0.0
 40
0.0163934426229508
 40
0.0163934426229508
 40
0.0163934426229508
 40
0.0163934426229508
 40
0.0327868852459016
 40
0.0327868852459016
 40
0.0327868852459016
 40
0.0327868852459016
 40
0.0491803278688525
 40
0.0491803278688525
 40
0.0491803278688525
 40
0.0491803278688525
 40
0.0655737704918033
 40
0.0655737704918033
 40
0.0655737704918033
 40
0.0655737704918033
 40
0.0819672131147541
 40
0.0819672131147541
 40
0.0819672131147541
 40
0.0819672131147541
 40
0.0983606557377049
 40
0.0983606557377049
 40
0.0983606557377049
 40
0.0983606557377049
 40
0.1147540983606557
 40
0.1147540983606557
 40
0.1147540983606557
 40
0.1147540983606557
 40
0.1311475409836066
 40
0.1311475409836066
 40
0.1311475409836066
 40
0.1311475409836066
 40
0.1475409836065574
 40
0.1475409836065574
 40
0.1475409836065574
 40
0.1475409836065574
 40
0.1639344262295082
 40
0.1639344262295082
 40
0.1639344262295082
 40
0.1639344262295082
 40
0.180327868852459
 40
0.180327868852459
 40
0.180327868852459
 40
0.180327868852459
 40
0.1967213114754098
 40
0.1967213114754098
 40
0.1967213114754098
 40
0.1967213114754098
 40
0.2131147540983606
 40
0.2131147540983606
 40
0.2131147540983606
 40
0.2131147540983606
 40
0.2295081967213115
 40
0.2295081967213115
 40
0.2295081967213115
 40
0.2295081967213115
 40
0.2459016393442623
 40
0.2459016393442623
 40
0.2459016393442623
 40
0.2459016393442623
 40
0.2622950819672131
 40
0.2622950819672131
 40
0.2622950819672131
 40
0.2622950819672131
 40
0.2786885245901639
 40
0.2786885245901639
 40
0.2786885245901639
 40
0.2786885245901639
 40
0.2950819672131147
 40
0.2950819672131147
 40
0.2950819672131147
 40
0.2950819672131147
 40
0.3114754098360656
 40
0.3114754098360656
 40
0.3114754098360656
 40
0.3114754098360656
 40
0.3278688524590164
 40
0.3278688524590164
 40
0.3278688524590164
 40
0.3278688524590164
 40
0.3442622950819672
 40
0.3442622950819672
 40
0.3442622950819672
 40
0.3442622950819672
 40
0.360655737704918
 40
0.360655737704918
 40
0.360655737704918
 40
0.360655737704918
 40
0.3770491803278688
 40
0.3770491803278688
 40
0.3770491803278688
 40
0.3770491803278688
 40
0.3934426229508197
 40
0.3934426229508197
 40
0.3934426229508197
 40
0.3934426229508197
 40
0.4098360655737705
 40
0.4098360655737705
 40
0.4098360655737705
 40
0.4098360655737705
 40
0.4262295081967213
 40
0.4262295081967213
 40
0.4262295081967213
 40
0.4262295081967213
 40
0.4426229508196721
 40
0.4426229508196721
 40
0.4426229508196721
 40
0.4426229508196721
 40
0.459016393442623
 40
0.459016393442623
 40
0.459016393442623
 40
0.459016393442623
 40
0.4754098360655737
 40
0.4754098360655737
 40
0.4754098360655737
 40
0.4754098360655737
 40
0.4918032786885246
 40
0.4918032786885246
 40
0.4918032786885246
 40
0.4918032786885246
 40
0.5081967213114754
 40
0.5081967213114754
 40
0.5081967213114754
 40
0.5081967213114754
 40
0.5245901639344263
 40
0.5245901639344263
 40
0.5245901639344263
 40
0.5245901639344263
 40
0.5409836065573771
 40
0.5409836065573771
 40
0.5409836065573771
 40
0.5409836065573771
 40
0.5573770491803278
 40
0.5573770491803278
 40
0.5573770491803278
 40
0.5573770491803278
 40
0.5737704918032787
 40
0.5737704918032787
 40
0.5737704918032787
 40
0.5737704918032787
 40
0.5901639344262295
 40
0.5901639344262295
 40
0.5901639344262295
 40
0.5901639344262295
 40
0.6065573770491803
 40
0.6065573770491803
 40
0.6065573770491803
 40
0.6065573770491803
 40
0.6229508196721312
 40
0.6229508196721312
 40
0.6229508196721312
 40
0.6229508196721312
 40
0.639344262295082
 40
0.639344262295082
 40
0.639344262295082
 40
0.639344262295082
 40
0.6557377049180327
 40
0.6557377049180327
 40
0.6557377049180327
 40
0.6557377049180327
 40
0.6721311475409836
 40
0.6721311475409836
 40
0.6721311475409836
 40
0.6721311475409836
 40
0.6885245901639344
 40
0.6885245901639344
 40
0.6885245901639344
 40
0.6885245901639344
 40
0.7049180327868853
 40
0.7049180327868853
 40
0.7049180327868853
 40
0.7049180327868853
 40
0.7213114754098361
 40
0.7213114754098361
 40
0.7213114754098361
 40
0.7213114754098361
 40
0.7377049180327869
 40
0.7377049180327869
 40
0.7377049180327869
 40
0.7377049180327869
 40
0.7540983606557377
 40
0.7540983606557377
 40
0.7540983606557377
 40
0.7540983606557377
 40
0.7704918032786885
 40
0.7704918032786885
 40
0.7704918032786885
 40
0.7704918032786885
 40
0.7868852459016393
 40
0.7868852459016393
 40
0.7868852459016393
 40
0.7868852459016393
 40
0.8032786885245902
 40
0.8032786885245902
 40
0.8032786885245902
 40
0.8032786885245902
 40
0.819672131147541
 40
0.819672131147541
 40
0.819672131147541
 40
0.819672131147541
 40
0.8360655737704918
 40
0.8360655737704918
 40
0.8360655737704918
 40
0.8360655737704918
 40
0.8524590163934426
 40
0.8524590163934426
 40
0.8524590163934426
 40
0.8524590163934426
 40
0.8688524590163934
 40
0.8688524590163934
 40
0.8688524590163934
 40
0.8688524590163934
 40
0.8852459016393442
 40
0.8852459016393442
 40
0.8852459016393442
 40
0.8852459016393442
 40
0.9016393442622951
 40
0.9016393442622951
 40
0.9016393442622951
 40
0.9016393442622951
 40
0.9180327868852459
 40
0.9180327868852459
 40
0.9180327868852459
 40
0.9180327868852459
 40
0.9344262295081968
 40
0.9344262295081968
 40
0.9344262295081968
 40
0.9344262295081968
 40
0.9508196721311475
 40
0.9508196721311475
 40
0.9508196721311475
 40
0.9508196721311475
 40
0.9672131147540983
 40
0.9672131147540983
 40
0.9672131147540983
 40
0.9672131147540983
 40
1.0
 40
1.0
 40
1.0
 40
1.0
 10
-35.6554
 20
-14.5355
 30
0.0
 10
-35.6554
 20
-14.5355
 30
0.0
 10
-39.5054
 20
-14.5355
 30
0.0
 10
-39.5054
 20
-14.5355
 30
0.0
 10
-39.5054
 20
-14.5355
 30
0.0
 10
-39.5054
 20
-14.5355
 30
0.0
 10
-39.5054
 20
-8.5355
 30
0.0
 10
-39.5054
 20
-8.5355
 30
0.0
 10
-39.5054
 20
-8.5355
 30
0.0
 10
-39.5054
 20
-8.5355
 30
0.0
 10
-90.4554
 20
-8.5355
 30
0.0
 10
-90.4554
 20
-8.5355
 30
0.0
 10
-90.4554
 20
-8.5355
 30
0.0
 10
-90.4554
 20
-8.5355
 30
0.0
 10
-90.4554
 20
-14.5355
 30
0.0
 10
-90.4554
 20
-14.5355
 30
0.0
 10
-90.4554
 20
-14.5355
 30
0.0
 10
-90.4554
 20
-14.5355
 30
0.0
 10
-94.3054
 20
-14.5355
 30
0.0
 10
-94.3054
 20
-14.5355
 30
0.0
 10
-94.3054
 20
-14.5355
 30
0.0
 10
-94.3054
 20
-14.5355
 30
0.0
 10
-94.3054
 20
-8.5355
 30
0.0
 10
-94.3054
 20
-8.5355
 30
0.0
 10
-94.3054
 20
-8.5355
 30
0.0
 10
-94.3054
 20
-8.5355
 30
0.0
 10
-115.1054
 20
-8.5355
 30
0.0
 10
-115.1054
 20
-8.5355
 30
0.0
 10
-115.1054
 20
-8.5355
 30
0.0
 10
-115.1054
 20
-8.5355
 30
0.0
 10
-115.1054
 20
-4.5355
 30
0.0
 10
-115.1054
 20
-4.5355
 30
0.0
 10
-115.1054
 20
-4.5355
 30
0.0
 10
-115.1054
 20
-4.5355
 30
0.0
 10
-125.2554
 20
-4.5355
 30
0.0
 10
-125.2554
 20
-4.5355
 30
0.0
 10
-125.2554
 20
-4.5355
 30
0.0
 10
-125.2554
 20
-4.5355
 30
0.0
 10
-125.2554
 20
-8.5355
 30
0.0
 10
-125.2554
 20
-8.5355
 30
0.0
 10
-125.2554
 20
-8.5355
 30
0.0
 10
-125.2554
 20
-8.5355
 30
0.0
 10
-145.2554
 20
-8.5355
 30
0.0
 10
-145.2554
 20
-8.5355
 30
0.0
 10
-145.2554
 20
-8.5355
 30
0.0
 10
-145.2554
 20
-8.5355
 30
0.0
 10
-145.2554
 20
-56.6854
 30
0.0
 10
-145.2554
 20
-56.6854
 30
0.0
 10
-145.2554
 20
-56.6854
 30
0.0
 10
-145.2554
 20
-56.6854
 30
0.0
 10
-141.2554
 20
-56.6854
 30
0.0
 10
-141.2554
 20
-56.6854
 30
0.0
 10
-141.2554
 20
-56.6854
 30
0.0
 10
-141.2554
 20
-56.6854
 30
0.0
 10
-141.2554
 20
-60.5356
 30
0.0
 10
-141.2554
 20
-60.5356
 30
0.0
 10
-141.2554
 20
-60.5356
 30
0.0
 10
-141.2554
 20
-60.5356
 30
0.0
 10
-145.2554
 20
-60.5356
 30
0.0
 10
-145.2554
 20
-60.5356
 30
0.0
 10
-145.2554
 20
-60.5356
 30
0.0
 10
-145.2554
 20
-60.5356
 30
0.0
 10
-145.2554
 20
-108.6855
 30
0.0
 10
-145.2554
 20
-108.6855
 30
0.0
 10
-145.2554
 20
-108.6855
 30
0.0
 10
-145.2554
 20
-108.6855
 30
0.0
 10
-125.2554
 20
-108.6855
 30
0.0
 10
-125.2554
 20
-108.6855
 30
0.0
 10
-125.2554
 20
-108.6855
 30
0.0
 10
-125.2554
 20
-108.6855
 30
0.0
 10
-125.2554
 20
-112.6855
 30
0.0
 10
-125.2554
 20
-112.6855
 30
0.0
 10
-125.2554
 20
-112.6855
 30
0.0
 10
-125.2554
 20
-112.6855
 30
0.0
 10
-115.1054
 20
-112.6855
 30
0.0
 10
-115.1054
 20
-112.6855
 30
0.0
 10
-115.1054
 20
-112.6855
 30
0.0
 10
-115.1054
 20
-112.6855
 30
0.0
 10
-115.1054
 20
-108.6855
 30
0.0
 10
-115.1054
 20
-108.6855
 30
0.0
 10
-115.1054
 20
-108.6855
 30
0.0
 10
-115.1054
 20
-108.6855
 30
0.0
 10
-94.3054
 20
-108.6855
 30
0.0
 10
-94.3054
 20
-108.6855
 30
0.0
 10
-94.3054
 20
-108.6855
 30
0.0
 10
-94.3054
 20
-108.6855
 30
0.0
 10
-94.3054
 20
-102.6855
 30
0.0
 10
-94.3054
 20
-102.6855
 30
0.0
 10
-94.3054
 20
-102.6855
 30
0.0
 10
-94.3054
 20
-102.6855
 30
0.0
 10
-90.4554
 20
-102.6855
 30
0.0
 10
-90.4554
 20
-102.6855
 30
0.0
 10
-90.4554
 20
-102.6855
 30
0.0
 10
-90.4554
 20
-102.6855
 30
0.0
 10
-90.4554
 20
-108.6855
 30
0.0
 10
-90.4554
 20
-108.6855
 30
0.0
 10
-90.4554
 20
-108.6855
 30
0.0
 10
-90.4554
 20
-108.6855
 30
0.0
 10
-39.5054
 20
-108.6855
 30
0.0
 10
-39.5054
 20
-108.6855
 30
0.0
 10
-39.5054
 20
-108.6855
 30
0.0
 10
-39.5054
 20
-108.6855
 30
0.0
 10
-39.5054
 20
-102.6855
 30
0.0
 10
-39.5054
 20
-102.6855
 30
0.0
 10
-39.5054
 20
-102.6855
 30
0.0
 10
-39.5054
 20
-102.6855
 30
0.0
 10
-35.6554
 20
-102.6855
 30
0.0
 10
-35.6554
 20
-102.6855
 30
0.0
 10
-35.6554
 20
-102.6855
 30
0.0
 10
-35.6554
 20
-102.6855
 30
0.0
 10
-35.6554
 20
-108.6855
 30
0.0
 10
-35.6554
 20
-108.6855
 30
0.0
 10
-35.6554
 20
-108.6855
 30
0.0
 10
-35.6554
 20
-108.6855
 30
0.0
 10
15.2946
 20
-108.6855
 30
0.0
 10
15.2946
 20
-108.6855
 30
0.0
 10
15.2946
 20
-108.6855
 30
0.0
 10
15.2946
 20
-108.6855
 30
0.0
 10
15.2946
 20
-102.6855
 30
0.0
 10
15.2946
 20
-102.6855
 30
0.0
 10
15.2946
 20
-102.6855
 30
0.0
 10
15.2946
 20
-102.6855
 30
0.0
 10
19.1446
 20
-102.6855
 30
0.0
 10
19.1446
 20
-102.6855
 30
0.0
 10
19.1446
 20
-102.6855
 30
0.0
 10
19.1446
 20
-102.6855
 30
0.0
 10
19.1446
 20
-108.6855
 30
0.0
 10
19.1446
 20
-108.6855
 30
0.0
 10
19.1446
 20
-108.6855
 30
0.0
 10
19.1446
 20
-108.6855
 30
0.0
 10
70.0946
 20
-108.6855
 30
0.0
 10
70.0946
 20
-108.6855
 30
0.0
 10
70.0946
 20
-108.6855
 30
0.0
 10
70.0946
 20
-108.6855
 30
0.0
 10
70.0946
 20
-102.6855
 30
0.0
 10
70.0946
 20
-102.6855
 30
0.0
 10
70.0946
 20
-102.6855
 30
0.0
 10
70.0946
 20
-102.6855
 30
0.0
 10
73.9446
 20
-102.6855
 30
0.0
 10
73.9446
 20
-102.6855
 30
0.0
 10
73.9446
 20
-102.6855
 30
0.0
 10
73.9446
 20
-102.6855
 30
0.0
 10
73.9446
 20
-108.6855
 30
0.0
 10
73.9446
 20
-108.6855
 30
0.0
 10
73.9446
 20
-108.6855
 30
0.0
 10
73.9446
 20
-108.6855
 30
0.0
 10
94.7446
 20
-108.6855
 30
0.0
 10
94.7446
 20
-108.6855
 30
0.0
 10
94.7446
 20
-108.6855
 30
0.0
 10
94.7446
 20
-108.6855
 30
0.0
 10
94.7446
 20
-112.6855
 30
0.0
 10
94.7446
 20
-112.6855
 30
0.0
 10
94.7446
 20
-112.6855
 30
0.0
 10
94.7446
 20
-112.6855
 30
0.0
 10
104.8946
 20
-112.6855
 30
0.0
 10
104.8946
 20
-112.6855
 30
0.0
 10
104.8946
 20
-112.6855
 30
0.0
 10
104.8946
 20
-112.6855
 30
0.0
 10
104.8946
 20
-108.6855
 30
0.0
 10
104.8946
 20
-108.6855
 30
0.0
 10
104.8946
 20
-108.6855
 30
0.0
 10
104.8946
 20
-108.6855
 30
0.0
 10
124.8946
 20
-108.6855
 30
0.0
 10
124.8946
 20
-108.6855
 30
0.0
 10
124.8946
 20
-108.6855
 30
0.0
 10
124.8946
 20
-108.6855
 30
0.0
 10
124.8946
 20
-60.5356
 30
0.0
 10
124.8946
 20
-60.5356
 30
0.0
 10
124.8946
 20
-60.5356
 30
0.0
 10
124.8946
 20
-60.5356
 30
0.0
 10
120.8946
 20
-60.5356
 30
0.0
 10
120.8946
 20
-60.5356
 30
0.0
 10
120.8946
 20
-60.5356
 30
0.0
 10
120.8946
 20
-60.5356
 30
0.0
 10
120.8946
 20
-56.6855
 30
0.0
 10
120.8946
 20
-56.6855
 30
0.0
 10
120.8946
 20
-56.6855
 30
0.0
 10
120.8946
 20
-56.6855
 30
0.0
 10
124.8946
 20
-56.6855
 30
0.0
 10
124.8946
 20
-56.6855
 30
0.0
 10
124.8946
 20
-56.6855
 30
0.0
 10
124.8946
 20
-56.6855
 30
0.0
 10
124.8946
 20
-8.5355
 30
0.0
 10
124.8946
 20
-8.5355
 30
0.0
 10
124.8946
 20
-8.5355
 30
0.0
 10
124.8946
 20
-8.5355
 30
0.0
 10
104.8946
 20
-8.5355
 30
0.0
 10
104.8946
 20
-8.5355
 30
0.0
 10
104.8946
 20
-8.5355
 30
0.0
 10
104.8946
 20
-8.5355
 30
0.0
 10
104.8946
 20
-4.5355
 30
0.0
 10
104.8946
 20
-4.5355
 30
0.0
 10
104.8946
 20
-4.5355
 30
0.0
 10
104.8946
 20
-4.5355
 30
0.0
 10
94.7446
 20
-4.5355
 30
0.0
 10
94.7446
 20
-4.5355
 30
0.0
 10
94.7446
 20
-4.5355
 30
0.0
 10
94.7446
 20
-4.5355
 30
0.0
 10
94.7446
 20
-8.5355
 30
0.0
 10
94.7446
 20
-8.5355
 30
0.0
 10
94.7446
 20
-8.5355
 30
0.0
 10
94.7446
 20
-8.5355
 30
0.0
 10
73.9446
 20
-8.5355
 30
0.0
 10
73.9446
 20
-8.5355
 30
0.0
 10
73.9446
 20
-8.5355
 30
0.0
 10
73.9446
 20
-8.5355
 30
0.0
 10
73.9446
 20
-14.5355
 30
0.0
 10
73.9446
 20
-14.5355
 30
0.0
 10
73.9446
 20
-14.5355
 30
0.0
 10
73.9446
 20
-14.5355
 30
0.0
 10
70.0946
 20
-14.5355
 30
0.0
 10
70.0946
 20
-14.5355
 30
0.0
 10
70.0946
 20
-14.5355
 30
0.0
 10
70.0946
 20
-14.5355
 30
0.0
 10
70.0946
 20
-8.5355
 30
0.0
 10
70.0946
 20
-8.5355
 30
0.0
 10
70.0946
 20
-8.5355
 30
0.0
 10
70.0946
 20
-8.5355
 30
0.0
 10
19.1446
 20
-8.5355
 30
0.0
 10
19.1446
 20
-8.5355
 30
0.0
 10
19.1446
 20
-8.5355
 30
0.0
 10
19.1446
 20
-8.5355
 30
0.0
 10
19.1446
 20
-14.5355
 30
0.0
 10
19.1446
 20
-14.5355
 30
0.0
 10
19.1446
 20
-14.5355
 30
0.0
 10
19.1446
 20
-14.5355
 30
0.0
 10
15.2946
 20
-14.5355
 30
0.0
 10
15.2946
 20
-14.5355
 30
0.0
 10
15.2946
 20
-14.5355
 30
0.0
 10
15.2946
 20
-14.5355
 30
0.0
 10
15.2946
 20
-8.5355
 30
0.0
 10
15.2946
 20
-8.5355
 30
0.0
 10
15.2946
 20
-8.5355
 30
0.0
 10
15.2946
 20
-8.5355
 30
0.0
 10
-35.6554
 20
-8.5355
 30
0.0
 10
-35.6554
 20
-8.5355
 30
0.0
 10
-35.6554
 20
-8.5355
 30
0.0
 10
-35.6554
 20
-8.5355
 30
0.0
 10
-35.6554
 20
-14.5355
 30
0.0
 10
-35.6554
 20
-14.5355
 30
0.0
  0
SPLINE
  5
71
330
1F
100
AcDbEntity
  8
Layer 1
 62
     1
370
     9
100
AcDbSpline
210
0.0
220
0.0
230
1.0
 70
    11
 71
     3
 72
   204
 73
   200
 74
     0
 42
0.000000001
 43
0.0000000001
 40
0.0
 40
0.0
 40
0.0
 40
0.0
 40
0.0196078431372549
 40
0.0196078431372549
 40
0.0196078431372549
 40
0.0196078431372549
 40
0.0392156862745098
 40
0.0392156862745098
 40
0.0392156862745098
 40
0.0392156862745098
 40
0.0588235294117647
 40
0.0588235294117647
 40
0.0588235294117647
 40
0.0588235294117647
 40
0.0784313725490196
 40
0.0784313725490196
 40
0.0784313725490196
 40
0.0784313725490196
 40
0.0980392156862745
 40
0.0980392156862745
 40
0.0980392156862745
 40
0.0980392156862745
 40
0.1176470588235294
 40
0.1176470588235294
 40
0.1176470588235294
 40
0.1176470588235294
 40
0.1372549019607843
 40
0.1372549019607843
 40
0.1372549019607843
 40
0.1372549019607843
 40
0.1568627450980392
 40
0.1568627450980392
 40
0.1568627450980392
 40
0.1568627450980392
 40
0.1764705882352941
 40
0.1764705882352941
 40
0.1764705882352941
 40
0.1764705882352941
 40
0.196078431372549
 40
0.196078431372549
 40
0.196078431372549
 40
0.196078431372549
 40
0.2156862745098039
 40
0.2156862745098039
 40
0.2156862745098039
 40
0.2156862745098039
 40
0.2352941176470588
 40
0.2352941176470588
 40
0.2352941176470588
 40
0.2352941176470588
 40
0.2549019607843137
 40
0.2549019607843137
 40
0.2549019607843137
 40
0.2549019607843137
 40
0.2745098039215687
 40
0.2745098039215687
 40
0.2745098039215687
 40
0.2745098039215687
 40
0.2941176470588235
 40
0.2941176470588235
 40
0.2941176470588235
 40
0.2941176470588235
 40
0.3137254901960784
 40
0.3137254901960784
 40
0.3137254901960784
 40
0.3137254901960784
 40
0.3333333333333333
 40
0.3333333333333333
 40
0.3333333333333333
 40
0.3333333333333333
 40
0.3529411764705883
 40
0.3529411764705883
 40
0.3529411764705883
 40
0.3529411764705883
 40
0.3725490196078431
 40
0.3725490196078431
 40
0.3725490196078431
 40
0.3725490196078431
 40
0.392156862745098
 40
0.392156862745098
 40
0.392156862745098
 40
0.392156862745098
 40
0.4117647058823529
 40
0.4117647058823529
 40
0.4117647058823529
 40
0.4117647058823529
 40
0.4313725490196079
 40
0.4313725490196079
 40
0.4313725490196079
 40
0.4313725490196079
 40
0.4509803921568628
 40
0.4509803921568628
 40
0.4509803921568628
 40
0.4509803921568628
 40
0.4705882352941176
 40
0.4705882352941176
 40
0.4705882352941176
 40
0.4705882352941176
 40
0.4901960784313725
 40
0.4901960784313725
 40
0.4901960784313725
 40
0.4901960784313725
 40
0.5098039215686274
 40
0.5098039215686274
 40
0.5098039215686274
 40
0.5098039215686274
 40
0.5294117647058824
 40
0.5294117647058824
 40
0.5294117647058824
 40
0.5294117647058824
 40
0.5490196078431373
 40
0.5490196078431373
 40
0.5490196078431373
 40
0.5490196078431373
 40
0.5686274509803921
 40
0.5686274509803921
 40
0.5686274509803921
 40
0.5686274509803921
 40
0.5882352941176471
 40
0.5882352941176471
 40
0.5882352941176471
 40
0.5882352941176471
 40
0.6078431372549019
 40
0.6078431372549019
 40
0.6078431372549019
 40
0.6078431372549019
 40
0.6274509803921569
 40
0.6274509803921569
 40
0.6274509803921569
 40
0.6274509803921569
 40
0.6470588235294118
 40
0.6470588235294118
 40
0.6470588235294118
 40
0.6470588235294118
 40
0.6666666666666666
 40
0.6666666666666666
 40
0.6666666666666666
 40
0.6666666666666666
 40
0.6862745098039216
 40
0.6862745098039216
 40
0.6862745098039216
 40
0.6862745098039216
 40
0.7058823529411765
 40
0.7058823529411765
 40
0.7058823529411765
 40
0.7058823529411765
 40
0.7254901960784313
 40
0.7254901960784313
 40
0.7254901960784313
 40
0.7254901960784313
 40
0.7450980392156863
 40
0.7450980392156863
 40
0.7450980392156863
 40
0.7450980392156863
 40
0.7647058823529411
 40
0.7647058823529411
 40
0.7647058823529411
 40
0.7647058823529411
 40
0.7843137254901961
 40
0.7843137254901961
 40
0.7843137254901961
 40
0.7843137254901961
 40
0.803921568627451
 40
0.803921568627451
 40
0.803921568627451
 40
0.803921568627451
 40
0.8235294117647058
 40
0.8235294117647058
 40
0.8235294117647058
 40
0.8235294117647058
 40
0.8431372549019608
 40
0.8431372549019608
 40
0.8431372549019608
 40
0.8431372549019608
 40
0.8627450980392157
 40
0.8627450980392157
 40
0.8627450980392157
 40
0.8627450980392157
 40
0.8823529411764706
 40
0.8823529411764706
 40
0.8823529411764706
 40
0.8823529411764706
 40
0.9019607843137255
 40
0.9019607843137255
 40
0.9019607843137255
 40
0.9019607843137255
 40
0.9215686274509803
 40
0.9215686274509803
 40
0.9215686274509803
 40
0.9215686274509803
 40
0.9411764705882353
 40
0.9411764705882353
 40
0.9411764705882353
 40
0.9411764705882353
 40
0.9607843137254902
 40
0.9607843137254902
 40
0.9607843137254902
 40
0.9607843137254902
 40
1.0
 40
1.0
 40
1.0
 40
1.0
 10
-105.0112
 20
-43.4178
 30
0.0
 10
-104.9171
 20
-43.4382
 30
0.0
 10
-104.8216
 20
-43.452
 30
0.0
 10
-104.7253
 20
-43.4591
 30
0.0
 10
-104.7253
 20
-43.4591
 30
0.0
 10
-104.5025
 20
-43.4755
 30
0.0
 10
-104.2784
 20
-43.4558
 30
0.0
 10
-104.0618
 20
-43.4008
 30
0.0
 10
-104.0618
 20
-43.4008
 30
0.0
 10
-94.4348
 20
-40.9549
 30
0.0
 10
-85.3973
 20
-39.2889
 30
0.0
 10
-77.2425
 20
-38.788
 30
0.0
 10
-77.2425
 20
-38.788
 30
0.0
 10
-69.488
 20
-38.3116
 30
0.0
 10
-62.5635
 20
-38.932
 30
0.0
 10
-56.2906
 20
-40.4146
 30
0.0
 10
-56.2906
 20
-40.4146
 30
0.0
 10
-56.0277
 20
-40.4768
 30
0.0
 10
-55.7551
 20
-40.487
 30
0.0
 10
-55.4882
 20
-40.4446
 30
0.0
 10
-55.4882
 20
-40.4446
 30
0.0
 10
-55.269
 20
-40.4099
 30
0.0
 10
-55.0568
 20
-40.3402
 30
0.0
 10
-54.8597
 20
-40.2381
 30
0.0
 10
-54.8597
 20
-40.2381
 30
0.0
 10
-54.6626
 20
-40.1361
 30
0.0
 10
-54.4831
 20
-40.0032
 30
0.0
 10
-54.3281
 20
-39.8443
 30
0.0
 10
-54.3281
 20
-39.8443
 30
0.0
 10
-54.3281
 20
-39.8443
 30
0.0
 10
-35.421
 20
-20.4646
 30
0.0
 10
-35.421
 20
-20.4646
 30
0.0
 10
-35.421
 20
-20.4646
 30
0.0
 10
-35.247
 20
-20.2861
 30
0.0
 10
-35.0082
 20
-20.1855
 30
0.0
 10
-34.7589
 20
-20.1855
 30
0.0
 10
-34.7589
 20
-20.1855
 30
0.0
 10
-34.7589
 20
-20.1855
 30
0.0
 10
-19.2115
 20
-20.1855
 30
0.0
 10
-19.2115
 20
-20.1855
 30
0.0
 10
-19.2115
 20
-20.1855
 30
0.0
 10
-19.2115
 20
-20.1855
 30
0.0
 10
-17.8865
 20
-21.5105
 30
0.0
 10
-17.8865
 20
-21.5105
 30
0.0
 10
-17.8865
 20
-21.5105
 30
0.0
 10
-17.8865
 20
-21.5105
 30
0.0
 10
-17.7115
 20
-21.5105
 30
0.0
 10
-17.7115
 20
-21.5105
 30
0.0
 10
-17.7115
 20
-21.5105
 30
0.0
 10
-17.7115
 20
-21.5105
 30
0.0
 10
92.3507
 20
-21.5105
 30
0.0
 10
92.3507
 20
-21.5105
 30
0.0
 10
92.3507
 20
-21.5105
 30
0.0
 10
92.3507
 20
-21.5105
 30
0.0
 10
92.5257
 20
-21.5105
 30
0.0
 10
92.5257
 20
-21.5105
 30
0.0
 10
92.5257
 20
-21.5105
 30
0.0
 10
92.5257
 20
-21.5105
 30
0.0
 10
93.5797
 20
-20.4564
 30
0.0
 10
93.5797
 20
-20.4564
 30
0.0
 10
93.5797
 20
-20.4564
 30
0.0
 10
93.7532
 20
-20.283
 30
0.0
 10
93.9885
 20
-20.1855
 30
0.0
 10
94.2338
 20
-20.1855
 30
0.0
 10
94.2338
 20
-20.1855
 30
0.0
 10
94.2338
 20
-20.1855
 30
0.0
 10
110.8196
 20
-20.1855
 30
0.0
 10
110.8196
 20
-20.1855
 30
0.0
 10
110.8196
 20
-20.1855
 30
0.0
 10
111.8606
 20
-20.1855
 30
0.0
 10
112.8589
 20
-20.599
 30
0.0
 10
113.595
 20
-21.3351
 30
0.0
 10
113.595
 20
-21.3351
 30
0.0
 10
114.3311
 20
-22.0712
 30
0.0
 10
114.7446
 20
-23.0695
 30
0.0
 10
114.7446
 20
-24.1105
 30
0.0
 10
114.7446
 20
-24.1105
 30
0.0
 10
114.7446
 20
-24.1105
 30
0.0
 10
114.7446
 20
-93.1105
 30
0.0
 10
114.7446
 20
-93.1105
 30
0.0
 10
114.7446
 20
-93.1105
 30
0.0
 10
114.7446
 20
-94.1515
 30
0.0
 10
114.3311
 20
-95.1498
 30
0.0
 10
113.595
 20
-95.8859
 30
0.0
 10
113.595
 20
-95.8859
 30
0.0
 10
112.8589
 20
-96.622
 30
0.0
 10
111.8606
 20
-97.0355
 30
0.0
 10
110.8196
 20
-97.0355
 30
0.0
 10
110.8196
 20
-97.0355
 30
0.0
 10
110.8196
 20
-97.0355
 30
0.0
 10
94.2338
 20
-97.0355
 30
0.0
 10
94.2338
 20
-97.0355
 30
0.0
 10
94.2338
 20
-97.0355
 30
0.0
 10
93.9885
 20
-97.0355
 30
0.0
 10
93.7532
 20
-96.938
 30
0.0
 10
93.5797
 20
-96.7646
 30
0.0
 10
93.5797
 20
-96.7646
 30
0.0
 10
93.5797
 20
-96.7646
 30
0.0
 10
92.5257
 20
-95.7105
 30
0.0
 10
92.5257
 20
-95.7105
 30
0.0
 10
92.5257
 20
-95.7105
 30
0.0
 10
92.5257
 20
-95.7105
 30
0.0
 10
92.3507
 20
-95.7105
 30
0.0
 10
92.3507
 20
-95.7105
 30
0.0
 10
92.3507
 20
-95.7105
 30
0.0
 10
92.3507
 20
-95.7105
 30
0.0
 10
-17.7115
 20
-95.7105
 30
0.0
 10
-17.7115
 20
-95.7105
 30
0.0
 10
-17.7115
 20
-95.7105
 30
0.0
 10
-17.7115
 20
-95.7105
 30
0.0
 10
-17.8865
 20
-95.7105
 30
0.0
 10
-17.8865
 20
-95.7105
 30
0.0
 10
-17.8865
 20
-95.7105
 30
0.0
 10
-17.8865
 20
-95.7105
 30
0.0
 10
-19.2115
 20
-97.0355
 30
0.0
 10
-19.2115
 20
-97.0355
 30
0.0
 10
-19.2115
 20
-97.0355
 30
0.0
 10
-19.2115
 20
-97.0355
 30
0.0
 10
-34.7589
 20
-97.0355
 30
0.0
 10
-34.7589
 20
-97.0355
 30
0.0
 10
-34.7589
 20
-97.0355
 30
0.0
 10
-35.0082
 20
-97.0355
 30
0.0
 10
-35.247
 20
-96.9349
 30
0.0
 10
-35.421
 20
-96.7564
 30
0.0
 10
-35.421
 20
-96.7564
 30
0.0
 10
-35.421
 20
-96.7564
 30
0.0
 10
-54.3281
 20
-77.3767
 30
0.0
 10
-54.3281
 20
-77.3767
 30
0.0
 10
-54.3281
 20
-77.3767
 30
0.0
 10
-54.4831
 20
-77.2178
 30
0.0
 10
-54.6626
 20
-77.0849
 30
0.0
 10
-54.8597
 20
-76.9829
 30
0.0
 10
-54.8597
 20
-76.9829
 30
0.0
 10
-55.0568
 20
-76.8808
 30
0.0
 10
-55.269
 20
-76.8111
 30
0.0
 10
-55.4882
 20
-76.7764
 30
0.0
 10
-55.4882
 20
-76.7764
 30
0.0
 10
-55.7551
 20
-76.734
 30
0.0
 10
-56.0277
 20
-76.7442
 30
0.0
 10
-56.2906
 20
-76.8064
 30
0.0
 10
-56.2906
 20
-76.8064
 30
0.0
 10
-62.8873
 20
-78.3655
 30
0.0
 10
-70.2085
 20
-78.9659
 30
0.0
 10
-78.4497
 20
-78.3509
 30
0.0
 10
-78.4497
 20
-78.3509
 30
0.0
 10
-86.2863
 20
-77.766
 30
0.0
 10
-94.9073
 20
-76.1461
 30
0.0
 10
-104.0618
 20
-73.8202
 30
0.0
 10
-104.0618
 20
-73.8202
 30
0.0
 10
-104.2784
 20
-73.7652
 30
0.0
 10
-104.5025
 20
-73.7455
 30
0.0
 10
-104.7253
 20
-73.7619
 30
0.0
 10
-104.7253
 20
-73.7619
 30
0.0
 10
-104.7567
 20
-73.7642
 30
0.0
 10
-104.7881
 20
-73.7673
 30
0.0
 10
-104.8193
 20
-73.771
 30
0.0
 10
-104.8193
 20
-73.771
 30
0.0
 10
-105.1725
 20
-74.3422
 30
0.0
 10
-105.8047
 20
-74.7249
 30
0.0
 10
-106.5219
 20
-74.7249
 30
0.0
 10
-106.5219
 20
-74.7249
 30
0.0
 10
-106.5219
 20
-74.7249
 30
0.0
 10
-106.5219
 20
-74.7249
 30
0.0
 10
-106.5219
 20
-74.7249
 30
0.0
 10
-106.5219
 20
-74.7249
 30
0.0
 10
-107.3244
 20
-74.7249
 30
0.0
 10
-108.0204
 20
-74.2457
 30
0.0
 10
-108.3381
 20
-73.5594
 30
0.0
 10
-108.3381
 20
-73.5594
 30
0.0
 10
-108.4418
 20
-73.5435
 30
0.0
 10
-108.5469
 20
-73.5355
 30
0.0
 10
-108.6525
 20
-73.5355
 30
0.0
 10
-108.6525
 20
-73.5355
 30
0.0
 10
-108.6525
 20
-73.5355
 30
0.0
 10
-135.1054
 20
-73.5355
 30
0.0
 10
-135.1054
 20
-73.5355
 30
0.0
 10
-135.1054
 20
-73.5355
 30
0.0
 10
-135.1054
 20
-73.5355
 30
0.0
 10
-135.1054
 20
-43.6855
 30
0.0
 10
-135.1054
 20
-43.6855
 30
0.0
 10
-135.1054
 20
-43.6855
 30
0.0
 10
-135.1054
 20
-43.6855
 30
0.0
 10
-108.6525
 20
-43.6855
 30
0.0
 10
-108.6525
 20
-43.6855
 30
0.0
 10
-108.6525
 20
-43.6855
 30
0.0
 10
-108.4985
 20
-43.6855
 30
0.0
 10
-108.3455
 20
-43.6684
 30
0.0
 10
-108.1962
 20
-43.6347
 30
0.0
 10
-108.1962
 20
-43.6347
 30
0.0
 10
-107.8383
 20
-43.0879
 30
0.0
 10
-107.2205
 20
-42.7249
 30
0.0
 10
-106.5219
 20
-42.7249
 30
0.0
 10
-106.5219
 20
-42.7249
 30
0.0
 10
-106.5219
 20
-42.7249
 30
0.0
 10
-106.5219
 20
-42.7249
 30
0.0
 10
-106.5219
 20
-42.7249
 30
0.0
 10
-106.5219
 20
-42.7249
 30
0.0
 10
-105.9204
 20
-42.7249
 30
0.0
 10
-105.3787
 20
-42.994
 30
0.0
 10
-105.0112
 20
-43.4178
 30
0.0
  0
SPLINE
  5
72
330
1F
100
AcDbEntity
  8
Layer 1
 62
     1
370
     9
100
AcDbSpline
210
0.0
220
0.0
230
1.0
 70
    11
 71
     3
 72
   132
 73
   128
 74
     0
 42
0.000000001
 43
0.0000000001
 40
0.0
 40
0.0
 40
0.0
 40
0.0
 40
0.0303030303030303
 40
0.0303030303030303
 40
0.0303030303030303
 40
0.0303030303030303
 40
0.0606060606060606
 40
0.0606060606060606
 40
0.0606060606060606
 40
0.0606060606060606
 40
0.0909090909090909
 40
0.0909090909090909
 40
0.0909090909090909
 40
0.0909090909090909
 40
0.1212121212121212
 40
0.1212121212121212
 40
0.1212121212121212
 40
0.1212121212121212
 40
0.1515151515151515
 40
0.1515151515151515
 40
0.1515151515151515
 40
0.1515151515151515
 40
0.1818181818181818
 40
0.1818181818181818
 40
0.1818181818181818
 40
0.1818181818181818
 40
0.2121212121212121
 40
0.2121212121212121
 40
0.2121212121212121
 40
0.2121212121212121
 40
0.2424242424242424
 40
0.2424242424242424
 40
0.2424242424242424
 40
0.2424242424242424
 40
0.2727272727272727
 40
0.2727272727272727
 40
0.2727272727272727
 40
0.2727272727272727
 40
0.303030303030303
 40
0.303030303030303
 40
0.303030303030303
 40
0.303030303030303
 40
0.3333333333333333
 40
0.3333333333333333
 40
0.3333333333333333
 40
0.3333333333333333
 40
0.3636363636363636
 40
0.3636363636363636
 40
0.3636363636363636
 40
0.3636363636363636
 40
0.3939393939393939
 40
0.3939393939393939
 40
0.3939393939393939
 40
0.3939393939393939
 40
0.4242424242424243
 40
0.4242424242424243
 40
0.4242424242424243
 40
0.4242424242424243
 40
0.4545454545454545
 40
0.4545454545454545
 40
0.4545454545454545
 40
0.4545454545454545
 40
0.4848484848484849
 40
0.4848484848484849
 40
0.4848484848484849
 40
0.4848484848484849
 40
0.5151515151515151
 40
0.5151515151515151
 40
0.5151515151515151
 40
0.5151515151515151
 40
0.5454545454545454
 40
0.5454545454545454
 40
0.5454545454545454
 40
0.5454545454545454
 40
0.5757575757575758
 40
0.5757575757575758
 40
0.5757575757575758
 40
0.5757575757575758
 40
0.6060606060606061
 40
0.6060606060606061
 40
0.6060606060606061
 40
0.6060606060606061
 40
0.6363636363636364
 40
0.6363636363636364
 40
0.6363636363636364
 40
0.6363636363636364
 40
0.6666666666666666
 40
0.6666666666666666
 40
0.6666666666666666
 40
0.6666666666666666
 40
0.696969696969697
 40
0.696969696969697
 40
0.696969696969697
 40
0.696969696969697
 40
0.7272727272727273
 40
0.7272727272727273
 40
0.7272727272727273
 40
0.7272727272727273
 40
0.7575757575757576
 40
0.7575757575757576
 40
0.7575757575757576
 40
0.7575757575757576
 40
0.7878787878787878
 40
0.7878787878787878
 40
0.7878787878787878
 40
0.7878787878787878
 40
0.8181818181818182
 40
0.8181818181818182
 40
0.8181818181818182
 40
0.8181818181818182
 40
0.8484848484848485
 40
0.8484848484848485
 40
0.8484848484848485
 40
0.8484848484848485
 40
0.8787878787878788
 40
0.8787878787878788
 40
0.8787878787878788
 40
0.8787878787878788
 40
0.9090909090909091
 40
0.9090909090909091
 40
0.9090909090909091
 40
0.9090909090909091
 40
0.9393939393939394
 40
0.9393939393939394
 40
0.9393939393939394
 40
0.9393939393939394
 40
1.0
 40
1.0
 40
1.0
 40
1.0
 10
-129.1082
 20
-180.8334
 30
0.0
 10
-129.1082
 20
-180.8334
 30
0.0
 10
-129.1082
 20
-176.8335
 30
0.0
 10
-129.1082
 20
-176.8335
 30
0.0
 10
-129.1082
 20
-176.8335
 30
0.0
 10
-129.1082
 20
-176.8335
 30
0.0
 10
-135.1082
 20
-176.8335
 30
0.0
 10
-135.1082
 20
-176.8335
 30
0.0
 10
-135.1082
 20
-176.8335
 30
0.0
 10
-135.1082
 20
-176.8335
 30
0.0
 10
-135.1082
 20
-128.6834
 30
0.0
 10
-135.1082
 20
-128.6834
 30
0.0
 10
-135.1082
 20
-128.6834
 30
0.0
 10
-135.1082
 20
-128.6834
 30
0.0
 10
-128.9582
 20
-128.6834
 30
0.0
 10
-128.9582
 20
-128.6834
 30
0.0
 10
-128.9582
 20
-128.6834
 30
0.0
 10
-128.9582
 20
-128.6834
 30
0.0
 10
-128.9582
 20
-132.6834
 30
0.0
 10
-128.9582
 20
-132.6834
 30
0.0
 10
-128.9582
 20
-132.6834
 30
0.0
 10
-128.9582
 20
-132.6834
 30
0.0
 10
-123.0482
 20
-132.6834
 30
0.0
 10
-123.0482
 20
-132.6834
 30
0.0
 10
-123.0482
 20
-132.6834
 30
0.0
 10
-123.0482
 20
-132.6834
 30
0.0
 10
-123.0482
 20
-166.2584
 30
0.0
 10
-123.0482
 20
-166.2584
 30
0.0
 10
-123.0482
 20
-166.2584
 30
0.0
 10
-123.0482
 20
-167.0342
 30
0.0
 10
-122.74
 20
-167.7781
 30
0.0
 10
-122.1915
 20
-168.3267
 30
0.0
 10
-122.1915
 20
-168.3267
 30
0.0
 10
-121.6429
 20
-168.8752
 30
0.0
 10
-120.899
 20
-169.1834
 30
0.0
 10
-120.1232
 20
-169.1834
 30
0.0
 10
-120.1232
 20
-169.1834
 30
0.0
 10
-120.1232
 20
-169.1834
 30
0.0
 10
-49.9432
 20
-169.1834
 30
0.0
 10
-49.9432
 20
-169.1834
 30
0.0
 10
-49.9432
 20
-169.1834
 30
0.0
 10
-49.1674
 20
-169.1834
 30
0.0
 10
-48.4235
 20
-168.8752
 30
0.0
 10
-47.8749
 20
-168.3267
 30
0.0
 10
-47.8749
 20
-168.3267
 30
0.0
 10
-47.3264
 20
-167.7781
 30
0.0
 10
-47.0182
 20
-167.0342
 30
0.0
 10
-47.0182
 20
-166.2584
 30
0.0
 10
-47.0182
 20
-166.2584
 30
0.0
 10
-47.0182
 20
-166.2584
 30
0.0
 10
-47.0182
 20
-132.6834
 30
0.0
 10
-47.0182
 20
-132.6834
 30
0.0
 10
-47.0182
 20
-132.6834
 30
0.0
 10
-47.0182
 20
-132.6834
 30
0.0
 10
-41.1082
 20
-132.6834
 30
0.0
 10
-41.1082
 20
-132.6834
 30
0.0
 10
-41.1082
 20
-132.6834
 30
0.0
 10
-41.1082
 20
-132.6834
 30
0.0
 10
-41.1082
 20
-128.6834
 30
0.0
 10
-41.1082
 20
-128.6834
 30
0.0
 10
-41.1082
 20
-128.6834
 30
0.0
 10
-41.1082
 20
-128.6834
 30
0.0
 10
-34.9582
 20
-128.6834
 30
0.0
 10
-34.9582
 20
-128.6834
 30
0.0
 10
-34.9582
 20
-128.6834
 30
0.0
 10
-34.9582
 20
-128.6834
 30
0.0
 10
-34.9582
 20
-176.8335
 30
0.0
 10
-34.9582
 20
-176.8335
 30
0.0
 10
-34.9582
 20
-176.8335
 30
0.0
 10
-34.9582
 20
-176.8335
 30
0.0
 10
-40.9582
 20
-176.8335
 30
0.0
 10
-40.9582
 20
-176.8335
 30
0.0
 10
-40.9582
 20
-176.8335
 30
0.0
 10
-40.9582
 20
-176.8335
 30
0.0
 10
-40.9582
 20
-180.8334
 30
0.0
 10
-40.9582
 20
-180.8334
 30
0.0
 10
-40.9582
 20
-180.8334
 30
0.0
 10
-40.9582
 20
-180.8334
 30
0.0
 10
-61.1082
 20
-180.8334
 30
0.0
 10
-61.1082
 20
-180.8334
 30
0.0
 10
-61.1082
 20
-180.8334
 30
0.0
 10
-61.1082
 20
-180.8334
 30
0.0
 10
-61.1082
 20
-176.8335
 30
0.0
 10
-61.1082
 20
-176.8335
 30
0.0
 10
-61.1082
 20
-176.8335
 30
0.0
 10
-61.1082
 20
-176.8335
 30
0.0
 10
-74.9582
 20
-176.8335
 30
0.0
 10
-74.9582
 20
-176.8335
 30
0.0
 10
-74.9582
 20
-176.8335
 30
0.0
 10
-74.9582
 20
-176.8335
 30
0.0
 10
-74.9582
 20
-180.8334
 30
0.0
 10
-74.9582
 20
-180.8334
 30
0.0
 10
-74.9582
 20
-180.8334
 30
0.0
 10
-74.9582
 20
-180.8334
 30
0.0
 10
-83.1081
 20
-180.8334
 30
0.0
 10
-83.1081
 20
-180.8334
 30
0.0
 10
-83.1081
 20
-180.8334
 30
0.0
 10
-83.1081
 20
-180.8334
 30
0.0
 10
-83.1081
 20
-171.8335
 30
0.0
 10
-83.1081
 20
-171.8335
 30
0.0
 10
-83.1081
 20
-171.8335
 30
0.0
 10
-83.1081
 20
-171.8335
 30
0.0
 10
-86.9581
 20
-171.8335
 30
0.0
 10
-86.9581
 20
-171.8335
 30
0.0
 10
-86.9581
 20
-171.8335
 30
0.0
 10
-86.9581
 20
-171.8335
 30
0.0
 10
-86.9581
 20
-180.8334
 30
0.0
 10
-86.9581
 20
-180.8334
 30
0.0
 10
-86.9581
 20
-180.8334
 30
0.0
 10
-86.9581
 20
-180.8334
 30
0.0
 10
-95.1082
 20
-180.8334
 30
0.0
 10
-95.1082
 20
-180.8334
 30
0.0
 10
-95.1082
 20
-180.8334
 30
0.0
 10
-95.1082
 20
-180.8334
 30
0.0
 10
-95.1082
 20
-176.8335
 30
0.0
 10
-95.1082
 20
-176.8335
 30
0.0
 10
-95.1082
 20
-176.8335
 30
0.0
 10
-95.1082
 20
-176.8335
 30
0.0
 10
-108.9582
 20
-176.8335
 30
0.0
 10
-108.9582
 20
-176.8335
 30
0.0
 10
-108.9582
 20
-176.8335
 30
0.0
 10
-108.9582
 20
-176.8335
 30
0.0
 10
-108.9582
 20
-180.8334
 30
0.0
 10
-108.9582
 20
-180.8334
 30
0.0
 10
-108.9582
 20
-180.8334
 30
0.0
 10
-108.9582
 20
-180.8334
 30
0.0
 10
-129.1082
 20
-180.8334
 30
0.0
 10
-129.1082
 20
-180.8334
 30
0.0
  0
SPLINE
  5
73
330
1F
100
AcDbEntity
  8
Layer 1
 62
     1
370
     9
100
AcDbSpline
210
0.0
220
0.0
230
1.0
 70
    11
 71
     3
 72
   132
 73
   128
 74
     0
 42
0.000000001
 43
0.0000000001
 40
0.0
 40
0.0
 40
0.0
 40
0.0
 40
0.0303030303030303
 40
0.0303030303030303
 40
0.0303030303030303
 40
0.0303030303030303
 40
0.0606060606060606
 40
0.0606060606060606
 40
0.0606060606060606
 40
0.0606060606060606
 40
0.0909090909090909
 40
0.0909090909090909
 40
0.0909090909090909
 40
0.0909090909090909
 40
0.1212121212121212
 40
0.1212121212121212
 40
0.1212121212121212
 40
0.1212121212121212
 40
0.1515151515151515
 40
0.1515151515151515
 40
0.1515151515151515
 40
0.1515151515151515
 40
0.1818181818181818
 40
0.1818181818181818
 40
0.1818181818181818
 40
0.1818181818181818
 40
0.2121212121212121
 40
0.2121212121212121
 40
0.2121212121212121
 40
0.2121212121212121
 40
0.2424242424242424
 40
0.2424242424242424
 40
0.2424242424242424
 40
0.2424242424242424
 40
0.2727272727272727
 40
0.2727272727272727
 40
0.2727272727272727
 40
0.2727272727272727
 40
0.303030303030303
 40
0.303030303030303
 40
0.303030303030303
 40
0.303030303030303
 40
0.3333333333333333
 40
0.3333333333333333
 40
0.3333333333333333
 40
0.3333333333333333
 40
0.3636363636363636
 40
0.3636363636363636
 40
0.3636363636363636
 40
0.3636363636363636
 40
0.3939393939393939
 40
0.3939393939393939
 40
0.3939393939393939
 40
0.3939393939393939
 40
0.4242424242424243
 40
0.4242424242424243
 40
0.4242424242424243
 40
0.4242424242424243
 40
0.4545454545454545
 40
0.4545454545454545
 40
0.4545454545454545
 40
0.4545454545454545
 40
0.4848484848484849
 40
0.4848484848484849
 40
0.4848484848484849
 40
0.4848484848484849
 40
0.5151515151515151
 40
0.5151515151515151
 40
0.5151515151515151
 40
0.5151515151515151
 40
0.5454545454545454
 40
0.5454545454545454
 40
0.5454545454545454
 40
0.5454545454545454
 40
0.5757575757575758
 40
0.5757575757575758
 40
0.5757575757575758
 40
0.5757575757575758
 40
0.6060606060606061
 40
0.6060606060606061
 40
0.6060606060606061
 40
0.6060606060606061
 40
0.6363636363636364
 40
0.6363636363636364
 40
0.6363636363636364
 40
0.6363636363636364
 40
0.6666666666666666
 40
0.6666666666666666
 40
0.6666666666666666
 40
0.6666666666666666
 40
0.696969696969697
 40
0.696969696969697
 40
0.696969696969697
 40
0.696969696969697
 40
0.7272727272727273
 40
0.7272727272727273
 40
0.7272727272727273
 40
0.7272727272727273
 40
0.7575757575757576
 40
0.7575757575757576
 40
0.7575757575757576
 40
0.7575757575757576
 40
0.7878787878787878
 40
0.7878787878787878
 40
0.7878787878787878
 40
0.7878787878787878
 40
0.8181818181818182
 40
0.8181818181818182
 40
0.8181818181818182
 40
0.8181818181818182
 40
0.8484848484848485
 40
0.8484848484848485
 40
0.8484848484848485
 40
0.8484848484848485
 40
0.8787878787878788
 40
0.8787878787878788
 40
0.8787878787878788
 40
0.8787878787878788
 40
0.9090909090909091
 40
0.9090909090909091
 40
0.9090909090909091
 40
0.9090909090909091
 40
0.9393939393939394
 40
0.9393939393939394
 40
0.9393939393939394
 40
0.9393939393939394
 40
1.0
 40
1.0
 40
1.0
 40
1.0
 10
-74.3376
 20
-111.3197
 30
0.0
 10
-74.3376
 20
-111.3197
 30
0.0
 10
-74.3376
 20
-115.3196
 30
0.0
 10
-74.3376
 20
-115.3196
 30
0.0
 10
-74.3376
 20
-115.3196
 30
0.0
 10
-74.3376
 20
-115.3196
 30
0.0
 10
-80.3376
 20
-115.3196
 30
0.0
 10
-80.3376
 20
-115.3196
 30
0.0
 10
-80.3376
 20
-115.3196
 30
0.0
 10
-80.3376
 20
-115.3196
 30
0.0
 10
-80.3376
 20
-163.4697
 30
0.0
 10
-80.3376
 20
-163.4697
 30
0.0
 10
-80.3376
 20
-163.4697
 30
0.0
 10
-80.3376
 20
-163.4697
 30
0.0
 10
-74.1876
 20
-163.4697
 30
0.0
 10
-74.1876
 20
-163.4697
 30
0.0
 10
-74.1876
 20
-163.4697
 30
0.0
 10
-74.1876
 20
-163.4697
 30
0.0
 10
-74.1876
 20
-159.4697
 30
0.0
 10
-74.1876
 20
-159.4697
 30
0.0
 10
-74.1876
 20
-159.4697
 30
0.0
 10
-74.1876
 20
-159.4697
 30
0.0
 10
-68.2776
 20
-159.4697
 30
0.0
 10
-68.2776
 20
-159.4697
 30
0.0
 10
-68.2776
 20
-159.4697
 30
0.0
 10
-68.2776
 20
-159.4697
 30
0.0
 10
-68.2776
 20
-125.8947
 30
0.0
 10
-68.2776
 20
-125.8947
 30
0.0
 10
-68.2776
 20
-125.8947
 30
0.0
 10
-68.2776
 20
-125.1189
 30
0.0
 10
-67.9694
 20
-124.375
 30
0.0
 10
-67.4209
 20
-123.8264
 30
0.0
 10
-67.4209
 20
-123.8264
 30
0.0
 10
-66.8723
 20
-123.2779
 30
0.0
 10
-66.1284
 20
-122.9697
 30
0.0
 10
-65.3526
 20
-122.9697
 30
0.0
 10
-65.3526
 20
-122.9697
 30
0.0
 10
-65.3526
 20
-122.9697
 30
0.0
 10
4.8274
 20
-122.9697
 30
0.0
 10
4.8274
 20
-122.9697
 30
0.0
 10
4.8274
 20
-122.9697
 30
0.0
 10
5.6032
 20
-122.9697
 30
0.0
 10
6.3471
 20
-123.2779
 30
0.0
 10
6.8957
 20
-123.8264
 30
0.0
 10
6.8957
 20
-123.8264
 30
0.0
 10
7.4442
 20
-124.375
 30
0.0
 10
7.7524
 20
-125.1189
 30
0.0
 10
7.7524
 20
-125.8947
 30
0.0
 10
7.7524
 20
-125.8947
 30
0.0
 10
7.7524
 20
-125.8947
 30
0.0
 10
7.7524
 20
-159.4697
 30
0.0
 10
7.7524
 20
-159.4697
 30
0.0
 10
7.7524
 20
-159.4697
 30
0.0
 10
7.7524
 20
-159.4697
 30
0.0
 10
13.6624
 20
-159.4697
 30
0.0
 10
13.6624
 20
-159.4697
 30
0.0
 10
13.6624
 20
-159.4697
 30
0.0
 10
13.6624
 20
-159.4697
 30
0.0
 10
13.6624
 20
-163.4697
 30
0.0
 10
13.6624
 20
-163.4697
 30
0.0
 10
13.6624
 20
-163.4697
 30
0.0
 10
13.6624
 20
-163.4697
 30
0.0
 10
19.8124
 20
-163.4697
 30
0.0
 10
19.8124
 20
-163.4697
 30
0.0
 10
19.8124
 20
-163.4697
 30
0.0
 10
19.8124
 20
-163.4697
 30
0.0
 10
19.8124
 20
-115.3196
 30
0.0
 10
19.8124
 20
-115.3196
 30
0.0
 10
19.8124
 20
-115.3196
 30
0.0
 10
19.8124
 20
-115.3196
 30
0.0
 10
13.8124
 20
-115.3196
 30
0.0
 10
13.8124
 20
-115.3196
 30
0.0
 10
13.8124
 20
-115.3196
 30
0.0
 10
13.8124
 20
-115.3196
 30
0.0
 10
13.8124
 20
-111.3197
 30
0.0
 10
13.8124
 20
-111.3197
 30
0.0
 10
13.8124
 20
-111.3197
 30
0.0
 10
13.8124
 20
-111.3197
 30
0.0
 10
-6.3376
 20
-111.3197
 30
0.0
 10
-6.3376
 20
-111.3197
 30
0.0
 10
-6.3376
 20
-111.3197
 30
0.0
 10
-6.3376
 20
-111.3197
 30
0.0
 10
-6.3376
 20
-115.3196
 30
0.0
 10
-6.3376
 20
-115.3196
 30
0.0
 10
-6.3376
 20
-115.3196
 30
0.0
 10
-6.3376
 20
-115.3196
 30
0.0
 10
-20.1876
 20
-115.3196
 30
0.0
 10
-20.1876
 20
-115.3196
 30
0.0
 10
-20.1876
 20
-115.3196
 30
0.0
 10
-20.1876
 20
-115.3196
 30
0.0
 10
-20.1876
 20
-111.3197
 30
0.0
 10
-20.1876
 20
-111.3197
 30
0.0
 10
-20.1876
 20
-111.3197
 30
0.0
 10
-20.1876
 20
-111.3197
 30
0.0
 10
-28.3375
 20
-111.3197
 30
0.0
 10
-28.3375
 20
-111.3197
 30
0.0
 10
-28.3375
 20
-111.3197
 30
0.0
 10
-28.3375
 20
-111.3197
 30
0.0
 10
-28.3375
 20
-120.3196
 30
0.0
 10
-28.3375
 20
-120.3196
 30
0.0
 10
-28.3375
 20
-120.3196
 30
0.0
 10
-28.3375
 20
-120.3196
 30
0.0
 10
-32.1875
 20
-120.3196
 30
0.0
 10
-32.1875
 20
-120.3196
 30
0.0
 10
-32.1875
 20
-120.3196
 30
0.0
 10
-32.1875
 20
-120.3196
 30
0.0
 10
-32.1875
 20
-111.3197
 30
0.0
 10
-32.1875
 20
-111.3197
 30
0.0
 10
-32.1875
 20
-111.3197
 30
0.0
 10
-32.1875
 20
-111.3197
 30
0.0
 10
-40.3376
 20
-111.3197
 30
0.0
 10
-40.3376
 20
-111.3197
 30
0.0
 10
-40.3376
 20
-111.3197
 30
0.0
 10
-40.3376
 20
-111.3197
 30
0.0
 10
-40.3376
 20
-115.3196
 30
0.0
 10
-40.3376
 20
-115.3196
 30
0.0
 10
-40.3376
 20
-115.3196
 30
0.0
 10
-40.3376
 20
-115.3196
 30
0.0
 10
-54.1876
 20
-115.3196
 30
0.0
 10
-54.1876
 20
-115.3196
 30
0.0
 10
-54.1876
 20
-115.3196
 30
0.0
 10
-54.1876
 20
-115.3196
 30
0.0
 10
-54.1876
 20
-111.3197
 30
0.0
 10
-54.1876
 20
-111.3197
 30
0.0
 10
-54.1876
 20
-111.3197
 30
0.0
 10
-54.1876
 20
-111.3197
 30
0.0
 10
-74.3376
 20
-111.3197
 30
0.0
 10
-74.3376
 20
-111.3197
 30
0.0
  0
SPLINE
  5
74
330
1F
100
AcDbEntity
  8
Layer 1
 62
     1
370
     9
100
AcDbSpline
210
0.0
220
0.0
230
1.0
 70
    11
 71
     3
 72
   292
 73
   288
 74
     0
 42
0.000000001
 43
0.0000000001
 40
0.0
 40
0.0
 40
0.0
 40
0.0
 40
0.0136986301369863
 40
0.0136986301369863
 40
0.0136986301369863
 40
0.0136986301369863
 40
0.0273972602739726
 40
0.0273972602739726
 40
0.0273972602739726
 40
0.0273972602739726
 40
0.0410958904109589
 40
0.0410958904109589
 40
0.0410958904109589
 40
0.0410958904109589
 40
0.0547945205479452
 40
0.0547945205479452
 40
0.0547945205479452
 40
0.0547945205479452
 40
0.0684931506849315
 40
0.0684931506849315
 40
0.0684931506849315
 40
0.0684931506849315
 40
0.0821917808219178
 40
0.0821917808219178
 40
0.0821917808219178
 40
0.0821917808219178
 40
0.0958904109589041
 40
0.0958904109589041
 40
0.0958904109589041
 40
0.0958904109589041
 40
0.1095890410958904
 40
0.1095890410958904
 40
0.1095890410958904
 40
0.1095890410958904
 40
0.1232876712328767
 40
0.1232876712328767
 40
0.1232876712328767
 40
0.1232876712328767
 40
0.136986301369863
 40
0.136986301369863
 40
0.136986301369863
 40
0.136986301369863
 40
0.1506849315068493
 40
0.1506849315068493
 40
0.1506849315068493
 40
0.1506849315068493
 40
0.1643835616438356
 40
0.1643835616438356
 40
0.1643835616438356
 40
0.1643835616438356
 40
0.1780821917808219
 40
0.1780821917808219
 40
0.1780821917808219
 40
0.1780821917808219
 40
0.1917808219178082
 40
0.1917808219178082
 40
0.1917808219178082
 40
0.1917808219178082
 40
0.2054794520547945
 40
0.2054794520547945
 40
0.2054794520547945
 40
0.2054794520547945
 40
0.2191780821917808
 40
0.2191780821917808
 40
0.2191780821917808
 40
0.2191780821917808
 40
0.2328767123287671
 40
0.2328767123287671
 40
0.2328767123287671
 40
0.2328767123287671
 40
0.2465753424657534
 40
0.2465753424657534
 40
0.2465753424657534
 40
0.2465753424657534
 40
0.2602739726027397
 40
0.2602739726027397
 40
0.2602739726027397
 40
0.2602739726027397
 40
0.273972602739726
 40
0.273972602739726
 40
0.273972602739726
 40
0.273972602739726
 40
0.2876712328767123
 40
0.2876712328767123
 40
0.2876712328767123
 40
0.2876712328767123
 40
0.3013698630136986
 40
0.3013698630136986
 40
0.3013698630136986
 40
0.3013698630136986
 40
0.3150684931506849
 40
0.3150684931506849
 40
0.3150684931506849
 40
0.3150684931506849
 40
0.3287671232876712
 40
0.3287671232876712
 40
0.3287671232876712
 40
0.3287671232876712
 40
0.3424657534246575
 40
0.3424657534246575
 40
0.3424657534246575
 40
0.3424657534246575
 40
0.3561643835616438
 40
0.3561643835616438
 40
0.3561643835616438
 40
0.3561643835616438
 40
0.3698630136986301
 40
0.3698630136986301
 40
0.3698630136986301
 40
0.3698630136986301
 40
0.3835616438356164
 40
0.3835616438356164
 40
0.3835616438356164
 40
0.3835616438356164
 40
0.3972602739726027
 40
0.3972602739726027
 40
0.3972602739726027
 40
0.3972602739726027
 40
0.410958904109589
 40
0.410958904109589
 40
0.410958904109589
 40
0.410958904109589
 40
0.4246575342465753
 40
0.4246575342465753
 40
0.4246575342465753
 40
0.4246575342465753
 40
0.4383561643835616
 40
0.4383561643835616
 40
0.4383561643835616
 40
0.4383561643835616
 40
0.4520547945205479
 40
0.4520547945205479
 40
0.4520547945205479
 40
0.4520547945205479
 40
0.4657534246575342
 40
0.4657534246575342
 40
0.4657534246575342
 40
0.4657534246575342
 40
0.4794520547945205
 40
0.4794520547945205
 40
0.4794520547945205
 40
0.4794520547945205
 40
0.4931506849315068
 40
0.4931506849315068
 40
0.4931506849315068
 40
0.4931506849315068
 40
0.5068493150684932
 40
0.5068493150684932
 40
0.5068493150684932
 40
0.5068493150684932
 40
0.5205479452054794
 40
0.5205479452054794
 40
0.5205479452054794
 40
0.5205479452054794
 40
0.5342465753424658
 40
0.5342465753424658
 40
0.5342465753424658
 40
0.5342465753424658
 40
0.547945205479452
 40
0.547945205479452
 40
0.547945205479452
 40
0.547945205479452
 40
0.5616438356164384
 40
0.5616438356164384
 40
0.5616438356164384
 40
0.5616438356164384
 40
0.5753424657534246
 40
0.5753424657534246
 40
0.5753424657534246
 40
0.5753424657534246
 40
0.589041095890411
 40
0.589041095890411
 40
0.589041095890411
 40
0.589041095890411
 40
0.6027397260273972
 40
0.6027397260273972
 40
0.6027397260273972
 40
0.6027397260273972
 40
0.6164383561643836
 40
0.6164383561643836
 40
0.6164383561643836
 40
0.6164383561643836
 40
0.6301369863013698
 40
0.6301369863013698
 40
0.6301369863013698
 40
0.6301369863013698
 40
0.6438356164383562
 40
0.6438356164383562
 40
0.6438356164383562
 40
0.6438356164383562
 40
0.6575342465753424
 40
0.6575342465753424
 40
0.6575342465753424
 40
0.6575342465753424
 40
0.6712328767123288
 40
0.6712328767123288
 40
0.6712328767123288
 40
0.6712328767123288
 40
0.684931506849315
 40
0.684931506849315
 40
0.684931506849315
 40
0.684931506849315
 40
0.6986301369863014
 40
0.6986301369863014
 40
0.6986301369863014
 40
0.6986301369863014
 40
0.7123287671232876
 40
0.7123287671232876
 40
0.7123287671232876
 40
0.7123287671232876
 40
0.726027397260274
 40
0.726027397260274
 40
0.726027397260274
 40
0.726027397260274
 40
0.7397260273972602
 40
0.7397260273972602
 40
0.7397260273972602
 40
0.7397260273972602
 40
0.7534246575342466
 40
0.7534246575342466
 40
0.7534246575342466
 40
0.7534246575342466
 40
0.7671232876712328
 40
0.7671232876712328
 40
0.7671232876712328
 40
0.7671232876712328
 40
0.7808219178082192
 40
0.7808219178082192
 40
0.7808219178082192
 40
0.7808219178082192
 40
0.7945205479452054
 40
0.7945205479452054
 40
0.7945205479452054
 40
0.7945205479452054
 40
0.8082191780821918
 40
0.8082191780821918
 40
0.8082191780821918
 40
0.8082191780821918
 40
0.821917808219178
 40
0.821917808219178
 40
0.821917808219178
 40
0.821917808219178
 40
0.8356164383561644
 40
0.8356164383561644
 40
0.8356164383561644
 40
0.8356164383561644
 40
0.8493150684931506
 40
0.8493150684931506
 40
0.8493150684931506
 40
0.8493150684931506
 40
0.863013698630137
 40
0.863013698630137
 40
0.863013698630137
 40
0.863013698630137
 40
0.8767123287671232
 40
0.8767123287671232
 40
0.8767123287671232
 40
0.8767123287671232
 40
0.8904109589041096
 40
0.8904109589041096
 40
0.8904109589041096
 40
0.8904109589041096
 40
0.9041095890410958
 40
0.9041095890410958
 40
0.9041095890410958
 40
0.9041095890410958
 40
0.9178082191780822
 40
0.9178082191780822
 40
0.9178082191780822
 40
0.9178082191780822
 40
0.9315068493150684
 40
0.9315068493150684
 40
0.9315068493150684
 40
0.9315068493150684
 40
0.9452054794520548
 40
0.9452054794520548
 40
0.9452054794520548
 40
0.9452054794520548
 40
0.958904109589041
 40
0.958904109589041
 40
0.958904109589041
 40
0.958904109589041
 40
0.9726027397260274
 40
0.9726027397260274
 40
0.9726027397260274
 40
0.9726027397260274
 40
1.0
 40
1.0
 40
1.0
 40
1.0
 10
-393.2594
 20
14.8327
 30
0.0
 10
-393.2594
 20
14.8327
 30
0.0
 10
-374.8533
 20
14.8327
 30
0.0
 10
-374.8533
 20
14.8327
 30
0.0
 10
-374.8533
 20
14.8327
 30
0.0
 10
-374.8533
 20
14.8327
 30
0.0
 10
-374.8533
 20
18.8326
 30
0.0
 10
-374.8533
 20
18.8326
 30
0.0
 10
-374.8533
 20
18.8326
 30
0.0
 10
-374.8533
 20
18.8326
 30
0.0
 10
-371.0033
 20
18.8326
 30
0.0
 10
-371.0033
 20
18.8326
 30
0.0
 10
-371.0033
 20
18.8326
 30
0.0
 10
-371.0033
 20
18.8326
 30
0.0
 10
-371.0033
 20
14.8327
 30
0.0
 10
-371.0033
 20
14.8327
 30
0.0
 10
-371.0033
 20
14.8327
 30
0.0
 10
-371.0033
 20
14.8327
 30
0.0
 10
-320.0533
 20
14.8327
 30
0.0
 10
-320.0533
 20
14.8327
 30
0.0
 10
-320.0533
 20
14.8327
 30
0.0
 10
-320.0533
 20
14.8327
 30
0.0
 10
-320.0533
 20
18.8326
 30
0.0
 10
-320.0533
 20
18.8326
 30
0.0
 10
-320.0533
 20
18.8326
 30
0.0
 10
-320.0533
 20
18.8326
 30
0.0
 10
-316.2033
 20
18.8326
 30
0.0
 10
-316.2033
 20
18.8326
 30
0.0
 10
-316.2033
 20
18.8326
 30
0.0
 10
-316.2033
 20
18.8326
 30
0.0
 10
-316.2033
 20
14.8327
 30
0.0
 10
-316.2033
 20
14.8327
 30
0.0
 10
-316.2033
 20
14.8327
 30
0.0
 10
-316.2033
 20
14.8327
 30
0.0
 10
-283.1972
 20
14.8327
 30
0.0
 10
-283.1972
 20
14.8327
 30
0.0
 10
-283.1972
 20
14.8327
 30
0.0
 10
-283.1972
 20
14.8327
 30
0.0
 10
-281.6972
 20
16.3327
 30
0.0
 10
-281.6972
 20
16.3327
 30
0.0
 10
-281.6972
 20
16.3327
 30
0.0
 10
-281.6972
 20
16.3327
 30
0.0
 10
-266.1498
 20
16.3327
 30
0.0
 10
-266.1498
 20
16.3327
 30
0.0
 10
-266.1498
 20
16.3327
 30
0.0
 10
-265.9005
 20
16.3327
 30
0.0
 10
-265.6617
 20
16.2321
 30
0.0
 10
-265.4877
 20
16.0536
 30
0.0
 10
-265.4877
 20
16.0536
 30
0.0
 10
-265.4877
 20
16.0536
 30
0.0
 10
-265.2533
 20
15.8133
 30
0.0
 10
-265.2533
 20
15.8133
 30
0.0
 10
-265.2533
 20
15.8133
 30
0.0
 10
-265.2533
 20
15.8133
 30
0.0
 10
-265.2533
 20
18.8326
 30
0.0
 10
-265.2533
 20
18.8326
 30
0.0
 10
-265.2533
 20
18.8326
 30
0.0
 10
-265.2533
 20
18.8326
 30
0.0
 10
-261.4033
 20
18.8326
 30
0.0
 10
-261.4033
 20
18.8326
 30
0.0
 10
-261.4033
 20
18.8326
 30
0.0
 10
-261.4033
 20
18.8326
 30
0.0
 10
-261.4033
 20
11.8671
 30
0.0
 10
-261.4033
 20
11.8671
 30
0.0
 10
-261.4033
 20
11.8671
 30
0.0
 10
-261.4033
 20
11.8671
 30
0.0
 10
-246.5806
 20
-3.3261
 30
0.0
 10
-246.5806
 20
-3.3261
 30
0.0
 10
-246.5806
 20
-3.3261
 30
0.0
 10
-246.4562
 20
-3.4536
 30
0.0
 10
-246.3154
 20
-3.5649
 30
0.0
 10
-246.1627
 20
-3.6565
 30
0.0
 10
-246.1627
 20
-3.6565
 30
0.0
 10
-246.0099
 20
-3.7481
 30
0.0
 10
-245.8454
 20
-3.8199
 30
0.0
 10
-245.6744
 20
-3.8696
 30
0.0
 10
-245.6744
 20
-3.8696
 30
0.0
 10
-245.5034
 20
-3.9193
 30
0.0
 10
-245.326
 20
-3.9469
 30
0.0
 10
-245.148
 20
-3.9514
 30
0.0
 10
-245.148
 20
-3.9514
 30
0.0
 10
-244.9699
 20
-3.9559
 30
0.0
 10
-244.7914
 20
-3.9374
 30
0.0
 10
-244.6181
 20
-3.8964
 30
0.0
 10
-244.6181
 20
-3.8964
 30
0.0
 10
-240.1591
 20
-2.8426
 30
0.0
 10
-235.3739
 20
-2.2202
 30
0.0
 10
-230.1917
 20
-2.123
 30
0.0
 10
-230.1917
 20
-2.123
 30
0.0
 10
-224.1752
 20
-2.0101
 30
0.0
 10
-217.5888
 20
-2.65
 30
0.0
 10
-210.5414
 20
-3.8986
 30
0.0
 10
-210.5414
 20
-3.8986
 30
0.0
 10
-210.512
 20
-3.9038
 30
0.0
 10
-210.4827
 20
-3.909
 30
0.0
 10
-210.4533
 20
-3.9142
 30
0.0
 10
-210.4533
 20
-3.9142
 30
0.0
 10
-210.4533
 20
-3.9142
 30
0.0
 10
-210.4533
 20
18.8326
 30
0.0
 10
-210.4533
 20
18.8326
 30
0.0
 10
-210.4533
 20
18.8326
 30
0.0
 10
-210.4533
 20
18.8326
 30
0.0
 10
-206.6033
 20
18.8326
 30
0.0
 10
-206.6033
 20
18.8326
 30
0.0
 10
-206.6033
 20
18.8326
 30
0.0
 10
-206.6033
 20
18.8326
 30
0.0
 10
-206.6033
 20
-4.0174
 30
0.0
 10
-206.6033
 20
-4.0174
 30
0.0
 10
-206.6033
 20
-4.0174
 30
0.0
 10
-206.6033
 20
-4.0174
 30
0.0
 10
-206.6033
 20
-4.6467
 30
0.0
 10
-206.6033
 20
-4.6467
 30
0.0
 10
-206.6033
 20
-4.6467
 30
0.0
 10
-203.4294
 20
-5.2884
 30
0.0
 10
-200.1747
 20
-6.0371
 30
0.0
 10
-196.8469
 20
-6.8826
 30
0.0
 10
-196.8469
 20
-6.8826
 30
0.0
 10
-196.6735
 20
-6.9266
 30
0.0
 10
-196.4946
 20
-6.9481
 30
0.0
 10
-196.3157
 20
-6.9464
 30
0.0
 10
-196.3157
 20
-6.9464
 30
0.0
 10
-196.1368
 20
-6.9447
 30
0.0
 10
-195.9583
 20
-6.9197
 30
0.0
 10
-195.7859
 20
-6.8723
 30
0.0
 10
-195.7859
 20
-6.8723
 30
0.0
 10
-195.6499
 20
-6.8349
 30
0.0
 10
-195.5179
 20
-6.7836
 30
0.0
 10
-195.3924
 20
-6.7196
 30
0.0
 10
-195.3924
 20
-6.7196
 30
0.0
 10
-195.2587
 20
-6.6513
 30
0.0
 10
-195.1169
 20
-6.5987
 30
0.0
 10
-194.9711
 20
-6.5633
 30
0.0
 10
-194.9711
 20
-6.5633
 30
0.0
 10
-194.8253
 20
-6.5279
 30
0.0
 10
-194.6752
 20
-6.5097
 30
0.0
 10
-194.5251
 20
-6.509
 30
0.0
 10
-194.5251
 20
-6.509
 30
0.0
 10
-194.375
 20
-6.5084
 30
0.0
 10
-194.2248
 20
-6.5254
 30
0.0
 10
-194.0787
 20
-6.5596
 30
0.0
 10
-194.0787
 20
-6.5596
 30
0.0
 10
-193.9325
 20
-6.5938
 30
0.0
 10
-193.7904
 20
-6.6451
 30
0.0
 10
-193.6561
 20
-6.7122
 30
0.0
 10
-193.6561
 20
-6.7122
 30
0.0
 10
-193.6561
 20
-6.7122
 30
0.0
 10
-193.1841
 20
-6.9482
 30
0.0
 10
-193.1841
 20
-6.9482
 30
0.0
 10
-193.1841
 20
-6.9482
 30
0.0
 10
-192.896
 20
-7.0923
 30
0.0
 10
-192.5783
 20
-7.1673
 30
0.0
 10
-192.2562
 20
-7.1673
 30
0.0
 10
-192.2562
 20
-7.1673
 30
0.0
 10
-192.2562
 20
-7.1673
 30
0.0
 10
-165.8033
 20
-7.1673
 30
0.0
 10
-165.8033
 20
-7.1673
 30
0.0
 10
-165.8033
 20
-7.1673
 30
0.0
 10
-165.8033
 20
-7.1673
 30
0.0
 10
-165.8033
 20
-20.1674
 30
0.0
 10
-165.8033
 20
-20.1674
 30
0.0
 10
-165.8033
 20
-20.1674
 30
0.0
 10
-165.8033
 20
-20.1674
 30
0.0
 10
-159.8033
 20
-20.1674
 30
0.0
 10
-159.8033
 20
-20.1674
 30
0.0
 10
-159.8033
 20
-20.1674
 30
0.0
 10
-159.8033
 20
-20.1674
 30
0.0
 10
-159.8033
 20
-24.1674
 30
0.0
 10
-159.8033
 20
-24.1674
 30
0.0
 10
-159.8033
 20
-24.1674
 30
0.0
 10
-159.8033
 20
-24.1674
 30
0.0
 10
-155.6533
 20
-24.1674
 30
0.0
 10
-155.6533
 20
-24.1674
 30
0.0
 10
-155.6533
 20
-24.1674
 30
0.0
 10
-155.6533
 20
-24.1674
 30
0.0
 10
-155.6533
 20
23.9826
 30
0.0
 10
-155.6533
 20
23.9826
 30
0.0
 10
-155.6533
 20
23.9826
 30
0.0
 10
-155.6533
 20
23.9826
 30
0.0
 10
-206.4533
 20
23.9826
 30
0.0
 10
-206.4533
 20
23.9826
 30
0.0
 10
-206.4533
 20
23.9826
 30
0.0
 10
-206.4533
 20
23.9826
 30
0.0
 10
-206.4533
 20
27.9826
 30
0.0
 10
-206.4533
 20
27.9826
 30
0.0
 10
-206.4533
 20
27.9826
 30
0.0
 10
-206.4533
 20
27.9826
 30
0.0
 10
-210.6033
 20
27.9826
 30
0.0
 10
-210.6033
 20
27.9826
 30
0.0
 10
-210.6033
 20
27.9826
 30
0.0
 10
-210.6033
 20
27.9826
 30
0.0
 10
-210.6033
 20
23.9826
 30
0.0
 10
-210.6033
 20
23.9826
 30
0.0
 10
-210.6033
 20
23.9826
 30
0.0
 10
-210.6033
 20
23.9826
 30
0.0
 10
-261.2533
 20
23.9826
 30
0.0
 10
-261.2533
 20
23.9826
 30
0.0
 10
-261.2533
 20
23.9826
 30
0.0
 10
-261.2533
 20
23.9826
 30
0.0
 10
-261.2533
 20
27.9826
 30
0.0
 10
-261.2533
 20
27.9826
 30
0.0
 10
-261.2533
 20
27.9826
 30
0.0
 10
-261.2533
 20
27.9826
 30
0.0
 10
-265.4033
 20
27.9826
 30
0.0
 10
-265.4033
 20
27.9826
 30
0.0
 10
-265.4033
 20
27.9826
 30
0.0
 10
-265.4033
 20
27.9826
 30
0.0
 10
-265.4033
 20
23.9826
 30
0.0
 10
-265.4033
 20
23.9826
 30
0.0
 10
-265.4033
 20
23.9826
 30
0.0
 10
-265.4033
 20
23.9826
 30
0.0
 10
-316.0533
 20
23.9826
 30
0.0
 10
-316.0533
 20
23.9826
 30
0.0
 10
-316.0533
 20
23.9826
 30
0.0
 10
-316.0533
 20
23.9826
 30
0.0
 10
-316.0533
 20
27.9826
 30
0.0
 10
-316.0533
 20
27.9826
 30
0.0
 10
-316.0533
 20
27.9826
 30
0.0
 10
-316.0533
 20
27.9826
 30
0.0
 10
-320.2033
 20
27.9826
 30
0.0
 10
-320.2033
 20
27.9826
 30
0.0
 10
-320.2033
 20
27.9826
 30
0.0
 10
-320.2033
 20
27.9826
 30
0.0
 10
-320.2033
 20
23.9826
 30
0.0
 10
-320.2033
 20
23.9826
 30
0.0
 10
-320.2033
 20
23.9826
 30
0.0
 10
-320.2033
 20
23.9826
 30
0.0
 10
-370.8533
 20
23.9826
 30
0.0
 10
-370.8533
 20
23.9826
 30
0.0
 10
-370.8533
 20
23.9826
 30
0.0
 10
-370.8533
 20
23.9826
 30
0.0
 10
-370.8533
 20
27.9826
 30
0.0
 10
-370.8533
 20
27.9826
 30
0.0
 10
-370.8533
 20
27.9826
 30
0.0
 10
-370.8533
 20
27.9826
 30
0.0
 10
-375.0033
 20
27.9826
 30
0.0
 10
-375.0033
 20
27.9826
 30
0.0
 10
-375.0033
 20
27.9826
 30
0.0
 10
-375.0033
 20
27.9826
 30
0.0
 10
-375.0033
 20
23.9826
 30
0.0
 10
-375.0033
 20
23.9826
 30
0.0
 10
-375.0033
 20
23.9826
 30
0.0
 10
-375.0033
 20
23.9826
 30
0.0
 10
-425.8033
 20
23.9826
 30
0.0
 10
-425.8033
 20
23.9826
 30
0.0
 10
-425.8033
 20
23.9826
 30
0.0
 10
-425.8033
 20
23.9826
 30
0.0
 10
-425.8033
 20
-20.1674
 30
0.0
 10
-425.8033
 20
-20.1674
 30
0.0
 10
-425.8033
 20
-20.1674
 30
0.0
 10
-425.8033
 20
-20.1674
 30
0.0
 10
-425.8033
 20
-24.1674
 30
0.0
 10
-425.8033
 20
-24.1674
 30
0.0
 10
-425.8033
 20
-24.1674
 30
0.0
 10
-425.8033
 20
-24.1674
 30
0.0
 10
-421.6533
 20
-24.1674
 30
0.0
 10
-421.6533
 20
-24.1674
 30
0.0
 10
-421.6533
 20
-24.1674
 30
0.0
 10
-421.6533
 20
-24.1674
 30
0.0
 10
-421.6533
 20
-20.1674
 30
0.0
 10
-421.6533
 20
-20.1674
 30
0.0
 10
-421.6533
 20
-20.1674
 30
0.0
 10
-421.6533
 20
-20.1674
 30
0.0
 10
-415.6533
 20
-20.1674
 30
0.0
 10
-415.6533
 20
-20.1674
 30
0.0
 10
-415.6533
 20
-20.1674
 30
0.0
 10
-415.6533
 20
-20.1674
 30
0.0
 10
-415.6533
 20
12.4077
 30
0.0
 10
-415.6533
 20
12.4077
 30
0.0
 10
-415.6533
 20
12.4077
 30
0.0
 10
-415.6533
 20
13.4487
 30
0.0
 10
-415.2398
 20
14.447
 30
0.0
 10
-414.5037
 20
15.1831
 30
0.0
 10
-414.5037
 20
15.1831
 30
0.0
 10
-413.7676
 20
15.9192
 30
0.0
 10
-412.7693
 20
16.3327
 30
0.0
 10
-411.7283
 20
16.3327
 30
0.0
 10
-411.7283
 20
16.3327
 30
0.0
 10
-411.7283
 20
16.3327
 30
0.0
 10
-395.1425
 20
16.3327
 30
0.0
 10
-395.1425
 20
16.3327
 30
0.0
 10
-395.1425
 20
16.3327
 30
0.0
 10
-394.8972
 20
16.3327
 30
0.0
 10
-394.6619
 20
16.2352
 30
0.0
 10
-394.4884
 20
16.0618
 30
0.0
 10
-394.4884
 20
16.0618
 30
0.0
 10
-394.4884
 20
16.0618
 30
0.0
 10
-393.2594
 20
14.8327
 30
0.0
 10
-393.2594
 20
14.8327
 30
0.0
  0
SPLINE
  5
75
330
1F
100
AcDbEntity
  8
Layer 1
 62
     1
370
     9
100
AcDbSpline
210
0.0
220
0.0
230
1.0
 70
    11
 71
     3
 72
    20
 73
    16
 74
     0
 42
0.000000001
 43
0.0000000001
 40
0.0
 40
0.0
 40
0.0
 40
0.0
 40
0.2
 40
0.2
 40
0.2
 40
0.2
 40
0.4
 40
0.4
 40
0.4
 40
0.4
 40
0.6
 40
0.6
 40
0.6
 40
0.6
 40
1.0
 40
1.0
 40
1.0
 40
1.0
 10
240.7529
 20
-26.5977
 30
0.0
 10
242.2736
 20
-26.5977
 30
0.0
 10
243.5063
 20
-25.365
 30
0.0
 10
243.5063
 20
-23.8443
 30
0.0
 10
243.5063
 20
-23.8443
 30
0.0
 10
243.5063
 20
-22.3236
 30
0.0
 10
242.2736
 20
-21.0909
 30
0.0
 10
240.7529
 20
-21.0909
 30
0.0
 10
240.7529
 20
-21.0909
 30
0.0
 10
239.2322
 20
-21.0909
 30
0.0
 10
237.9995
 20
-22.3236
 30
0.0
 10
237.9995
 20
-23.8443
 30
0.0
 10
237.9995
 20
-23.8443
 30
0.0
 10
237.9995
 20
-25.365
 30
0.0
 10
239.2322
 20
-26.5977
 30
0.0
 10
240.7529
 20
-26.5977
 30
0.0
  0
SPLINE
  5
76
330
1F
100
AcDbEntity
  8
Layer 1
 62
     1
370
     9
100
AcDbSpline
210
0.0
220
0.0
230
1.0
 70
    11
 71
     3
 72
    20
 73
    16
 74
     0
 42
0.000000001
 43
0.0000000001
 40
0.0
 40
0.0
 40
0.0
 40
0.0
 40
0.2
 40
0.2
 40
0.2
 40
0.2
 40
0.4
 40
0.4
 40
0.4
 40
0.4
 40
0.6
 40
0.6
 40
0.6
 40
0.6
 40
1.0
 40
1.0
 40
1.0
 40
1.0
 10
235.6779
 20
-21.7693
 30
0.0
 10
235.6779
 20
-21.7693
 30
0.0
 10
227.8279
 20
-21.7693
 30
0.0
 10
227.8279
 20
-21.7693
 30
0.0
 10
227.8279
 20
-21.7693
 30
0.0
 10
227.8279
 20
-21.7693
 30
0.0
 10
227.8279
 20
-17.9193
 30
0.0
 10
227.8279
 20
-17.9193
 30
0.0
 10
227.8279
 20
-17.9193
 30
0.0
 10
227.8279
 20
-17.9193
 30
0.0
 10
235.6779
 20
-17.9193
 30
0.0
 10
235.6779
 20
-17.9193
 30
0.0
 10
235.6779
 20
-17.9193
 30
0.0
 10
235.6779
 20
-17.9193
 30
0.0
 10
235.6779
 20
-21.7693
 30
0.0
 10
235.6779
 20
-21.7693
 30
0.0
  0
SPLINE
  5
77
330
1F
100
AcDbEntity
  8
Layer 1
 62
     1
370
     9
100
AcDbSpline
210
0.0
220
0.0
230
1.0
 70
    11
 71
     3
 72
   156
 73
   152
 74
     0
 42
0.000000001
 43
0.0000000001
 40
0.0
 40
0.0
 40
0.0
 40
0.0
 40
0.0256410256410256
 40
0.0256410256410256
 40
0.0256410256410256
 40
0.0256410256410256
 40
0.0512820512820513
 40
0.0512820512820513
 40
0.0512820512820513
 40
0.0512820512820513
 40
0.0769230769230769
 40
0.0769230769230769
 40
0.0769230769230769
 40
0.0769230769230769
 40
0.1025641025641026
 40
0.1025641025641026
 40
0.1025641025641026
 40
0.1025641025641026
 40
0.1282051282051282
 40
0.1282051282051282
 40
0.1282051282051282
 40
0.1282051282051282
 40
0.1538461538461539
 40
0.1538461538461539
 40
0.1538461538461539
 40
0.1538461538461539
 40
0.1794871794871795
 40
0.1794871794871795
 40
0.1794871794871795
 40
0.1794871794871795
 40
0.2051282051282051
 40
0.2051282051282051
 40
0.2051282051282051
 40
0.2051282051282051
 40
0.2307692307692308
 40
0.2307692307692308
 40
0.2307692307692308
 40
0.2307692307692308
 40
0.2564102564102564
 40
0.2564102564102564
 40
0.2564102564102564
 40
0.2564102564102564
 40
0.282051282051282
 40
0.282051282051282
 40
0.282051282051282
 40
0.282051282051282
 40
0.3076923076923077
 40
0.3076923076923077
 40
0.3076923076923077
 40
0.3076923076923077
 40
0.3333333333333333
 40
0.3333333333333333
 40
0.3333333333333333
 40
0.3333333333333333
 40
0.358974358974359
 40
0.358974358974359
 40
0.358974358974359
 40
0.358974358974359
 40
0.3846153846153846
 40
0.3846153846153846
 40
0.3846153846153846
 40
0.3846153846153846
 40
0.4102564102564102
 40
0.4102564102564102
 40
0.4102564102564102
 40
0.4102564102564102
 40
0.4358974358974359
 40
0.4358974358974359
 40
0.4358974358974359
 40
0.4358974358974359
 40
0.4615384615384616
 40
0.4615384615384616
 40
0.4615384615384616
 40
0.4615384615384616
 40
0.4871794871794872
 40
0.4871794871794872
 40
0.4871794871794872
 40
0.4871794871794872
 40
0.5128205128205128
 40
0.5128205128205128
 40
0.5128205128205128
 40
0.5128205128205128
 40
0.5384615384615384
 40
0.5384615384615384
 40
0.5384615384615384
 40
0.5384615384615384
 40
0.5641025641025641
 40
0.5641025641025641
 40
0.5641025641025641
 40
0.5641025641025641
 40
0.5897435897435898
 40
0.5897435897435898
 40
0.5897435897435898
 40
0.5897435897435898
 40
0.6153846153846154
 40
0.6153846153846154
 40
0.6153846153846154
 40
0.6153846153846154
 40
0.6410256410256411
 40
0.6410256410256411
 40
0.6410256410256411
 40
0.6410256410256411
 40
0.6666666666666666
 40
0.6666666666666666
 40
0.6666666666666666
 40
0.6666666666666666
 40
0.6923076923076923
 40
0.6923076923076923
 40
0.6923076923076923
 40
0.6923076923076923
 40
0.717948717948718
 40
0.717948717948718
 40
0.717948717948718
 40
0.717948717948718
 40
0.7435897435897436
 40
0.7435897435897436
 40
0.7435897435897436
 40
0.7435897435897436
 40
0.7692307692307693
 40
0.7692307692307693
 40
0.7692307692307693
 40
0.7692307692307693
 40
0.7948717948717948
 40
0.7948717948717948
 40
0.7948717948717948
 40
0.7948717948717948
 40
0.8205128205128205
 40
0.8205128205128205
 40
0.8205128205128205
 40
0.8205128205128205
 40
0.8461538461538461
 40
0.8461538461538461
 40
0.8461538461538461
 40
0.8461538461538461
 40
0.8717948717948718
 40
0.8717948717948718
 40
0.8717948717948718
 40
0.8717948717948718
 40
0.8974358974358975
 40
0.8974358974358975
 40
0.8974358974358975
 40
0.8974358974358975
 40
0.9230769230769231
 40
0.9230769230769231
 40
0.9230769230769231
 40
0.9230769230769231
 40
0.9487179487179487
 40
0.9487179487179487
 40
0.9487179487179487
 40
0.9487179487179487
 40
1.0
 40
1.0
 40
1.0
 40
1.0
 10
148.6779
 20
82.2307
 30
0.0
 10
148.6779
 20
82.2307
 30
0.0
 10
142.6779
 20
82.2307
 30
0.0
 10
142.6779
 20
82.2307
 30
0.0
 10
142.6779
 20
82.2307
 30
0.0
 10
142.6779
 20
82.2307
 30
0.0
 10
142.6779
 20
76.2307
 30
0.0
 10
142.6779
 20
76.2307
 30
0.0
 10
142.6779
 20
76.2307
 30
0.0
 10
142.6779
 20
76.2307
 30
0.0
 10
138.6779
 20
76.2307
 30
0.0
 10
138.6779
 20
76.2307
 30
0.0
 10
138.6779
 20
76.2307
 30
0.0
 10
138.6779
 20
76.2307
 30
0.0
 10
138.6779
 20
56.0807
 30
0.0
 10
138.6779
 20
56.0807
 30
0.0
 10
138.6779
 20
56.0807
 30
0.0
 10
138.6779
 20
56.0807
 30
0.0
 10
142.6779
 20
56.0807
 30
0.0
 10
142.6779
 20
56.0807
 30
0.0
 10
142.6779
 20
56.0807
 30
0.0
 10
142.6779
 20
56.0807
 30
0.0
 10
142.6779
 20
42.2307
 30
0.0
 10
142.6779
 20
42.2307
 30
0.0
 10
142.6779
 20
42.2307
 30
0.0
 10
142.6779
 20
42.2307
 30
0.0
 10
138.6779
 20
42.2307
 30
0.0
 10
138.6779
 20
42.2307
 30
0.0
 10
138.6779
 20
42.2307
 30
0.0
 10
138.6779
 20
42.2307
 30
0.0
 10
138.6779
 20
22.0807
 30
0.0
 10
138.6779
 20
22.0807
 30
0.0
 10
138.6779
 20
22.0807
 30
0.0
 10
138.6779
 20
22.0807
 30
0.0
 10
142.6779
 20
22.0807
 30
0.0
 10
142.6779
 20
22.0807
 30
0.0
 10
142.6779
 20
22.0807
 30
0.0
 10
142.6779
 20
22.0807
 30
0.0
 10
142.6779
 20
8.2307
 30
0.0
 10
142.6779
 20
8.2307
 30
0.0
 10
142.6779
 20
8.2307
 30
0.0
 10
142.6779
 20
8.2307
 30
0.0
 10
138.6779
 20
8.2307
 30
0.0
 10
138.6779
 20
8.2307
 30
0.0
 10
138.6779
 20
8.2307
 30
0.0
 10
138.6779
 20
8.2307
 30
0.0
 10
138.6779
 20
-11.9193
 30
0.0
 10
138.6779
 20
-11.9193
 30
0.0
 10
138.6779
 20
-11.9193
 30
0.0
 10
138.6779
 20
-11.9193
 30
0.0
 10
142.6779
 20
-11.9193
 30
0.0
 10
142.6779
 20
-11.9193
 30
0.0
 10
142.6779
 20
-11.9193
 30
0.0
 10
142.6779
 20
-11.9193
 30
0.0
 10
142.6779
 20
-17.9193
 30
0.0
 10
142.6779
 20
-17.9193
 30
0.0
 10
142.6779
 20
-17.9193
 30
0.0
 10
142.6779
 20
-17.9193
 30
0.0
 10
148.6779
 20
-17.9193
 30
0.0
 10
148.6779
 20
-17.9193
 30
0.0
 10
148.6779
 20
-17.9193
 30
0.0
 10
148.6779
 20
-17.9193
 30
0.0
 10
148.6779
 20
-21.9193
 30
0.0
 10
148.6779
 20
-21.9193
 30
0.0
 10
148.6779
 20
-21.9193
 30
0.0
 10
148.6779
 20
-21.9193
 30
0.0
 10
168.8279
 20
-21.9193
 30
0.0
 10
168.8279
 20
-21.9193
 30
0.0
 10
168.8279
 20
-21.9193
 30
0.0
 10
168.8279
 20
-21.9193
 30
0.0
 10
168.8279
 20
-17.9193
 30
0.0
 10
168.8279
 20
-17.9193
 30
0.0
 10
168.8279
 20
-17.9193
 30
0.0
 10
168.8279
 20
-17.9193
 30
0.0
 10
212.6779
 20
-17.9193
 30
0.0
 10
212.6779
 20
-17.9193
 30
0.0
 10
212.6779
 20
-17.9193
 30
0.0
 10
212.6779
 20
-17.9193
 30
0.0
 10
212.6779
 20
-21.907
 30
0.0
 10
212.6779
 20
-21.907
 30
0.0
 10
212.6779
 20
-21.907
 30
0.0
 10
215.1588
 20
-22.3439
 30
0.0
 10
217.3808
 20
-23.7078
 30
0.0
 10
218.8934
 20
-25.7222
 30
0.0
 10
218.8934
 20
-25.7222
 30
0.0
 10
220.7964
 20
-28.2565
 30
0.0
 10
223.7808
 20
-29.7477
 30
0.0
 10
226.95
 20
-29.7477
 30
0.0
 10
226.95
 20
-29.7477
 30
0.0
 10
226.95
 20
-29.7477
 30
0.0
 10
240.7529
 20
-29.7477
 30
0.0
 10
240.7529
 20
-29.7477
 30
0.0
 10
240.7529
 20
-29.7477
 30
0.0
 10
243.2295
 20
-29.7477
 30
0.0
 10
245.4428
 20
-28.2019
 30
0.0
 10
246.2954
 20
-25.8766
 30
0.0
 10
246.2954
 20
-25.8766
 30
0.0
 10
247.1481
 20
-23.5514
 30
0.0
 10
246.4587
 20
-20.9412
 30
0.0
 10
244.5691
 20
-19.3402
 30
0.0
 10
244.5691
 20
-19.3402
 30
0.0
 10
243.5137
 20
-18.446
 30
0.0
 10
242.883
 20
-17.1491
 30
0.0
 10
242.8313
 20
-15.7667
 30
0.0
 10
242.8313
 20
-15.7667
 30
0.0
 10
242.7896
 20
-14.6517
 30
0.0
 10
241.8736
 20
-13.7693
 30
0.0
 10
240.7579
 20
-13.7693
 30
0.0
 10
240.7579
 20
-13.7693
 30
0.0
 10
240.7579
 20
-13.7693
 30
0.0
 10
238.8279
 20
-13.7693
 30
0.0
 10
238.8279
 20
-13.7693
 30
0.0
 10
238.8279
 20
-13.7693
 30
0.0
 10
238.8279
 20
-13.7693
 30
0.0
 10
238.8279
 20
-9.8443
 30
0.0
 10
238.8279
 20
-9.8443
 30
0.0
 10
238.8279
 20
-9.8443
 30
0.0
 10
238.8279
 20
-4.3921
 30
0.0
 10
234.4907
 20
0.0708
 30
0.0
 10
229.0407
 20
0.2266
 30
0.0
 10
229.0407
 20
0.2266
 30
0.0
 10
215.5579
 20
0.612
 30
0.0
 10
204.8279
 20
11.6531
 30
0.0
 10
204.8279
 20
25.1414
 30
0.0
 10
204.8279
 20
25.1414
 30
0.0
 10
204.8279
 20
25.1414
 30
0.0
 10
204.8279
 20
86.2307
 30
0.0
 10
204.8279
 20
86.2307
 30
0.0
 10
204.8279
 20
86.2307
 30
0.0
 10
204.8279
 20
86.2307
 30
0.0
 10
194.6779
 20
86.2307
 30
0.0
 10
194.6779
 20
86.2307
 30
0.0
 10
194.6779
 20
86.2307
 30
0.0
 10
194.6779
 20
86.2307
 30
0.0
 10
194.6779
 20
82.2307
 30
0.0
 10
194.6779
 20
82.2307
 30
0.0
 10
194.6779
 20
82.2307
 30
0.0
 10
194.6779
 20
82.2307
 30
0.0
 10
168.8279
 20
82.2307
 30
0.0
 10
168.8279
 20
82.2307
 30
0.0
 10
168.8279
 20
82.2307
 30
0.0
 10
168.8279
 20
82.2307
 30
0.0
 10
168.8279
 20
86.2307
 30
0.0
 10
168.8279
 20
86.2307
 30
0.0
 10
168.8279
 20
86.2307
 30
0.0
 10
168.8279
 20
86.2307
 30
0.0
 10
148.6779
 20
86.2307
 30
0.0
 10
148.6779
 20
86.2307
 30
0.0
 10
148.6779
 20
86.2307
 30
0.0
 10
148.6779
 20
86.2307
 30
0.0
 10
148.6779
 20
82.2307
 30
0.0
 10
148.6779
 20
82.2307
 30
0.0
  0
SPLINE
  5
78
330
1F
100
AcDbEntity
  8
Layer 1
 62
     1
370
     9
100
AcDbSpline
210
0.0
220
0.0
230
1.0
 70
    11
 71
     3
 72
    20
 73
    16
 74
     0
 42
0.000000001
 43
0.0000000001
 40
0.0
 40
0.0
 40
0.0
 40
0.0
 40
0.2
 40
0.2
 40
0.2
 40
0.2
 40
0.4
 40
0.4
 40
0.4
 40
0.4
 40
0.6
 40
0.6
 40
0.6
 40
0.6
 40
1.0
 40
1.0
 40
1.0
 40
1.0
 10
-121.93
 20
90.8053
 30
0.0
 10
-121.93
 20
90.8053
 30
0.0
 10
-121.93
 20
94.6553
 30
0.0
 10
-121.93
 20
94.6553
 30
0.0
 10
-121.93
 20
94.6553
 30
0.0
 10
-121.93
 20
94.6553
 30
0.0
 10
-112.08
 20
94.6553
 30
0.0
 10
-112.08
 20
94.6553
 30
0.0
 10
-112.08
 20
94.6553
 30
0.0
 10
-112.08
 20
94.6553
 30
0.0
 10
-112.08
 20
90.8053
 30
0.0
 10
-112.08
 20
90.8053
 30
0.0
 10
-112.08
 20
90.8053
 30
0.0
 10
-112.08
 20
90.8053
 30
0.0
 10
-121.93
 20
90.8053
 30
0.0
 10
-121.93
 20
90.8053
 30
0.0
  0
SPLINE
  5
79
330
1F
100
AcDbEntity
  8
Layer 1
 62
     1
370
     9
100
AcDbSpline
210
0.0
220
0.0
230
1.0
 70
    11
 71
     3
 72
    20
 73
    16
 74
     0
 42
0.000000001
 43
0.0000000001
 40
0.0
 40
0.0
 40
0.0
 40
0.0
 40
0.2
 40
0.2
 40
0.2
 40
0.2
 40
0.4
 40
0.4
 40
0.4
 40
0.4
 40
0.6
 40
0.6
 40
0.6
 40
0.6
 40
1.0
 40
1.0
 40
1.0
 40
1.0
 10
98.07
 20
94.6553
 30
0.0
 10
98.07
 20
94.6553
 30
0.0
 10
107.92
 20
94.6553
 30
0.0
 10
107.92
 20
94.6553
 30
0.0
 10
107.92
 20
94.6553
 30
0.0
 10
107.92
 20
94.6553
 30
0.0
 10
107.92
 20
90.8053
 30
0.0
 10
107.92
 20
90.8053
 30
0.0
 10
107.92
 20
90.8053
 30
0.0
 10
107.92
 20
90.8053
 30
0.0
 10
98.07
 20
90.8053
 30
0.0
 10
98.07
 20
90.8053
 30
0.0
 10
98.07
 20
90.8053
 30
0.0
 10
98.07
 20
90.8053
 30
0.0
 10
98.07
 20
94.6553
 30
0.0
 10
98.07
 20
94.6553
 30
0.0
  0
SPLINE
  5
7A
330
1F
100
AcDbEntity
  8
Layer 1
 62
     1
370
     9
100
AcDbSpline
210
0.0
220
0.0
230
1.0
 70
    11
 71
     3
 72
   196
 73
   192
 74
     0
 42
0.000000001
 43
0.0000000001
 40
0.0
 40
0.0
 40
0.0
 40
0.0
 40
0.0204081632653061
 40
0.0204081632653061
 40
0.0204081632653061
 40
0.0204081632653061
 40
0.0408163265306122
 40
0.0408163265306122
 40
0.0408163265306122
 40
0.0408163265306122
 40
0.0612244897959184
 40
0.0612244897959184
 40
0.0612244897959184
 40
0.0612244897959184
 40
0.0816326530612245
 40
0.0816326530612245
 40
0.0816326530612245
 40
0.0816326530612245
 40
0.1020408163265306
 40
0.1020408163265306
 40
0.1020408163265306
 40
0.1020408163265306
 40
0.1224489795918367
 40
0.1224489795918367
 40
0.1224489795918367
 40
0.1224489795918367
 40
0.1428571428571428
 40
0.1428571428571428
 40
0.1428571428571428
 40
0.1428571428571428
 40
0.163265306122449
 40
0.163265306122449
 40
0.163265306122449
 40
0.163265306122449
 40
0.1836734693877551
 40
0.1836734693877551
 40
0.1836734693877551
 40
0.1836734693877551
 40
0.2040816326530612
 40
0.2040816326530612
 40
0.2040816326530612
 40
0.2040816326530612
 40
0.2244897959183673
 40
0.2244897959183673
 40
0.2244897959183673
 40
0.2244897959183673
 40
0.2448979591836735
 40
0.2448979591836735
 40
0.2448979591836735
 40
0.2448979591836735
 40
0.2653061224489796
 40
0.2653061224489796
 40
0.2653061224489796
 40
0.2653061224489796
 40
0.2857142857142857
 40
0.2857142857142857
 40
0.2857142857142857
 40
0.2857142857142857
 40
0.3061224489795918
 40
0.3061224489795918
 40
0.3061224489795918
 40
0.3061224489795918
 40
0.3265306122448979
 40
0.3265306122448979
 40
0.3265306122448979
 40
0.3265306122448979
 40
0.3469387755102041
 40
0.3469387755102041
 40
0.3469387755102041
 40
0.3469387755102041
 40
0.3673469387755102
 40
0.3673469387755102
 40
0.3673469387755102
 40
0.3673469387755102
 40
0.3877551020408163
 40
0.3877551020408163
 40
0.3877551020408163
 40
0.3877551020408163
 40
0.4081632653061225
 40
0.4081632653061225
 40
0.4081632653061225
 40
0.4081632653061225
 40
0.4285714285714285
 40
0.4285714285714285
 40
0.4285714285714285
 40
0.4285714285714285
 40
0.4489795918367347
 40
0.4489795918367347
 40
0.4489795918367347
 40
0.4489795918367347
 40
0.4693877551020408
 40
0.4693877551020408
 40
0.4693877551020408
 40
0.4693877551020408
 40
0.4897959183673469
 40
0.4897959183673469
 40
0.4897959183673469
 40
0.4897959183673469
 40
0.5102040816326531
 40
0.5102040816326531
 40
0.5102040816326531
 40
0.5102040816326531
 40
0.5306122448979592
 40
0.5306122448979592
 40
0.5306122448979592
 40
0.5306122448979592
 40
0.5510204081632653
 40
0.5510204081632653
 40
0.5510204081632653
 40
0.5510204081632653
 40
0.5714285714285714
 40
0.5714285714285714
 40
0.5714285714285714
 40
0.5714285714285714
 40
0.5918367346938775
 40
0.5918367346938775
 40
0.5918367346938775
 40
0.5918367346938775
 40
0.6122448979591837
 40
0.6122448979591837
 40
0.6122448979591837
 40
0.6122448979591837
 40
0.6326530612244898
 40
0.6326530612244898
 40
0.6326530612244898
 40
0.6326530612244898
 40
0.6530612244897959
 40
0.6530612244897959
 40
0.6530612244897959
 40
0.6530612244897959
 40
0.673469387755102
 40
0.673469387755102
 40
0.673469387755102
 40
0.673469387755102
 40
0.6938775510204082
 40
0.6938775510204082
 40
0.6938775510204082
 40
0.6938775510204082
 40
0.7142857142857143
 40
0.7142857142857143
 40
0.7142857142857143
 40
0.7142857142857143
 40
0.7346938775510204
 40
0.7346938775510204
 40
0.7346938775510204
 40
0.7346938775510204
 40
0.7551020408163265
 40
0.7551020408163265
 40
0.7551020408163265
 40
0.7551020408163265
 40
0.7755102040816326
 40
0.7755102040816326
 40
0.7755102040816326
 40
0.7755102040816326
 40
0.7959183673469388
 40
0.7959183673469388
 40
0.7959183673469388
 40
0.7959183673469388
 40
0.8163265306122449
 40
0.8163265306122449
 40
0.8163265306122449
 40
0.8163265306122449
 40
0.8367346938775511
 40
0.8367346938775511
 40
0.8367346938775511
 40
0.8367346938775511
 40
0.8571428571428571
 40
0.8571428571428571
 40
0.8571428571428571
 40
0.8571428571428571
 40
0.8775510204081632
 40
0.8775510204081632
 40
0.8775510204081632
 40
0.8775510204081632
 40
0.8979591836734694
 40
0.8979591836734694
 40
0.8979591836734694
 40
0.8979591836734694
 40
0.9183673469387755
 40
0.9183673469387755
 40
0.9183673469387755
 40
0.9183673469387755
 40
0.9387755102040817
 40
0.9387755102040817
 40
0.9387755102040817
 40
0.9387755102040817
 40
0.9591836734693877
 40
0.9591836734693877
 40
0.9591836734693877
 40
0.9591836734693877
 40
1.0
 40
1.0
 40
1.0
 40
1.0
 10
74.32
 20
46.6553
 30
0.0
 10
74.32
 20
46.6553
 30
0.0
 10
74.32
 20
42.6553
 30
0.0
 10
74.32
 20
42.6553
 30
0.0
 10
74.32
 20
42.6553
 30
0.0
 10
74.32
 20
42.6553
 30
0.0
 10
102.07
 20
42.6553
 30
0.0
 10
102.07
 20
42.6553
 30
0.0
 10
102.07
 20
42.6553
 30
0.0
 10
102.07
 20
42.6553
 30
0.0
 10
102.07
 20
46.6553
 30
0.0
 10
102.07
 20
46.6553
 30
0.0
 10
102.07
 20
46.6553
 30
0.0
 10
102.07
 20
46.6553
 30
0.0
 10
121.92
 20
46.6553
 30
0.0
 10
121.92
 20
46.6553
 30
0.0
 10
121.92
 20
46.6553
 30
0.0
 10
121.92
 20
46.6553
 30
0.0
 10
121.92
 20
42.6553
 30
0.0
 10
121.92
 20
42.6553
 30
0.0
 10
121.92
 20
42.6553
 30
0.0
 10
121.92
 20
42.6553
 30
0.0
 10
132.07
 20
42.6553
 30
0.0
 10
132.07
 20
42.6553
 30
0.0
 10
132.07
 20
42.6553
 30
0.0
 10
132.07
 20
42.6553
 30
0.0
 10
132.07
 20
52.8053
 30
0.0
 10
132.07
 20
52.8053
 30
0.0
 10
132.07
 20
52.8053
 30
0.0
 10
132.07
 20
52.8053
 30
0.0
 10
128.07
 20
52.8053
 30
0.0
 10
128.07
 20
52.8053
 30
0.0
 10
128.07
 20
52.8053
 30
0.0
 10
128.07
 20
52.8053
 30
0.0
 10
128.07
 20
72.6553
 30
0.0
 10
128.07
 20
72.6553
 30
0.0
 10
128.07
 20
72.6553
 30
0.0
 10
128.07
 20
72.6553
 30
0.0
 10
132.07
 20
72.6553
 30
0.0
 10
132.07
 20
72.6553
 30
0.0
 10
132.07
 20
72.6553
 30
0.0
 10
132.07
 20
72.6553
 30
0.0
 10
132.07
 20
116.8053
 30
0.0
 10
132.07
 20
116.8053
 30
0.0
 10
132.07
 20
116.8053
 30
0.0
 10
132.07
 20
116.8053
 30
0.0
 10
128.07
 20
116.8053
 30
0.0
 10
128.07
 20
116.8053
 30
0.0
 10
128.07
 20
116.8053
 30
0.0
 10
128.07
 20
116.8053
 30
0.0
 10
128.07
 20
131.6553
 30
0.0
 10
128.07
 20
131.6553
 30
0.0
 10
128.07
 20
131.6553
 30
0.0
 10
128.07
 20
131.6553
 30
0.0
 10
132.07
 20
131.6553
 30
0.0
 10
132.07
 20
131.6553
 30
0.0
 10
132.07
 20
131.6553
 30
0.0
 10
132.07
 20
131.6553
 30
0.0
 10
132.07
 20
139.8053
 30
0.0
 10
132.07
 20
139.8053
 30
0.0
 10
132.07
 20
139.8053
 30
0.0
 10
132.07
 20
139.8053
 30
0.0
 10
128.07
 20
139.8053
 30
0.0
 10
128.07
 20
139.8053
 30
0.0
 10
128.07
 20
139.8053
 30
0.0
 10
128.07
 20
139.8053
 30
0.0
 10
128.07
 20
142.8053
 30
0.0
 10
128.07
 20
142.8053
 30
0.0
 10
128.07
 20
142.8053
 30
0.0
 10
128.07
 20
142.8053
 30
0.0
 10
-142.08
 20
142.8053
 30
0.0
 10
-142.08
 20
142.8053
 30
0.0
 10
-142.08
 20
142.8053
 30
0.0
 10
-142.08
 20
142.8053
 30
0.0
 10
-142.08
 20
139.8053
 30
0.0
 10
-142.08
 20
139.8053
 30
0.0
 10
-142.08
 20
139.8053
 30
0.0
 10
-142.08
 20
139.8053
 30
0.0
 10
-146.08
 20
139.8053
 30
0.0
 10
-146.08
 20
139.8053
 30
0.0
 10
-146.08
 20
139.8053
 30
0.0
 10
-146.08
 20
139.8053
 30
0.0
 10
-146.08
 20
131.6553
 30
0.0
 10
-146.08
 20
131.6553
 30
0.0
 10
-146.08
 20
131.6553
 30
0.0
 10
-146.08
 20
131.6553
 30
0.0
 10
-142.08
 20
131.6553
 30
0.0
 10
-142.08
 20
131.6553
 30
0.0
 10
-142.08
 20
131.6553
 30
0.0
 10
-142.08
 20
131.6553
 30
0.0
 10
-142.08
 20
116.8053
 30
0.0
 10
-142.08
 20
116.8053
 30
0.0
 10
-142.08
 20
116.8053
 30
0.0
 10
-142.08
 20
116.8053
 30
0.0
 10
-146.08
 20
116.8053
 30
0.0
 10
-146.08
 20
116.8053
 30
0.0
 10
-146.08
 20
116.8053
 30
0.0
 10
-146.08
 20
116.8053
 30
0.0
 10
-146.08
 20
72.6553
 30
0.0
 10
-146.08
 20
72.6553
 30
0.0
 10
-146.08
 20
72.6553
 30
0.0
 10
-146.08
 20
72.6553
 30
0.0
 10
-142.08
 20
72.6553
 30
0.0
 10
-142.08
 20
72.6553
 30
0.0
 10
-142.08
 20
72.6553
 30
0.0
 10
-142.08
 20
72.6553
 30
0.0
 10
-142.08
 20
52.8053
 30
0.0
 10
-142.08
 20
52.8053
 30
0.0
 10
-142.08
 20
52.8053
 30
0.0
 10
-142.08
 20
52.8053
 30
0.0
 10
-146.08
 20
52.8053
 30
0.0
 10
-146.08
 20
52.8053
 30
0.0
 10
-146.08
 20
52.8053
 30
0.0
 10
-146.08
 20
52.8053
 30
0.0
 10
-146.08
 20
42.6553
 30
0.0
 10
-146.08
 20
42.6553
 30
0.0
 10
-146.08
 20
42.6553
 30
0.0
 10
-146.08
 20
42.6553
 30
0.0
 10
-135.93
 20
42.6553
 30
0.0
 10
-135.93
 20
42.6553
 30
0.0
 10
-135.93
 20
42.6553
 30
0.0
 10
-135.93
 20
42.6553
 30
0.0
 10
-135.93
 20
46.6553
 30
0.0
 10
-135.93
 20
46.6553
 30
0.0
 10
-135.93
 20
46.6553
 30
0.0
 10
-135.93
 20
46.6553
 30
0.0
 10
-116.08
 20
46.6553
 30
0.0
 10
-116.08
 20
46.6553
 30
0.0
 10
-116.08
 20
46.6553
 30
0.0
 10
-116.08
 20
46.6553
 30
0.0
 10
-116.08
 20
42.6553
 30
0.0
 10
-116.08
 20
42.6553
 30
0.0
 10
-116.08
 20
42.6553
 30
0.0
 10
-116.08
 20
42.6553
 30
0.0
 10
-88.33
 20
42.6553
 30
0.0
 10
-88.33
 20
42.6553
 30
0.0
 10
-88.33
 20
42.6553
 30
0.0
 10
-88.33
 20
42.6553
 30
0.0
 10
-88.33
 20
46.6553
 30
0.0
 10
-88.33
 20
46.6553
 30
0.0
 10
-88.33
 20
46.6553
 30
0.0
 10
-88.33
 20
46.6553
 30
0.0
 10
-68.48
 20
46.6553
 30
0.0
 10
-68.48
 20
46.6553
 30
0.0
 10
-68.48
 20
46.6553
 30
0.0
 10
-68.48
 20
46.6553
 30
0.0
 10
-68.48
 20
42.6553
 30
0.0
 10
-68.48
 20
42.6553
 30
0.0
 10
-68.48
 20
42.6553
 30
0.0
 10
-68.48
 20
42.6553
 30
0.0
 10
-40.73
 20
42.6553
 30
0.0
 10
-40.73
 20
42.6553
 30
0.0
 10
-40.73
 20
42.6553
 30
0.0
 10
-40.73
 20
42.6553
 30
0.0
 10
-40.73
 20
46.6553
 30
0.0
 10
-40.73
 20
46.6553
 30
0.0
 10
-40.73
 20
46.6553
 30
0.0
 10
-40.73
 20
46.6553
 30
0.0
 10
-20.88
 20
46.6553
 30
0.0
 10
-20.88
 20
46.6553
 30
0.0
 10
-20.88
 20
46.6553
 30
0.0
 10
-20.88
 20
46.6553
 30
0.0
 10
-20.88
 20
42.6553
 30
0.0
 10
-20.88
 20
42.6553
 30
0.0
 10
-20.88
 20
42.6553
 30
0.0
 10
-20.88
 20
42.6553
 30
0.0
 10
6.87
 20
42.6553
 30
0.0
 10
6.87
 20
42.6553
 30
0.0
 10
6.87
 20
42.6553
 30
0.0
 10
6.87
 20
42.6553
 30
0.0
 10
6.87
 20
46.6553
 30
0.0
 10
6.87
 20
46.6553
 30
0.0
 10
6.87
 20
46.6553
 30
0.0
 10
6.87
 20
46.6553
 30
0.0
 10
26.72
 20
46.6553
 30
0.0
 10
26.72
 20
46.6553
 30
0.0
 10
26.72
 20
46.6553
 30
0.0
 10
26.72
 20
46.6553
 30
0.0
 10
26.72
 20
42.6553
 30
0.0
 10
26.72
 20
42.6553
 30
0.0
 10
26.72
 20
42.6553
 30
0.0
 10
26.72
 20
42.6553
 30
0.0
 10
54.47
 20
42.6553
 30
0.0
 10
54.47
 20
42.6553
 30
0.0
 10
54.47
 20
42.6553
 30
0.0
 10
54.47
 20
42.6553
 30
0.0
 10
54.47
 20
46.6553
 30
0.0
 10
54.47
 20
46.6553
 30
0.0
 10
54.47
 20
46.6553
 30
0.0
 10
54.47
 20
46.6553
 30
0.0
 10
74.32
 20
46.6553
 30
0.0
 10
74.32
 20
46.6553
 30
0.0
  0
SPLINE
  5
7B
330
1F
100
AcDbEntity
  8
Layer 1
 62
     1
370
     9
100
AcDbSpline
210
0.0
220
0.0
230
1.0
 70
    11
 71
     3
 72
    20
 73
    16
 74
     0
 42
0.000000001
 43
0.0000000001
 40
0.0
 40
0.0
 40
0.0
 40
0.0
 40
0.2
 40
0.2
 40
0.2
 40
0.2
 40
0.4
 40
0.4
 40
0.4
 40
0.4
 40
0.6
 40
0.6
 40
0.6
 40
0.6
 40
1.0
 40
1.0
 40
1.0
 40
1.0
 10
350.5224
 20
-110.9078
 30
0.0
 10
350.5224
 20
-110.9078
 30
0.0
 10
350.5224
 20
-130.7577
 30
0.0
 10
350.5224
 20
-130.7577
 30
0.0
 10
350.5224
 20
-130.7577
 30
0.0
 10
350.5224
 20
-130.7577
 30
0.0
 10
346.6724
 20
-130.7577
 30
0.0
 10
346.6724
 20
-130.7577
 30
0.0
 10
346.6724
 20
-130.7577
 30
0.0
 10
346.6724
 20
-130.7577
 30
0.0
 10
346.6724
 20
-110.9078
 30
0.0
 10
346.6724
 20
-110.9078
 30
0.0
 10
346.6724
 20
-110.9078
 30
0.0
 10
346.6724
 20
-110.9078
 30
0.0
 10
350.5224
 20
-110.9078
 30
0.0
 10
350.5224
 20
-110.9078
 30
0.0
  0
SPLINE
  5
7C
330
1F
100
AcDbEntity
  8
Layer 1
 62
     1
370
     9
100
AcDbSpline
210
0.0
220
0.0
230
1.0
 70
    11
 71
     3
 72
    20
 73
    16
 74
     0
 42
0.000000001
 43
0.0000000001
 40
0.0
 40
0.0
 40
0.0
 40
0.0
 40
0.2
 40
0.2
 40
0.2
 40
0.2
 40
0.4
 40
0.4
 40
0.4
 40
0.4
 40
0.6
 40
0.6
 40
0.6
 40
0.6
 40
1.0
 40
1.0
 40
1.0
 40
1.0
 10
346.6724
 20
-76.9077
 30
0.0
 10
346.6724
 20
-76.9077
 30
0.0
 10
350.5224
 20
-76.9077
 30
0.0
 10
350.5224
 20
-76.9077
 30
0.0
 10
350.5224
 20
-76.9077
 30
0.0
 10
350.5224
 20
-76.9077
 30
0.0
 10
350.5224
 20
-96.7577
 30
0.0
 10
350.5224
 20
-96.7577
 30
0.0
 10
350.5224
 20
-96.7577
 30
0.0
 10
350.5224
 20
-96.7577
 30
0.0
 10
346.6724
 20
-96.7577
 30
0.0
 10
346.6724
 20
-96.7577
 30
0.0
 10
346.6724
 20
-96.7577
 30
0.0
 10
346.6724
 20
-96.7577
 30
0.0
 10
346.6724
 20
-76.9077
 30
0.0
 10
346.6724
 20
-76.9077
 30
0.0
  0
SPLINE
  5
7D
330
1F
100
AcDbEntity
  8
Layer 1
 62
     1
370
     9
100
AcDbSpline
210
0.0
220
0.0
230
1.0
 70
    11
 71
     3
 72
    20
 73
    16
 74
     0
 42
0.000000001
 43
0.0000000001
 40
0.0
 40
0.0
 40
0.0
 40
0.0
 40
0.2
 40
0.2
 40
0.2
 40
0.2
 40
0.4
 40
0.4
 40
0.4
 40
0.4
 40
0.6
 40
0.6
 40
0.6
 40
0.6
 40
1.0
 40
1.0
 40
1.0
 40
1.0
 10
350.5224
 20
-42.9077
 30
0.0
 10
350.5224
 20
-42.9077
 30
0.0
 10
350.5224
 20
-62.7577
 30
0.0
 10
350.5224
 20
-62.7577
 30
0.0
 10
350.5224
 20
-62.7577
 30
0.0
 10
350.5224
 20
-62.7577
 30
0.0
 10
346.6724
 20
-62.7577
 30
0.0
 10
346.6724
 20
-62.7577
 30
0.0
 10
346.6724
 20
-62.7577
 30
0.0
 10
346.6724
 20
-62.7577
 30
0.0
 10
346.6724
 20
-42.9077
 30
0.0
 10
346.6724
 20
-42.9077
 30
0.0
 10
346.6724
 20
-42.9077
 30
0.0
 10
346.6724
 20
-42.9077
 30
0.0
 10
350.5224
 20
-42.9077
 30
0.0
 10
350.5224
 20
-42.9077
 30
0.0
  0
SPLINE
  5
7E
330
1F
100
AcDbEntity
  8
Layer 1
 62
     1
370
     9
100
AcDbSpline
210
0.0
220
0.0
230
1.0
 70
    11
 71
     3
 72
    20
 73
    16
 74
     0
 42
0.000000001
 43
0.0000000001
 40
0.0
 40
0.0
 40
0.0
 40
0.0
 40
0.2
 40
0.2
 40
0.2
 40
0.2
 40
0.4
 40
0.4
 40
0.4
 40
0.4
 40
0.6
 40
0.6
 40
0.6
 40
0.6
 40
1.0
 40
1.0
 40
1.0
 40
1.0
 10
295.7224
 20
-42.9077
 30
0.0
 10
295.7224
 20
-42.9077
 30
0.0
 10
295.7224
 20
-62.7577
 30
0.0
 10
295.7224
 20
-62.7577
 30
0.0
 10
295.7224
 20
-62.7577
 30
0.0
 10
295.7224
 20
-62.7577
 30
0.0
 10
291.8724
 20
-62.7577
 30
0.0
 10
291.8724
 20
-62.7577
 30
0.0
 10
291.8724
 20
-62.7577
 30
0.0
 10
291.8724
 20
-62.7577
 30
0.0
 10
291.8724
 20
-42.9077
 30
0.0
 10
291.8724
 20
-42.9077
 30
0.0
 10
291.8724
 20
-42.9077
 30
0.0
 10
291.8724
 20
-42.9077
 30
0.0
 10
295.7224
 20
-42.9077
 30
0.0
 10
295.7224
 20
-42.9077
 30
0.0
  0
SPLINE
  5
7F
330
1F
100
AcDbEntity
  8
Layer 1
 62
     1
370
     9
100
AcDbSpline
210
0.0
220
0.0
230
1.0
 70
    11
 71
     3
 72
    20
 73
    16
 74
     0
 42
0.000000001
 43
0.0000000001
 40
0.0
 40
0.0
 40
0.0
 40
0.0
 40
0.2
 40
0.2
 40
0.2
 40
0.2
 40
0.4
 40
0.4
 40
0.4
 40
0.4
 40
0.6
 40
0.6
 40
0.6
 40
0.6
 40
1.0
 40
1.0
 40
1.0
 40
1.0
 10
295.7224
 20
-96.7577
 30
0.0
 10
295.7224
 20
-96.7577
 30
0.0
 10
291.8724
 20
-96.7577
 30
0.0
 10
291.8724
 20
-96.7577
 30
0.0
 10
291.8724
 20
-96.7577
 30
0.0
 10
291.8724
 20
-96.7577
 30
0.0
 10
291.8724
 20
-76.9077
 30
0.0
 10
291.8724
 20
-76.9077
 30
0.0
 10
291.8724
 20
-76.9077
 30
0.0
 10
291.8724
 20
-76.9077
 30
0.0
 10
295.7224
 20
-76.9077
 30
0.0
 10
295.7224
 20
-76.9077
 30
0.0
 10
295.7224
 20
-76.9077
 30
0.0
 10
295.7224
 20
-76.9077
 30
0.0
 10
295.7224
 20
-96.7577
 30
0.0
 10
295.7224
 20
-96.7577
 30
0.0
  0
SPLINE
  5
80
330
1F
100
AcDbEntity
  8
Layer 1
 62
     1
370
     9
100
AcDbSpline
210
0.0
220
0.0
230
1.0
 70
    11
 71
     3
 72
    20
 73
    16
 74
     0
 42
0.000000001
 43
0.0000000001
 40
0.0
 40
0.0
 40
0.0
 40
0.0
 40
0.2
 40
0.2
 40
0.2
 40
0.2
 40
0.4
 40
0.4
 40
0.4
 40
0.4
 40
0.6
 40
0.6
 40
0.6
 40
0.6
 40
1.0
 40
1.0
 40
1.0
 40
1.0
 10
291.8724
 20
-110.9078
 30
0.0
 10
291.8724
 20
-110.9078
 30
0.0
 10
295.7224
 20
-110.9078
 30
0.0
 10
295.7224
 20
-110.9078
 30
0.0
 10
295.7224
 20
-110.9078
 30
0.0
 10
295.7224
 20
-110.9078
 30
0.0
 10
295.7224
 20
-130.7577
 30
0.0
 10
295.7224
 20
-130.7577
 30
0.0
 10
295.7224
 20
-130.7577
 30
0.0
 10
295.7224
 20
-130.7577
 30
0.0
 10
291.8724
 20
-130.7577
 30
0.0
 10
291.8724
 20
-130.7577
 30
0.0
 10
291.8724
 20
-130.7577
 30
0.0
 10
291.8724
 20
-130.7577
 30
0.0
 10
291.8724
 20
-110.9078
 30
0.0
 10
291.8724
 20
-110.9078
 30
0.0
  0
SPLINE
  5
81
330
1F
100
AcDbEntity
  8
Layer 1
 62
     1
370
     9
100
AcDbSpline
210
0.0
220
0.0
230
1.0
 70
    11
 71
     3
 72
    20
 73
    16
 74
     0
 42
0.000000001
 43
0.0000000001
 40
0.0
 40
0.0
 40
0.0
 40
0.0
 40
0.2
 40
0.2
 40
0.2
 40
0.2
 40
0.4
 40
0.4
 40
0.4
 40
0.4
 40
0.6
 40
0.6
 40
0.6
 40
0.6
 40
1.0
 40
1.0
 40
1.0
 40
1.0
 10
237.0724
 20
-130.7577
 30
0.0
 10
237.0724
 20
-130.7577
 30
0.0
 10
237.0724
 20
-110.9078
 30
0.0
 10
237.0724
 20
-110.9078
 30
0.0
 10
237.0724
 20
-110.9078
 30
0.0
 10
237.0724
 20
-110.9078
 30
0.0
 10
240.9224
 20
-110.9078
 30
0.0
 10
240.9224
 20
-110.9078
 30
0.0
 10
240.9224
 20
-110.9078
 30
0.0
 10
240.9224
 20
-110.9078
 30
0.0
 10
240.9224
 20
-130.7577
 30
0.0
 10
240.9224
 20
-130.7577
 30
0.0
 10
240.9224
 20
-130.7577
 30
0.0
 10
240.9224
 20
-130.7577
 30
0.0
 10
237.0724
 20
-130.7577
 30
0.0
 10
237.0724
 20
-130.7577
 30
0.0
  0
SPLINE
  5
82
330
1F
100
AcDbEntity
  8
Layer 1
 62
     1
370
     9
100
AcDbSpline
210
0.0
220
0.0
230
1.0
 70
    11
 71
     3
 72
    20
 73
    16
 74
     0
 42
0.000000001
 43
0.0000000001
 40
0.0
 40
0.0
 40
0.0
 40
0.0
 40
0.2
 40
0.2
 40
0.2
 40
0.2
 40
0.4
 40
0.4
 40
0.4
 40
0.4
 40
0.6
 40
0.6
 40
0.6
 40
0.6
 40
1.0
 40
1.0
 40
1.0
 40
1.0
 10
240.9224
 20
-96.7577
 30
0.0
 10
240.9224
 20
-96.7577
 30
0.0
 10
237.0724
 20
-96.7577
 30
0.0
 10
237.0724
 20
-96.7577
 30
0.0
 10
237.0724
 20
-96.7577
 30
0.0
 10
237.0724
 20
-96.7577
 30
0.0
 10
237.0724
 20
-76.9077
 30
0.0
 10
237.0724
 20
-76.9077
 30
0.0
 10
237.0724
 20
-76.9077
 30
0.0
 10
237.0724
 20
-76.9077
 30
0.0
 10
240.9224
 20
-76.9077
 30
0.0
 10
240.9224
 20
-76.9077
 30
0.0
 10
240.9224
 20
-76.9077
 30
0.0
 10
240.9224
 20
-76.9077
 30
0.0
 10
240.9224
 20
-96.7577
 30
0.0
 10
240.9224
 20
-96.7577
 30
0.0
  0
SPLINE
  5
83
330
1F
100
AcDbEntity
  8
Layer 1
 62
     1
370
     9
100
AcDbSpline
210
0.0
220
0.0
230
1.0
 70
    11
 71
     3
 72
    20
 73
    16
 74
     0
 42
0.000000001
 43
0.0000000001
 40
0.0
 40
0.0
 40
0.0
 40
0.0
 40
0.2
 40
0.2
 40
0.2
 40
0.2
 40
0.4
 40
0.4
 40
0.4
 40
0.4
 40
0.6
 40
0.6
 40
0.6
 40
0.6
 40
1.0
 40
1.0
 40
1.0
 40
1.0
 10
237.0724
 20
-62.7577
 30
0.0
 10
237.0724
 20
-62.7577
 30
0.0
 10
237.0724
 20
-42.9077
 30
0.0
 10
237.0724
 20
-42.9077
 30
0.0
 10
237.0724
 20
-42.9077
 30
0.0
 10
237.0724
 20
-42.9077
 30
0.0
 10
240.9224
 20
-42.9077
 30
0.0
 10
240.9224
 20
-42.9077
 30
0.0
 10
240.9224
 20
-42.9077
 30
0.0
 10
240.9224
 20
-42.9077
 30
0.0
 10
240.9224
 20
-62.7577
 30
0.0
 10
240.9224
 20
-62.7577
 30
0.0
 10
240.9224
 20
-62.7577
 30
0.0
 10
240.9224
 20
-62.7577
 30
0.0
 10
237.0724
 20
-62.7577
 30
0.0
 10
237.0724
 20
-62.7577
 30
0.0
  0
SPLINE
  5
84
330
1F
100
AcDbEntity
  8
Layer 1
 62
     1
370
     9
100
AcDbSpline
210
0.0
220
0.0
230
1.0
 70
    11
 71
     3
 72
    20
 73
    16
 74
     0
 42
0.000000001
 43
0.0000000001
 40
0.0
 40
0.0
 40
0.0
 40
0.0
 40
0.2
 40
0.2
 40
0.2
 40
0.2
 40
0.4
 40
0.4
 40
0.4
 40
0.4
 40
0.6
 40
0.6
 40
0.6
 40
0.6
 40
1.0
 40
1.0
 40
1.0
 40
1.0
 10
182.2724
 20
-130.7577
 30
0.0
 10
182.2724
 20
-130.7577
 30
0.0
 10
182.2724
 20
-110.9078
 30
0.0
 10
182.2724
 20
-110.9078
 30
0.0
 10
182.2724
 20
-110.9078
 30
0.0
 10
182.2724
 20
-110.9078
 30
0.0
 10
186.1224
 20
-110.9078
 30
0.0
 10
186.1224
 20
-110.9078
 30
0.0
 10
186.1224
 20
-110.9078
 30
0.0
 10
186.1224
 20
-110.9078
 30
0.0
 10
186.1224
 20
-130.7577
 30
0.0
 10
186.1224
 20
-130.7577
 30
0.0
 10
186.1224
 20
-130.7577
 30
0.0
 10
186.1224
 20
-130.7577
 30
0.0
 10
182.2724
 20
-130.7577
 30
0.0
 10
182.2724
 20
-130.7577
 30
0.0
  0
SPLINE
  5
85
330
1F
100
AcDbEntity
  8
Layer 1
 62
     1
370
     9
100
AcDbSpline
210
0.0
220
0.0
230
1.0
 70
    11
 71
     3
 72
    20
 73
    16
 74
     0
 42
0.000000001
 43
0.0000000001
 40
0.0
 40
0.0
 40
0.0
 40
0.0
 40
0.2
 40
0.2
 40
0.2
 40
0.2
 40
0.4
 40
0.4
 40
0.4
 40
0.4
 40
0.6
 40
0.6
 40
0.6
 40
0.6
 40
1.0
 40
1.0
 40
1.0
 40
1.0
 10
186.1224
 20
-96.7577
 30
0.0
 10
186.1224
 20
-96.7577
 30
0.0
 10
182.2724
 20
-96.7577
 30
0.0
 10
182.2724
 20
-96.7577
 30
0.0
 10
182.2724
 20
-96.7577
 30
0.0
 10
182.2724
 20
-96.7577
 30
0.0
 10
182.2724
 20
-76.9077
 30
0.0
 10
182.2724
 20
-76.9077
 30
0.0
 10
182.2724
 20
-76.9077
 30
0.0
 10
182.2724
 20
-76.9077
 30
0.0
 10
186.1224
 20
-76.9077
 30
0.0
 10
186.1224
 20
-76.9077
 30
0.0
 10
186.1224
 20
-76.9077
 30
0.0
 10
186.1224
 20
-76.9077
 30
0.0
 10
186.1224
 20
-96.7577
 30
0.0
 10
186.1224
 20
-96.7577
 30
0.0
  0
SPLINE
  5
86
330
1F
100
AcDbEntity
  8
Layer 1
 62
     1
370
     9
100
AcDbSpline
210
0.0
220
0.0
230
1.0
 70
    11
 71
     3
 72
    20
 73
    16
 74
     0
 42
0.000000001
 43
0.0000000001
 40
0.0
 40
0.0
 40
0.0
 40
0.0
 40
0.2
 40
0.2
 40
0.2
 40
0.2
 40
0.4
 40
0.4
 40
0.4
 40
0.4
 40
0.6
 40
0.6
 40
0.6
 40
0.6
 40
1.0
 40
1.0
 40
1.0
 40
1.0
 10
186.1224
 20
-62.7577
 30
0.0
 10
186.1224
 20
-62.7577
 30
0.0
 10
182.2724
 20
-62.7577
 30
0.0
 10
182.2724
 20
-62.7577
 30
0.0
 10
182.2724
 20
-62.7577
 30
0.0
 10
182.2724
 20
-62.7577
 30
0.0
 10
182.2724
 20
-42.9077
 30
0.0
 10
182.2724
 20
-42.9077
 30
0.0
 10
182.2724
 20
-42.9077
 30
0.0
 10
182.2724
 20
-42.9077
 30
0.0
 10
186.1224
 20
-42.9077
 30
0.0
 10
186.1224
 20
-42.9077
 30
0.0
 10
186.1224
 20
-42.9077
 30
0.0
 10
186.1224
 20
-42.9077
 30
0.0
 10
186.1224
 20
-62.7577
 30
0.0
 10
186.1224
 20
-62.7577
 30
0.0
  0
SPLINE
  5
87
330
1F
100
AcDbEntity
  8
Layer 1
 62
     1
370
     9
100
AcDbSpline
210
0.0
220
0.0
230
1.0
 70
    11
 71
     3
 72
   308
 73
   304
 74
     0
 42
0.000000001
 43
0.0000000001
 40
0.0
 40
0.0
 40
0.0
 40
0.0
 40
0.012987012987013
 40
0.012987012987013
 40
0.012987012987013
 40
0.012987012987013
 40
0.025974025974026
 40
0.025974025974026
 40
0.025974025974026
 40
0.025974025974026
 40
0.038961038961039
 40
0.038961038961039
 40
0.038961038961039
 40
0.038961038961039
 40
0.051948051948052
 40
0.051948051948052
 40
0.051948051948052
 40
0.051948051948052
 40
0.0649350649350649
 40
0.0649350649350649
 40
0.0649350649350649
 40
0.0649350649350649
 40
0.0779220779220779
 40
0.0779220779220779
 40
0.0779220779220779
 40
0.0779220779220779
 40
0.0909090909090909
 40
0.0909090909090909
 40
0.0909090909090909
 40
0.0909090909090909
 40
0.1038961038961039
 40
0.1038961038961039
 40
0.1038961038961039
 40
0.1038961038961039
 40
0.1168831168831169
 40
0.1168831168831169
 40
0.1168831168831169
 40
0.1168831168831169
 40
0.1298701298701299
 40
0.1298701298701299
 40
0.1298701298701299
 40
0.1298701298701299
 40
0.1428571428571428
 40
0.1428571428571428
 40
0.1428571428571428
 40
0.1428571428571428
 40
0.1558441558441558
 40
0.1558441558441558
 40
0.1558441558441558
 40
0.1558441558441558
 40
0.1688311688311688
 40
0.1688311688311688
 40
0.1688311688311688
 40
0.1688311688311688
 40
0.1818181818181818
 40
0.1818181818181818
 40
0.1818181818181818
 40
0.1818181818181818
 40
0.1948051948051948
 40
0.1948051948051948
 40
0.1948051948051948
 40
0.1948051948051948
 40
0.2077922077922078
 40
0.2077922077922078
 40
0.2077922077922078
 40
0.2077922077922078
 40
0.2207792207792208
 40
0.2207792207792208
 40
0.2207792207792208
 40
0.2207792207792208
 40
0.2337662337662338
 40
0.2337662337662338
 40
0.2337662337662338
 40
0.2337662337662338
 40
0.2467532467532468
 40
0.2467532467532468
 40
0.2467532467532468
 40
0.2467532467532468
 40
0.2597402597402597
 40
0.2597402597402597
 40
0.2597402597402597
 40
0.2597402597402597
 40
0.2727272727272727
 40
0.2727272727272727
 40
0.2727272727272727
 40
0.2727272727272727
 40
0.2857142857142857
 40
0.2857142857142857
 40
0.2857142857142857
 40
0.2857142857142857
 40
0.2987012987012987
 40
0.2987012987012987
 40
0.2987012987012987
 40
0.2987012987012987
 40
0.3116883116883117
 40
0.3116883116883117
 40
0.3116883116883117
 40
0.3116883116883117
 40
0.3246753246753247
 40
0.3246753246753247
 40
0.3246753246753247
 40
0.3246753246753247
 40
0.3376623376623377
 40
0.3376623376623377
 40
0.3376623376623377
 40
0.3376623376623377
 40
0.3506493506493507
 40
0.3506493506493507
 40
0.3506493506493507
 40
0.3506493506493507
 40
0.3636363636363636
 40
0.3636363636363636
 40
0.3636363636363636
 40
0.3636363636363636
 40
0.3766233766233766
 40
0.3766233766233766
 40
0.3766233766233766
 40
0.3766233766233766
 40
0.3896103896103896
 40
0.3896103896103896
 40
0.3896103896103896
 40
0.3896103896103896
 40
0.4025974025974026
 40
0.4025974025974026
 40
0.4025974025974026
 40
0.4025974025974026
 40
0.4155844155844156
 40
0.4155844155844156
 40
0.4155844155844156
 40
0.4155844155844156
 40
0.4285714285714285
 40
0.4285714285714285
 40
0.4285714285714285
 40
0.4285714285714285
 40
0.4415584415584415
 40
0.4415584415584415
 40
0.4415584415584415
 40
0.4415584415584415
 40
0.4545454545454545
 40
0.4545454545454545
 40
0.4545454545454545
 40
0.4545454545454545
 40
0.4675324675324675
 40
0.4675324675324675
 40
0.4675324675324675
 40
0.4675324675324675
 40
0.4805194805194805
 40
0.4805194805194805
 40
0.4805194805194805
 40
0.4805194805194805
 40
0.4935064935064935
 40
0.4935064935064935
 40
0.4935064935064935
 40
0.4935064935064935
 40
0.5064935064935064
 40
0.5064935064935064
 40
0.5064935064935064
 40
0.5064935064935064
 40
0.5194805194805194
 40
0.5194805194805194
 40
0.5194805194805194
 40
0.5194805194805194
 40
0.5324675324675324
 40
0.5324675324675324
 40
0.5324675324675324
 40
0.5324675324675324
 40
0.5454545454545454
 40
0.5454545454545454
 40
0.5454545454545454
 40
0.5454545454545454
 40
0.5584415584415584
 40
0.5584415584415584
 40
0.5584415584415584
 40
0.5584415584415584
 40
0.5714285714285714
 40
0.5714285714285714
 40
0.5714285714285714
 40
0.5714285714285714
 40
0.5844155844155844
 40
0.5844155844155844
 40
0.5844155844155844
 40
0.5844155844155844
 40
0.5974025974025974
 40
0.5974025974025974
 40
0.5974025974025974
 40
0.5974025974025974
 40
0.6103896103896104
 40
0.6103896103896104
 40
0.6103896103896104
 40
0.6103896103896104
 40
0.6233766233766234
 40
0.6233766233766234
 40
0.6233766233766234
 40
0.6233766233766234
 40
0.6363636363636364
 40
0.6363636363636364
 40
0.6363636363636364
 40
0.6363636363636364
 40
0.6493506493506493
 40
0.6493506493506493
 40
0.6493506493506493
 40
0.6493506493506493
 40
0.6623376623376623
 40
0.6623376623376623
 40
0.6623376623376623
 40
0.6623376623376623
 40
0.6753246753246753
 40
0.6753246753246753
 40
0.6753246753246753
 40
0.6753246753246753
 40
0.6883116883116883
 40
0.6883116883116883
 40
0.6883116883116883
 40
0.6883116883116883
 40
0.7012987012987013
 40
0.7012987012987013
 40
0.7012987012987013
 40
0.7012987012987013
 40
0.7142857142857143
 40
0.7142857142857143
 40
0.7142857142857143
 40
0.7142857142857143
 40
0.7272727272727273
 40
0.7272727272727273
 40
0.7272727272727273
 40
0.7272727272727273
 40
0.7402597402597403
 40
0.7402597402597403
 40
0.7402597402597403
 40
0.7402597402597403
 40
0.7532467532467533
 40
0.7532467532467533
 40
0.7532467532467533
 40
0.7532467532467533
 40
0.7662337662337663
 40
0.7662337662337663
 40
0.7662337662337663
 40
0.7662337662337663
 40
0.7792207792207793
 40
0.7792207792207793
 40
0.7792207792207793
 40
0.7792207792207793
 40
0.7922077922077922
 40
0.7922077922077922
 40
0.7922077922077922
 40
0.7922077922077922
 40
0.8051948051948052
 40
0.8051948051948052
 40
0.8051948051948052
 40
0.8051948051948052
 40
0.8181818181818182
 40
0.8181818181818182
 40
0.8181818181818182
 40
0.8181818181818182
 40
0.8311688311688312
 40
0.8311688311688312
 40
0.8311688311688312
 40
0.8311688311688312
 40
0.8441558441558441
 40
0.8441558441558441
 40
0.8441558441558441
 40
0.8441558441558441
 40
0.8571428571428571
 40
0.8571428571428571
 40
0.8571428571428571
 40
0.8571428571428571
 40
0.8701298701298701
 40
0.8701298701298701
 40
0.8701298701298701
 40
0.8701298701298701
 40
0.8831168831168831
 40
0.8831168831168831
 40
0.8831168831168831
 40
0.8831168831168831
 40
0.8961038961038961
 40
0.8961038961038961
 40
0.8961038961038961
 40
0.8961038961038961
 40
0.9090909090909091
 40
0.9090909090909091
 40
0.9090909090909091
 40
0.9090909090909091
 40
0.922077922077922
 40
0.922077922077922
 40
0.922077922077922
 40
0.922077922077922
 40
0.935064935064935
 40
0.935064935064935
 40
0.935064935064935
 40
0.935064935064935
 40
0.948051948051948
 40
0.948051948051948
 40
0.948051948051948
 40
0.948051948051948
 40
0.961038961038961
 40
0.961038961038961
 40
0.961038961038961
 40
0.961038961038961
 40
0.974025974025974
 40
0.974025974025974
 40
0.974025974025974
 40
0.974025974025974
 40
1.0
 40
1.0
 40
1.0
 40
1.0
 10
405.4724
 20
-96.7577
 30
0.0
 10
405.4724
 20
-96.7577
 30
0.0
 10
401.4724
 20
-96.7577
 30
0.0
 10
401.4724
 20
-96.7577
 30
0.0
 10
401.4724
 20
-96.7577
 30
0.0
 10
401.4724
 20
-96.7577
 30
0.0
 10
401.4724
 20
-76.9077
 30
0.0
 10
401.4724
 20
-76.9077
 30
0.0
 10
401.4724
 20
-76.9077
 30
0.0
 10
401.4724
 20
-76.9077
 30
0.0
 10
405.4724
 20
-76.9077
 30
0.0
 10
405.4724
 20
-76.9077
 30
0.0
 10
405.4724
 20
-76.9077
 30
0.0
 10
405.4724
 20
-76.9077
 30
0.0
 10
405.4724
 20
-62.7577
 30
0.0
 10
405.4724
 20
-62.7577
 30
0.0
 10
405.4724
 20
-62.7577
 30
0.0
 10
405.4724
 20
-62.7577
 30
0.0
 10
401.4724
 20
-62.7577
 30
0.0
 10
401.4724
 20
-62.7577
 30
0.0
 10
401.4724
 20
-62.7577
 30
0.0
 10
401.4724
 20
-62.7577
 30
0.0
 10
401.4724
 20
-42.9077
 30
0.0
 10
401.4724
 20
-42.9077
 30
0.0
 10
401.4724
 20
-42.9077
 30
0.0
 10
401.4724
 20
-42.9077
 30
0.0
 10
405.4724
 20
-42.9077
 30
0.0
 10
405.4724
 20
-42.9077
 30
0.0
 10
405.4724
 20
-42.9077
 30
0.0
 10
405.4724
 20
-42.9077
 30
0.0
 10
405.4724
 20
-36.7577
 30
0.0
 10
405.4724
 20
-36.7577
 30
0.0
 10
405.4724
 20
-36.7577
 30
0.0
 10
405.4724
 20
-36.7577
 30
0.0
 10
395.4724
 20
-36.7577
 30
0.0
 10
395.4724
 20
-36.7577
 30
0.0
 10
395.4724
 20
-36.7577
 30
0.0
 10
395.4724
 20
-36.7577
 30
0.0
 10
395.4724
 20
-32.7577
 30
0.0
 10
395.4724
 20
-32.7577
 30
0.0
 10
395.4724
 20
-32.7577
 30
0.0
 10
395.4724
 20
-32.7577
 30
0.0
 10
375.3224
 20
-32.7577
 30
0.0
 10
375.3224
 20
-32.7577
 30
0.0
 10
375.3224
 20
-32.7577
 30
0.0
 10
375.3224
 20
-32.7577
 30
0.0
 10
375.3224
 20
-36.7577
 30
0.0
 10
375.3224
 20
-36.7577
 30
0.0
 10
375.3224
 20
-36.7577
 30
0.0
 10
375.3224
 20
-36.7577
 30
0.0
 10
347.8724
 20
-36.7577
 30
0.0
 10
347.8724
 20
-36.7577
 30
0.0
 10
347.8724
 20
-36.7577
 30
0.0
 10
347.8724
 20
-36.7577
 30
0.0
 10
347.8724
 20
-32.7577
 30
0.0
 10
347.8724
 20
-32.7577
 30
0.0
 10
347.8724
 20
-32.7577
 30
0.0
 10
347.8724
 20
-32.7577
 30
0.0
 10
327.7224
 20
-32.7577
 30
0.0
 10
327.7224
 20
-32.7577
 30
0.0
 10
327.7224
 20
-32.7577
 30
0.0
 10
327.7224
 20
-32.7577
 30
0.0
 10
327.7224
 20
-36.7577
 30
0.0
 10
327.7224
 20
-36.7577
 30
0.0
 10
327.7224
 20
-36.7577
 30
0.0
 10
327.7224
 20
-36.7577
 30
0.0
 10
300.2724
 20
-36.7577
 30
0.0
 10
300.2724
 20
-36.7577
 30
0.0
 10
300.2724
 20
-36.7577
 30
0.0
 10
300.2724
 20
-36.7577
 30
0.0
 10
300.2724
 20
-32.7577
 30
0.0
 10
300.2724
 20
-32.7577
 30
0.0
 10
300.2724
 20
-32.7577
 30
0.0
 10
300.2724
 20
-32.7577
 30
0.0
 10
280.1224
 20
-32.7577
 30
0.0
 10
280.1224
 20
-32.7577
 30
0.0
 10
280.1224
 20
-32.7577
 30
0.0
 10
280.1224
 20
-32.7577
 30
0.0
 10
280.1224
 20
-36.7577
 30
0.0
 10
280.1224
 20
-36.7577
 30
0.0
 10
280.1224
 20
-36.7577
 30
0.0
 10
280.1224
 20
-36.7577
 30
0.0
 10
252.6724
 20
-36.7577
 30
0.0
 10
252.6724
 20
-36.7577
 30
0.0
 10
252.6724
 20
-36.7577
 30
0.0
 10
252.6724
 20
-36.7577
 30
0.0
 10
252.6724
 20
-32.7577
 30
0.0
 10
252.6724
 20
-32.7577
 30
0.0
 10
252.6724
 20
-32.7577
 30
0.0
 10
252.6724
 20
-32.7577
 30
0.0
 10
232.5224
 20
-32.7577
 30
0.0
 10
232.5224
 20
-32.7577
 30
0.0
 10
232.5224
 20
-32.7577
 30
0.0
 10
232.5224
 20
-32.7577
 30
0.0
 10
232.5224
 20
-36.7577
 30
0.0
 10
232.5224
 20
-36.7577
 30
0.0
 10
232.5224
 20
-36.7577
 30
0.0
 10
232.5224
 20
-36.7577
 30
0.0
 10
205.0724
 20
-36.7577
 30
0.0
 10
205.0724
 20
-36.7577
 30
0.0
 10
205.0724
 20
-36.7577
 30
0.0
 10
205.0724
 20
-36.7577
 30
0.0
 10
205.0724
 20
-32.7577
 30
0.0
 10
205.0724
 20
-32.7577
 30
0.0
 10
205.0724
 20
-32.7577
 30
0.0
 10
205.0724
 20
-32.7577
 30
0.0
 10
184.9224
 20
-32.7577
 30
0.0
 10
184.9224
 20
-32.7577
 30
0.0
 10
184.9224
 20
-32.7577
 30
0.0
 10
184.9224
 20
-32.7577
 30
0.0
 10
184.9224
 20
-36.7577
 30
0.0
 10
184.9224
 20
-36.7577
 30
0.0
 10
184.9224
 20
-36.7577
 30
0.0
 10
184.9224
 20
-36.7577
 30
0.0
 10
157.4724
 20
-36.7577
 30
0.0
 10
157.4724
 20
-36.7577
 30
0.0
 10
157.4724
 20
-36.7577
 30
0.0
 10
157.4724
 20
-36.7577
 30
0.0
 10
157.4724
 20
-32.7577
 30
0.0
 10
157.4724
 20
-32.7577
 30
0.0
 10
157.4724
 20
-32.7577
 30
0.0
 10
157.4724
 20
-32.7577
 30
0.0
 10
137.3224
 20
-32.7577
 30
0.0
 10
137.3224
 20
-32.7577
 30
0.0
 10
137.3224
 20
-32.7577
 30
0.0
 10
137.3224
 20
-32.7577
 30
0.0
 10
137.3224
 20
-36.7577
 30
0.0
 10
137.3224
 20
-36.7577
 30
0.0
 10
137.3224
 20
-36.7577
 30
0.0
 10
137.3224
 20
-36.7577
 30
0.0
 10
127.3224
 20
-36.7577
 30
0.0
 10
127.3224
 20
-36.7577
 30
0.0
 10
127.3224
 20
-36.7577
 30
0.0
 10
127.3224
 20
-36.7577
 30
0.0
 10
127.3224
 20
-42.9077
 30
0.0
 10
127.3224
 20
-42.9077
 30
0.0
 10
127.3224
 20
-42.9077
 30
0.0
 10
127.3224
 20
-42.9077
 30
0.0
 10
131.3224
 20
-42.9077
 30
0.0
 10
131.3224
 20
-42.9077
 30
0.0
 10
131.3224
 20
-42.9077
 30
0.0
 10
131.3224
 20
-42.9077
 30
0.0
 10
131.3224
 20
-62.7577
 30
0.0
 10
131.3224
 20
-62.7577
 30
0.0
 10
131.3224
 20
-62.7577
 30
0.0
 10
131.3224
 20
-62.7577
 30
0.0
 10
127.3224
 20
-62.7577
 30
0.0
 10
127.3224
 20
-62.7577
 30
0.0
 10
127.3224
 20
-62.7577
 30
0.0
 10
127.3224
 20
-62.7577
 30
0.0
 10
127.3224
 20
-76.9077
 30
0.0
 10
127.3224
 20
-76.9077
 30
0.0
 10
127.3224
 20
-76.9077
 30
0.0
 10
127.3224
 20
-76.9077
 30
0.0
 10
131.3224
 20
-76.9077
 30
0.0
 10
131.3224
 20
-76.9077
 30
0.0
 10
131.3224
 20
-76.9077
 30
0.0
 10
131.3224
 20
-76.9077
 30
0.0
 10
131.3224
 20
-96.7577
 30
0.0
 10
131.3224
 20
-96.7577
 30
0.0
 10
131.3224
 20
-96.7577
 30
0.0
 10
131.3224
 20
-96.7577
 30
0.0
 10
127.3224
 20
-96.7577
 30
0.0
 10
127.3224
 20
-96.7577
 30
0.0
 10
127.3224
 20
-96.7577
 30
0.0
 10
127.3224
 20
-96.7577
 30
0.0
 10
127.3224
 20
-110.9078
 30
0.0
 10
127.3224
 20
-110.9078
 30
0.0
 10
127.3224
 20
-110.9078
 30
0.0
 10
127.3224
 20
-110.9078
 30
0.0
 10
131.3224
 20
-110.9078
 30
0.0
 10
131.3224
 20
-110.9078
 30
0.0
 10
131.3224
 20
-110.9078
 30
0.0
 10
131.3224
 20
-110.9078
 30
0.0
 10
131.3224
 20
-130.7577
 30
0.0
 10
131.3224
 20
-130.7577
 30
0.0
 10
131.3224
 20
-130.7577
 30
0.0
 10
131.3224
 20
-130.7577
 30
0.0
 10
127.3224
 20
-130.7577
 30
0.0
 10
127.3224
 20
-130.7577
 30
0.0
 10
127.3224
 20
-130.7577
 30
0.0
 10
127.3224
 20
-130.7577
 30
0.0
 10
127.3224
 20
-136.9078
 30
0.0
 10
127.3224
 20
-136.9078
 30
0.0
 10
127.3224
 20
-136.9078
 30
0.0
 10
127.3224
 20
-136.9078
 30
0.0
 10
137.3224
 20
-136.9078
 30
0.0
 10
137.3224
 20
-136.9078
 30
0.0
 10
137.3224
 20
-136.9078
 30
0.0
 10
137.3224
 20
-136.9078
 30
0.0
 10
137.3224
 20
-140.9078
 30
0.0
 10
137.3224
 20
-140.9078
 30
0.0
 10
137.3224
 20
-140.9078
 30
0.0
 10
137.3224
 20
-140.9078
 30
0.0
 10
157.4724
 20
-140.9078
 30
0.0
 10
157.4724
 20
-140.9078
 30
0.0
 10
157.4724
 20
-140.9078
 30
0.0
 10
157.4724
 20
-140.9078
 30
0.0
 10
157.4724
 20
-136.9078
 30
0.0
 10
157.4724
 20
-136.9078
 30
0.0
 10
157.4724
 20
-136.9078
 30
0.0
 10
157.4724
 20
-136.9078
 30
0.0
 10
184.9224
 20
-136.9078
 30
0.0
 10
184.9224
 20
-136.9078
 30
0.0
 10
184.9224
 20
-136.9078
 30
0.0
 10
184.9224
 20
-136.9078
 30
0.0
 10
184.9224
 20
-140.9078
 30
0.0
 10
184.9224
 20
-140.9078
 30
0.0
 10
184.9224
 20
-140.9078
 30
0.0
 10
184.9224
 20
-140.9078
 30
0.0
 10
205.0724
 20
-140.9078
 30
0.0
 10
205.0724
 20
-140.9078
 30
0.0
 10
205.0724
 20
-140.9078
 30
0.0
 10
205.0724
 20
-140.9078
 30
0.0
 10
205.0724
 20
-136.9078
 30
0.0
 10
205.0724
 20
-136.9078
 30
0.0
 10
205.0724
 20
-136.9078
 30
0.0
 10
205.0724
 20
-136.9078
 30
0.0
 10
232.5224
 20
-136.9078
 30
0.0
 10
232.5224
 20
-136.9078
 30
0.0
 10
232.5224
 20
-136.9078
 30
0.0
 10
232.5224
 20
-136.9078
 30
0.0
 10
232.5224
 20
-140.9078
 30
0.0
 10
232.5224
 20
-140.9078
 30
0.0
 10
232.5224
 20
-140.9078
 30
0.0
 10
232.5224
 20
-140.9078
 30
0.0
 10
252.6724
 20
-140.9078
 30
0.0
 10
252.6724
 20
-140.9078
 30
0.0
 10
252.6724
 20
-140.9078
 30
0.0
 10
252.6724
 20
-140.9078
 30
0.0
 10
252.6724
 20
-136.9078
 30
0.0
 10
252.6724
 20
-136.9078
 30
0.0
 10
252.6724
 20
-136.9078
 30
0.0
 10
252.6724
 20
-136.9078
 30
0.0
 10
280.1224
 20
-136.9078
 30
0.0
 10
280.1224
 20
-136.9078
 30
0.0
 10
280.1224
 20
-136.9078
 30
0.0
 10
280.1224
 20
-136.9078
 30
0.0
 10
280.1224
 20
-140.9078
 30
0.0
 10
280.1224
 20
-140.9078
 30
0.0
 10
280.1224
 20
-140.9078
 30
0.0
 10
280.1224
 20
-140.9078
 30
0.0
 10
300.2724
 20
-140.9078
 30
0.0
 10
300.2724
 20
-140.9078
 30
0.0
 10
300.2724
 20
-140.9078
 30
0.0
 10
300.2724
 20
-140.9078
 30
0.0
 10
300.2724
 20
-136.9078
 30
0.0
 10
300.2724
 20
-136.9078
 30
0.0
 10
300.2724
 20
-136.9078
 30
0.0
 10
300.2724
 20
-136.9078
 30
0.0
 10
327.7224
 20
-136.9078
 30
0.0
 10
327.7224
 20
-136.9078
 30
0.0
 10
327.7224
 20
-136.9078
 30
0.0
 10
327.7224
 20
-136.9078
 30
0.0
 10
327.7224
 20
-140.9078
 30
0.0
 10
327.7224
 20
-140.9078
 30
0.0
 10
327.7224
 20
-140.9078
 30
0.0
 10
327.7224
 20
-140.9078
 30
0.0
 10
347.8724
 20
-140.9078
 30
0.0
 10
347.8724
 20
-140.9078
 30
0.0
 10
347.8724
 20
-140.9078
 30
0.0
 10
347.8724
 20
-140.9078
 30
0.0
 10
347.8724
 20
-136.9078
 30
0.0
 10
347.8724
 20
-136.9078
 30
0.0
 10
347.8724
 20
-136.9078
 30
0.0
 10
347.8724
 20
-136.9078
 30
0.0
 10
375.3224
 20
-136.9078
 30
0.0
 10
375.3224
 20
-136.9078
 30
0.0
 10
375.3224
 20
-136.9078
 30
0.0
 10
375.3224
 20
-136.9078
 30
0.0
 10
375.3224
 20
-140.9078
 30
0.0
 10
375.3224
 20
-140.9078
 30
0.0
 10
375.3224
 20
-140.9078
 30
0.0
 10
375.3224
 20
-140.9078
 30
0.0
 10
395.4724
 20
-140.9078
 30
0.0
 10
395.4724
 20
-140.9078
 30
0.0
 10
395.4724
 20
-140.9078
 30
0.0
 10
395.4724
 20
-140.9078
 30
0.0
 10
395.4724
 20
-136.9078
 30
0.0
 10
395.4724
 20
-136.9078
 30
0.0
 10
395.4724
 20
-136.9078
 30
0.0
 10
395.4724
 20
-136.9078
 30
0.0
 10
405.4724
 20
-136.9078
 30
0.0
 10
405.4724
 20
-136.9078
 30
0.0
 10
405.4724
 20
-136.9078
 30
0.0
 10
405.4724
 20
-136.9078
 30
0.0
 10
405.4724
 20
-130.7577
 30
0.0
 10
405.4724
 20
-130.7577
 30
0.0
 10
405.4724
 20
-130.7577
 30
0.0
 10
405.4724
 20
-130.7577
 30
0.0
 10
401.4724
 20
-130.7577
 30
0.0
 10
401.4724
 20
-130.7577
 30
0.0
 10
401.4724
 20
-130.7577
 30
0.0
 10
401.4724
 20
-130.7577
 30
0.0
 10
401.4724
 20
-110.9078
 30
0.0
 10
401.4724
 20
-110.9078
 30
0.0
 10
401.4724
 20
-110.9078
 30
0.0
 10
401.4724
 20
-110.9078
 30
0.0
 10
405.4724
 20
-110.9078
 30
0.0
 10
405.4724
 20
-110.9078
 30
0.0
 10
405.4724
 20
-110.9078
 30
0.0
 10
405.4724
 20
-110.9078
 30
0.0
 10
405.4724
 20
-96.7577
 30
0.0
 10
405.4724
 20
-96.7577
 30
0.0
  0
SPLINE
  5
88
330
1F
100
AcDbEntity
  8
Layer 1
 62
     1
370
     9
100
AcDbSpline
210
0.0
220
0.0
230
1.0
 70
    11
 71
     3
 72
   132
 73
   128
 74
     0
 42
0.000000001
 43
0.0000000001
 40
0.0
 40
0.0
 40
0.0
 40
0.0
 40
0.0303030303030303
 40
0.0303030303030303
 40
0.0303030303030303
 40
0.0303030303030303
 40
0.0606060606060606
 40
0.0606060606060606
 40
0.0606060606060606
 40
0.0606060606060606
 40
0.0909090909090909
 40
0.0909090909090909
 40
0.0909090909090909
 40
0.0909090909090909
 40
0.1212121212121212
 40
0.1212121212121212
 40
0.1212121212121212
 40
0.1212121212121212
 40
0.1515151515151515
 40
0.1515151515151515
 40
0.1515151515151515
 40
0.1515151515151515
 40
0.1818181818181818
 40
0.1818181818181818
 40
0.1818181818181818
 40
0.1818181818181818
 40
0.2121212121212121
 40
0.2121212121212121
 40
0.2121212121212121
 40
0.2121212121212121
 40
0.2424242424242424
 40
0.2424242424242424
 40
0.2424242424242424
 40
0.2424242424242424
 40
0.2727272727272727
 40
0.2727272727272727
 40
0.2727272727272727
 40
0.2727272727272727
 40
0.303030303030303
 40
0.303030303030303
 40
0.303030303030303
 40
0.303030303030303
 40
0.3333333333333333
 40
0.3333333333333333
 40
0.3333333333333333
 40
0.3333333333333333
 40
0.3636363636363636
 40
0.3636363636363636
 40
0.3636363636363636
 40
0.3636363636363636
 40
0.3939393939393939
 40
0.3939393939393939
 40
0.3939393939393939
 40
0.3939393939393939
 40
0.4242424242424243
 40
0.4242424242424243
 40
0.4242424242424243
 40
0.4242424242424243
 40
0.4545454545454545
 40
0.4545454545454545
 40
0.4545454545454545
 40
0.4545454545454545
 40
0.4848484848484849
 40
0.4848484848484849
 40
0.4848484848484849
 40
0.4848484848484849
 40
0.5151515151515151
 40
0.5151515151515151
 40
0.5151515151515151
 40
0.5151515151515151
 40
0.5454545454545454
 40
0.5454545454545454
 40
0.5454545454545454
 40
0.5454545454545454
 40
0.5757575757575758
 40
0.5757575757575758
 40
0.5757575757575758
 40
0.5757575757575758
 40
0.6060606060606061
 40
0.6060606060606061
 40
0.6060606060606061
 40
0.6060606060606061
 40
0.6363636363636364
 40
0.6363636363636364
 40
0.6363636363636364
 40
0.6363636363636364
 40
0.6666666666666666
 40
0.6666666666666666
 40
0.6666666666666666
 40
0.6666666666666666
 40
0.696969696969697
 40
0.696969696969697
 40
0.696969696969697
 40
0.696969696969697
 40
0.7272727272727273
 40
0.7272727272727273
 40
0.7272727272727273
 40
0.7272727272727273
 40
0.7575757575757576
 40
0.7575757575757576
 40
0.7575757575757576
 40
0.7575757575757576
 40
0.7878787878787878
 40
0.7878787878787878
 40
0.7878787878787878
 40
0.7878787878787878
 40
0.8181818181818182
 40
0.8181818181818182
 40
0.8181818181818182
 40
0.8181818181818182
 40
0.8484848484848485
 40
0.8484848484848485
 40
0.8484848484848485
 40
0.8484848484848485
 40
0.8787878787878788
 40
0.8787878787878788
 40
0.8787878787878788
 40
0.8787878787878788
 40
0.9090909090909091
 40
0.9090909090909091
 40
0.9090909090909091
 40
0.9090909090909091
 40
0.9393939393939394
 40
0.9393939393939394
 40
0.9393939393939394
 40
0.9393939393939394
 40
1.0
 40
1.0
 40
1.0
 40
1.0
 10
-24.9486
 20
-182.224
 30
0.0
 10
-24.9486
 20
-182.224
 30
0.0
 10
-24.9486
 20
-178.2241
 30
0.0
 10
-24.9486
 20
-178.2241
 30
0.0
 10
-24.9486
 20
-178.2241
 30
0.0
 10
-24.9486
 20
-178.2241
 30
0.0
 10
-30.9486
 20
-178.2241
 30
0.0
 10
-30.9486
 20
-178.2241
 30
0.0
 10
-30.9486
 20
-178.2241
 30
0.0
 10
-30.9486
 20
-178.2241
 30
0.0
 10
-30.9486
 20
-130.074
 30
0.0
 10
-30.9486
 20
-130.074
 30
0.0
 10
-30.9486
 20
-130.074
 30
0.0
 10
-30.9486
 20
-130.074
 30
0.0
 10
-24.7986
 20
-130.074
 30
0.0
 10
-24.7986
 20
-130.074
 30
0.0
 10
-24.7986
 20
-130.074
 30
0.0
 10
-24.7986
 20
-130.074
 30
0.0
 10
-24.7986
 20
-134.074
 30
0.0
 10
-24.7986
 20
-134.074
 30
0.0
 10
-24.7986
 20
-134.074
 30
0.0
 10
-24.7986
 20
-134.074
 30
0.0
 10
-18.8886
 20
-134.074
 30
0.0
 10
-18.8886
 20
-134.074
 30
0.0
 10
-18.8886
 20
-134.074
 30
0.0
 10
-18.8886
 20
-134.074
 30
0.0
 10
-18.8886
 20
-167.649
 30
0.0
 10
-18.8886
 20
-167.649
 30
0.0
 10
-18.8886
 20
-167.649
 30
0.0
 10
-18.8886
 20
-168.4248
 30
0.0
 10
-18.5804
 20
-169.1687
 30
0.0
 10
-18.0319
 20
-169.7173
 30
0.0
 10
-18.0319
 20
-169.7173
 30
0.0
 10
-17.4833
 20
-170.2658
 30
0.0
 10
-16.7394
 20
-170.574
 30
0.0
 10
-15.9636
 20
-170.574
 30
0.0
 10
-15.9636
 20
-170.574
 30
0.0
 10
-15.9636
 20
-170.574
 30
0.0
 10
54.2164
 20
-170.574
 30
0.0
 10
54.2164
 20
-170.574
 30
0.0
 10
54.2164
 20
-170.574
 30
0.0
 10
54.9922
 20
-170.574
 30
0.0
 10
55.7361
 20
-170.2658
 30
0.0
 10
56.2847
 20
-169.7173
 30
0.0
 10
56.2847
 20
-169.7173
 30
0.0
 10
56.8332
 20
-169.1687
 30
0.0
 10
57.1414
 20
-168.4248
 30
0.0
 10
57.1414
 20
-167.649
 30
0.0
 10
57.1414
 20
-167.649
 30
0.0
 10
57.1414
 20
-167.649
 30
0.0
 10
57.1414
 20
-134.074
 30
0.0
 10
57.1414
 20
-134.074
 30
0.0
 10
57.1414
 20
-134.074
 30
0.0
 10
57.1414
 20
-134.074
 30
0.0
 10
63.0514
 20
-134.074
 30
0.0
 10
63.0514
 20
-134.074
 30
0.0
 10
63.0514
 20
-134.074
 30
0.0
 10
63.0514
 20
-134.074
 30
0.0
 10
63.0514
 20
-130.074
 30
0.0
 10
63.0514
 20
-130.074
 30
0.0
 10
63.0514
 20
-130.074
 30
0.0
 10
63.0514
 20
-130.074
 30
0.0
 10
69.2014
 20
-130.074
 30
0.0
 10
69.2014
 20
-130.074
 30
0.0
 10
69.2014
 20
-130.074
 30
0.0
 10
69.2014
 20
-130.074
 30
0.0
 10
69.2014
 20
-178.2241
 30
0.0
 10
69.2014
 20
-178.2241
 30
0.0
 10
69.2014
 20
-178.2241
 30
0.0
 10
69.2014
 20
-178.2241
 30
0.0
 10
63.2014
 20
-178.2241
 30
0.0
 10
63.2014
 20
-178.2241
 30
0.0
 10
63.2014
 20
-178.2241
 30
0.0
 10
63.2014
 20
-178.2241
 30
0.0
 10
63.2014
 20
-182.224
 30
0.0
 10
63.2014
 20
-182.224
 30
0.0
 10
63.2014
 20
-182.224
 30
0.0
 10
63.2014
 20
-182.224
 30
0.0
 10
43.0514
 20
-182.224
 30
0.0
 10
43.0514
 20
-182.224
 30
0.0
 10
43.0514
 20
-182.224
 30
0.0
 10
43.0514
 20
-182.224
 30
0.0
 10
43.0514
 20
-178.2241
 30
0.0
 10
43.0514
 20
-178.2241
 30
0.0
 10
43.0514
 20
-178.2241
 30
0.0
 10
43.0514
 20
-178.2241
 30
0.0
 10
29.2014
 20
-178.2241
 30
0.0
 10
29.2014
 20
-178.2241
 30
0.0
 10
29.2014
 20
-178.2241
 30
0.0
 10
29.2014
 20
-178.2241
 30
0.0
 10
29.2014
 20
-182.224
 30
0.0
 10
29.2014
 20
-182.224
 30
0.0
 10
29.2014
 20
-182.224
 30
0.0
 10
29.2014
 20
-182.224
 30
0.0
 10
21.0515
 20
-182.224
 30
0.0
 10
21.0515
 20
-182.224
 30
0.0
 10
21.0515
 20
-182.224
 30
0.0
 10
21.0515
 20
-182.224
 30
0.0
 10
21.0515
 20
-173.2241
 30
0.0
 10
21.0515
 20
-173.2241
 30
0.0
 10
21.0515
 20
-173.2241
 30
0.0
 10
21.0515
 20
-173.2241
 30
0.0
 10
17.2015
 20
-173.2241
 30
0.0
 10
17.2015
 20
-173.2241
 30
0.0
 10
17.2015
 20
-173.2241
 30
0.0
 10
17.2015
 20
-173.2241
 30
0.0
 10
17.2015
 20
-182.224
 30
0.0
 10
17.2015
 20
-182.224
 30
0.0
 10
17.2015
 20
-182.224
 30
0.0
 10
17.2015
 20
-182.224
 30
0.0
 10
9.0514
 20
-182.224
 30
0.0
 10
9.0514
 20
-182.224
 30
0.0
 10
9.0514
 20
-182.224
 30
0.0
 10
9.0514
 20
-182.224
 30
0.0
 10
9.0514
 20
-178.2241
 30
0.0
 10
9.0514
 20
-178.2241
 30
0.0
 10
9.0514
 20
-178.2241
 30
0.0
 10
9.0514
 20
-178.2241
 30
0.0
 10
-4.7986
 20
-178.2241
 30
0.0
 10
-4.7986
 20
-178.2241
 30
0.0
 10
-4.7986
 20
-178.2241
 30
0.0
 10
-4.7986
 20
-178.2241
 30
0.0
 10
-4.7986
 20
-182.224
 30
0.0
 10
-4.7986
 20
-182.224
 30
0.0
 10
-4.7986
 20
-182.224
 30
0.0
 10
-4.7986
 20
-182.224
 30
0.0
 10
-24.9486
 20
-182.224
 30
0.0
 10
-24.9486
 20
-182.224
 30
0.0
  0
SPLINE
  5
89
330
1F
100
AcDbEntity
  8
Layer 1
 62
     1
370
     9
100
AcDbSpline
210
0.0
220
0.0
230
1.0
 70
    11
 71
     3
 72
   132
 73
   128
 74
     0
 42
0.000000001
 43
0.0000000001
 40
0.0
 40
0.0
 40
0.0
 40
0.0
 40
0.0303030303030303
 40
0.0303030303030303
 40
0.0303030303030303
 40
0.0303030303030303
 40
0.0606060606060606
 40
0.0606060606060606
 40
0.0606060606060606
 40
0.0606060606060606
 40
0.0909090909090909
 40
0.0909090909090909
 40
0.0909090909090909
 40
0.0909090909090909
 40
0.1212121212121212
 40
0.1212121212121212
 40
0.1212121212121212
 40
0.1212121212121212
 40
0.1515151515151515
 40
0.1515151515151515
 40
0.1515151515151515
 40
0.1515151515151515
 40
0.1818181818181818
 40
0.1818181818181818
 40
0.1818181818181818
 40
0.1818181818181818
 40
0.2121212121212121
 40
0.2121212121212121
 40
0.2121212121212121
 40
0.2121212121212121
 40
0.2424242424242424
 40
0.2424242424242424
 40
0.2424242424242424
 40
0.2424242424242424
 40
0.2727272727272727
 40
0.2727272727272727
 40
0.2727272727272727
 40
0.2727272727272727
 40
0.303030303030303
 40
0.303030303030303
 40
0.303030303030303
 40
0.303030303030303
 40
0.3333333333333333
 40
0.3333333333333333
 40
0.3333333333333333
 40
0.3333333333333333
 40
0.3636363636363636
 40
0.3636363636363636
 40
0.3636363636363636
 40
0.3636363636363636
 40
0.3939393939393939
 40
0.3939393939393939
 40
0.3939393939393939
 40
0.3939393939393939
 40
0.4242424242424243
 40
0.4242424242424243
 40
0.4242424242424243
 40
0.4242424242424243
 40
0.4545454545454545
 40
0.4545454545454545
 40
0.4545454545454545
 40
0.4545454545454545
 40
0.4848484848484849
 40
0.4848484848484849
 40
0.4848484848484849
 40
0.4848484848484849
 40
0.5151515151515151
 40
0.5151515151515151
 40
0.5151515151515151
 40
0.5151515151515151
 40
0.5454545454545454
 40
0.5454545454545454
 40
0.5454545454545454
 40
0.5454545454545454
 40
0.5757575757575758
 40
0.5757575757575758
 40
0.5757575757575758
 40
0.5757575757575758
 40
0.6060606060606061
 40
0.6060606060606061
 40
0.6060606060606061
 40
0.6060606060606061
 40
0.6363636363636364
 40
0.6363636363636364
 40
0.6363636363636364
 40
0.6363636363636364
 40
0.6666666666666666
 40
0.6666666666666666
 40
0.6666666666666666
 40
0.6666666666666666
 40
0.696969696969697
 40
0.696969696969697
 40
0.696969696969697
 40
0.696969696969697
 40
0.7272727272727273
 40
0.7272727272727273
 40
0.7272727272727273
 40
0.7272727272727273
 40
0.7575757575757576
 40
0.7575757575757576
 40
0.7575757575757576
 40
0.7575757575757576
 40
0.7878787878787878
 40
0.7878787878787878
 40
0.7878787878787878
 40
0.7878787878787878
 40
0.8181818181818182
 40
0.8181818181818182
 40
0.8181818181818182
 40
0.8181818181818182
 40
0.8484848484848485
 40
0.8484848484848485
 40
0.8484848484848485
 40
0.8484848484848485
 40
0.8787878787878788
 40
0.8787878787878788
 40
0.8787878787878788
 40
0.8787878787878788
 40
0.9090909090909091
 40
0.9090909090909091
 40
0.9090909090909091
 40
0.9090909090909091
 40
0.9393939393939394
 40
0.9393939393939394
 40
0.9393939393939394
 40
0.9393939393939394
 40
1.0
 40
1.0
 40
1.0
 40
1.0
 10
280.5722
 20
20.3808
 30
0.0
 10
280.5722
 20
20.3808
 30
0.0
 10
260.4222
 20
20.3808
 30
0.0
 10
260.4222
 20
20.3808
 30
0.0
 10
260.4222
 20
20.3808
 30
0.0
 10
260.4222
 20
20.3808
 30
0.0
 10
260.4222
 20
16.3808
 30
0.0
 10
260.4222
 20
16.3808
 30
0.0
 10
260.4222
 20
16.3808
 30
0.0
 10
260.4222
 20
16.3808
 30
0.0
 10
254.4222
 20
16.3808
 30
0.0
 10
254.4222
 20
16.3808
 30
0.0
 10
254.4222
 20
16.3808
 30
0.0
 10
254.4222
 20
16.3808
 30
0.0
 10
254.4222
 20
-31.7692
 30
0.0
 10
254.4222
 20
-31.7692
 30
0.0
 10
254.4222
 20
-31.7692
 30
0.0
 10
254.4222
 20
-31.7692
 30
0.0
 10
260.5722
 20
-31.7692
 30
0.0
 10
260.5722
 20
-31.7692
 30
0.0
 10
260.5722
 20
-31.7692
 30
0.0
 10
260.5722
 20
-31.7692
 30
0.0
 10
260.5722
 20
-27.7692
 30
0.0
 10
260.5722
 20
-27.7692
 30
0.0
 10
260.5722
 20
-27.7692
 30
0.0
 10
260.5722
 20
-27.7692
 30
0.0
 10
286.3046
 20
-27.7692
 30
0.0
 10
286.3046
 20
-27.7692
 30
0.0
 10
286.3046
 20
-27.7692
 30
0.0
 10
286.3046
 20
-27.7692
 30
0.0
 10
286.3046
 20
-14.6942
 30
0.0
 10
286.3046
 20
-14.6942
 30
0.0
 10
286.3046
 20
-14.6942
 30
0.0
 10
286.3046
 20
-13.9184
 30
0.0
 10
286.6128
 20
-13.1745
 30
0.0
 10
287.1613
 20
-12.6259
 30
0.0
 10
287.1613
 20
-12.6259
 30
0.0
 10
287.7099
 20
-12.0774
 30
0.0
 10
288.4539
 20
-11.7692
 30
0.0
 10
289.2296
 20
-11.7692
 30
0.0
 10
289.2296
 20
-11.7692
 30
0.0
 10
289.2296
 20
-11.7692
 30
0.0
 10
319.7649
 20
-11.7692
 30
0.0
 10
319.7649
 20
-11.7692
 30
0.0
 10
319.7649
 20
-11.7692
 30
0.0
 10
320.5405
 20
-11.7692
 30
0.0
 10
321.2845
 20
-12.0774
 30
0.0
 10
321.8331
 20
-12.6259
 30
0.0
 10
321.8331
 20
-12.6259
 30
0.0
 10
322.3816
 20
-13.1745
 30
0.0
 10
322.6898
 20
-13.9184
 30
0.0
 10
322.6898
 20
-14.6942
 30
0.0
 10
322.6898
 20
-14.6942
 30
0.0
 10
322.6898
 20
-14.6942
 30
0.0
 10
322.6898
 20
-27.7692
 30
0.0
 10
322.6898
 20
-27.7692
 30
0.0
 10
322.6898
 20
-27.7692
 30
0.0
 10
322.6898
 20
-27.7692
 30
0.0
 10
348.4223
 20
-27.7692
 30
0.0
 10
348.4223
 20
-27.7692
 30
0.0
 10
348.4223
 20
-27.7692
 30
0.0
 10
348.4223
 20
-27.7692
 30
0.0
 10
348.4223
 20
-31.7692
 30
0.0
 10
348.4223
 20
-31.7692
 30
0.0
 10
348.4223
 20
-31.7692
 30
0.0
 10
348.4223
 20
-31.7692
 30
0.0
 10
354.5723
 20
-31.7692
 30
0.0
 10
354.5723
 20
-31.7692
 30
0.0
 10
354.5723
 20
-31.7692
 30
0.0
 10
354.5723
 20
-31.7692
 30
0.0
 10
354.5723
 20
16.3808
 30
0.0
 10
354.5723
 20
16.3808
 30
0.0
 10
354.5723
 20
16.3808
 30
0.0
 10
354.5723
 20
16.3808
 30
0.0
 10
348.5723
 20
16.3808
 30
0.0
 10
348.5723
 20
16.3808
 30
0.0
 10
348.5723
 20
16.3808
 30
0.0
 10
348.5723
 20
16.3808
 30
0.0
 10
348.5723
 20
20.3808
 30
0.0
 10
348.5723
 20
20.3808
 30
0.0
 10
348.5723
 20
20.3808
 30
0.0
 10
348.5723
 20
20.3808
 30
0.0
 10
328.4222
 20
20.3808
 30
0.0
 10
328.4222
 20
20.3808
 30
0.0
 10
328.4222
 20
20.3808
 30
0.0
 10
328.4222
 20
20.3808
 30
0.0
 10
328.4222
 20
16.3808
 30
0.0
 10
328.4222
 20
16.3808
 30
0.0
 10
328.4222
 20
16.3808
 30
0.0
 10
328.4222
 20
16.3808
 30
0.0
 10
314.5722
 20
16.3808
 30
0.0
 10
314.5722
 20
16.3808
 30
0.0
 10
314.5722
 20
16.3808
 30
0.0
 10
314.5722
 20
16.3808
 30
0.0
 10
314.5722
 20
20.3808
 30
0.0
 10
314.5722
 20
20.3808
 30
0.0
 10
314.5722
 20
20.3808
 30
0.0
 10
314.5722
 20
20.3808
 30
0.0
 10
306.4223
 20
20.3808
 30
0.0
 10
306.4223
 20
20.3808
 30
0.0
 10
306.4223
 20
20.3808
 30
0.0
 10
306.4223
 20
20.3808
 30
0.0
 10
306.4223
 20
11.3808
 30
0.0
 10
306.4223
 20
11.3808
 30
0.0
 10
306.4223
 20
11.3808
 30
0.0
 10
306.4223
 20
11.3808
 30
0.0
 10
302.5724
 20
11.3808
 30
0.0
 10
302.5724
 20
11.3808
 30
0.0
 10
302.5724
 20
11.3808
 30
0.0
 10
302.5724
 20
11.3808
 30
0.0
 10
302.5724
 20
20.3808
 30
0.0
 10
302.5724
 20
20.3808
 30
0.0
 10
302.5724
 20
20.3808
 30
0.0
 10
302.5724
 20
20.3808
 30
0.0
 10
294.4222
 20
20.3808
 30
0.0
 10
294.4222
 20
20.3808
 30
0.0
 10
294.4222
 20
20.3808
 30
0.0
 10
294.4222
 20
20.3808
 30
0.0
 10
294.4222
 20
16.3808
 30
0.0
 10
294.4222
 20
16.3808
 30
0.0
 10
294.4222
 20
16.3808
 30
0.0
 10
294.4222
 20
16.3808
 30
0.0
 10
280.5722
 20
16.3808
 30
0.0
 10
280.5722
 20
16.3808
 30
0.0
 10
280.5722
 20
16.3808
 30
0.0
 10
280.5722
 20
16.3808
 30
0.0
 10
280.5722
 20
20.3808
 30
0.0
 10
280.5722
 20
20.3808
 30
0.0
  0
SPLINE
  5
8A
330
1F
100
AcDbEntity
  8
Layer 1
 62
     1
370
     9
100
AcDbSpline
210
0.0
220
0.0
230
1.0
 70
    11
 71
     3
 72
    88
 73
    84
 74
     0
 42
0.000000001
 43
0.0000000001
 40
0.0
 40
0.0
 40
0.0
 40
0.0
 40
0.0454545454545455
 40
0.0454545454545455
 40
0.0454545454545455
 40
0.0454545454545455
 40
0.0909090909090909
 40
0.0909090909090909
 40
0.0909090909090909
 40
0.0909090909090909
 40
0.1363636363636364
 40
0.1363636363636364
 40
0.1363636363636364
 40
0.1363636363636364
 40
0.1818181818181818
 40
0.1818181818181818
 40
0.1818181818181818
 40
0.1818181818181818
 40
0.2272727272727273
 40
0.2272727272727273
 40
0.2272727272727273
 40
0.2272727272727273
 40
0.2727272727272727
 40
0.2727272727272727
 40
0.2727272727272727
 40
0.2727272727272727
 40
0.3181818181818182
 40
0.3181818181818182
 40
0.3181818181818182
 40
0.3181818181818182
 40
0.3636363636363636
 40
0.3636363636363636
 40
0.3636363636363636
 40
0.3636363636363636
 40
0.4090909090909091
 40
0.4090909090909091
 40
0.4090909090909091
 40
0.4090909090909091
 40
0.4545454545454545
 40
0.4545454545454545
 40
0.4545454545454545
 40
0.4545454545454545
 40
0.5
 40
0.5
 40
0.5
 40
0.5
 40
0.5454545454545454
 40
0.5454545454545454
 40
0.5454545454545454
 40
0.5454545454545454
 40
0.5909090909090909
 40
0.5909090909090909
 40
0.5909090909090909
 40
0.5909090909090909
 40
0.6363636363636364
 40
0.6363636363636364
 40
0.6363636363636364
 40
0.6363636363636364
 40
0.6818181818181818
 40
0.6818181818181818
 40
0.6818181818181818
 40
0.6818181818181818
 40
0.7272727272727273
 40
0.7272727272727273
 40
0.7272727272727273
 40
0.7272727272727273
 40
0.7727272727272727
 40
0.7727272727272727
 40
0.7727272727272727
 40
0.7727272727272727
 40
0.8181818181818182
 40
0.8181818181818182
 40
0.8181818181818182
 40
0.8181818181818182
 40
0.8636363636363636
 40
0.8636363636363636
 40
0.8636363636363636
 40
0.8636363636363636
 40
0.9090909090909091
 40
0.9090909090909091
 40
0.9090909090909091
 40
0.9090909090909091
 40
1.0
 40
1.0
 40
1.0
 40
1.0
 10
-361.2358
 20
6.079
 30
0.0
 10
-355.8648
 20
6.079
 30
0.0
 10
-351.4683
 20
1.8064
 30
0.0
 10
-351.3149
 20
-3.5624
 30
0.0
 10
-351.3149
 20
-3.5624
 30
0.0
 10
-350.9272
 20
-17.1264
 30
0.0
 10
-339.8196
 20
-27.921
 30
0.0
 10
-326.2501
 20
-27.921
 30
0.0
 10
-326.2501
 20
-27.921
 30
0.0
 10
-326.2501
 20
-27.921
 30
0.0
 10
-269.1608
 20
-27.921
 30
0.0
 10
-269.1608
 20
-27.921
 30
0.0
 10
-269.1608
 20
-27.921
 30
0.0
 10
-269.1608
 20
-27.921
 30
0.0
 10
-269.1608
 20
-19.921
 30
0.0
 10
-269.1608
 20
-19.921
 30
0.0
 10
-269.1608
 20
-19.921
 30
0.0
 10
-269.1608
 20
-19.921
 30
0.0
 10
-265.1608
 20
-19.921
 30
0.0
 10
-265.1608
 20
-19.921
 30
0.0
 10
-265.1608
 20
-19.921
 30
0.0
 10
-265.1608
 20
-19.921
 30
0.0
 10
-265.1608
 20
0.229
 30
0.0
 10
-265.1608
 20
0.229
 30
0.0
 10
-265.1608
 20
0.229
 30
0.0
 10
-265.1608
 20
0.229
 30
0.0
 10
-269.1608
 20
0.229
 30
0.0
 10
-269.1608
 20
0.229
 30
0.0
 10
-269.1608
 20
0.229
 30
0.0
 10
-269.1608
 20
0.229
 30
0.0
 10
-269.1608
 20
6.079
 30
0.0
 10
-269.1608
 20
6.079
 30
0.0
 10
-269.1608
 20
6.079
 30
0.0
 10
-269.1608
 20
6.079
 30
0.0
 10
-265.1608
 20
6.079
 30
0.0
 10
-265.1608
 20
6.079
 30
0.0
 10
-265.1608
 20
6.079
 30
0.0
 10
-265.1608
 20
6.079
 30
0.0
 10
-265.1608
 20
10.229
 30
0.0
 10
-265.1608
 20
10.229
 30
0.0
 10
-265.1608
 20
10.229
 30
0.0
 10
-265.1608
 20
10.229
 30
0.0
 10
-285.3108
 20
10.229
 30
0.0
 10
-285.3108
 20
10.229
 30
0.0
 10
-285.3108
 20
10.229
 30
0.0
 10
-285.3108
 20
10.229
 30
0.0
 10
-285.3108
 20
6.229
 30
0.0
 10
-285.3108
 20
6.229
 30
0.0
 10
-285.3108
 20
6.229
 30
0.0
 10
-285.3108
 20
6.229
 30
0.0
 10
-305.1608
 20
6.229
 30
0.0
 10
-305.1608
 20
6.229
 30
0.0
 10
-305.1608
 20
6.229
 30
0.0
 10
-305.1608
 20
6.229
 30
0.0
 10
-305.1608
 20
10.229
 30
0.0
 10
-305.1608
 20
10.229
 30
0.0
 10
-305.1608
 20
10.229
 30
0.0
 10
-305.1608
 20
10.229
 30
0.0
 10
-325.3108
 20
10.229
 30
0.0
 10
-325.3108
 20
10.229
 30
0.0
 10
-325.3108
 20
10.229
 30
0.0
 10
-325.3108
 20
10.229
 30
0.0
 10
-325.3108
 20
6.229
 30
0.0
 10
-325.3108
 20
6.229
 30
0.0
 10
-325.3108
 20
6.229
 30
0.0
 10
-325.3108
 20
6.229
 30
0.0
 10
-345.1608
 20
6.229
 30
0.0
 10
-345.1608
 20
6.229
 30
0.0
 10
-345.1608
 20
6.229
 30
0.0
 10
-345.1608
 20
6.229
 30
0.0
 10
-345.1608
 20
10.229
 30
0.0
 10
-345.1608
 20
10.229
 30
0.0
 10
-345.1608
 20
10.229
 30
0.0
 10
-345.1608
 20
10.229
 30
0.0
 10
-365.3108
 20
10.229
 30
0.0
 10
-365.3108
 20
10.229
 30
0.0
 10
-365.3108
 20
10.229
 30
0.0
 10
-365.3108
 20
10.229
 30
0.0
 10
-365.3108
 20
6.079
 30
0.0
 10
-365.3108
 20
6.079
 30
0.0
 10
-365.3108
 20
6.079
 30
0.0
 10
-365.3108
 20
6.079
 30
0.0
 10
-361.2358
 20
6.079
 30
0.0
 10
-361.2358
 20
6.079
 30
0.0
  0
SPLINE
  5
8B
330
1F
100
AcDbEntity
  8
Layer 1
 62
     1
370
     9
100
AcDbSpline
210
0.0
220
0.0
230
1.0
 70
    11
 71
     3
 72
    20
 73
    16
 74
     0
 42
0.000000001
 43
0.0000000001
 40
0.0
 40
0.0
 40
0.0
 40
0.0
 40
0.2
 40
0.2
 40
0.2
 40
0.2
 40
0.4
 40
0.4
 40
0.4
 40
0.4
 40
0.6
 40
0.6
 40
0.6
 40
0.6
 40
1.0
 40
1.0
 40
1.0
 40
1.0
 10
174.9206
 20
139.1029
 30
0.0
 10
173.3999
 20
139.1029
 30
0.0
 10
172.1672
 20
137.8702
 30
0.0
 10
172.1672
 20
136.3495
 30
0.0
 10
172.1672
 20
136.3495
 30
0.0
 10
172.1672
 20
134.8288
 30
0.0
 10
173.3999
 20
133.5961
 30
0.0
 10
174.9206
 20
133.5961
 30
0.0
 10
174.9206
 20
133.5961
 30
0.0
 10
176.4413
 20
133.5961
 30
0.0
 10
177.674
 20
134.8288
 30
0.0
 10
177.674
 20
136.3495
 30
0.0
 10
177.674
 20
136.3495
 30
0.0
 10
177.674
 20
137.8702
 30
0.0
 10
176.4413
 20
139.1029
 30
0.0
 10
174.9206
 20
139.1029
 30
0.0
  0
SPLINE
  5
8C
330
1F
100
AcDbEntity
  8
Layer 1
 62
     1
370
     9
100
AcDbSpline
210
0.0
220
0.0
230
1.0
 70
    11
 71
     3
 72
    20
 73
    16
 74
     0
 42
0.000000001
 43
0.0000000001
 40
0.0
 40
0.0
 40
0.0
 40
0.0
 40
0.2
 40
0.2
 40
0.2
 40
0.2
 40
0.4
 40
0.4
 40
0.4
 40
0.4
 40
0.6
 40
0.6
 40
0.6
 40
0.6
 40
1.0
 40
1.0
 40
1.0
 40
1.0
 10
179.9956
 20
134.2745
 30
0.0
 10
179.9956
 20
134.2745
 30
0.0
 10
187.8456
 20
134.2745
 30
0.0
 10
187.8456
 20
134.2745
 30
0.0
 10
187.8456
 20
134.2745
 30
0.0
 10
187.8456
 20
134.2745
 30
0.0
 10
187.8456
 20
130.4245
 30
0.0
 10
187.8456
 20
130.4245
 30
0.0
 10
187.8456
 20
130.4245
 30
0.0
 10
187.8456
 20
130.4245
 30
0.0
 10
179.9956
 20
130.4245
 30
0.0
 10
179.9956
 20
130.4245
 30
0.0
 10
179.9956
 20
130.4245
 30
0.0
 10
179.9956
 20
130.4245
 30
0.0
 10
179.9956
 20
134.2745
 30
0.0
 10
179.9956
 20
134.2745
 30
0.0
  0
SPLINE
  5
8D
330
1F
100
AcDbEntity
  8
Layer 1
 62
     1
370
     9
100
AcDbSpline
210
0.0
220
0.0
230
1.0
 70
    11
 71
     3
 72
   156
 73
   152
 74
     0
 42
0.000000001
 43
0.0000000001
 40
0.0
 40
0.0
 40
0.0
 40
0.0
 40
0.0256410256410256
 40
0.0256410256410256
 40
0.0256410256410256
 40
0.0256410256410256
 40
0.0512820512820513
 40
0.0512820512820513
 40
0.0512820512820513
 40
0.0512820512820513
 40
0.0769230769230769
 40
0.0769230769230769
 40
0.0769230769230769
 40
0.0769230769230769
 40
0.1025641025641026
 40
0.1025641025641026
 40
0.1025641025641026
 40
0.1025641025641026
 40
0.1282051282051282
 40
0.1282051282051282
 40
0.1282051282051282
 40
0.1282051282051282
 40
0.1538461538461539
 40
0.1538461538461539
 40
0.1538461538461539
 40
0.1538461538461539
 40
0.1794871794871795
 40
0.1794871794871795
 40
0.1794871794871795
 40
0.1794871794871795
 40
0.2051282051282051
 40
0.2051282051282051
 40
0.2051282051282051
 40
0.2051282051282051
 40
0.2307692307692308
 40
0.2307692307692308
 40
0.2307692307692308
 40
0.2307692307692308
 40
0.2564102564102564
 40
0.2564102564102564
 40
0.2564102564102564
 40
0.2564102564102564
 40
0.282051282051282
 40
0.282051282051282
 40
0.282051282051282
 40
0.282051282051282
 40
0.3076923076923077
 40
0.3076923076923077
 40
0.3076923076923077
 40
0.3076923076923077
 40
0.3333333333333333
 40
0.3333333333333333
 40
0.3333333333333333
 40
0.3333333333333333
 40
0.358974358974359
 40
0.358974358974359
 40
0.358974358974359
 40
0.358974358974359
 40
0.3846153846153846
 40
0.3846153846153846
 40
0.3846153846153846
 40
0.3846153846153846
 40
0.4102564102564102
 40
0.4102564102564102
 40
0.4102564102564102
 40
0.4102564102564102
 40
0.4358974358974359
 40
0.4358974358974359
 40
0.4358974358974359
 40
0.4358974358974359
 40
0.4615384615384616
 40
0.4615384615384616
 40
0.4615384615384616
 40
0.4615384615384616
 40
0.4871794871794872
 40
0.4871794871794872
 40
0.4871794871794872
 40
0.4871794871794872
 40
0.5128205128205128
 40
0.5128205128205128
 40
0.5128205128205128
 40
0.5128205128205128
 40
0.5384615384615384
 40
0.5384615384615384
 40
0.5384615384615384
 40
0.5384615384615384
 40
0.5641025641025641
 40
0.5641025641025641
 40
0.5641025641025641
 40
0.5641025641025641
 40
0.5897435897435898
 40
0.5897435897435898
 40
0.5897435897435898
 40
0.5897435897435898
 40
0.6153846153846154
 40
0.6153846153846154
 40
0.6153846153846154
 40
0.6153846153846154
 40
0.6410256410256411
 40
0.6410256410256411
 40
0.6410256410256411
 40
0.6410256410256411
 40
0.6666666666666666
 40
0.6666666666666666
 40
0.6666666666666666
 40
0.6666666666666666
 40
0.6923076923076923
 40
0.6923076923076923
 40
0.6923076923076923
 40
0.6923076923076923
 40
0.717948717948718
 40
0.717948717948718
 40
0.717948717948718
 40
0.717948717948718
 40
0.7435897435897436
 40
0.7435897435897436
 40
0.7435897435897436
 40
0.7435897435897436
 40
0.7692307692307693
 40
0.7692307692307693
 40
0.7692307692307693
 40
0.7692307692307693
 40
0.7948717948717948
 40
0.7948717948717948
 40
0.7948717948717948
 40
0.7948717948717948
 40
0.8205128205128205
 40
0.8205128205128205
 40
0.8205128205128205
 40
0.8205128205128205
 40
0.8461538461538461
 40
0.8461538461538461
 40
0.8461538461538461
 40
0.8461538461538461
 40
0.8717948717948718
 40
0.8717948717948718
 40
0.8717948717948718
 40
0.8717948717948718
 40
0.8974358974358975
 40
0.8974358974358975
 40
0.8974358974358975
 40
0.8974358974358975
 40
0.9230769230769231
 40
0.9230769230769231
 40
0.9230769230769231
 40
0.9230769230769231
 40
0.9487179487179487
 40
0.9487179487179487
 40
0.9487179487179487
 40
0.9487179487179487
 40
1.0
 40
1.0
 40
1.0
 40
1.0
 10
266.9956
 20
30.2745
 30
0.0
 10
266.9956
 20
30.2745
 30
0.0
 10
272.9956
 20
30.2745
 30
0.0
 10
272.9956
 20
30.2745
 30
0.0
 10
272.9956
 20
30.2745
 30
0.0
 10
272.9956
 20
30.2745
 30
0.0
 10
272.9956
 20
36.2745
 30
0.0
 10
272.9956
 20
36.2745
 30
0.0
 10
272.9956
 20
36.2745
 30
0.0
 10
272.9956
 20
36.2745
 30
0.0
 10
276.9956
 20
36.2745
 30
0.0
 10
276.9956
 20
36.2745
 30
0.0
 10
276.9956
 20
36.2745
 30
0.0
 10
276.9956
 20
36.2745
 30
0.0
 10
276.9956
 20
56.4245
 30
0.0
 10
276.9956
 20
56.4245
 30
0.0
 10
276.9956
 20
56.4245
 30
0.0
 10
276.9956
 20
56.4245
 30
0.0
 10
272.9956
 20
56.4245
 30
0.0
 10
272.9956
 20
56.4245
 30
0.0
 10
272.9956
 20
56.4245
 30
0.0
 10
272.9956
 20
56.4245
 30
0.0
 10
272.9956
 20
70.2745
 30
0.0
 10
272.9956
 20
70.2745
 30
0.0
 10
272.9956
 20
70.2745
 30
0.0
 10
272.9956
 20
70.2745
 30
0.0
 10
276.9956
 20
70.2745
 30
0.0
 10
276.9956
 20
70.2745
 30
0.0
 10
276.9956
 20
70.2745
 30
0.0
 10
276.9956
 20
70.2745
 30
0.0
 10
276.9956
 20
90.4245
 30
0.0
 10
276.9956
 20
90.4245
 30
0.0
 10
276.9956
 20
90.4245
 30
0.0
 10
276.9956
 20
90.4245
 30
0.0
 10
272.9956
 20
90.4245
 30
0.0
 10
272.9956
 20
90.4245
 30
0.0
 10
272.9956
 20
90.4245
 30
0.0
 10
272.9956
 20
90.4245
 30
0.0
 10
272.9956
 20
104.2745
 30
0.0
 10
272.9956
 20
104.2745
 30
0.0
 10
272.9956
 20
104.2745
 30
0.0
 10
272.9956
 20
104.2745
 30
0.0
 10
276.9956
 20
104.2745
 30
0.0
 10
276.9956
 20
104.2745
 30
0.0
 10
276.9956
 20
104.2745
 30
0.0
 10
276.9956
 20
104.2745
 30
0.0
 10
276.9956
 20
124.4245
 30
0.0
 10
276.9956
 20
124.4245
 30
0.0
 10
276.9956
 20
124.4245
 30
0.0
 10
276.9956
 20
124.4245
 30
0.0
 10
272.9956
 20
124.4245
 30
0.0
 10
272.9956
 20
124.4245
 30
0.0
 10
272.9956
 20
124.4245
 30
0.0
 10
272.9956
 20
124.4245
 30
0.0
 10
272.9956
 20
130.4245
 30
0.0
 10
272.9956
 20
130.4245
 30
0.0
 10
272.9956
 20
130.4245
 30
0.0
 10
272.9956
 20
130.4245
 30
0.0
 10
266.9956
 20
130.4245
 30
0.0
 10
266.9956
 20
130.4245
 30
0.0
 10
266.9956
 20
130.4245
 30
0.0
 10
266.9956
 20
130.4245
 30
0.0
 10
266.9956
 20
134.4245
 30
0.0
 10
266.9956
 20
134.4245
 30
0.0
 10
266.9956
 20
134.4245
 30
0.0
 10
266.9956
 20
134.4245
 30
0.0
 10
246.8456
 20
134.4245
 30
0.0
 10
246.8456
 20
134.4245
 30
0.0
 10
246.8456
 20
134.4245
 30
0.0
 10
246.8456
 20
134.4245
 30
0.0
 10
246.8456
 20
130.4245
 30
0.0
 10
246.8456
 20
130.4245
 30
0.0
 10
246.8456
 20
130.4245
 30
0.0
 10
246.8456
 20
130.4245
 30
0.0
 10
202.9956
 20
130.4245
 30
0.0
 10
202.9956
 20
130.4245
 30
0.0
 10
202.9956
 20
130.4245
 30
0.0
 10
202.9956
 20
130.4245
 30
0.0
 10
202.9956
 20
134.4122
 30
0.0
 10
202.9956
 20
134.4122
 30
0.0
 10
202.9956
 20
134.4122
 30
0.0
 10
200.5147
 20
134.8491
 30
0.0
 10
198.2927
 20
136.213
 30
0.0
 10
196.7801
 20
138.2274
 30
0.0
 10
196.7801
 20
138.2274
 30
0.0
 10
194.8771
 20
140.7617
 30
0.0
 10
191.8927
 20
142.2529
 30
0.0
 10
188.7235
 20
142.2529
 30
0.0
 10
188.7235
 20
142.2529
 30
0.0
 10
188.7235
 20
142.2529
 30
0.0
 10
174.9206
 20
142.2529
 30
0.0
 10
174.9206
 20
142.2529
 30
0.0
 10
174.9206
 20
142.2529
 30
0.0
 10
172.444
 20
142.2529
 30
0.0
 10
170.2307
 20
140.7071
 30
0.0
 10
169.3781
 20
138.3818
 30
0.0
 10
169.3781
 20
138.3818
 30
0.0
 10
168.5254
 20
136.0566
 30
0.0
 10
169.2148
 20
133.4464
 30
0.0
 10
171.1044
 20
131.8454
 30
0.0
 10
171.1044
 20
131.8454
 30
0.0
 10
172.1598
 20
130.9512
 30
0.0
 10
172.7905
 20
129.6543
 30
0.0
 10
172.8422
 20
128.2719
 30
0.0
 10
172.8422
 20
128.2719
 30
0.0
 10
172.8839
 20
127.1569
 30
0.0
 10
173.7999
 20
126.2745
 30
0.0
 10
174.9157
 20
126.2745
 30
0.0
 10
174.9157
 20
126.2745
 30
0.0
 10
174.9157
 20
126.2745
 30
0.0
 10
176.8456
 20
126.2745
 30
0.0
 10
176.8456
 20
126.2745
 30
0.0
 10
176.8456
 20
126.2745
 30
0.0
 10
176.8456
 20
126.2745
 30
0.0
 10
176.8456
 20
122.3495
 30
0.0
 10
176.8456
 20
122.3495
 30
0.0
 10
176.8456
 20
122.3495
 30
0.0
 10
176.8456
 20
116.8973
 30
0.0
 10
181.1828
 20
112.4344
 30
0.0
 10
186.6329
 20
112.2786
 30
0.0
 10
186.6329
 20
112.2786
 30
0.0
 10
200.1156
 20
111.8932
 30
0.0
 10
210.8456
 20
100.8521
 30
0.0
 10
210.8456
 20
87.3638
 30
0.0
 10
210.8456
 20
87.3638
 30
0.0
 10
210.8456
 20
87.3638
 30
0.0
 10
210.8456
 20
26.2745
 30
0.0
 10
210.8456
 20
26.2745
 30
0.0
 10
210.8456
 20
26.2745
 30
0.0
 10
210.8456
 20
26.2745
 30
0.0
 10
220.9956
 20
26.2745
 30
0.0
 10
220.9956
 20
26.2745
 30
0.0
 10
220.9956
 20
26.2745
 30
0.0
 10
220.9956
 20
26.2745
 30
0.0
 10
220.9956
 20
30.2745
 30
0.0
 10
220.9956
 20
30.2745
 30
0.0
 10
220.9956
 20
30.2745
 30
0.0
 10
220.9956
 20
30.2745
 30
0.0
 10
246.8456
 20
30.2745
 30
0.0
 10
246.8456
 20
30.2745
 30
0.0
 10
246.8456
 20
30.2745
 30
0.0
 10
246.8456
 20
30.2745
 30
0.0
 10
246.8456
 20
26.2745
 30
0.0
 10
246.8456
 20
26.2745
 30
0.0
 10
246.8456
 20
26.2745
 30
0.0
 10
246.8456
 20
26.2745
 30
0.0
 10
266.9956
 20
26.2745
 30
0.0
 10
266.9956
 20
26.2745
 30
0.0
 10
266.9956
 20
26.2745
 30
0.0
 10
266.9956
 20
26.2745
 30
0.0
 10
266.9956
 20
30.2745
 30
0.0
 10
266.9956
 20
30.2745
 30
0.0
  0
SPLINE
  5
8F
330
1F
100
AcDbEntity
  8
PERIMETER
 62
     1
370
     9
100
AcDbSpline
210
0.0
220
0.0
230
1.0
 70
    11
 71
     3
 72
   224
 73
   220
 74
     0
 42
0.000000001
 43
0.0000000001
 40
0.0
 40
0.0
 40
0.0
 40
0.0
 40
0.0178571428571429
 40
0.0178571428571429
 40
0.0178571428571429
 40
0.0178571428571429
 40
0.0357142857142857
 40
0.0357142857142857
 40
0.0357142857142857
 40
0.0357142857142857
 40
0.0535714285714286
 40
0.0535714285714286
 40
0.0535714285714286
 40
0.0535714285714286
 40
0.0714285714285714
 40
0.0714285714285714
 40
0.0714285714285714
 40
0.0714285714285714
 40
0.0892857142857143
 40
0.0892857142857143
 40
0.0892857142857143
 40
0.0892857142857143
 40
0.1071428571428571
 40
0.1071428571428571
 40
0.1071428571428571
 40
0.1071428571428571
 40
0.125
 40
0.125
 40
0.125
 40
0.125
 40
0.1428571428571428
 40
0.1428571428571428
 40
0.1428571428571428
 40
0.1428571428571428
 40
0.1607142857142857
 40
0.1607142857142857
 40
0.1607142857142857
 40
0.1607142857142857
 40
0.1785714285714286
 40
0.1785714285714286
 40
0.1785714285714286
 40
0.1785714285714286
 40
0.1964285714285714
 40
0.1964285714285714
 40
0.1964285714285714
 40
0.1964285714285714
 40
0.2142857142857143
 40
0.2142857142857143
 40
0.2142857142857143
 40
0.2142857142857143
 40
0.2321428571428572
 40
0.2321428571428572
 40
0.2321428571428572
 40
0.2321428571428572
 40
0.25
 40
0.25
 40
0.25
 40
0.25
 40
0.2678571428571428
 40
0.2678571428571428
 40
0.2678571428571428
 40
0.2678571428571428
 40
0.2857142857142857
 40
0.2857142857142857
 40
0.2857142857142857
 40
0.2857142857142857
 40
0.3035714285714285
 40
0.3035714285714285
 40
0.3035714285714285
 40
0.3035714285714285
 40
0.3214285714285715
 40
0.3214285714285715
 40
0.3214285714285715
 40
0.3214285714285715
 40
0.3392857142857143
 40
0.3392857142857143
 40
0.3392857142857143
 40
0.3392857142857143
 40
0.3571428571428572
 40
0.3571428571428572
 40
0.3571428571428572
 40
0.3571428571428572
 40
0.375
 40
0.375
 40
0.375
 40
0.375
 40
0.3928571428571428
 40
0.3928571428571428
 40
0.3928571428571428
 40
0.3928571428571428
 40
0.4107142857142857
 40
0.4107142857142857
 40
0.4107142857142857
 40
0.4107142857142857
 40
0.4285714285714285
 40
0.4285714285714285
 40
0.4285714285714285
 40
0.4285714285714285
 40
0.4464285714285715
 40
0.4464285714285715
 40
0.4464285714285715
 40
0.4464285714285715
 40
0.4642857142857143
 40
0.4642857142857143
 40
0.4642857142857143
 40
0.4642857142857143
 40
0.4821428571428572
 40
0.4821428571428572
 40
0.4821428571428572
 40
0.4821428571428572
 40
0.5
 40
0.5
 40
0.5
 40
0.5
 40
0.5178571428571429
 40
0.5178571428571429
 40
0.5178571428571429
 40
0.5178571428571429
 40
0.5357142857142857
 40
0.5357142857142857
 40
0.5357142857142857
 40
0.5357142857142857
 40
0.5535714285714286
 40
0.5535714285714286
 40
0.5535714285714286
 40
0.5535714285714286
 40
0.5714285714285714
 40
0.5714285714285714
 40
0.5714285714285714
 40
0.5714285714285714
 40
0.5892857142857143
 40
0.5892857142857143
 40
0.5892857142857143
 40
0.5892857142857143
 40
0.6071428571428571
 40
0.6071428571428571
 40
0.6071428571428571
 40
0.6071428571428571
 40
0.625
 40
0.625
 40
0.625
 40
0.625
 40
0.6428571428571429
 40
0.6428571428571429
 40
0.6428571428571429
 40
0.6428571428571429
 40
0.6607142857142857
 40
0.6607142857142857
 40
0.6607142857142857
 40
0.6607142857142857
 40
0.6785714285714286
 40
0.6785714285714286
 40
0.6785714285714286
 40
0.6785714285714286
 40
0.6964285714285714
 40
0.6964285714285714
 40
0.6964285714285714
 40
0.6964285714285714
 40
0.7142857142857143
 40
0.7142857142857143
 40
0.7142857142857143
 40
0.7142857142857143
 40
0.7321428571428571
 40
0.7321428571428571
 40
0.7321428571428571
 40
0.7321428571428571
 40
0.75
 40
0.75
 40
0.75
 40
0.75
 40
0.7678571428571429
 40
0.7678571428571429
 40
0.7678571428571429
 40
0.7678571428571429
 40
0.7857142857142857
 40
0.7857142857142857
 40
0.7857142857142857
 40
0.7857142857142857
 40
0.8035714285714286
 40
0.8035714285714286
 40
0.8035714285714286
 40
0.8035714285714286
 40
0.8214285714285714
 40
0.8214285714285714
 40
0.8214285714285714
 40
0.8214285714285714
 40
0.8392857142857143
 40
0.8392857142857143
 40
0.8392857142857143
 40
0.8392857142857143
 40
0.8571428571428571
 40
0.8571428571428571
 40
0.8571428571428571
 40
0.8571428571428571
 40
0.875
 40
0.875
 40
0.875
 40
0.875
 40
0.8928571428571429
 40
0.8928571428571429
 40
0.8928571428571429
 40
0.8928571428571429
 40
0.9107142857142857
 40
0.9107142857142857
 40
0.9107142857142857
 40
0.9107142857142857
 40
0.9285714285714286
 40
0.9285714285714286
 40
0.9285714285714286
 40
0.9285714285714286
 40
0.9464285714285714
 40
0.9464285714285714
 40
0.9464285714285714
 40
0.9464285714285714
 40
0.9642857142857143
 40
0.9642857142857143
 40
0.9642857142857143
 40
0.9642857142857143
 40
1.0
 40
1.0
 40
1.0
 40
1.0
 10
-418.1682
 20
30.5769
 30
0.0
 10
-418.1682
 20
30.5769
 30
0.0
 10
-418.1682
 20
34.5769
 30
0.0
 10
-418.1682
 20
34.5769
 30
0.0
 10
-418.1682
 20
34.5769
 30
0.0
 10
-418.1682
 20
34.5769
 30
0.0
 10
-398.3182
 20
34.5769
 30
0.0
 10
-398.3182
 20
34.5769
 30
0.0
 10
-398.3182
 20
34.5769
 30
0.0
 10
-398.3182
 20
34.5769
 30
0.0
 10
-398.3182
 20
30.5769
 30
0.0
 10
-398.3182
 20
30.5769
 30
0.0
 10
-398.3182
 20
30.5769
 30
0.0
 10
-398.3182
 20
30.5769
 30
0.0
 10
-370.5682
 20
30.5769
 30
0.0
 10
-370.5682
 20
30.5769
 30
0.0
 10
-370.5682
 20
30.5769
 30
0.0
 10
-370.5682
 20
30.5769
 30
0.0
 10
-370.5682
 20
34.5769
 30
0.0
 10
-370.5682
 20
34.5769
 30
0.0
 10
-370.5682
 20
34.5769
 30
0.0
 10
-370.5682
 20
34.5769
 30
0.0
 10
-350.7182
 20
34.5769
 30
0.0
 10
-350.7182
 20
34.5769
 30
0.0
 10
-350.7182
 20
34.5769
 30
0.0
 10
-350.7182
 20
34.5769
 30
0.0
 10
-350.7182
 20
30.5769
 30
0.0
 10
-350.7182
 20
30.5769
 30
0.0
 10
-350.7182
 20
30.5769
 30
0.0
 10
-350.7182
 20
30.5769
 30
0.0
 10
-322.9682
 20
30.5769
 30
0.0
 10
-322.9682
 20
30.5769
 30
0.0
 10
-322.9682
 20
30.5769
 30
0.0
 10
-322.9682
 20
30.5769
 30
0.0
 10
-322.9682
 20
34.5769
 30
0.0
 10
-322.9682
 20
34.5769
 30
0.0
 10
-322.9682
 20
34.5769
 30
0.0
 10
-322.9682
 20
34.5769
 30
0.0
 10
-303.1182
 20
34.5769
 30
0.0
 10
-303.1182
 20
34.5769
 30
0.0
 10
-303.1182
 20
34.5769
 30
0.0
 10
-303.1182
 20
34.5769
 30
0.0
 10
-303.1182
 20
30.5769
 30
0.0
 10
-303.1182
 20
30.5769
 30
0.0
 10
-303.1182
 20
30.5769
 30
0.0
 10
-303.1182
 20
30.5769
 30
0.0
 10
-275.3682
 20
30.5769
 30
0.0
 10
-275.3682
 20
30.5769
 30
0.0
 10
-275.3682
 20
30.5769
 30
0.0
 10
-275.3682
 20
30.5769
 30
0.0
 10
-275.3682
 20
34.5769
 30
0.0
 10
-275.3682
 20
34.5769
 30
0.0
 10
-275.3682
 20
34.5769
 30
0.0
 10
-275.3682
 20
34.5769
 30
0.0
 10
-255.5182
 20
34.5769
 30
0.0
 10
-255.5182
 20
34.5769
 30
0.0
 10
-255.5182
 20
34.5769
 30
0.0
 10
-255.5182
 20
34.5769
 30
0.0
 10
-255.5182
 20
30.5769
 30
0.0
 10
-255.5182
 20
30.5769
 30
0.0
 10
-255.5182
 20
30.5769
 30
0.0
 10
-255.5182
 20
30.5769
 30
0.0
 10
-227.7682
 20
30.5769
 30
0.0
 10
-227.7682
 20
30.5769
 30
0.0
 10
-227.7682
 20
30.5769
 30
0.0
 10
-227.7682
 20
30.5769
 30
0.0
 10
-227.7682
 20
34.5769
 30
0.0
 10
-227.7682
 20
34.5769
 30
0.0
 10
-227.7682
 20
34.5769
 30
0.0
 10
-227.7682
 20
34.5769
 30
0.0
 10
-207.9182
 20
34.5769
 30
0.0
 10
-207.9182
 20
34.5769
 30
0.0
 10
-207.9182
 20
34.5769
 30
0.0
 10
-207.9182
 20
34.5769
 30
0.0
 10
-207.9182
 20
30.5769
 30
0.0
 10
-207.9182
 20
30.5769
 30
0.0
 10
-207.9182
 20
30.5769
 30
0.0
 10
-207.9182
 20
30.5769
 30
0.0
 10
-180.1682
 20
30.5769
 30
0.0
 10
-180.1682
 20
30.5769
 30
0.0
 10
-180.1682
 20
30.5769
 30
0.0
 10
-180.1682
 20
30.5769
 30
0.0
 10
-180.1682
 20
34.5769
 30
0.0
 10
-180.1682
 20
34.5769
 30
0.0
 10
-180.1682
 20
34.5769
 30
0.0
 10
-180.1682
 20
34.5769
 30
0.0
 10
-160.3182
 20
34.5769
 30
0.0
 10
-160.3182
 20
34.5769
 30
0.0
 10
-160.3182
 20
34.5769
 30
0.0
 10
-160.3182
 20
34.5769
 30
0.0
 10
-160.3182
 20
30.5769
 30
0.0
 10
-160.3182
 20
30.5769
 30
0.0
 10
-160.3182
 20
30.5769
 30
0.0
 10
-160.3182
 20
30.5769
 30
0.0
 10
-154.1682
 20
30.5769
 30
0.0
 10
-154.1682
 20
30.5769
 30
0.0
 10
-154.1682
 20
30.5769
 30
0.0
 10
-154.1682
 20
30.5769
 30
0.0
 10
-154.1682
 20
50.5769
 30
0.0
 10
-154.1682
 20
50.5769
 30
0.0
 10
-154.1682
 20
50.5769
 30
0.0
 10
-154.1682
 20
50.5769
 30
0.0
 10
-150.1682
 20
50.5769
 30
0.0
 10
-150.1682
 20
50.5769
 30
0.0
 10
-150.1682
 20
50.5769
 30
0.0
 10
-150.1682
 20
50.5769
 30
0.0
 10
-150.1682
 20
70.7269
 30
0.0
 10
-150.1682
 20
70.7269
 30
0.0
 10
-150.1682
 20
70.7269
 30
0.0
 10
-150.1682
 20
70.7269
 30
0.0
 10
-154.1682
 20
70.7269
 30
0.0
 10
-154.1682
 20
70.7269
 30
0.0
 10
-154.1682
 20
70.7269
 30
0.0
 10
-154.1682
 20
70.7269
 30
0.0
 10
-154.1682
 20
90.5769
 30
0.0
 10
-154.1682
 20
90.5769
 30
0.0
 10
-154.1682
 20
90.5769
 30
0.0
 10
-154.1682
 20
90.5769
 30
0.0
 10
-150.1682
 20
90.5769
 30
0.0
 10
-150.1682
 20
90.5769
 30
0.0
 10
-150.1682
 20
90.5769
 30
0.0
 10
-150.1682
 20
90.5769
 30
0.0
 10
-150.1682
 20
110.7269
 30
0.0
 10
-150.1682
 20
110.7269
 30
0.0
 10
-150.1682
 20
110.7269
 30
0.0
 10
-150.1682
 20
110.7269
 30
0.0
 10
-154.1682
 20
110.7269
 30
0.0
 10
-154.1682
 20
110.7269
 30
0.0
 10
-154.1682
 20
110.7269
 30
0.0
 10
-154.1682
 20
110.7269
 30
0.0
 10
-154.1682
 20
138.5769
 30
0.0
 10
-154.1682
 20
138.5769
 30
0.0
 10
-154.1682
 20
138.5769
 30
0.0
 10
-154.1682
 20
138.5769
 30
0.0
 10
-150.1682
 20
138.5769
 30
0.0
 10
-150.1682
 20
138.5769
 30
0.0
 10
-150.1682
 20
138.5769
 30
0.0
 10
-150.1682
 20
138.5769
 30
0.0
 10
-150.1682
 20
142.7269
 30
0.0
 10
-150.1682
 20
142.7269
 30
0.0
 10
-150.1682
 20
142.7269
 30
0.0
 10
-150.1682
 20
142.7269
 30
0.0
 10
-172.315
 20
142.7269
 30
0.0
 10
-172.315
 20
142.7269
 30
0.0
 10
-172.315
 20
142.7269
 30
0.0
 10
-173.7709
 20
142.7269
 30
0.0
 10
-175.1161
 20
141.9502
 30
0.0
 10
-175.844
 20
140.6894
 30
0.0
 10
-175.844
 20
140.6894
 30
0.0
 10
-176.5452
 20
139.475
 30
0.0
 10
-177.8409
 20
138.7269
 30
0.0
 10
-179.2432
 20
138.7269
 30
0.0
 10
-179.2432
 20
138.7269
 30
0.0
 10
-179.2432
 20
138.7269
 30
0.0
 10
-399.2432
 20
138.7269
 30
0.0
 10
-399.2432
 20
138.7269
 30
0.0
 10
-399.2432
 20
138.7269
 30
0.0
 10
-400.6455
 20
138.7269
 30
0.0
 10
-401.9412
 20
139.475
 30
0.0
 10
-402.6424
 20
140.6894
 30
0.0
 10
-402.6424
 20
140.6894
 30
0.0
 10
-403.3703
 20
141.9502
 30
0.0
 10
-404.7155
 20
142.7269
 30
0.0
 10
-406.1714
 20
142.7269
 30
0.0
 10
-406.1714
 20
142.7269
 30
0.0
 10
-406.1714
 20
142.7269
 30
0.0
 10
-428.3182
 20
142.7269
 30
0.0
 10
-428.3182
 20
142.7269
 30
0.0
 10
-428.3182
 20
142.7269
 30
0.0
 10
-428.3182
 20
142.7269
 30
0.0
 10
-428.3182
 20
138.5769
 30
0.0
 10
-428.3182
 20
138.5769
 30
0.0
 10
-428.3182
 20
138.5769
 30
0.0
 10
-428.3182
 20
138.5769
 30
0.0
 10
-424.3182
 20
138.5769
 30
0.0
 10
-424.3182
 20
138.5769
 30
0.0
 10
-424.3182
 20
138.5769
 30
0.0
 10
-424.3182
 20
138.5769
 30
0.0
 10
-424.3182
 20
130.6519
 30
0.0
 10
-424.3182
 20
130.6519
 30
0.0
 10
-424.3182
 20
130.6519
 30
0.0
 10
-424.3182
 20
130.6519
 30
0.0
 10
-424.3182
 20
110.7269
 30
0.0
 10
-424.3182
 20
110.7269
 30
0.0
 10
-424.3182
 20
110.7269
 30
0.0
 10
-424.3182
 20
110.7269
 30
0.0
 10
-428.3182
 20
110.7269
 30
0.0
 10
-428.3182
 20
110.7269
 30
0.0
 10
-428.3182
 20
110.7269
 30
0.0
 10
-428.3182
 20
110.7269
 30
0.0
 10
-428.3182
 20
90.5769
 30
0.0
 10
-428.3182
 20
90.5769
 30
0.0
 10
-428.3182
 20
90.5769
 30
0.0
 10
-428.3182
 20
90.5769
 30
0.0
 10
-424.3182
 20
90.5769
 30
0.0
 10
-424.3182
 20
90.5769
 30
0.0
 10
-424.3182
 20
90.5769
 30
0.0
 10
-424.3182
 20
90.5769
 30
0.0
 10
-424.3182
 20
70.7269
 30
0.0
 10
-424.3182
 20
70.7269
 30
0.0
 10
-424.3182
 20
70.7269
 30
0.0
 10
-424.3182
 20
70.7269
 30
0.0
 10
-428.3182
 20
70.7269
 30
0.0
 10
-428.3182
 20
70.7269
 30
0.0
 10
-428.3182
 20
70.7269
 30
0.0
 10
-428.3182
 20
70.7269
 30
0.0
 10
-428.3182
 20
50.5769
 30
0.0
 10
-428.3182
 20
50.5769
 30
0.0
 10
-428.3182
 20
50.5769
 30
0.0
 10
-428.3182
 20
50.5769
 30
0.0
 10
-424.3182
 20
50.5769
 30
0.0
 10
-424.3182
 20
50.5769
 30
0.0
 10
-424.3182
 20
50.5769
 30
0.0
 10
-424.3182
 20
50.5769
 30
0.0
 10
-424.3182
 20
30.5769
 30
0.0
 10
-424.3182
 20
30.5769
 30
0.0
 10
-424.3182
 20
30.5769
 30
0.0
 10
-424.3182
 20
30.5769
 30
0.0
 10
-418.1682
 20
30.5769
 30
0.0
 10
-418.1682
 20
30.5769
 30
0.0
  0
SPLINE
  5
90
330
1F
100
AcDbEntity
  8
PERIMETER
 62
     1
370
     9
100
AcDbSpline
210
0.0
220
0.0
230
1.0
 70
    11
 71
     3
 72
    88
 73
    84
 74
     0
 42
0.000000001
 43
0.0000000001
 40
0.0
 40
0.0
 40
0.0
 40
0.0
 40
0.0454545454545455
 40
0.0454545454545455
 40
0.0454545454545455
 40
0.0454545454545455
 40
0.0909090909090909
 40
0.0909090909090909
 40
0.0909090909090909
 40
0.0909090909090909
 40
0.1363636363636364
 40
0.1363636363636364
 40
0.1363636363636364
 40
0.1363636363636364
 40
0.1818181818181818
 40
0.1818181818181818
 40
0.1818181818181818
 40
0.1818181818181818
 40
0.2272727272727273
 40
0.2272727272727273
 40
0.2272727272727273
 40
0.2272727272727273
 40
0.2727272727272727
 40
0.2727272727272727
 40
0.2727272727272727
 40
0.2727272727272727
 40
0.3181818181818182
 40
0.3181818181818182
 40
0.3181818181818182
 40
0.3181818181818182
 40
0.3636363636363636
 40
0.3636363636363636
 40
0.3636363636363636
 40
0.3636363636363636
 40
0.4090909090909091
 40
0.4090909090909091
 40
0.4090909090909091
 40
0.4090909090909091
 40
0.4545454545454545
 40
0.4545454545454545
 40
0.4545454545454545
 40
0.4545454545454545
 40
0.5
 40
0.5
 40
0.5
 40
0.5
 40
0.5454545454545454
 40
0.5454545454545454
 40
0.5454545454545454
 40
0.5454545454545454
 40
0.5909090909090909
 40
0.5909090909090909
 40
0.5909090909090909
 40
0.5909090909090909
 40
0.6363636363636364
 40
0.6363636363636364
 40
0.6363636363636364
 40
0.6363636363636364
 40
0.6818181818181818
 40
0.6818181818181818
 40
0.6818181818181818
 40
0.6818181818181818
 40
0.7272727272727273
 40
0.7272727272727273
 40
0.7272727272727273
 40
0.7272727272727273
 40
0.7727272727272727
 40
0.7727272727272727
 40
0.7727272727272727
 40
0.7727272727272727
 40
0.8181818181818182
 40
0.8181818181818182
 40
0.8181818181818182
 40
0.8181818181818182
 40
0.8636363636363636
 40
0.8636363636363636
 40
0.8636363636363636
 40
0.8636363636363636
 40
0.9090909090909091
 40
0.9090909090909091
 40
0.9090909090909091
 40
0.9090909090909091
 40
1.0
 40
1.0
 40
1.0
 40
1.0
 10
-163.6165
 20
-55.6489
 30
0.0
 10
-168.9874
 20
-55.6489
 30
0.0
 10
-173.384
 20
-51.3763
 30
0.0
 10
-173.5374
 20
-46.0075
 30
0.0
 10
-173.5374
 20
-46.0075
 30
0.0
 10
-173.9251
 20
-32.4435
 30
0.0
 10
-185.0327
 20
-21.6489
 30
0.0
 10
-198.6022
 20
-21.6489
 30
0.0
 10
-198.6022
 20
-21.6489
 30
0.0
 10
-198.6022
 20
-21.6489
 30
0.0
 10
-255.6915
 20
-21.6489
 30
0.0
 10
-255.6915
 20
-21.6489
 30
0.0
 10
-255.6915
 20
-21.6489
 30
0.0
 10
-255.6915
 20
-21.6489
 30
0.0
 10
-255.6915
 20
-29.6489
 30
0.0
 10
-255.6915
 20
-29.6489
 30
0.0
 10
-255.6915
 20
-29.6489
 30
0.0
 10
-255.6915
 20
-29.6489
 30
0.0
 10
-259.6915
 20
-29.6489
 30
0.0
 10
-259.6915
 20
-29.6489
 30
0.0
 10
-259.6915
 20
-29.6489
 30
0.0
 10
-259.6915
 20
-29.6489
 30
0.0
 10
-259.6915
 20
-49.7989
 30
0.0
 10
-259.6915
 20
-49.7989
 30
0.0
 10
-259.6915
 20
-49.7989
 30
0.0
 10
-259.6915
 20
-49.7989
 30
0.0
 10
-255.6915
 20
-49.7989
 30
0.0
 10
-255.6915
 20
-49.7989
 30
0.0
 10
-255.6915
 20
-49.7989
 30
0.0
 10
-255.6915
 20
-49.7989
 30
0.0
 10
-255.6915
 20
-55.6489
 30
0.0
 10
-255.6915
 20
-55.6489
 30
0.0
 10
-255.6915
 20
-55.6489
 30
0.0
 10
-255.6915
 20
-55.6489
 30
0.0
 10
-259.6915
 20
-55.6489
 30
0.0
 10
-259.6915
 20
-55.6489
 30
0.0
 10
-259.6915
 20
-55.6489
 30
0.0
 10
-259.6915
 20
-55.6489
 30
0.0
 10
-259.6915
 20
-59.7989
 30
0.0
 10
-259.6915
 20
-59.7989
 30
0.0
 10
-259.6915
 20
-59.7989
 30
0.0
 10
-259.6915
 20
-59.7989
 30
0.0
 10
-239.5415
 20
-59.7989
 30
0.0
 10
-239.5415
 20
-59.7989
 30
0.0
 10
-239.5415
 20
-59.7989
 30
0.0
 10
-239.5415
 20
-59.7989
 30
0.0
 10
-239.5415
 20
-55.7989
 30
0.0
 10
-239.5415
 20
-55.7989
 30
0.0
 10
-239.5415
 20
-55.7989
 30
0.0
 10
-239.5415
 20
-55.7989
 30
0.0
 10
-219.6915
 20
-55.7989
 30
0.0
 10
-219.6915
 20
-55.7989
 30
0.0
 10
-219.6915
 20
-55.7989
 30
0.0
 10
-219.6915
 20
-55.7989
 30
0.0
 10
-219.6915
 20
-59.7989
 30
0.0
 10
-219.6915
 20
-59.7989
 30
0.0
 10
-219.6915
 20
-59.7989
 30
0.0
 10
-219.6915
 20
-59.7989
 30
0.0
 10
-199.5415
 20
-59.7989
 30
0.0
 10
-199.5415
 20
-59.7989
 30
0.0
 10
-199.5415
 20
-59.7989
 30
0.0
 10
-199.5415
 20
-59.7989
 30
0.0
 10
-199.5415
 20
-55.7989
 30
0.0
 10
-199.5415
 20
-55.7989
 30
0.0
 10
-199.5415
 20
-55.7989
 30
0.0
 10
-199.5415
 20
-55.7989
 30
0.0
 10
-179.6915
 20
-55.7989
 30
0.0
 10
-179.6915
 20
-55.7989
 30
0.0
 10
-179.6915
 20
-55.7989
 30
0.0
 10
-179.6915
 20
-55.7989
 30
0.0
 10
-179.6915
 20
-59.7989
 30
0.0
 10
-179.6915
 20
-59.7989
 30
0.0
 10
-179.6915
 20
-59.7989
 30
0.0
 10
-179.6915
 20
-59.7989
 30
0.0
 10
-159.5415
 20
-59.7989
 30
0.0
 10
-159.5415
 20
-59.7989
 30
0.0
 10
-159.5415
 20
-59.7989
 30
0.0
 10
-159.5415
 20
-59.7989
 30
0.0
 10
-159.5415
 20
-55.6489
 30
0.0
 10
-159.5415
 20
-55.6489
 30
0.0
 10
-159.5415
 20
-55.6489
 30
0.0
 10
-159.5415
 20
-55.6489
 30
0.0
 10
-163.6165
 20
-55.6489
 30
0.0
 10
-163.6165
 20
-55.6489
 30
0.0
  0
SPLINE
  5
91
330
1F
100
AcDbEntity
  8
PERIMETER
 62
     1
370
     9
100
AcDbSpline
210
0.0
220
0.0
230
1.0
 70
    11
 71
     3
 72
   172
 73
   168
 74
     0
 42
0.000000001
 43
0.0000000001
 40
0.0
 40
0.0
 40
0.0
 40
0.0
 40
0.0232558139534884
 40
0.0232558139534884
 40
0.0232558139534884
 40
0.0232558139534884
 40
0.0465116279069767
 40
0.0465116279069767
 40
0.0465116279069767
 40
0.0465116279069767
 40
0.0697674418604651
 40
0.0697674418604651
 40
0.0697674418604651
 40
0.0697674418604651
 40
0.0930232558139535
 40
0.0930232558139535
 40
0.0930232558139535
 40
0.0930232558139535
 40
0.1162790697674419
 40
0.1162790697674419
 40
0.1162790697674419
 40
0.1162790697674419
 40
0.1395348837209302
 40
0.1395348837209302
 40
0.1395348837209302
 40
0.1395348837209302
 40
0.1627906976744186
 40
0.1627906976744186
 40
0.1627906976744186
 40
0.1627906976744186
 40
0.186046511627907
 40
0.186046511627907
 40
0.186046511627907
 40
0.186046511627907
 40
0.2093023255813954
 40
0.2093023255813954
 40
0.2093023255813954
 40
0.2093023255813954
 40
0.2325581395348837
 40
0.2325581395348837
 40
0.2325581395348837
 40
0.2325581395348837
 40
0.2558139534883721
 40
0.2558139534883721
 40
0.2558139534883721
 40
0.2558139534883721
 40
0.2790697674418605
 40
0.2790697674418605
 40
0.2790697674418605
 40
0.2790697674418605
 40
0.3023255813953488
 40
0.3023255813953488
 40
0.3023255813953488
 40
0.3023255813953488
 40
0.3255813953488372
 40
0.3255813953488372
 40
0.3255813953488372
 40
0.3255813953488372
 40
0.3488372093023256
 40
0.3488372093023256
 40
0.3488372093023256
 40
0.3488372093023256
 40
0.3720930232558139
 40
0.3720930232558139
 40
0.3720930232558139
 40
0.3720930232558139
 40
0.3953488372093023
 40
0.3953488372093023
 40
0.3953488372093023
 40
0.3953488372093023
 40
0.4186046511627907
 40
0.4186046511627907
 40
0.4186046511627907
 40
0.4186046511627907
 40
0.4418604651162791
 40
0.4418604651162791
 40
0.4418604651162791
 40
0.4418604651162791
 40
0.4651162790697674
 40
0.4651162790697674
 40
0.4651162790697674
 40
0.4651162790697674
 40
0.4883720930232558
 40
0.4883720930232558
 40
0.4883720930232558
 40
0.4883720930232558
 40
0.5116279069767442
 40
0.5116279069767442
 40
0.5116279069767442
 40
0.5116279069767442
 40
0.5348837209302325
 40
0.5348837209302325
 40
0.5348837209302325
 40
0.5348837209302325
 40
0.5581395348837209
 40
0.5581395348837209
 40
0.5581395348837209
 40
0.5581395348837209
 40
0.5813953488372093
 40
0.5813953488372093
 40
0.5813953488372093
 40
0.5813953488372093
 40
0.6046511627906976
 40
0.6046511627906976
 40
0.6046511627906976
 40
0.6046511627906976
 40
0.627906976744186
 40
0.627906976744186
 40
0.627906976744186
 40
0.627906976744186
 40
0.6511627906976745
 40
0.6511627906976745
 40
0.6511627906976745
 40
0.6511627906976745
 40
0.6744186046511628
 40
0.6744186046511628
 40
0.6744186046511628
 40
0.6744186046511628
 40
0.6976744186046512
 40
0.6976744186046512
 40
0.6976744186046512
 40
0.6976744186046512
 40
0.7209302325581395
 40
0.7209302325581395
 40
0.7209302325581395
 40
0.7209302325581395
 40
0.7441860465116279
 40
0.7441860465116279
 40
0.7441860465116279
 40
0.7441860465116279
 40
0.7674418604651163
 40
0.7674418604651163
 40
0.7674418604651163
 40
0.7674418604651163
 40
0.7906976744186046
 40
0.7906976744186046
 40
0.7906976744186046
 40
0.7906976744186046
 40
0.813953488372093
 40
0.813953488372093
 40
0.813953488372093
 40
0.813953488372093
 40
0.8372093023255814
 40
0.8372093023255814
 40
0.8372093023255814
 40
0.8372093023255814
 40
0.8604651162790697
 40
0.8604651162790697
 40
0.8604651162790697
 40
0.8604651162790697
 40
0.8837209302325582
 40
0.8837209302325582
 40
0.8837209302325582
 40
0.8837209302325582
 40
0.9069767441860465
 40
0.9069767441860465
 40
0.9069767441860465
 40
0.9069767441860465
 40
0.9302325581395349
 40
0.9302325581395349
 40
0.9302325581395349
 40
0.9302325581395349
 40
0.9534883720930233
 40
0.9534883720930233
 40
0.9534883720930233
 40
0.9534883720930233
 40
1.0
 40
1.0
 40
1.0
 40
1.0
 10
61.7854
 20
7.9257
 30
0.0
 10
64.6167
 20
7.9257
 30
0.0
 10
67.233
 20
6.4152
 30
0.0
 10
68.6486
 20
3.9632
 30
0.0
 10
68.6486
 20
3.9632
 30
0.0
 10
70.0911
 20
1.4648
 30
0.0
 10
72.7569
 20
-0.0743
 30
0.0
 10
75.6418
 20
-0.0743
 30
0.0
 10
75.6418
 20
-0.0743
 30
0.0
 10
75.6418
 20
-0.0743
 30
0.0
 10
131.7168
 20
-0.0743
 30
0.0
 10
131.7168
 20
-0.0743
 30
0.0
 10
131.7168
 20
-0.0743
 30
0.0
 10
131.7168
 20
-0.0743
 30
0.0
 10
131.7168
 20
8.0757
 30
0.0
 10
131.7168
 20
8.0757
 30
0.0
 10
131.7168
 20
8.0757
 30
0.0
 10
131.7168
 20
8.0757
 30
0.0
 10
127.7168
 20
8.0757
 30
0.0
 10
127.7168
 20
8.0757
 30
0.0
 10
127.7168
 20
8.0757
 30
0.0
 10
127.7168
 20
8.0757
 30
0.0
 10
127.7168
 20
27.9257
 30
0.0
 10
127.7168
 20
27.9257
 30
0.0
 10
127.7168
 20
27.9257
 30
0.0
 10
127.7168
 20
27.9257
 30
0.0
 10
131.7168
 20
27.9257
 30
0.0
 10
131.7168
 20
27.9257
 30
0.0
 10
131.7168
 20
27.9257
 30
0.0
 10
131.7168
 20
27.9257
 30
0.0
 10
131.7168
 20
34.0757
 30
0.0
 10
131.7168
 20
34.0757
 30
0.0
 10
131.7168
 20
34.0757
 30
0.0
 10
131.7168
 20
34.0757
 30
0.0
 10
121.7168
 20
34.0757
 30
0.0
 10
121.7168
 20
34.0757
 30
0.0
 10
121.7168
 20
34.0757
 30
0.0
 10
121.7168
 20
34.0757
 30
0.0
 10
121.7168
 20
38.0757
 30
0.0
 10
121.7168
 20
38.0757
 30
0.0
 10
121.7168
 20
38.0757
 30
0.0
 10
121.7168
 20
38.0757
 30
0.0
 10
101.5669
 20
38.0757
 30
0.0
 10
101.5669
 20
38.0757
 30
0.0
 10
101.5669
 20
38.0757
 30
0.0
 10
101.5669
 20
38.0757
 30
0.0
 10
101.5669
 20
34.0757
 30
0.0
 10
101.5669
 20
34.0757
 30
0.0
 10
101.5669
 20
34.0757
 30
0.0
 10
101.5669
 20
34.0757
 30
0.0
 10
74.1168
 20
34.0757
 30
0.0
 10
74.1168
 20
34.0757
 30
0.0
 10
74.1168
 20
34.0757
 30
0.0
 10
74.1168
 20
34.0757
 30
0.0
 10
74.1168
 20
38.0757
 30
0.0
 10
74.1168
 20
38.0757
 30
0.0
 10
74.1168
 20
38.0757
 30
0.0
 10
74.1168
 20
38.0757
 30
0.0
 10
53.9668
 20
38.0757
 30
0.0
 10
53.9668
 20
38.0757
 30
0.0
 10
53.9668
 20
38.0757
 30
0.0
 10
53.9668
 20
38.0757
 30
0.0
 10
53.9668
 20
34.0757
 30
0.0
 10
53.9668
 20
34.0757
 30
0.0
 10
53.9668
 20
34.0757
 30
0.0
 10
53.9668
 20
34.0757
 30
0.0
 10
26.5168
 20
34.0757
 30
0.0
 10
26.5168
 20
34.0757
 30
0.0
 10
26.5168
 20
34.0757
 30
0.0
 10
26.5168
 20
34.0757
 30
0.0
 10
26.5168
 20
38.0757
 30
0.0
 10
26.5168
 20
38.0757
 30
0.0
 10
26.5168
 20
38.0757
 30
0.0
 10
26.5168
 20
38.0757
 30
0.0
 10
6.3668
 20
38.0757
 30
0.0
 10
6.3668
 20
38.0757
 30
0.0
 10
6.3668
 20
38.0757
 30
0.0
 10
6.3668
 20
38.0757
 30
0.0
 10
6.3668
 20
34.0757
 30
0.0
 10
6.3668
 20
34.0757
 30
0.0
 10
6.3668
 20
34.0757
 30
0.0
 10
6.3668
 20
34.0757
 30
0.0
 10
-21.0832
 20
34.0757
 30
0.0
 10
-21.0832
 20
34.0757
 30
0.0
 10
-21.0832
 20
34.0757
 30
0.0
 10
-21.0832
 20
34.0757
 30
0.0
 10
-21.0832
 20
38.0757
 30
0.0
 10
-21.0832
 20
38.0757
 30
0.0
 10
-21.0832
 20
38.0757
 30
0.0
 10
-21.0832
 20
38.0757
 30
0.0
 10
-41.2332
 20
38.0757
 30
0.0
 10
-41.2332
 20
38.0757
 30
0.0
 10
-41.2332
 20
38.0757
 30
0.0
 10
-41.2332
 20
38.0757
 30
0.0
 10
-41.2332
 20
34.0757
 30
0.0
 10
-41.2332
 20
34.0757
 30
0.0
 10
-41.2332
 20
34.0757
 30
0.0
 10
-41.2332
 20
34.0757
 30
0.0
 10
-68.6832
 20
34.0757
 30
0.0
 10
-68.6832
 20
34.0757
 30
0.0
 10
-68.6832
 20
34.0757
 30
0.0
 10
-68.6832
 20
34.0757
 30
0.0
 10
-68.6832
 20
38.0757
 30
0.0
 10
-68.6832
 20
38.0757
 30
0.0
 10
-68.6832
 20
38.0757
 30
0.0
 10
-68.6832
 20
38.0757
 30
0.0
 10
-88.8332
 20
38.0757
 30
0.0
 10
-88.8332
 20
38.0757
 30
0.0
 10
-88.8332
 20
38.0757
 30
0.0
 10
-88.8332
 20
38.0757
 30
0.0
 10
-88.8332
 20
34.0757
 30
0.0
 10
-88.8332
 20
34.0757
 30
0.0
 10
-88.8332
 20
34.0757
 30
0.0
 10
-88.8332
 20
34.0757
 30
0.0
 10
-116.2832
 20
34.0757
 30
0.0
 10
-116.2832
 20
34.0757
 30
0.0
 10
-116.2832
 20
34.0757
 30
0.0
 10
-116.2832
 20
34.0757
 30
0.0
 10
-116.2832
 20
38.0757
 30
0.0
 10
-116.2832
 20
38.0757
 30
0.0
 10
-116.2832
 20
38.0757
 30
0.0
 10
-116.2832
 20
38.0757
 30
0.0
 10
-136.4332
 20
38.0757
 30
0.0
 10
-136.4332
 20
38.0757
 30
0.0
 10
-136.4332
 20
38.0757
 30
0.0
 10
-136.4332
 20
38.0757
 30
0.0
 10
-136.4332
 20
34.0757
 30
0.0
 10
-136.4332
 20
34.0757
 30
0.0
 10
-136.4332
 20
34.0757
 30
0.0
 10
-136.4332
 20
34.0757
 30
0.0
 10
-146.4332
 20
34.0757
 30
0.0
 10
-146.4332
 20
34.0757
 30
0.0
 10
-146.4332
 20
34.0757
 30
0.0
 10
-146.4332
 20
34.0757
 30
0.0
 10
-146.4332
 20
27.9257
 30
0.0
 10
-146.4332
 20
27.9257
 30
0.0
 10
-146.4332
 20
27.9257
 30
0.0
 10
-146.4332
 20
27.9257
 30
0.0
 10
-142.4332
 20
27.9257
 30
0.0
 10
-142.4332
 20
27.9257
 30
0.0
 10
-142.4332
 20
27.9257
 30
0.0
 10
-142.4332
 20
27.9257
 30
0.0
 10
-142.4332
 20
8.0757
 30
0.0
 10
-142.4332
 20
8.0757
 30
0.0
 10
-142.4332
 20
8.0757
 30
0.0
 10
-142.4332
 20
8.0757
 30
0.0
 10
-146.4332
 20
8.0757
 30
0.0
 10
-146.4332
 20
8.0757
 30
0.0
 10
-146.4332
 20
8.0757
 30
0.0
 10
-146.4332
 20
8.0757
 30
0.0
 10
-146.4332
 20
-0.0743
 30
0.0
 10
-146.4332
 20
-0.0743
 30
0.0
 10
-146.4332
 20
-0.0743
 30
0.0
 10
-146.4332
 20
-0.0743
 30
0.0
 10
-90.3582
 20
-0.0743
 30
0.0
 10
-90.3582
 20
-0.0743
 30
0.0
 10
-90.3582
 20
-0.0743
 30
0.0
 10
-87.4733
 20
-0.0743
 30
0.0
 10
-84.8075
 20
1.4648
 30
0.0
 10
-83.365
 20
3.9632
 30
0.0
 10
-83.365
 20
3.9632
 30
0.0
 10
-81.9494
 20
6.4152
 30
0.0
 10
-79.3331
 20
7.9257
 30
0.0
 10
-76.5018
 20
7.9257
 30
0.0
 10
-76.5018
 20
7.9257
 30
0.0
 10
-76.5018
 20
7.9257
 30
0.0
 10
61.7854
 20
7.9257
 30
0.0
 10
61.7854
 20
7.9257
 30
0.0
  0
SPLINE
  5
92
330
1F
100
AcDbEntity
  8
PERIMETER
 62
     1
370
     9
100
AcDbSpline
210
0.0
220
0.0
230
1.0
 70
    11
 71
     3
 72
    20
 73
    16
 74
     0
 42
0.000000001
 43
0.0000000001
 40
0.0
 40
0.0
 40
0.0
 40
0.0
 40
0.2
 40
0.2
 40
0.2
 40
0.2
 40
0.4
 40
0.4
 40
0.4
 40
0.4
 40
0.6
 40
0.6
 40
0.6
 40
0.6
 40
1.0
 40
1.0
 40
1.0
 40
1.0
 10
-183.3496
 20
-86.3488
 30
0.0
 10
-183.3496
 20
-86.3488
 30
0.0
 10
-183.3496
 20
-90.1988
 30
0.0
 10
-183.3496
 20
-90.1988
 30
0.0
 10
-183.3496
 20
-90.1988
 30
0.0
 10
-183.3496
 20
-90.1988
 30
0.0
 10
-173.4996
 20
-90.1988
 30
0.0
 10
-173.4996
 20
-90.1988
 30
0.0
 10
-173.4996
 20
-90.1988
 30
0.0
 10
-173.4996
 20
-90.1988
 30
0.0
 10
-173.4996
 20
-86.3488
 30
0.0
 10
-173.4996
 20
-86.3488
 30
0.0
 10
-173.4996
 20
-86.3488
 30
0.0
 10
-173.4996
 20
-86.3488
 30
0.0
 10
-183.3496
 20
-86.3488
 30
0.0
 10
-183.3496
 20
-86.3488
 30
0.0
  0
SPLINE
  5
93
330
1F
100
AcDbEntity
  8
PERIMETER
 62
     1
370
     9
100
AcDbSpline
210
0.0
220
0.0
230
1.0
 70
    11
 71
     3
 72
    20
 73
    16
 74
     0
 42
0.000000001
 43
0.0000000001
 40
0.0
 40
0.0
 40
0.0
 40
0.0
 40
0.2
 40
0.2
 40
0.2
 40
0.2
 40
0.4
 40
0.4
 40
0.4
 40
0.4
 40
0.6
 40
0.6
 40
0.6
 40
0.6
 40
1.0
 40
1.0
 40
1.0
 40
1.0
 10
-393.4996
 20
-90.1988
 30
0.0
 10
-393.4996
 20
-90.1988
 30
0.0
 10
-393.4996
 20
-86.3488
 30
0.0
 10
-393.4996
 20
-86.3488
 30
0.0
 10
-393.4996
 20
-86.3488
 30
0.0
 10
-393.4996
 20
-86.3488
 30
0.0
 10
-403.3496
 20
-86.3488
 30
0.0
 10
-403.3496
 20
-86.3488
 30
0.0
 10
-403.3496
 20
-86.3488
 30
0.0
 10
-403.3496
 20
-86.3488
 30
0.0
 10
-403.3496
 20
-90.1988
 30
0.0
 10
-403.3496
 20
-90.1988
 30
0.0
 10
-403.3496
 20
-90.1988
 30
0.0
 10
-403.3496
 20
-90.1988
 30
0.0
 10
-393.4996
 20
-90.1988
 30
0.0
 10
-393.4996
 20
-90.1988
 30
0.0
  0
SPLINE
  5
94
330
1F
100
AcDbEntity
  8
PERIMETER
 62
     1
370
     9
100
AcDbSpline
210
0.0
220
0.0
230
1.0
 70
    11
 71
     3
 72
   188
 73
   184
 74
     0
 42
0.000000001
 43
0.0000000001
 40
0.0
 40
0.0
 40
0.0
 40
0.0
 40
0.0212765957446809
 40
0.0212765957446809
 40
0.0212765957446809
 40
0.0212765957446809
 40
0.0425531914893617
 40
0.0425531914893617
 40
0.0425531914893617
 40
0.0425531914893617
 40
0.0638297872340425
 40
0.0638297872340425
 40
0.0638297872340425
 40
0.0638297872340425
 40
0.0851063829787234
 40
0.0851063829787234
 40
0.0851063829787234
 40
0.0851063829787234
 40
0.1063829787234043
 40
0.1063829787234043
 40
0.1063829787234043
 40
0.1063829787234043
 40
0.1276595744680851
 40
0.1276595744680851
 40
0.1276595744680851
 40
0.1276595744680851
 40
0.148936170212766
 40
0.148936170212766
 40
0.148936170212766
 40
0.148936170212766
 40
0.1702127659574468
 40
0.1702127659574468
 40
0.1702127659574468
 40
0.1702127659574468
 40
0.1914893617021277
 40
0.1914893617021277
 40
0.1914893617021277
 40
0.1914893617021277
 40
0.2127659574468085
 40
0.2127659574468085
 40
0.2127659574468085
 40
0.2127659574468085
 40
0.2340425531914894
 40
0.2340425531914894
 40
0.2340425531914894
 40
0.2340425531914894
 40
0.2553191489361702
 40
0.2553191489361702
 40
0.2553191489361702
 40
0.2553191489361702
 40
0.2765957446808511
 40
0.2765957446808511
 40
0.2765957446808511
 40
0.2765957446808511
 40
0.2978723404255319
 40
0.2978723404255319
 40
0.2978723404255319
 40
0.2978723404255319
 40
0.3191489361702128
 40
0.3191489361702128
 40
0.3191489361702128
 40
0.3191489361702128
 40
0.3404255319148936
 40
0.3404255319148936
 40
0.3404255319148936
 40
0.3404255319148936
 40
0.3617021276595745
 40
0.3617021276595745
 40
0.3617021276595745
 40
0.3617021276595745
 40
0.3829787234042553
 40
0.3829787234042553
 40
0.3829787234042553
 40
0.3829787234042553
 40
0.4042553191489361
 40
0.4042553191489361
 40
0.4042553191489361
 40
0.4042553191489361
 40
0.425531914893617
 40
0.425531914893617
 40
0.425531914893617
 40
0.425531914893617
 40
0.4468085106382979
 40
0.4468085106382979
 40
0.4468085106382979
 40
0.4468085106382979
 40
0.4680851063829787
 40
0.4680851063829787
 40
0.4680851063829787
 40
0.4680851063829787
 40
0.4893617021276596
 40
0.4893617021276596
 40
0.4893617021276596
 40
0.4893617021276596
 40
0.5106382978723404
 40
0.5106382978723404
 40
0.5106382978723404
 40
0.5106382978723404
 40
0.5319148936170213
 40
0.5319148936170213
 40
0.5319148936170213
 40
0.5319148936170213
 40
0.5531914893617021
 40
0.5531914893617021
 40
0.5531914893617021
 40
0.5531914893617021
 40
0.574468085106383
 40
0.574468085106383
 40
0.574468085106383
 40
0.574468085106383
 40
0.5957446808510638
 40
0.5957446808510638
 40
0.5957446808510638
 40
0.5957446808510638
 40
0.6170212765957447
 40
0.6170212765957447
 40
0.6170212765957447
 40
0.6170212765957447
 40
0.6382978723404256
 40
0.6382978723404256
 40
0.6382978723404256
 40
0.6382978723404256
 40
0.6595744680851063
 40
0.6595744680851063
 40
0.6595744680851063
 40
0.6595744680851063
 40
0.6808510638297872
 40
0.6808510638297872
 40
0.6808510638297872
 40
0.6808510638297872
 40
0.7021276595744681
 40
0.7021276595744681
 40
0.7021276595744681
 40
0.7021276595744681
 40
0.723404255319149
 40
0.723404255319149
 40
0.723404255319149
 40
0.723404255319149
 40
0.7446808510638298
 40
0.7446808510638298
 40
0.7446808510638298
 40
0.7446808510638298
 40
0.7659574468085106
 40
0.7659574468085106
 40
0.7659574468085106
 40
0.7659574468085106
 40
0.7872340425531915
 40
0.7872340425531915
 40
0.7872340425531915
 40
0.7872340425531915
 40
0.8085106382978723
 40
0.8085106382978723
 40
0.8085106382978723
 40
0.8085106382978723
 40
0.8297872340425532
 40
0.8297872340425532
 40
0.8297872340425532
 40
0.8297872340425532
 40
0.851063829787234
 40
0.851063829787234
 40
0.851063829787234
 40
0.851063829787234
 40
0.8723404255319149
 40
0.8723404255319149
 40
0.8723404255319149
 40
0.8723404255319149
 40
0.8936170212765957
 40
0.8936170212765957
 40
0.8936170212765957
 40
0.8936170212765957
 40
0.9148936170212766
 40
0.9148936170212766
 40
0.9148936170212766
 40
0.9148936170212766
 40
0.9361702127659575
 40
0.9361702127659575
 40
0.9361702127659575
 40
0.9361702127659575
 40
0.9574468085106383
 40
0.9574468085106383
 40
0.9574468085106383
 40
0.9574468085106383
 40
1.0
 40
1.0
 40
1.0
 40
1.0
 10
-226.9496
 20
-138.3488
 30
0.0
 10
-226.9496
 20
-138.3488
 30
0.0
 10
-254.6996
 20
-138.3488
 30
0.0
 10
-254.6996
 20
-138.3488
 30
0.0
 10
-254.6996
 20
-138.3488
 30
0.0
 10
-254.6996
 20
-138.3488
 30
0.0
 10
-254.6996
 20
-134.3488
 30
0.0
 10
-254.6996
 20
-134.3488
 30
0.0
 10
-254.6996
 20
-134.3488
 30
0.0
 10
-254.6996
 20
-134.3488
 30
0.0
 10
-274.5496
 20
-134.3488
 30
0.0
 10
-274.5496
 20
-134.3488
 30
0.0
 10
-274.5496
 20
-134.3488
 30
0.0
 10
-274.5496
 20
-134.3488
 30
0.0
 10
-274.5496
 20
-138.3488
 30
0.0
 10
-274.5496
 20
-138.3488
 30
0.0
 10
-274.5496
 20
-138.3488
 30
0.0
 10
-274.5496
 20
-138.3488
 30
0.0
 10
-302.2996
 20
-138.3488
 30
0.0
 10
-302.2996
 20
-138.3488
 30
0.0
 10
-302.2996
 20
-138.3488
 30
0.0
 10
-302.2996
 20
-138.3488
 30
0.0
 10
-302.2996
 20
-134.3488
 30
0.0
 10
-302.2996
 20
-134.3488
 30
0.0
 10
-302.2996
 20
-134.3488
 30
0.0
 10
-302.2996
 20
-134.3488
 30
0.0
 10
-322.1496
 20
-134.3488
 30
0.0
 10
-322.1496
 20
-134.3488
 30
0.0
 10
-322.1496
 20
-134.3488
 30
0.0
 10
-322.1496
 20
-134.3488
 30
0.0
 10
-322.1496
 20
-138.3488
 30
0.0
 10
-322.1496
 20
-138.3488
 30
0.0
 10
-322.1496
 20
-138.3488
 30
0.0
 10
-322.1496
 20
-138.3488
 30
0.0
 10
-349.8996
 20
-138.3488
 30
0.0
 10
-349.8996
 20
-138.3488
 30
0.0
 10
-349.8996
 20
-138.3488
 30
0.0
 10
-349.8996
 20
-138.3488
 30
0.0
 10
-349.8996
 20
-134.3488
 30
0.0
 10
-349.8996
 20
-134.3488
 30
0.0
 10
-349.8996
 20
-134.3488
 30
0.0
 10
-349.8996
 20
-134.3488
 30
0.0
 10
-369.7496
 20
-134.3488
 30
0.0
 10
-369.7496
 20
-134.3488
 30
0.0
 10
-369.7496
 20
-134.3488
 30
0.0
 10
-369.7496
 20
-134.3488
 30
0.0
 10
-369.7496
 20
-138.3488
 30
0.0
 10
-369.7496
 20
-138.3488
 30
0.0
 10
-369.7496
 20
-138.3488
 30
0.0
 10
-369.7496
 20
-138.3488
 30
0.0
 10
-397.4996
 20
-138.3488
 30
0.0
 10
-397.4996
 20
-138.3488
 30
0.0
 10
-397.4996
 20
-138.3488
 30
0.0
 10
-397.4996
 20
-138.3488
 30
0.0
 10
-397.4996
 20
-134.3488
 30
0.0
 10
-397.4996
 20
-134.3488
 30
0.0
 10
-397.4996
 20
-134.3488
 30
0.0
 10
-397.4996
 20
-134.3488
 30
0.0
 10
-417.3496
 20
-134.3488
 30
0.0
 10
-417.3496
 20
-134.3488
 30
0.0
 10
-417.3496
 20
-134.3488
 30
0.0
 10
-417.3496
 20
-134.3488
 30
0.0
 10
-417.3496
 20
-138.3488
 30
0.0
 10
-417.3496
 20
-138.3488
 30
0.0
 10
-417.3496
 20
-138.3488
 30
0.0
 10
-417.3496
 20
-138.3488
 30
0.0
 10
-427.4996
 20
-138.3488
 30
0.0
 10
-427.4996
 20
-138.3488
 30
0.0
 10
-427.4996
 20
-138.3488
 30
0.0
 10
-427.4996
 20
-138.3488
 30
0.0
 10
-427.4996
 20
-128.1988
 30
0.0
 10
-427.4996
 20
-128.1988
 30
0.0
 10
-427.4996
 20
-128.1988
 30
0.0
 10
-427.4996
 20
-128.1988
 30
0.0
 10
-423.4996
 20
-128.1988
 30
0.0
 10
-423.4996
 20
-128.1988
 30
0.0
 10
-423.4996
 20
-128.1988
 30
0.0
 10
-423.4996
 20
-128.1988
 30
0.0
 10
-423.4996
 20
-108.3488
 30
0.0
 10
-423.4996
 20
-108.3488
 30
0.0
 10
-423.4996
 20
-108.3488
 30
0.0
 10
-423.4996
 20
-108.3488
 30
0.0
 10
-427.4996
 20
-108.3488
 30
0.0
 10
-427.4996
 20
-108.3488
 30
0.0
 10
-427.4996
 20
-108.3488
 30
0.0
 10
-427.4996
 20
-108.3488
 30
0.0
 10
-427.4996
 20
-82.1988
 30
0.0
 10
-427.4996
 20
-82.1988
 30
0.0
 10
-427.4996
 20
-82.1988
 30
0.0
 10
-427.4996
 20
-82.1988
 30
0.0
 10
-423.4996
 20
-82.1988
 30
0.0
 10
-423.4996
 20
-82.1988
 30
0.0
 10
-423.4996
 20
-82.1988
 30
0.0
 10
-423.4996
 20
-82.1988
 30
0.0
 10
-423.4996
 20
-72.1988
 30
0.0
 10
-423.4996
 20
-72.1988
 30
0.0
 10
-423.4996
 20
-72.1988
 30
0.0
 10
-423.4996
 20
-72.1988
 30
0.0
 10
-371.4246
 20
-72.1988
 30
0.0
 10
-371.4246
 20
-72.1988
 30
0.0
 10
-371.4246
 20
-72.1988
 30
0.0
 10
-368.5933
 20
-72.1988
 30
0.0
 10
-365.977
 20
-70.6883
 30
0.0
 10
-364.5613
 20
-68.2363
 30
0.0
 10
-364.5613
 20
-68.2363
 30
0.0
 10
-363.1189
 20
-65.7379
 30
0.0
 10
-360.4531
 20
-64.1988
 30
0.0
 10
-357.5682
 20
-64.1988
 30
0.0
 10
-357.5682
 20
-64.1988
 30
0.0
 10
-357.5682
 20
-64.1988
 30
0.0
 10
-219.281
 20
-64.1988
 30
0.0
 10
-219.281
 20
-64.1988
 30
0.0
 10
-219.281
 20
-64.1988
 30
0.0
 10
-216.3961
 20
-64.1988
 30
0.0
 10
-213.7303
 20
-65.7379
 30
0.0
 10
-212.2879
 20
-68.2363
 30
0.0
 10
-212.2879
 20
-68.2363
 30
0.0
 10
-210.8722
 20
-70.6883
 30
0.0
 10
-208.2559
 20
-72.1988
 30
0.0
 10
-205.4246
 20
-72.1988
 30
0.0
 10
-205.4246
 20
-72.1988
 30
0.0
 10
-205.4246
 20
-72.1988
 30
0.0
 10
-153.3496
 20
-72.1988
 30
0.0
 10
-153.3496
 20
-72.1988
 30
0.0
 10
-153.3496
 20
-72.1988
 30
0.0
 10
-153.3496
 20
-72.1988
 30
0.0
 10
-153.3496
 20
-82.1988
 30
0.0
 10
-153.3496
 20
-82.1988
 30
0.0
 10
-153.3496
 20
-82.1988
 30
0.0
 10
-153.3496
 20
-82.1988
 30
0.0
 10
-149.3496
 20
-82.1988
 30
0.0
 10
-149.3496
 20
-82.1988
 30
0.0
 10
-149.3496
 20
-82.1988
 30
0.0
 10
-149.3496
 20
-82.1988
 30
0.0
 10
-149.3496
 20
-108.3488
 30
0.0
 10
-149.3496
 20
-108.3488
 30
0.0
 10
-149.3496
 20
-108.3488
 30
0.0
 10
-149.3496
 20
-108.3488
 30
0.0
 10
-153.3496
 20
-108.3488
 30
0.0
 10
-153.3496
 20
-108.3488
 30
0.0
 10
-153.3496
 20
-108.3488
 30
0.0
 10
-153.3496
 20
-108.3488
 30
0.0
 10
-153.3496
 20
-128.1988
 30
0.0
 10
-153.3496
 20
-128.1988
 30
0.0
 10
-153.3496
 20
-128.1988
 30
0.0
 10
-153.3496
 20
-128.1988
 30
0.0
 10
-149.3496
 20
-128.1988
 30
0.0
 10
-149.3496
 20
-128.1988
 30
0.0
 10
-149.3496
 20
-128.1988
 30
0.0
 10
-149.3496
 20
-128.1988
 30
0.0
 10
-149.3496
 20
-138.3488
 30
0.0
 10
-149.3496
 20
-138.3488
 30
0.0
 10
-149.3496
 20
-138.3488
 30
0.0
 10
-149.3496
 20
-138.3488
 30
0.0
 10
-159.4996
 20
-138.3488
 30
0.0
 10
-159.4996
 20
-138.3488
 30
0.0
 10
-159.4996
 20
-138.3488
 30
0.0
 10
-159.4996
 20
-138.3488
 30
0.0
 10
-159.4996
 20
-134.3488
 30
0.0
 10
-159.4996
 20
-134.3488
 30
0.0
 10
-159.4996
 20
-134.3488
 30
0.0
 10
-159.4996
 20
-134.3488
 30
0.0
 10
-179.3496
 20
-134.3488
 30
0.0
 10
-179.3496
 20
-134.3488
 30
0.0
 10
-179.3496
 20
-134.3488
 30
0.0
 10
-179.3496
 20
-134.3488
 30
0.0
 10
-179.3496
 20
-138.3488
 30
0.0
 10
-179.3496
 20
-138.3488
 30
0.0
 10
-179.3496
 20
-138.3488
 30
0.0
 10
-179.3496
 20
-138.3488
 30
0.0
 10
-207.0996
 20
-138.3488
 30
0.0
 10
-207.0996
 20
-138.3488
 30
0.0
 10
-207.0996
 20
-138.3488
 30
0.0
 10
-207.0996
 20
-138.3488
 30
0.0
 10
-207.0996
 20
-134.3488
 30
0.0
 10
-207.0996
 20
-134.3488
 30
0.0
 10
-207.0996
 20
-134.3488
 30
0.0
 10
-207.0996
 20
-134.3488
 30
0.0
 10
-226.9496
 20
-134.3488
 30
0.0
 10
-226.9496
 20
-134.3488
 30
0.0
 10
-226.9496
 20
-134.3488
 30
0.0
 10
-226.9496
 20
-134.3488
 30
0.0
 10
-226.9496
 20
-138.3488
 30
0.0
 10
-226.9496
 20
-138.3488
 30
0.0
  0
ENDSEC
  0
SECTION
  2
OBJECTS
  0
DICTIONARY
  5
C
330
0
100
AcDbDictionary
281
     1
  3
ACAD_DETAILVIEWSTYLE
350
D0
  3
ACAD_GROUP
350
D
  3
ACAD_LAYOUT
350
1A
  3
ACAD_MATERIAL
350
43
  3
ACAD_MLEADERSTYLE
350
6B
  3
ACAD_MLINESTYLE
350
17
  3
ACAD_PLOTSETTINGS
350
19
  3
ACAD_PLOTSTYLENAME
350
E
  3
ACAD_SCALELIST
350
47
  3
ACAD_SECTIONVIEWSTYLE
350
D1
  3
ACAD_TABLESTYLE
350
69
  3
ACAD_VISUALSTYLE
350
2A
  3
ACDB_RECOMPOSE_DATA
350
CD
  3
AcDbVariableDictionary
350
95
  0
SUN
  5
6D
330
29
100
AcDbSun
 90
        1
290
     0
 63
     7
421
 16777215
 40
1.0
291
     1
 91
  2455826
 92
 54000000
292
     0
 70
     2
 71
   256
280
     1
  0
DICTIONARY
  5
D0
102
{ACAD_REACTORS
330
C
102
}
330
C
100
AcDbDictionary
281
     1
  0
DICTIONARY
  5
D
102
{ACAD_REACTORS
330
C
102
}
330
C
100
AcDbDictionary
281
     1
  0
DICTIONARY
  5
1A
102
{ACAD_REACTORS
330
C
102
}
330
C
100
AcDbDictionary
281
     1
  3
Layout1
350
1E
  3
Layout2
350
26
  3
Model
350
22
  0
DICTIONARY
  5
43
102
{ACAD_REACTORS
330
C
102
}
330
C
100
AcDbDictionary
281
     1
  3
ByBlock
350
45
  3
ByLayer
350
44
  3
Global
350
46
  0
DICTIONARY
  5
6B
102
{ACAD_REACTORS
330
C
102
}
330
C
100
AcDbDictionary
281
     1
  3
Standard
350
6C
  0
DICTIONARY
  5
17
102
{ACAD_REACTORS
330
C
102
}
330
C
100
AcDbDictionary
281
     1
  3
Standard
350
18
  0
DICTIONARY
  5
19
102
{ACAD_REACTORS
330
C
102
}
330
C
100
AcDbDictionary
281
     1
  0
ACDBDICTIONARYWDFLT
  5
E
102
{ACAD_REACTORS
330
C
102
}
330
C
100
AcDbDictionary
281
     1
  3
Normal
350
F
100
AcDbDictionaryWithDefault
340
F
  0
DICTIONARY
  5
47
102
{ACAD_REACTORS
330
C
102
}
330
C
100
AcDbDictionary
281
     1
  3
A0
350
48
  3
A1
350
49
  3
A2
350
4A
  3
A3
350
4B
  3
A4
350
4C
  3
A5
350
4D
  3
A6
350
4E
  3
A7
350
4F
  3
A8
350
50
  3
A9
350
51
  3
B0
350
52
  3
B1
350
53
  3
B2
350
54
  3
B3
350
55
  3
B4
350
56
  3
B5
350
57
  3
B6
350
58
  3
B7
350
59
  3
B8
350
5A
  3
B9
350
5B
  3
C0
350
5C
  3
C1
350
5D
  3
C2
350
5E
  3
C3
350
5F
  3
C4
350
60
  3
C5
350
61
  3
C6
350
62
  3
C7
350
63
  3
C8
350
64
  3
C9
350
65
  3
D0
350
66
  3
D1
350
67
  3
D2
350
68
  0
DICTIONARY
  5
D1
102
{ACAD_REACTORS
330
C
102
}
330
C
100
AcDbDictionary
281
     1
  0
DICTIONARY
  5
69
102
{ACAD_REACTORS
330
C
102
}
330
C
100
AcDbDictionary
281
     1
  3
Standard
350
6A
  0
DICTIONARY
  5
2A
102
{ACAD_REACTORS
330
C
102
}
330
C
100
AcDbDictionary
281
     1
  3
2dWireframe
350
2F
  3
Basic
350
32
  3
Brighten
350
36
  3
ColorChange
350
3A
  3
Conceptual
350
34
  3
Dim
350
35
  3
EdgeColorOff
350
3D
  3
Facepattern
350
39
  3
Flat
350
2B
  3
FlatWithEdges
350
2C
  3
Gouraud
350
2D
  3
GouraudWithEdges
350
2E
  3
Hidden
350
31
  3
JitterOff
350
3B
  3
Linepattern
350
38
  3
OverhangOff
350
3C
  3
Realistic
350
33
  3
Shaded
350
42
  3
Shaded with edges
350
41
  3
Shades of Gray
350
3E
  3
Sketchy
350
3F
  3
Thicken
350
37
  3
Wireframe
350
30
  3
X-Ray
350
40
  0
XRECORD
  5
CD
102
{ACAD_REACTORS
330
C
102
}
330
C
100
AcDbXrecord
280
     1
 90
        1
330
6A
  0
DICTIONARY
  5
95
102
{ACAD_REACTORS
330
C
102
}
330
C
100
AcDbDictionary
281
     1
  3
CANNOSCALE
350
96
  3
CMLEADERSTYLE
350
CF
  3
CTABLESTYLE
350
CE
  3
XCLIPFRAME
350
97
  0
LAYOUT
  5
1E
102
{ACAD_REACTORS
330
1A
102
}
330
1A
100
AcDbPlotSettings
  1

  2
none_device
  4

  6

 40
0.0
 41
0.0
 42
0.0
 43
0.0
 44
0.0
 45
0.0
 46
0.0
 47
0.0
 48
0.0
 49
0.0
140
0.0
141
0.0
142
1.0
143
1.0
 70
   688
 72
     0
 73
     0
 74
     5
  7

 75
    16
 76
     0
 77
     2
 78
   300
147
1.0
148
0.0
149
0.0
100
AcDbLayout
  1
Layout1
 70
     1
 71
     1
 10
0.0
 20
0.0
 11
12.0
 21
9.0
 12
0.0
 22
0.0
 32
0.0
 14
1.000000000000000E+20
 24
1.000000000000000E+20
 34
1.000000000000000E+20
 15
-1.000000000000000E+20
 25
-1.000000000000000E+20
 35
-1.000000000000000E+20
146
0.0
 13
0.0
 23
0.0
 33
0.0
 16
1.0
 26
0.0
 36
0.0
 17
0.0
 27
1.0
 37
0.0
 76
     0
330
1B
  0
LAYOUT
  5
26
102
{ACAD_REACTORS
330
1A
102
}
330
1A
100
AcDbPlotSettings
  1

  2
none_device
  4

  6

 40
0.0
 41
0.0
 42
0.0
 43
0.0
 44
0.0
 45
0.0
 46
0.0
 47
0.0
 48
0.0
 49
0.0
140
0.0
141
0.0
142
1.0
143
1.0
 70
   688
 72
     0
 73
     0
 74
     5
  7

 75
    16
 76
     0
 77
     2
 78
   300
147
1.0
148
0.0
149
0.0
100
AcDbLayout
  1
Layout2
 70
     1
 71
     2
 10
0.0
 20
0.0
 11
0.0
 21
0.0
 12
0.0
 22
0.0
 32
0.0
 14
0.0
 24
0.0
 34
0.0
 15
0.0
 25
0.0
 35
0.0
146
0.0
 13
0.0
 23
0.0
 33
0.0
 16
1.0
 26
0.0
 36
0.0
 17
0.0
 27
1.0
 37
0.0
 76
     0
330
23
  0
LAYOUT
  5
22
102
{ACAD_REACTORS
330
1A
102
}
330
1A
100
AcDbPlotSettings
  1

  2
none_device
  4
Letter_(8.50_x_11.00_Inches)
  6

 40
6.35
 41
6.35
 42
6.35000508
 43
6.35000508
 44
215.9
 45
279.4
 46
0.0
 47
0.0
 48
0.0
 49
0.0
140
0.0
141
0.0
142
1.0
143
1.0
 70
  1712
 72
     0
 73
     0
 74
     0
  7

 75
     0
 76
     0
 77
     2
 78
   300
147
1.0
148
0.0
149
0.0
100
AcDbLayout
  1
Model
 70
     1
 71
     0
 10
0.0
 20
0.0
 11
12.0
 21
9.0
 12
0.0
 22
0.0
 32
0.0
 14
-428.3632
 24
-182.269
 34
0.0
 15
405.5174
 25
142.8503
 35
0.0
146
0.0
 13
0.0
 23
0.0
 33
0.0
 16
1.0
 26
0.0
 36
0.0
 17
0.0
 27
1.0
 37
0.0
 76
     0
330
1F
331
29
  0
MATERIAL
  5
45
102
{ACAD_REACTORS
330
43
102
}
330
43
100
AcDbMaterial
  1
ByBlock
 72
     1
 94
      127
  0
MATERIAL
  5
44
102
{ACAD_REACTORS
330
43
102
}
330
43
100
AcDbMaterial
  1
ByLayer
 72
     1
 94
      127
  0
MATERIAL
  5
46
102
{ACAD_REACTORS
330
43
102
}
330
43
100
AcDbMaterial
  1
Global
 72
     1
 94
      127
  0
MLEADERSTYLE
  5
6C
102
{ACAD_REACTORS
330
6B
102
}
102
{ACAD_XDICTIONARY
360
CB
102
}
330
6B
100
AcDbMLeaderStyle
170
     2
171
     1
172
     0
 90
        2
 40
0.0
 41
0.0
173
     1
 91
-1056964608
340
14
 92
       -2
290
     1
 42
0.09
291
     1
 43
0.36
  3
Standard
341
0
 44
0.18
300

342
11
174
     1
178
     6
175
     1
176
     0
 93
-1056964608
 45
0.18
292
     0
297
     0
 46
0.18
343
0
 94
-1056964608
 47
1.0
 49
1.0
140
1.0
293
     1
141
0.0
294
     1
177
     0
142
1.0
295
     0
296
     0
143
0.125
1001
ACAD_MLEADERVER
1070
     2
  0
MLINESTYLE
  5
18
102
{ACAD_REACTORS
330
17
102
}
330
17
100
AcDbMlineStyle
  2
Standard
 70
     0
  3

 62
   256
 51
90.0
 52
90.0
 71
     2
 49
0.5
 62
   256
  6
BYLAYER
 49
-0.5
 62
   256
  6
BYLAYER
  0
ACDBPLACEHOLDER
  5
F
102
{ACAD_REACTORS
330
E
102
}
330
E
  0
SCALE
  5
48
102
{ACAD_REACTORS
330
47
102
}
330
47
100
AcDbScale
 70
     0
300
1:1
140
1.0
141
1.0
290
     1
  0
SCALE
  5
49
102
{ACAD_REACTORS
330
47
102
}
330
47
100
AcDbScale
 70
     0
300
1:2
140
1.0
141
2.0
290
     0
  0
SCALE
  5
4A
102
{ACAD_REACTORS
330
47
102
}
330
47
100
AcDbScale
 70
     0
300
1:4
140
1.0
141
4.0
290
     0
  0
SCALE
  5
4B
102
{ACAD_REACTORS
330
47
102
}
330
47
100
AcDbScale
 70
     0
300
1:5
140
1.0
141
5.0
290
     0
  0
SCALE
  5
4C
102
{ACAD_REACTORS
330
47
102
}
330
47
100
AcDbScale
 70
     0
300
1:8
140
1.0
141
8.0
290
     0
  0
SCALE
  5
4D
102
{ACAD_REACTORS
330
47
102
}
330
47
100
AcDbScale
 70
     0
300
1:10
140
1.0
141
10.0
290
     0
  0
SCALE
  5
4E
102
{ACAD_REACTORS
330
47
102
}
330
47
100
AcDbScale
 70
     0
300
1:16
140
1.0
141
16.0
290
     0
  0
SCALE
  5
4F
102
{ACAD_REACTORS
330
47
102
}
330
47
100
AcDbScale
 70
     0
300
1:20
140
1.0
141
20.0
290
     0
  0
SCALE
  5
50
102
{ACAD_REACTORS
330
47
102
}
330
47
100
AcDbScale
 70
     0
300
1:30
140
1.0
141
30.0
290
     0
  0
SCALE
  5
51
102
{ACAD_REACTORS
330
47
102
}
330
47
100
AcDbScale
 70
     0
300
1:40
140
1.0
141
40.0
290
     0
  0
SCALE
  5
52
102
{ACAD_REACTORS
330
47
102
}
330
47
100
AcDbScale
 70
     0
300
1:50
140
1.0
141
50.0
290
     0
  0
SCALE
  5
53
102
{ACAD_REACTORS
330
47
102
}
330
47
100
AcDbScale
 70
     0
300
1:100
140
1.0
141
100.0
290
     0
  0
SCALE
  5
54
102
{ACAD_REACTORS
330
47
102
}
330
47
100
AcDbScale
 70
     0
300
2:1
140
2.0
141
1.0
290
     0
  0
SCALE
  5
55
102
{ACAD_REACTORS
330
47
102
}
330
47
100
AcDbScale
 70
     0
300
4:1
140
4.0
141
1.0
290
     0
  0
SCALE
  5
56
102
{ACAD_REACTORS
330
47
102
}
330
47
100
AcDbScale
 70
     0
300
8:1
140
8.0
141
1.0
290
     0
  0
SCALE
  5
57
102
{ACAD_REACTORS
330
47
102
}
330
47
100
AcDbScale
 70
     0
300
10:1
140
10.0
141
1.0
290
     0
  0
SCALE
  5
58
102
{ACAD_REACTORS
330
47
102
}
330
47
100
AcDbScale
 70
     0
300
100:1
140
100.0
141
1.0
290
     0
  0
SCALE
  5
59
102
{ACAD_REACTORS
330
47
102
}
330
47
100
AcDbScale
 70
     0
300
1/128" = 1'-0"
140
0.0078125
141
12.0
290
     0
  0
SCALE
  5
5A
102
{ACAD_REACTORS
330
47
102
}
330
47
100
AcDbScale
 70
     0
300
1/64" = 1'-0"
140
0.015625
141
12.0
290
     0
  0
SCALE
  5
5B
102
{ACAD_REACTORS
330
47
102
}
330
47
100
AcDbScale
 70
     0
300
1/32" = 1'-0"
140
0.03125
141
12.0
290
     0
  0
SCALE
  5
5C
102
{ACAD_REACTORS
330
47
102
}
330
47
100
AcDbScale
 70
     0
300
1/16" = 1'-0"
140
0.0625
141
12.0
290
     0
  0
SCALE
  5
5D
102
{ACAD_REACTORS
330
47
102
}
330
47
100
AcDbScale
 70
     0
300
3/32" = 1'-0"
140
0.09375
141
12.0
290
     0
  0
SCALE
  5
5E
102
{ACAD_REACTORS
330
47
102
}
330
47
100
AcDbScale
 70
     0
300
1/8" = 1'-0"
140
0.125
141
12.0
290
     0
  0
SCALE
  5
5F
102
{ACAD_REACTORS
330
47
102
}
330
47
100
AcDbScale
 70
     0
300
3/16" = 1'-0"
140
0.1875
141
12.0
290
     0
  0
SCALE
  5
60
102
{ACAD_REACTORS
330
47
102
}
330
47
100
AcDbScale
 70
     0
300
1/4" = 1'-0"
140
0.25
141
12.0
290
     0
  0
SCALE
  5
61
102
{ACAD_REACTORS
330
47
102
}
330
47
100
AcDbScale
 70
     0
300
3/8" = 1'-0"
140
0.375
141
12.0
290
     0
  0
SCALE
  5
62
102
{ACAD_REACTORS
330
47
102
}
330
47
100
AcDbScale
 70
     0
300
1/2" = 1'-0"
140
0.5
141
12.0
290
     0
  0
SCALE
  5
63
102
{ACAD_REACTORS
330
47
102
}
330
47
100
AcDbScale
 70
     0
300
3/4" = 1'-0"
140
0.75
141
12.0
290
     0
  0
SCALE
  5
64
102
{ACAD_REACTORS
330
47
102
}
330
47
100
AcDbScale
 70
     0
300
1" = 1'-0"
140
1.0
141
12.0
290
     0
  0
SCALE
  5
65
102
{ACAD_REACTORS
330
47
102
}
330
47
100
AcDbScale
 70
     0
300
1-1/2" = 1'-0"
140
1.5
141
12.0
290
     0
  0
SCALE
  5
66
102
{ACAD_REACTORS
330
47
102
}
330
47
100
AcDbScale
 70
     0
300
3" = 1'-0"
140
3.0
141
12.0
290
     0
  0
SCALE
  5
67
102
{ACAD_REACTORS
330
47
102
}
330
47
100
AcDbScale
 70
     0
300
6" = 1'-0"
140
6.0
141
12.0
290
     0
  0
SCALE
  5
68
102
{ACAD_REACTORS
330
47
102
}
330
47
100
AcDbScale
 70
     0
300
1'-0" = 1'-0"
140
12.0
141
12.0
290
     0
  0
TABLESTYLE
  5
6A
102
{ACAD_REACTORS
330
69
102
}
102
{ACAD_XDICTIONARY
360
C8
102
}
330
69
100
AcDbTableStyle
  3
Standard
 70
     0
 71
     0
 40
0.06
 41
0.06
280
     0
281
     0
  7
Standard
140
0.18
170
     2
 62
     0
 63
   257
283
     0
 90
        4
 91
        0
  1

274
    -2
284
     1
 64
     0
275
    -2
285
     1
 65
     0
276
    -2
286
     1
 66
     0
277
    -2
287
     1
 67
     0
278
    -2
288
     1
 68
     0
279
    -2
289
     1
 69
     0
  7
Standard
140
0.25
170
     5
 62
     0
 63
   257
283
     0
 90
        4
 91
        0
  1

274
    -2
284
     1
 64
     0
275
    -2
285
     1
 65
     0
276
    -2
286
     1
 66
     0
277
    -2
287
     1
 67
     0
278
    -2
288
     1
 68
     0
279
    -2
289
     1
 69
     0
  7
Standard
140
0.18
170
     5
 62
     0
 63
   257
283
     0
 90
        4
 91
        0
  1

274
    -2
284
     1
 64
     0
275
    -2
285
     1
 65
     0
276
    -2
286
     1
 66
     0
277
    -2
287
     1
 67
     0
278
    -2
288
     1
 68
     0
279
    -2
289
     1
 69
     0
  0
VISUALSTYLE
  5
2F
102
{ACAD_REACTORS
330
2A
102
}
102
{ACAD_XDICTIONARY
360
A0
102
}
330
2A
100
AcDbVisualStyle
  2
2dWireframe
 70
     4
 71
     0
 72
     2
 73
     0
 90
        0
 40
0.6
 41
30.0
 62
     5
 63
     7
421
 16777215
 74
     1
 91
        4
 64
     7
 65
   257
 75
     1
175
     1
 42
1.0
 92
        0
 66
   257
 43
1.0
 76
     1
 77
     6
 78
     2
 67
     7
 79
     5
170
     0
171
     0
290
     0
174
     0
 93
        1
 44
0.0
173
     0
291
     0
 45
0.0
  0
VISUALSTYLE
  5
32
102
{ACAD_REACTORS
330
2A
102
}
102
{ACAD_XDICTIONARY
360
A6
102
}
330
2A
100
AcDbVisualStyle
  2
Basic
 70
     7
 71
     1
 72
     0
 73
     1
 90
        0
 40
0.6
 41
30.0
 62
     5
 63
     7
421
 16777215
 74
     0
 91
        4
 64
     7
 65
   257
 75
     1
175
     1
 42
1.0
 92
        8
 66
     7
 43
1.0
 76
     1
 77
     6
 78
     2
 67
     7
 79
     5
170
     0
171
     0
290
     0
174
     0
 93
        1
 44
0.0
173
     0
291
     1
 45
0.0
  0
VISUALSTYLE
  5
36
102
{ACAD_REACTORS
330
2A
102
}
102
{ACAD_XDICTIONARY
360
AE
102
}
330
2A
100
AcDbVisualStyle
  2
Brighten
 70
    12
 71
     2
 72
     2
 73
     0
 90
        0
 40
0.6
 41
30.0
 62
     5
 63
     7
421
 16777215
 74
     1
 91
        4
 64
     7
 65
   257
 75
     1
175
     1
 42
1.0
 92
        8
 66
     7
 43
1.0
 76
     1
 77
     6
 78
     2
 67
     7
 79
     5
170
     0
171
     0
290
     0
174
     0
 93
        1
 44
50.0
173
     0
291
     1
 45
0.0
  0
VISUALSTYLE
  5
3A
102
{ACAD_REACTORS
330
2A
102
}
102
{ACAD_XDICTIONARY
360
B6
102
}
330
2A
100
AcDbVisualStyle
  2
ColorChange
 70
    16
 71
     2
 72
     2
 73
     3
 90
        0
 40
0.6
 41
30.0
 62
     5
 63
     8
421
  8421504
 74
     1
 91
        4
 64
     7
 65
   257
 75
     1
175
     1
 42
1.0
 92
        8
 66
     8
424
  8421504
 43
1.0
 76
     1
 77
     6
 78
     2
 67
     7
 79
     5
170
     0
171
     0
290
     0
174
     0
 93
        1
 44
0.0
173
     0
291
     1
 45
0.0
  0
VISUALSTYLE
  5
34
102
{ACAD_REACTORS
330
2A
102
}
102
{ACAD_XDICTIONARY
360
AA
102
}
330
2A
100
AcDbVisualStyle
  2
Conceptual
 70
     9
 71
     3
 72
     2
 73
     0
 90
        0
 40
0.6
 41
30.0
 62
     5
 63
     7
421
 16777215
 74
     2
 91
        2
 64
     7
 65
   257
 75
     1
175
     1
 42
179.0
 92
        8
 66
     7
 43
1.0
 76
     1
 77
     6
 78
     2
 67
     7
 79
     3
170
     0
171
     0
290
     0
174
     0
 93
        1
 44
0.0
173
     0
291
     0
 45
0.0
  0
VISUALSTYLE
  5
35
102
{ACAD_REACTORS
330
2A
102
}
102
{ACAD_XDICTIONARY
360
AC
102
}
330
2A
100
AcDbVisualStyle
  2
Dim
 70
    11
 71
     2
 72
     2
 73
     0
 90
        0
 40
0.6
 41
30.0
 62
     5
 63
     7
421
 16777215
 74
     1
 91
        4
 64
     7
 65
   257
 75
     1
175
     1
 42
1.0
 92
        8
 66
     7
 43
1.0
 76
     1
 77
     6
 78
     2
 67
     7
 79
     5
170
     0
171
     0
290
     0
174
     0
 93
        1
 44
-50.0
173
     0
291
     1
 45
0.0
  0
VISUALSTYLE
  5
3D
102
{ACAD_REACTORS
330
2A
102
}
102
{ACAD_XDICTIONARY
360
BC
102
}
330
2A
100
AcDbVisualStyle
  2
EdgeColorOff
 70
    22
 71
     2
 72
     2
 73
     0
 90
        0
 40
0.6
 41
30.0
 62
     5
 63
     7
421
 16777215
 74
     1
 91
        4
 64
     7
 65
   257
 75
     1
175
     1
 42
1.0
 92
        8
 66
     7
 43
1.0
 76
     1
 77
     6
 78
     2
 67
     7
 79
     5
170
     0
171
     0
290
     0
174
     0
 93
        1
 44
0.0
173
     0
291
     1
 45
0.0
  0
VISUALSTYLE
  5
39
102
{ACAD_REACTORS
330
2A
102
}
102
{ACAD_XDICTIONARY
360
B4
102
}
330
2A
100
AcDbVisualStyle
  2
Facepattern
 70
    15
 71
     2
 72
     2
 73
     0
 90
        0
 40
0.6
 41
30.0
 62
     5
 63
     7
421
 16777215
 74
     1
 91
        4
 64
     7
 65
   257
 75
     1
175
     1
 42
1.0
 92
        8
 66
     7
 43
1.0
 76
     1
 77
     6
 78
     2
 67
     7
 79
     5
170
     0
171
     0
290
     0
174
     0
 93
        1
 44
0.0
173
     0
291
     1
 45
0.0
  0
VISUALSTYLE
  5
2B
102
{ACAD_REACTORS
330
2A
102
}
102
{ACAD_XDICTIONARY
360
98
102
}
330
2A
100
AcDbVisualStyle
  2
Flat
 70
     0
 71
     2
 72
     1
 73
     1
 90
        2
 40
0.6
 41
30.0
 62
     5
 63
     7
421
 16777215
 74
     0
 91
        0
 64
     7
 65
   257
 75
     1
175
     1
 42
1.0
 92
        8
 66
     7
 43
1.0
 76
     1
 77
     6
 78
     2
 67
     7
 79
     5
170
     0
171
     0
290
     0
174
     0
 93
       13
 44
0.0
173
     0
291
     1
 45
0.0
  0
VISUALSTYLE
  5
2C
102
{ACAD_REACTORS
330
2A
102
}
102
{ACAD_XDICTIONARY
360
9A
102
}
330
2A
100
AcDbVisualStyle
  2
FlatWithEdges
 70
     1
 71
     2
 72
     1
 73
     1
 90
        2
 40
0.6
 41
30.0
 62
     5
 63
     7
421
 16777215
 74
     1
 91
        0
 64
     7
 65
   257
 75
     1
175
     1
 42
1.0
 92
        0
 66
   257
 43
1.0
 76
     1
 77
     6
 78
     2
 67
     7
 79
     5
170
     0
171
     0
290
     0
174
     0
 93
       13
 44
0.0
173
     0
291
     1
 45
0.0
  0
VISUALSTYLE
  5
2D
102
{ACAD_REACTORS
330
2A
102
}
102
{ACAD_XDICTIONARY
360
9C
102
}
330
2A
100
AcDbVisualStyle
  2
Gouraud
 70
     2
 71
     2
 72
     2
 73
     1
 90
        2
 40
0.6
 41
30.0
 62
     5
 63
     7
421
 16777215
 74
     0
 91
        0
 64
     7
 65
   257
 75
     1
175
     1
 42
1.0
 92
        0
 66
     7
 43
1.0
 76
     1
 77
     6
 78
     2
 67
     7
 79
     5
170
     0
171
     0
290
     0
174
     0
 93
       13
 44
0.0
173
     0
291
     1
 45
0.0
  0
VISUALSTYLE
  5
2E
102
{ACAD_REACTORS
330
2A
102
}
102
{ACAD_XDICTIONARY
360
9E
102
}
330
2A
100
AcDbVisualStyle
  2
GouraudWithEdges
 70
     3
 71
     2
 72
     2
 73
     1
 90
        2
 40
0.6
 41
30.0
 62
     5
 63
     7
421
 16777215
 74
     1
 91
        0
 64
     7
 65
   257
 75
     1
175
     1
 42
1.0
 92
        0
 66
   257
 43
1.0
 76
     1
 77
     6
 78
     2
 67
     7
 79
     5
170
     0
171
     0
290
     0
174
     0
 93
       13
 44
0.0
173
     0
291
     1
 45
0.0
  0
VISUALSTYLE
  5
31
102
{ACAD_REACTORS
330
2A
102
}
102
{ACAD_XDICTIONARY
360
A4
102
}
330
2A
100
AcDbVisualStyle
  2
Hidden
 70
     6
 71
     1
 72
     2
 73
     2
 90
        0
 40
0.6
 41
30.0
 62
     5
 63
     7
421
 16777215
 74
     2
 91
        2
 64
     7
 65
   257
 75
     2
175
     1
 42
40.0
 92
        0
 66
   257
 43
1.0
 76
     1
 77
     6
 78
     2
 67
     7
 79
     3
170
     0
171
     0
290
     0
174
     0
 93
        1
 44
0.0
173
     0
291
     0
 45
0.0
  0
VISUALSTYLE
  5
3B
102
{ACAD_REACTORS
330
2A
102
}
102
{ACAD_XDICTIONARY
360
B8
102
}
330
2A
100
AcDbVisualStyle
  2
JitterOff
 70
    20
 71
     2
 72
     2
 73
     0
 90
        0
 40
0.6
 41
30.0
 62
     5
 63
     7
421
 16777215
 74
     1
 91
        4
 64
     7
 65
   257
 75
     1
175
     1
 42
1.0
 92
       10
 66
     7
 43
1.0
 76
     1
 77
     6
 78
     2
 67
     7
 79
     5
170
     0
171
     0
290
     0
174
     0
 93
        1
 44
0.0
173
     0
291
     1
 45
0.0
  0
VISUALSTYLE
  5
38
102
{ACAD_REACTORS
330
2A
102
}
102
{ACAD_XDICTIONARY
360
B2
102
}
330
2A
100
AcDbVisualStyle
  2
Linepattern
 70
    14
 71
     2
 72
     2
 73
     0
 90
        0
 40
0.6
 41
30.0
 62
     5
 63
     7
421
 16777215
 74
     1
 91
        4
 64
     7
 65
   257
 75
     7
175
     7
 42
1.0
 92
        8
 66
     7
 43
1.0
 76
     1
 77
     6
 78
     2
 67
     7
 79
     5
170
     0
171
     0
290
     0
174
     0
 93
        1
 44
0.0
173
     0
291
     1
 45
0.0
  0
VISUALSTYLE
  5
3C
102
{ACAD_REACTORS
330
2A
102
}
102
{ACAD_XDICTIONARY
360
BA
102
}
330
2A
100
AcDbVisualStyle
  2
OverhangOff
 70
    21
 71
     2
 72
     2
 73
     0
 90
        0
 40
0.6
 41
30.0
 62
     5
 63
     7
421
 16777215
 74
     1
 91
        4
 64
     7
 65
   257
 75
     1
175
     1
 42
1.0
 92
        9
 66
     7
 43
1.0
 76
     1
 77
     6
 78
     2
 67
     7
 79
     5
170
     0
171
     0
290
     0
174
     0
 93
        1
 44
0.0
173
     0
291
     1
 45
0.0
  0
VISUALSTYLE
  5
33
102
{ACAD_REACTORS
330
2A
102
}
102
{ACAD_XDICTIONARY
360
A8
102
}
330
2A
100
AcDbVisualStyle
  2
Realistic
 70
     8
 71
     2
 72
     3
 73
     0
 90
        2
 40
0.6
 41
30.0
 62
     5
 63
     7
421
 16777215
 74
     0
 91
        0
 64
     7
 65
   257
 75
     1
175
     1
 42
1.0
 92
        8
 66
   257
 43
1.0
 76
     1
 77
     6
 78
     2
 67
     7
 79
     3
170
     0
171
     0
290
     0
174
     0
 93
       13
 44
0.0
173
     0
291
     0
 45
0.0
  0
VISUALSTYLE
  5
42
102
{ACAD_REACTORS
330
2A
102
}
102
{ACAD_XDICTIONARY
360
C6
102
}
330
2A
100
AcDbVisualStyle
  2
Shaded
 70
    27
 71
     2
 72
     2
 73
     1
 90
        2
 40
0.6
 41
30.0
 62
     5
 63
     7
421
 16777215
 74
     0
 91
        4
 64
     7
 65
   257
 75
     1
175
     1
 42
1.0
 92
        8
 66
   257
 43
1.0
 76
     1
 77
     6
 78
     2
 67
     8
425
  7895160
 79
     3
170
     0
171
     0
290
     0
174
     0
 93
        5
 44
0.0
173
     0
291
     0
 45
0.0
  0
VISUALSTYLE
  5
41
102
{ACAD_REACTORS
330
2A
102
}
102
{ACAD_XDICTIONARY
360
C4
102
}
330
2A
100
AcDbVisualStyle
  2
Shaded with edges
 70
    26
 71
     2
 72
     2
 73
     1
 90
        2
 40
0.6
 41
30.0
 62
     5
 63
     7
421
 16777215
 74
     1
 91
       10
 64
     7
 65
   257
 75
     2
175
     1
 42
1.0
 92
        8
 66
   257
 43
1.0
 76
     1
 77
     6
 78
     2
 67
     7
 79
     3
170
     0
171
     0
290
     0
174
     0
 93
        5
 44
0.0
173
     0
291
     0
 45
0.0
  0
VISUALSTYLE
  5
3E
102
{ACAD_REACTORS
330
2A
102
}
102
{ACAD_XDICTIONARY
360
BE
102
}
330
2A
100
AcDbVisualStyle
  2
Shades of Gray
 70
    23
 71
     2
 72
     2
 73
     3
 90
        0
 40
0.6
 41
30.0
 62
     5
 63
     7
421
 16777215
 74
     2
 91
        2
 64
     7
 65
     7
 75
     1
175
     1
 42
40.0
 92
        8
 66
     7
 43
1.0
 76
     1
 77
     6
 78
     2
 67
     7
 79
     3
170
     0
171
     0
290
     0
174
     0
 93
        1
 44
0.0
173
     0
291
     0
 45
0.0
  0
VISUALSTYLE
  5
3F
102
{ACAD_REACTORS
330
2A
102
}
102
{ACAD_XDICTIONARY
360
C0
102
}
330
2A
100
AcDbVisualStyle
  2
Sketchy
 70
    24
 71
     1
 72
     2
 73
     2
 90
        0
 40
0.6
 41
30.0
 62
     5
 63
     7
421
 16777215
 74
     2
 91
        2
 64
     7
 65
     7
 75
     1
175
     1
 42
40.0
 92
       11
 66
     7
 43
1.0
 76
     1
 77
     6
 78
     2
 67
     7
 79
     6
170
     0
171
     0
290
     0
174
     0
 93
        1
 44
0.0
173
     0
291
     0
 45
0.0
  0
VISUALSTYLE
  5
37
102
{ACAD_REACTORS
330
2A
102
}
102
{ACAD_XDICTIONARY
360
B0
102
}
330
2A
100
AcDbVisualStyle
  2
Thicken
 70
    13
 71
     2
 72
     2
 73
     0
 90
        0
 40
0.6
 41
30.0
 62
     5
 63
     7
421
 16777215
 74
     1
 91
        4
 64
     7
 65
   257
 75
     1
175
     1
 42
1.0
 92
       12
 66
     7
 43
1.0
 76
     1
 77
     6
 78
     2
 67
     7
 79
     5
170
     0
171
     0
290
     0
174
     0
 93
        1
 44
0.0
173
     0
291
     1
 45
0.0
  0
VISUALSTYLE
  5
30
102
{ACAD_REACTORS
330
2A
102
}
102
{ACAD_XDICTIONARY
360
A2
102
}
330
2A
100
AcDbVisualStyle
  2
Wireframe
 70
     5
 71
     0
 72
     2
 73
     0
 90
        0
 40
0.6
 41
30.0
 62
     5
 63
     7
421
 16777215
 74
     1
 91
        4
 64
     7
 65
   257
 75
     1
175
     1
 42
1.0
 92
        0
 66
   257
 43
1.0
 76
     1
 77
     6
 78
     2
 67
     7
 79
     3
170
     0
171
     0
290
     0
174
     0
 93
        1
 44
0.0
173
     0
291
     0
 45
0.0
  0
VISUALSTYLE
  5
40
102
{ACAD_REACTORS
330
2A
102
}
102
{ACAD_XDICTIONARY
360
C2
102
}
330
2A
100
AcDbVisualStyle
  2
X-Ray
 70
    25
 71
     2
 72
     2
 73
     1
 90
        1
 40
0.5
 41
30.0
 62
     5
 63
     7
421
 16777215
 74
     1
 91
        0
 64
     7
 65
   257
 75
     1
175
     1
 42
1.0
 92
        8
 66
     7
 43
1.0
 76
     1
 77
     6
 78
     2
 67
     7
 79
     3
170
     0
171
     0
290
     0
174
     0
 93
       13
 44
0.0
173
     0
291
     0
 45
0.0
  0
DICTIONARYVAR
  5
96
102
{ACAD_REACTORS
330
95
102
}
330
95
100
DictionaryVariables
280
     0
  1
1:1
  0
DICTIONARYVAR
  5
CF
102
{ACAD_REACTORS
330
95
102
}
330
95
100
DictionaryVariables
280
     0
  1
Standard
  0
DICTIONARYVAR
  5
CE
102
{ACAD_REACTORS
330
95
102
}
330
95
100
DictionaryVariables
280
     0
  1
Standard
  0
DICTIONARYVAR
  5
97
102
{ACAD_REACTORS
330
95
102
}
330
95
100
DictionaryVariables
280
     0
  1
2
  0
DICTIONARY
  5
CB
330
6C
100
AcDbDictionary
280
     1
281
     1
  3
ACAD_XREC_ROUNDTRIP
360
CC
  0
DICTIONARY
  5
C8
330
6A
100
AcDbDictionary
280
     1
281
     1
  3
ACAD_ROUNDTRIP_2008_TABLESTYLE_CELLSTYLEMAP
360
C9
  0
DICTIONARY
  5
A0
330
2F
100
AcDbDictionary
280
     1
281
     1
  3
ACAD_XREC_ROUNDTRIP
360
A1
  0
DICTIONARY
  5
A6
330
32
100
AcDbDictionary
280
     1
281
     1
  3
ACAD_XREC_ROUNDTRIP
360
A7
  0
DICTIONARY
  5
AE
330
36
100
AcDbDictionary
280
     1
281
     1
  3
ACAD_XREC_ROUNDTRIP
360
AF
  0
DICTIONARY
  5
B6
330
3A
100
AcDbDictionary
280
     1
281
     1
  3
ACAD_XREC_ROUNDTRIP
360
B7
  0
DICTIONARY
  5
AA
330
34
100
AcDbDictionary
280
     1
281
     1
  3
ACAD_XREC_ROUNDTRIP
360
AB
  0
DICTIONARY
  5
AC
330
35
100
AcDbDictionary
280
     1
281
     1
  3
ACAD_XREC_ROUNDTRIP
360
AD
  0
DICTIONARY
  5
BC
330
3D
100
AcDbDictionary
280
     1
281
     1
  3
ACAD_XREC_ROUNDTRIP
360
BD
  0
DICTIONARY
  5
B4
330
39
100
AcDbDictionary
280
     1
281
     1
  3
ACAD_XREC_ROUNDTRIP
360
B5
  0
DICTIONARY
  5
98
330
2B
100
AcDbDictionary
280
     1
281
     1
  3
ACAD_XREC_ROUNDTRIP
360
99
  0
DICTIONARY
  5
9A
330
2C
100
AcDbDictionary
280
     1
281
     1
  3
ACAD_XREC_ROUNDTRIP
360
9B
  0
DICTIONARY
  5
9C
330
2D
100
AcDbDictionary
280
     1
281
     1
  3
ACAD_XREC_ROUNDTRIP
360
9D
  0
DICTIONARY
  5
9E
330
2E
100
AcDbDictionary
280
     1
281
     1
  3
ACAD_XREC_ROUNDTRIP
360
9F
  0
DICTIONARY
  5
A4
330
31
100
AcDbDictionary
280
     1
281
     1
  3
ACAD_XREC_ROUNDTRIP
360
A5
  0
DICTIONARY
  5
B8
330
3B
100
AcDbDictionary
280
     1
281
     1
  3
ACAD_XREC_ROUNDTRIP
360
B9
  0
DICTIONARY
  5
B2
330
38
100
AcDbDictionary
280
     1
281
     1
  3
ACAD_XREC_ROUNDTRIP
360
B3
  0
DICTIONARY
  5
BA
330
3C
100
AcDbDictionary
280
     1
281
     1
  3
ACAD_XREC_ROUNDTRIP
360
BB
  0
DICTIONARY
  5
A8
330
33
100
AcDbDictionary
280
     1
281
     1
  3
ACAD_XREC_ROUNDTRIP
360
A9
  0
DICTIONARY
  5
C6
330
42
100
AcDbDictionary
280
     1
281
     1
  3
ACAD_XREC_ROUNDTRIP
360
C7
  0
DICTIONARY
  5
C4
330
41
100
AcDbDictionary
280
     1
281
     1
  3
ACAD_XREC_ROUNDTRIP
360
C5
  0
DICTIONARY
  5
BE
330
3E
100
AcDbDictionary
280
     1
281
     1
  3
ACAD_XREC_ROUNDTRIP
360
BF
  0
DICTIONARY
  5
C0
330
3F
100
AcDbDictionary
280
     1
281
     1
  3
ACAD_XREC_ROUNDTRIP
360
C1
  0
DICTIONARY
  5
B0
330
37
100
AcDbDictionary
280
     1
281
     1
  3
ACAD_XREC_ROUNDTRIP
360
B1
  0
DICTIONARY
  5
A2
330
30
100
AcDbDictionary
280
     1
281
     1
  3
ACAD_XREC_ROUNDTRIP
360
A3
  0
DICTIONARY
  5
C2
330
40
100
AcDbDictionary
280
     1
281
     1
  3
ACAD_XREC_ROUNDTRIP
360
C3
  0
XRECORD
  5
CC
102
{ACAD_REACTORS
330
CB
102
}
330
CB
100
AcDbXrecord
280
     1
102
ACAD_ROUNDTRIP_2010_MLEADER_STYLE
  0
CELLSTYLEMAP
  5
C9
102
{ACAD_REACTORS
330
C8
102
}
330
C8
100
AcDbCellStyleMap
 90
        3
300
CELLSTYLE
  1
TABLEFORMAT_BEGIN
 90
        5
170
     1
 91
        0
 92
    32768
 62
   257
 93
        1
300
CONTENTFORMAT
  1
CONTENTFORMAT_BEGIN
 90
        0
 91
        0
 92
        4
 93
        0
300

 40
0.0
140
1.0
 94
        5
 62
     0
340
11
144
0.25
309
CONTENTFORMAT_END
171
     1
301
MARGIN
  1
CELLMARGIN_BEGIN
 40
0.06
 40
0.06
 40
0.06
 40
0.06
 40
0.06
 40
0.06
309
CELLMARGIN_END
 94
        6
 95
        1
302
GRIDFORMAT
  1
GRIDFORMAT_BEGIN
 90
        0
 91
        1
 62
     0
 92
       -2
340
14
 93
        0
 40
0.045
309
GRIDFORMAT_END
 95
        2
302
GRIDFORMAT
  1
GRIDFORMAT_BEGIN
 90
        0
 91
        1
 62
     0
 92
       -2
340
14
 93
        0
 40
0.045
309
GRIDFORMAT_END
 95
        4
302
GRIDFORMAT
  1
GRIDFORMAT_BEGIN
 90
        0
 91
        1
 62
     0
 92
       -2
340
14
 93
        0
 40
0.045
309
GRIDFORMAT_END
 95
        8
302
GRIDFORMAT
  1
GRIDFORMAT_BEGIN
 90
        0
 91
        1
 62
     0
 92
       -2
340
14
 93
        0
 40
0.045
309
GRIDFORMAT_END
 95
       16
302
GRIDFORMAT
  1
GRIDFORMAT_BEGIN
 90
        0
 91
        1
 62
     0
 92
       -2
340
14
 93
        0
 40
0.045
309
GRIDFORMAT_END
 95
       32
302
GRIDFORMAT
  1
GRIDFORMAT_BEGIN
 90
        0
 91
        1
 62
     0
 92
       -2
340
14
 93
        0
 40
0.045
309
GRIDFORMAT_END
309
TABLEFORMAT_END
  1
CELLSTYLE_BEGIN
 90
        1
 91
        1
300
_TITLE
309
CELLSTYLE_END
300
CELLSTYLE
  1
TABLEFORMAT_BEGIN
 90
        5
170
     1
 91
        0
 92
        0
 62
   257
 93
        1
300
CONTENTFORMAT
  1
CONTENTFORMAT_BEGIN
 90
        0
 91
        0
 92
        4
 93
        0
300

 40
0.0
140
1.0
 94
        5
 62
     0
340
11
144
0.18
309
CONTENTFORMAT_END
171
     1
301
MARGIN
  1
CELLMARGIN_BEGIN
 40
0.06
 40
0.06
 40
0.06
 40
0.06
 40
0.06
 40
0.06
309
CELLMARGIN_END
 94
        6
 95
        1
302
GRIDFORMAT
  1
GRIDFORMAT_BEGIN
 90
        0
 91
        1
 62
     0
 92
       -2
340
14
 93
        0
 40
0.045
309
GRIDFORMAT_END
 95
        2
302
GRIDFORMAT
  1
GRIDFORMAT_BEGIN
 90
        0
 91
        1
 62
     0
 92
       -2
340
14
 93
        0
 40
0.045
309
GRIDFORMAT_END
 95
        4
302
GRIDFORMAT
  1
GRIDFORMAT_BEGIN
 90
        0
 91
        1
 62
     0
 92
       -2
340
14
 93
        0
 40
0.045
309
GRIDFORMAT_END
 95
        8
302
GRIDFORMAT
  1
GRIDFORMAT_BEGIN
 90
        0
 91
        1
 62
     0
 92
       -2
340
14
 93
        0
 40
0.045
309
GRIDFORMAT_END
 95
       16
302
GRIDFORMAT
  1
GRIDFORMAT_BEGIN
 90
        0
 91
        1
 62
     0
 92
       -2
340
14
 93
        0
 40
0.045
309
GRIDFORMAT_END
 95
       32
302
GRIDFORMAT
  1
GRIDFORMAT_BEGIN
 90
        0
 91
        1
 62
     0
 92
       -2
340
14
 93
        0
 40
0.045
309
GRIDFORMAT_END
309
TABLEFORMAT_END
  1
CELLSTYLE_BEGIN
 90
        2
 91
        1
300
_HEADER
309
CELLSTYLE_END
300
CELLSTYLE
  1
TABLEFORMAT_BEGIN
 90
        5
170
     1
 91
        0
 92
        0
 62
   257
 93
        1
300
CONTENTFORMAT
  1
CONTENTFORMAT_BEGIN
 90
        0
 91
        0
 92
        4
 93
        0
300

 40
0.0
140
1.0
 94
        2
 62
     0
340
11
144
0.18
309
CONTENTFORMAT_END
171
     1
301
MARGIN
  1
CELLMARGIN_BEGIN
 40
0.06
 40
0.06
 40
0.06
 40
0.06
 40
0.06
 40
0.06
309
CELLMARGIN_END
 94
        6
 95
        1
302
GRIDFORMAT
  1
GRIDFORMAT_BEGIN
 90
        0
 91
        1
 62
     0
 92
       -2
340
14
 93
        0
 40
0.045
309
GRIDFORMAT_END
 95
        2
302
GRIDFORMAT
  1
GRIDFORMAT_BEGIN
 90
        0
 91
        1
 62
     0
 92
       -2
340
14
 93
        0
 40
0.045
309
GRIDFORMAT_END
 95
        4
302
GRIDFORMAT
  1
GRIDFORMAT_BEGIN
 90
        0
 91
        1
 62
     0
 92
       -2
340
14
 93
        0
 40
0.045
309
GRIDFORMAT_END
 95
        8
302
GRIDFORMAT
  1
GRIDFORMAT_BEGIN
 90
        0
 91
        1
 62
     0
 92
       -2
340
14
 93
        0
 40
0.045
309
GRIDFORMAT_END
 95
       16
302
GRIDFORMAT
  1
GRIDFORMAT_BEGIN
 90
        0
 91
        1
 62
     0
 92
       -2
340
14
 93
        0
 40
0.045
309
GRIDFORMAT_END
 95
       32
302
GRIDFORMAT
  1
GRIDFORMAT_BEGIN
 90
        0
 91
        1
 62
     0
 92
       -2
340
14
 93
        0
 40
0.045
309
GRIDFORMAT_END
309
TABLEFORMAT_END
  1
CELLSTYLE_BEGIN
 90
        3
 91
        2
300
_DATA
309
CELLSTYLE_END
  0
XRECORD
  5
A1
102
{ACAD_REACTORS
330
A0
102
}
330
A0
100
AcDbXrecord
280
     1
102
RTVSPropertyOp0
 70
     1
102
RTVSPropertyOp1
 70
     1
102
RTVSPropertyOp2
 70
     1
102
RTVSPropertyOp3
 70
     1
102
RTVSPropertyOp4
 70
     1
102
RTVSPropertyOp5
 70
     1
102
RTVSPropertyOp6
 70
     1
102
RTVSPropertyOp7
 70
     1
102
RTVSPropertyOp8
 70
     1
102
RTVSPropertyOp9
 70
     1
102
RTVSPropertyOp10
 70
     1
102
RTVSPropertyOp11
 70
     1
102
RTVSPropertyOp12
 70
     1
102
RTVSPropertyOp13
 70
     1
102
RTVSPropertyOp14
 70
     1
102
RTVSPropertyOp15
 70
     1
102
RTVSPropertyOp16
 70
     1
102
RTVSPropertyOp17
 70
     1
102
RTVSPropertyOp18
 70
     1
102
RTVSPropertyOp19
 70
     1
102
RTVSPropertyOp20
 70
     1
102
RTVSPropertyOp21
 70
     1
102
RTVSPropertyOp22
 70
     1
102
RTVSPropertyOp23
 70
     1
102
RTVSPropertyOp24
 70
     1
102
RTVSPropertyOp25
 70
     1
102
RTVSPropertyOp26
 70
     1
102
RTVSPropertyOp27
 70
     1
102
RTVSPropertyOp28
 70
     1
102
RTVSPropertyOp29
 70
     1
102
RTVSPropertyOp30
 70
     1
102
RTVSPropertyOp31
 70
     1
102
RTVSPropertyOp32
 70
     1
102
RTVSPropertyOp33
 70
     1
102
RTVSPropertyOp34
 70
     1
102
RTVSPropertyOp35
 70
     1
102
RTVSPropertyOp36
 70
     1
102
RTVSPropertyOp37
 70
     1
102
RTVSPropertyOp38
 70
     1
102
RTVSPropertyOp39
 70
     1
102
RTVSPropertyOp40
 70
     1
102
RTVSPropertyOp41
 70
     1
102
RTVSPropertyOp42
 70
     1
102
RTVSPropertyOp43
 70
     1
102
RTVSPropertyOp44
 70
     1
102
RTVSPropertyOp45
 70
     1
102
RTVSPropertyOp46
 70
     1
102
RTVSPropertyOp47
 70
     1
102
RTVSPropertyOp48
 70
     1
102
RTVSPropertyOp49
 70
     1
102
RTVSPropertyOp50
 70
     1
102
RTVSPropertyOp51
 70
     0
102
RTVSPropertyOp52
 70
     0
102
RTVSPropertyOp53
 70
     1
102
RTVSPropertyOp54
 70
     1
102
RTVSPropertyOp55
 70
     1
102
RTVSPropertyOp56
 70
     1
102
RTVSPropertyOp57
 70
     1
102
RTVSPost2010Prop28
280
     1
102
RTVSPost2010PropOp28
 70
     1
102
RTVSPost2010Prop29
280
     1
102
RTVSPost2010PropOp29
 70
     1
102
RTVSPost2010Prop30
280
     0
102
RTVSPost2010PropOp30
 70
     1
102
RTVSPost2010Prop31
280
     0
102
RTVSPost2010PropOp31
 70
     1
102
RTVSPost2010Prop32
280
     0
102
RTVSPost2010PropOp32
 70
     1
102
RTVSPost2010Prop33
280
     0
102
RTVSPost2010PropOp33
 70
     1
102
RTVSPost2010Prop34
280
     0
102
RTVSPost2010PropOp34
 70
     1
102
RTVSPost2010Prop35
280
     0
102
RTVSPost2010PropOp35
 70
     1
102
RTVSPost2010Prop36
280
     0
102
RTVSPost2010PropOp36
 70
     1
102
RTVSPost2010Prop37
 90
       50
102
RTVSPost2010PropOp37
 70
     1
102
RTVSPost2010Prop38
140
0.0
102
RTVSPost2010PropOp38
 70
     1
102
RTVSPost2010Prop39
140
1.0
102
RTVSPost2010PropOp39
 70
     1
102
RTVSPost2010Prop40
 90
        0
102
RTVSPost2010PropOp40
 70
     1
102
RTVSPost2010Prop41ColorIndex
 90
       18
102
RTVSPost2010Prop41ColorRGB
 90
        0
102
RTVSPost2010PropOp41
 70
     1
102
RTVSPost2010Prop42
 90
       50
102
RTVSPost2010PropOp42
 70
     1
102
RTVSPost2010Prop43
 90
        3
102
RTVSPost2010PropOp43
 70
     1
102
RTVSPost2010Prop44ColorIndex
 90
        5
102
RTVSPost2010Prop44ColorRGB
 90
      255
102
RTVSPost2010PropOp44
 70
     1
102
RTVSPost2010Prop45
280
     0
102
RTVSPost2010PropOp45
 70
     1
102
RTVSPost2010Prop46
 90
       50
102
RTVSPost2010PropOp46
 70
     1
102
RTVSPost2010Prop47
 90
       50
102
RTVSPost2010PropOp47
 70
     1
102
RTVSPost2010Prop48
 90
       50
102
RTVSPost2010PropOp48
 70
     1
102
RTVSPost2010Prop49
280
     0
102
RTVSPost2010PropOp49
 70
     1
102
RTVSPost2010Prop50
 90
       50
102
RTVSPost2010PropOp50
 70
     1
102
RTVSPost2010Prop51ColorIndex
 90
      256
102
RTVSPost2010Prop51ColorRGB
 90
-16777216
102
RTVSPost2010PropOp51
 70
     0
102
RTVSPost2010Prop52
140
1.0
102
RTVSPost2010PropOp52
 70
     0
102
RTVSPost2010Prop53
 90
        2
102
RTVSPost2010PropOp53
 70
     1
102
RTVSPost2010Prop54
  1
strokes_ogs.tif
102
RTVSPost2010PropOp54
 70
     1
102
RTVSPost2010Prop55
280
     0
102
RTVSPost2010PropOp55
 70
     1
102
RTVSPost2010Prop56
140
1.0
102
RTVSPost2010PropOp56
 70
     1
102
RTVSPost2010Prop57
140
1.0
102
RTVSPost2010PropOp57
 70
     1
  0
XRECORD
  5
A7
102
{ACAD_REACTORS
330
A6
102
}
330
A6
100
AcDbXrecord
280
     1
102
RTVSPropertyOp0
 70
     1
102
RTVSPropertyOp1
 70
     1
102
RTVSPropertyOp2
 70
     1
102
RTVSPropertyOp3
 70
     1
102
RTVSPropertyOp4
 70
     1
102
RTVSPropertyOp5
 70
     1
102
RTVSPropertyOp6
 70
     1
102
RTVSPropertyOp7
 70
     1
102
RTVSPropertyOp8
 70
     1
102
RTVSPropertyOp9
 70
     1
102
RTVSPropertyOp10
 70
     1
102
RTVSPropertyOp11
 70
     1
102
RTVSPropertyOp12
 70
     1
102
RTVSPropertyOp13
 70
     1
102
RTVSPropertyOp14
 70
     1
102
RTVSPropertyOp15
 70
     1
102
RTVSPropertyOp16
 70
     1
102
RTVSPropertyOp17
 70
     1
102
RTVSPropertyOp18
 70
     1
102
RTVSPropertyOp19
 70
     1
102
RTVSPropertyOp20
 70
     1
102
RTVSPropertyOp21
 70
     1
102
RTVSPropertyOp22
 70
     1
102
RTVSPropertyOp23
 70
     1
102
RTVSPropertyOp24
 70
     1
102
RTVSPropertyOp25
 70
     1
102
RTVSPropertyOp26
 70
     1
102
RTVSPropertyOp27
 70
     1
102
RTVSPropertyOp28
 70
     1
102
RTVSPropertyOp29
 70
     1
102
RTVSPropertyOp30
 70
     1
102
RTVSPropertyOp31
 70
     1
102
RTVSPropertyOp32
 70
     1
102
RTVSPropertyOp33
 70
     1
102
RTVSPropertyOp34
 70
     1
102
RTVSPropertyOp35
 70
     1
102
RTVSPropertyOp36
 70
     1
102
RTVSPropertyOp37
 70
     1
102
RTVSPropertyOp38
 70
     1
102
RTVSPropertyOp39
 70
     1
102
RTVSPropertyOp40
 70
     1
102
RTVSPropertyOp41
 70
     1
102
RTVSPropertyOp42
 70
     1
102
RTVSPropertyOp43
 70
     1
102
RTVSPropertyOp44
 70
     1
102
RTVSPropertyOp45
 70
     1
102
RTVSPropertyOp46
 70
     1
102
RTVSPropertyOp47
 70
     1
102
RTVSPropertyOp48
 70
     1
102
RTVSPropertyOp49
 70
     1
102
RTVSPropertyOp50
 70
     1
102
RTVSPropertyOp51
 70
     0
102
RTVSPropertyOp52
 70
     0
102
RTVSPropertyOp53
 70
     1
102
RTVSPropertyOp54
 70
     1
102
RTVSPropertyOp55
 70
     1
102
RTVSPropertyOp56
 70
     1
102
RTVSPropertyOp57
 70
     1
102
RTVSPost2010Prop28
280
     0
102
RTVSPost2010PropOp28
 70
     1
102
RTVSPost2010Prop29
280
     1
102
RTVSPost2010PropOp29
 70
     1
102
RTVSPost2010Prop30
280
     1
102
RTVSPost2010PropOp30
 70
     1
102
RTVSPost2010Prop31
280
     0
102
RTVSPost2010PropOp31
 70
     1
102
RTVSPost2010Prop32
280
     0
102
RTVSPost2010PropOp32
 70
     1
102
RTVSPost2010Prop33
280
     0
102
RTVSPost2010PropOp33
 70
     1
102
RTVSPost2010Prop34
280
     0
102
RTVSPost2010PropOp34
 70
     1
102
RTVSPost2010Prop35
280
     0
102
RTVSPost2010PropOp35
 70
     1
102
RTVSPost2010Prop36
280
     0
102
RTVSPost2010PropOp36
 70
     1
102
RTVSPost2010Prop37
 90
       50
102
RTVSPost2010PropOp37
 70
     1
102
RTVSPost2010Prop38
140
0.0
102
RTVSPost2010PropOp38
 70
     1
102
RTVSPost2010Prop39
140
1.0
102
RTVSPost2010PropOp39
 70
     1
102
RTVSPost2010Prop40
 90
        0
102
RTVSPost2010PropOp40
 70
     1
102
RTVSPost2010Prop41ColorIndex
 90
       18
102
RTVSPost2010Prop41ColorRGB
 90
        0
102
RTVSPost2010PropOp41
 70
     1
102
RTVSPost2010Prop42
 90
       50
102
RTVSPost2010PropOp42
 70
     1
102
RTVSPost2010Prop43
 90
        3
102
RTVSPost2010PropOp43
 70
     1
102
RTVSPost2010Prop44ColorIndex
 90
        5
102
RTVSPost2010Prop44ColorRGB
 90
      255
102
RTVSPost2010PropOp44
 70
     1
102
RTVSPost2010Prop45
280
     0
102
RTVSPost2010PropOp45
 70
     1
102
RTVSPost2010Prop46
 90
       50
102
RTVSPost2010PropOp46
 70
     1
102
RTVSPost2010Prop47
 90
       50
102
RTVSPost2010PropOp47
 70
     1
102
RTVSPost2010Prop48
 90
       50
102
RTVSPost2010PropOp48
 70
     1
102
RTVSPost2010Prop49
280
     0
102
RTVSPost2010PropOp49
 70
     1
102
RTVSPost2010Prop50
 90
       50
102
RTVSPost2010PropOp50
 70
     1
102
RTVSPost2010Prop51ColorIndex
 90
      256
102
RTVSPost2010Prop51ColorRGB
 90
-16777216
102
RTVSPost2010PropOp51
 70
     0
102
RTVSPost2010Prop52
140
1.0
102
RTVSPost2010PropOp52
 70
     0
102
RTVSPost2010Prop53
 90
        2
102
RTVSPost2010PropOp53
 70
     1
102
RTVSPost2010Prop54
  1
strokes_ogs.tif
102
RTVSPost2010PropOp54
 70
     1
102
RTVSPost2010Prop55
280
     0
102
RTVSPost2010PropOp55
 70
     1
102
RTVSPost2010Prop56
140
1.0
102
RTVSPost2010PropOp56
 70
     1
102
RTVSPost2010Prop57
140
1.0
102
RTVSPost2010PropOp57
 70
     1
  0
XRECORD
  5
AF
102
{ACAD_REACTORS
330
AE
102
}
330
AE
100
AcDbXrecord
280
     1
102
RTVSPropertyOp0
 70
     1
102
RTVSPropertyOp1
 70
     1
102
RTVSPropertyOp2
 70
     1
102
RTVSPropertyOp3
 70
     1
102
RTVSPropertyOp4
 70
     1
102
RTVSPropertyOp5
 70
     1
102
RTVSPropertyOp6
 70
     1
102
RTVSPropertyOp7
 70
     1
102
RTVSPropertyOp8
 70
     1
102
RTVSPropertyOp9
 70
     1
102
RTVSPropertyOp10
 70
     1
102
RTVSPropertyOp11
 70
     1
102
RTVSPropertyOp12
 70
     1
102
RTVSPropertyOp13
 70
     1
102
RTVSPropertyOp14
 70
     1
102
RTVSPropertyOp15
 70
     1
102
RTVSPropertyOp16
 70
     1
102
RTVSPropertyOp17
 70
     1
102
RTVSPropertyOp18
 70
     1
102
RTVSPropertyOp19
 70
     1
102
RTVSPropertyOp20
 70
     1
102
RTVSPropertyOp21
 70
     1
102
RTVSPropertyOp22
 70
     1
102
RTVSPropertyOp23
 70
     1
102
RTVSPropertyOp24
 70
     1
102
RTVSPropertyOp25
 70
     1
102
RTVSPropertyOp26
 70
     1
102
RTVSPropertyOp27
 70
     1
102
RTVSPropertyOp28
 70
     1
102
RTVSPropertyOp29
 70
     1
102
RTVSPropertyOp30
 70
     1
102
RTVSPropertyOp31
 70
     1
102
RTVSPropertyOp32
 70
     1
102
RTVSPropertyOp33
 70
     1
102
RTVSPropertyOp34
 70
     1
102
RTVSPropertyOp35
 70
     1
102
RTVSPropertyOp36
 70
     1
102
RTVSPropertyOp37
 70
     1
102
RTVSPropertyOp38
 70
     1
102
RTVSPropertyOp39
 70
     1
102
RTVSPropertyOp40
 70
     1
102
RTVSPropertyOp41
 70
     1
102
RTVSPropertyOp42
 70
     1
102
RTVSPropertyOp43
 70
     1
102
RTVSPropertyOp44
 70
     1
102
RTVSPropertyOp45
 70
     1
102
RTVSPropertyOp46
 70
     1
102
RTVSPropertyOp47
 70
     1
102
RTVSPropertyOp48
 70
     1
102
RTVSPropertyOp49
 70
     1
102
RTVSPropertyOp50
 70
     1
102
RTVSPropertyOp51
 70
     0
102
RTVSPropertyOp52
 70
     0
102
RTVSPropertyOp53
 70
     1
102
RTVSPropertyOp54
 70
     1
102
RTVSPropertyOp55
 70
     1
102
RTVSPropertyOp56
 70
     1
102
RTVSPropertyOp57
 70
     1
102
RTVSPost2010Prop28
280
     0
102
RTVSPost2010PropOp28
 70
     1
102
RTVSPost2010Prop29
280
     1
102
RTVSPost2010PropOp29
 70
     1
102
RTVSPost2010Prop30
280
     1
102
RTVSPost2010PropOp30
 70
     1
102
RTVSPost2010Prop31
280
     0
102
RTVSPost2010PropOp31
 70
     1
102
RTVSPost2010Prop32
280
     0
102
RTVSPost2010PropOp32
 70
     1
102
RTVSPost2010Prop33
280
     0
102
RTVSPost2010PropOp33
 70
     1
102
RTVSPost2010Prop34
280
     0
102
RTVSPost2010PropOp34
 70
     1
102
RTVSPost2010Prop35
280
     0
102
RTVSPost2010PropOp35
 70
     1
102
RTVSPost2010Prop36
280
     0
102
RTVSPost2010PropOp36
 70
     1
102
RTVSPost2010Prop37
 90
       50
102
RTVSPost2010PropOp37
 70
     1
102
RTVSPost2010Prop38
140
0.0
102
RTVSPost2010PropOp38
 70
     1
102
RTVSPost2010Prop39
140
1.0
102
RTVSPost2010PropOp39
 70
     1
102
RTVSPost2010Prop40
 90
        0
102
RTVSPost2010PropOp40
 70
     1
102
RTVSPost2010Prop41ColorIndex
 90
       18
102
RTVSPost2010Prop41ColorRGB
 90
        0
102
RTVSPost2010PropOp41
 70
     1
102
RTVSPost2010Prop42
 90
       50
102
RTVSPost2010PropOp42
 70
     1
102
RTVSPost2010Prop43
 90
        3
102
RTVSPost2010PropOp43
 70
     1
102
RTVSPost2010Prop44ColorIndex
 90
        5
102
RTVSPost2010Prop44ColorRGB
 90
      255
102
RTVSPost2010PropOp44
 70
     1
102
RTVSPost2010Prop45
280
     0
102
RTVSPost2010PropOp45
 70
     1
102
RTVSPost2010Prop46
 90
       50
102
RTVSPost2010PropOp46
 70
     1
102
RTVSPost2010Prop47
 90
       50
102
RTVSPost2010PropOp47
 70
     1
102
RTVSPost2010Prop48
 90
       50
102
RTVSPost2010PropOp48
 70
     1
102
RTVSPost2010Prop49
280
     0
102
RTVSPost2010PropOp49
 70
     1
102
RTVSPost2010Prop50
 90
       50
102
RTVSPost2010PropOp50
 70
     1
102
RTVSPost2010Prop51ColorIndex
 90
      256
102
RTVSPost2010Prop51ColorRGB
 90
-16777216
102
RTVSPost2010PropOp51
 70
     0
102
RTVSPost2010Prop52
140
1.0
102
RTVSPost2010PropOp52
 70
     0
102
RTVSPost2010Prop53
 90
        2
102
RTVSPost2010PropOp53
 70
     1
102
RTVSPost2010Prop54
  1
strokes_ogs.tif
102
RTVSPost2010PropOp54
 70
     1
102
RTVSPost2010Prop55
280
     0
102
RTVSPost2010PropOp55
 70
     1
102
RTVSPost2010Prop56
140
1.0
102
RTVSPost2010PropOp56
 70
     1
102
RTVSPost2010Prop57
140
1.0
102
RTVSPost2010PropOp57
 70
     1
  0
XRECORD
  5
B7
102
{ACAD_REACTORS
330
B6
102
}
330
B6
100
AcDbXrecord
280
     1
102
RTVSPropertyOp0
 70
     1
102
RTVSPropertyOp1
 70
     1
102
RTVSPropertyOp2
 70
     1
102
RTVSPropertyOp3
 70
     1
102
RTVSPropertyOp4
 70
     1
102
RTVSPropertyOp5
 70
     1
102
RTVSPropertyOp6
 70
     1
102
RTVSPropertyOp7
 70
     1
102
RTVSPropertyOp8
 70
     1
102
RTVSPropertyOp9
 70
     1
102
RTVSPropertyOp10
 70
     1
102
RTVSPropertyOp11
 70
     1
102
RTVSPropertyOp12
 70
     1
102
RTVSPropertyOp13
 70
     1
102
RTVSPropertyOp14
 70
     1
102
RTVSPropertyOp15
 70
     1
102
RTVSPropertyOp16
 70
     1
102
RTVSPropertyOp17
 70
     1
102
RTVSPropertyOp18
 70
     1
102
RTVSPropertyOp19
 70
     1
102
RTVSPropertyOp20
 70
     1
102
RTVSPropertyOp21
 70
     1
102
RTVSPropertyOp22
 70
     1
102
RTVSPropertyOp23
 70
     1
102
RTVSPropertyOp24
 70
     1
102
RTVSPropertyOp25
 70
     1
102
RTVSPropertyOp26
 70
     1
102
RTVSPropertyOp27
 70
     1
102
RTVSPropertyOp28
 70
     1
102
RTVSPropertyOp29
 70
     1
102
RTVSPropertyOp30
 70
     1
102
RTVSPropertyOp31
 70
     1
102
RTVSPropertyOp32
 70
     1
102
RTVSPropertyOp33
 70
     1
102
RTVSPropertyOp34
 70
     1
102
RTVSPropertyOp35
 70
     1
102
RTVSPropertyOp36
 70
     1
102
RTVSPropertyOp37
 70
     1
102
RTVSPropertyOp38
 70
     1
102
RTVSPropertyOp39
 70
     1
102
RTVSPropertyOp40
 70
     1
102
RTVSPropertyOp41
 70
     1
102
RTVSPropertyOp42
 70
     1
102
RTVSPropertyOp43
 70
     1
102
RTVSPropertyOp44
 70
     1
102
RTVSPropertyOp45
 70
     1
102
RTVSPropertyOp46
 70
     1
102
RTVSPropertyOp47
 70
     1
102
RTVSPropertyOp48
 70
     1
102
RTVSPropertyOp49
 70
     1
102
RTVSPropertyOp50
 70
     1
102
RTVSPropertyOp51
 70
     0
102
RTVSPropertyOp52
 70
     0
102
RTVSPropertyOp53
 70
     1
102
RTVSPropertyOp54
 70
     1
102
RTVSPropertyOp55
 70
     1
102
RTVSPropertyOp56
 70
     1
102
RTVSPropertyOp57
 70
     1
102
RTVSPost2010Prop28
280
     0
102
RTVSPost2010PropOp28
 70
     1
102
RTVSPost2010Prop29
280
     1
102
RTVSPost2010PropOp29
 70
     1
102
RTVSPost2010Prop30
280
     1
102
RTVSPost2010PropOp30
 70
     1
102
RTVSPost2010Prop31
280
     0
102
RTVSPost2010PropOp31
 70
     1
102
RTVSPost2010Prop32
280
     0
102
RTVSPost2010PropOp32
 70
     1
102
RTVSPost2010Prop33
280
     0
102
RTVSPost2010PropOp33
 70
     1
102
RTVSPost2010Prop34
280
     0
102
RTVSPost2010PropOp34
 70
     1
102
RTVSPost2010Prop35
280
     0
102
RTVSPost2010PropOp35
 70
     1
102
RTVSPost2010Prop36
280
     0
102
RTVSPost2010PropOp36
 70
     1
102
RTVSPost2010Prop37
 90
       50
102
RTVSPost2010PropOp37
 70
     1
102
RTVSPost2010Prop38
140
0.0
102
RTVSPost2010PropOp38
 70
     1
102
RTVSPost2010Prop39
140
1.0
102
RTVSPost2010PropOp39
 70
     1
102
RTVSPost2010Prop40
 90
        0
102
RTVSPost2010PropOp40
 70
     1
102
RTVSPost2010Prop41ColorIndex
 90
       18
102
RTVSPost2010Prop41ColorRGB
 90
        0
102
RTVSPost2010PropOp41
 70
     1
102
RTVSPost2010Prop42
 90
       50
102
RTVSPost2010PropOp42
 70
     1
102
RTVSPost2010Prop43
 90
        3
102
RTVSPost2010PropOp43
 70
     1
102
RTVSPost2010Prop44ColorIndex
 90
        5
102
RTVSPost2010Prop44ColorRGB
 90
      255
102
RTVSPost2010PropOp44
 70
     1
102
RTVSPost2010Prop45
280
     0
102
RTVSPost2010PropOp45
 70
     1
102
RTVSPost2010Prop46
 90
       50
102
RTVSPost2010PropOp46
 70
     1
102
RTVSPost2010Prop47
 90
       50
102
RTVSPost2010PropOp47
 70
     1
102
RTVSPost2010Prop48
 90
       50
102
RTVSPost2010PropOp48
 70
     1
102
RTVSPost2010Prop49
280
     0
102
RTVSPost2010PropOp49
 70
     1
102
RTVSPost2010Prop50
 90
       50
102
RTVSPost2010PropOp50
 70
     1
102
RTVSPost2010Prop51ColorIndex
 90
      256
102
RTVSPost2010Prop51ColorRGB
 90
-16777216
102
RTVSPost2010PropOp51
 70
     0
102
RTVSPost2010Prop52
140
1.0
102
RTVSPost2010PropOp52
 70
     0
102
RTVSPost2010Prop53
 90
        2
102
RTVSPost2010PropOp53
 70
     1
102
RTVSPost2010Prop54
  1
strokes_ogs.tif
102
RTVSPost2010PropOp54
 70
     1
102
RTVSPost2010Prop55
280
     0
102
RTVSPost2010PropOp55
 70
     1
102
RTVSPost2010Prop56
140
1.0
102
RTVSPost2010PropOp56
 70
     1
102
RTVSPost2010Prop57
140
1.0
102
RTVSPost2010PropOp57
 70
     1
  0
XRECORD
  5
AB
102
{ACAD_REACTORS
330
AA
102
}
330
AA
100
AcDbXrecord
280
     1
102
RTVSPropertyOp0
 70
     1
102
RTVSPropertyOp1
 70
     1
102
RTVSPropertyOp2
 70
     1
102
RTVSPropertyOp3
 70
     1
102
RTVSPropertyOp4
 70
     1
102
RTVSPropertyOp5
 70
     1
102
RTVSPropertyOp6
 70
     1
102
RTVSPropertyOp7
 70
     1
102
RTVSPropertyOp8
 70
     1
102
RTVSPropertyOp9
 70
     1
102
RTVSPropertyOp10
 70
     1
102
RTVSPropertyOp11
 70
     1
102
RTVSPropertyOp12
 70
     1
102
RTVSPropertyOp13
 70
     1
102
RTVSPropertyOp14
 70
     1
102
RTVSPropertyOp15
 70
     1
102
RTVSPropertyOp16
 70
     1
102
RTVSPropertyOp17
 70
     1
102
RTVSPropertyOp18
 70
     1
102
RTVSPropertyOp19
 70
     1
102
RTVSPropertyOp20
 70
     1
102
RTVSPropertyOp21
 70
     1
102
RTVSPropertyOp22
 70
     1
102
RTVSPropertyOp23
 70
     1
102
RTVSPropertyOp24
 70
     1
102
RTVSPropertyOp25
 70
     1
102
RTVSPropertyOp26
 70
     1
102
RTVSPropertyOp27
 70
     1
102
RTVSPropertyOp28
 70
     1
102
RTVSPropertyOp29
 70
     1
102
RTVSPropertyOp30
 70
     1
102
RTVSPropertyOp31
 70
     1
102
RTVSPropertyOp32
 70
     1
102
RTVSPropertyOp33
 70
     1
102
RTVSPropertyOp34
 70
     1
102
RTVSPropertyOp35
 70
     1
102
RTVSPropertyOp36
 70
     1
102
RTVSPropertyOp37
 70
     1
102
RTVSPropertyOp38
 70
     1
102
RTVSPropertyOp39
 70
     1
102
RTVSPropertyOp40
 70
     1
102
RTVSPropertyOp41
 70
     1
102
RTVSPropertyOp42
 70
     1
102
RTVSPropertyOp43
 70
     1
102
RTVSPropertyOp44
 70
     1
102
RTVSPropertyOp45
 70
     1
102
RTVSPropertyOp46
 70
     1
102
RTVSPropertyOp47
 70
     1
102
RTVSPropertyOp48
 70
     1
102
RTVSPropertyOp49
 70
     1
102
RTVSPropertyOp50
 70
     1
102
RTVSPropertyOp51
 70
     0
102
RTVSPropertyOp52
 70
     0
102
RTVSPropertyOp53
 70
     1
102
RTVSPropertyOp54
 70
     1
102
RTVSPropertyOp55
 70
     1
102
RTVSPropertyOp56
 70
     1
102
RTVSPropertyOp57
 70
     1
102
RTVSPost2010Prop28
280
     0
102
RTVSPost2010PropOp28
 70
     1
102
RTVSPost2010Prop29
280
     1
102
RTVSPost2010PropOp29
 70
     1
102
RTVSPost2010Prop30
280
     1
102
RTVSPost2010PropOp30
 70
     1
102
RTVSPost2010Prop31
280
     0
102
RTVSPost2010PropOp31
 70
     1
102
RTVSPost2010Prop32
280
     0
102
RTVSPost2010PropOp32
 70
     1
102
RTVSPost2010Prop33
280
     0
102
RTVSPost2010PropOp33
 70
     1
102
RTVSPost2010Prop34
280
     0
102
RTVSPost2010PropOp34
 70
     1
102
RTVSPost2010Prop35
280
     0
102
RTVSPost2010PropOp35
 70
     1
102
RTVSPost2010Prop36
280
     0
102
RTVSPost2010PropOp36
 70
     1
102
RTVSPost2010Prop37
 90
       50
102
RTVSPost2010PropOp37
 70
     1
102
RTVSPost2010Prop38
140
0.0
102
RTVSPost2010PropOp38
 70
     1
102
RTVSPost2010Prop39
140
1.0
102
RTVSPost2010PropOp39
 70
     1
102
RTVSPost2010Prop40
 90
        0
102
RTVSPost2010PropOp40
 70
     1
102
RTVSPost2010Prop41ColorIndex
 90
       18
102
RTVSPost2010Prop41ColorRGB
 90
        0
102
RTVSPost2010PropOp41
 70
     1
102
RTVSPost2010Prop42
 90
       50
102
RTVSPost2010PropOp42
 70
     1
102
RTVSPost2010Prop43
 90
        3
102
RTVSPost2010PropOp43
 70
     1
102
RTVSPost2010Prop44ColorIndex
 90
        5
102
RTVSPost2010Prop44ColorRGB
 90
      255
102
RTVSPost2010PropOp44
 70
     1
102
RTVSPost2010Prop45
280
     0
102
RTVSPost2010PropOp45
 70
     1
102
RTVSPost2010Prop46
 90
       50
102
RTVSPost2010PropOp46
 70
     1
102
RTVSPost2010Prop47
 90
       50
102
RTVSPost2010PropOp47
 70
     1
102
RTVSPost2010Prop48
 90
       50
102
RTVSPost2010PropOp48
 70
     1
102
RTVSPost2010Prop49
280
     0
102
RTVSPost2010PropOp49
 70
     1
102
RTVSPost2010Prop50
 90
       50
102
RTVSPost2010PropOp50
 70
     1
102
RTVSPost2010Prop51ColorIndex
 90
      256
102
RTVSPost2010Prop51ColorRGB
 90
-16777216
102
RTVSPost2010PropOp51
 70
     0
102
RTVSPost2010Prop52
140
1.0
102
RTVSPost2010PropOp52
 70
     0
102
RTVSPost2010Prop53
 90
        2
102
RTVSPost2010PropOp53
 70
     1
102
RTVSPost2010Prop54
  1
strokes_ogs.tif
102
RTVSPost2010PropOp54
 70
     1
102
RTVSPost2010Prop55
280
     0
102
RTVSPost2010PropOp55
 70
     1
102
RTVSPost2010Prop56
140
1.0
102
RTVSPost2010PropOp56
 70
     1
102
RTVSPost2010Prop57
140
1.0
102
RTVSPost2010PropOp57
 70
     1
  0
XRECORD
  5
AD
102
{ACAD_REACTORS
330
AC
102
}
330
AC
100
AcDbXrecord
280
     1
102
RTVSPropertyOp0
 70
     1
102
RTVSPropertyOp1
 70
     1
102
RTVSPropertyOp2
 70
     1
102
RTVSPropertyOp3
 70
     1
102
RTVSPropertyOp4
 70
     1
102
RTVSPropertyOp5
 70
     1
102
RTVSPropertyOp6
 70
     1
102
RTVSPropertyOp7
 70
     1
102
RTVSPropertyOp8
 70
     1
102
RTVSPropertyOp9
 70
     1
102
RTVSPropertyOp10
 70
     1
102
RTVSPropertyOp11
 70
     1
102
RTVSPropertyOp12
 70
     1
102
RTVSPropertyOp13
 70
     1
102
RTVSPropertyOp14
 70
     1
102
RTVSPropertyOp15
 70
     1
102
RTVSPropertyOp16
 70
     1
102
RTVSPropertyOp17
 70
     1
102
RTVSPropertyOp18
 70
     1
102
RTVSPropertyOp19
 70
     1
102
RTVSPropertyOp20
 70
     1
102
RTVSPropertyOp21
 70
     1
102
RTVSPropertyOp22
 70
     1
102
RTVSPropertyOp23
 70
     1
102
RTVSPropertyOp24
 70
     1
102
RTVSPropertyOp25
 70
     1
102
RTVSPropertyOp26
 70
     1
102
RTVSPropertyOp27
 70
     1
102
RTVSPropertyOp28
 70
     1
102
RTVSPropertyOp29
 70
     1
102
RTVSPropertyOp30
 70
     1
102
RTVSPropertyOp31
 70
     1
102
RTVSPropertyOp32
 70
     1
102
RTVSPropertyOp33
 70
     1
102
RTVSPropertyOp34
 70
     1
102
RTVSPropertyOp35
 70
     1
102
RTVSPropertyOp36
 70
     1
102
RTVSPropertyOp37
 70
     1
102
RTVSPropertyOp38
 70
     1
102
RTVSPropertyOp39
 70
     1
102
RTVSPropertyOp40
 70
     1
102
RTVSPropertyOp41
 70
     1
102
RTVSPropertyOp42
 70
     1
102
RTVSPropertyOp43
 70
     1
102
RTVSPropertyOp44
 70
     1
102
RTVSPropertyOp45
 70
     1
102
RTVSPropertyOp46
 70
     1
102
RTVSPropertyOp47
 70
     1
102
RTVSPropertyOp48
 70
     1
102
RTVSPropertyOp49
 70
     1
102
RTVSPropertyOp50
 70
     1
102
RTVSPropertyOp51
 70
     0
102
RTVSPropertyOp52
 70
     0
102
RTVSPropertyOp53
 70
     1
102
RTVSPropertyOp54
 70
     1
102
RTVSPropertyOp55
 70
     1
102
RTVSPropertyOp56
 70
     1
102
RTVSPropertyOp57
 70
     1
102
RTVSPost2010Prop28
280
     0
102
RTVSPost2010PropOp28
 70
     1
102
RTVSPost2010Prop29
280
     1
102
RTVSPost2010PropOp29
 70
     1
102
RTVSPost2010Prop30
280
     1
102
RTVSPost2010PropOp30
 70
     1
102
RTVSPost2010Prop31
280
     0
102
RTVSPost2010PropOp31
 70
     1
102
RTVSPost2010Prop32
280
     0
102
RTVSPost2010PropOp32
 70
     1
102
RTVSPost2010Prop33
280
     0
102
RTVSPost2010PropOp33
 70
     1
102
RTVSPost2010Prop34
280
     0
102
RTVSPost2010PropOp34
 70
     1
102
RTVSPost2010Prop35
280
     0
102
RTVSPost2010PropOp35
 70
     1
102
RTVSPost2010Prop36
280
     0
102
RTVSPost2010PropOp36
 70
     1
102
RTVSPost2010Prop37
 90
       50
102
RTVSPost2010PropOp37
 70
     1
102
RTVSPost2010Prop38
140
0.0
102
RTVSPost2010PropOp38
 70
     1
102
RTVSPost2010Prop39
140
1.0
102
RTVSPost2010PropOp39
 70
     1
102
RTVSPost2010Prop40
 90
        0
102
RTVSPost2010PropOp40
 70
     1
102
RTVSPost2010Prop41ColorIndex
 90
       18
102
RTVSPost2010Prop41ColorRGB
 90
        0
102
RTVSPost2010PropOp41
 70
     1
102
RTVSPost2010Prop42
 90
       50
102
RTVSPost2010PropOp42
 70
     1
102
RTVSPost2010Prop43
 90
        3
102
RTVSPost2010PropOp43
 70
     1
102
RTVSPost2010Prop44ColorIndex
 90
        5
102
RTVSPost2010Prop44ColorRGB
 90
      255
102
RTVSPost2010PropOp44
 70
     1
102
RTVSPost2010Prop45
280
     0
102
RTVSPost2010PropOp45
 70
     1
102
RTVSPost2010Prop46
 90
       50
102
RTVSPost2010PropOp46
 70
     1
102
RTVSPost2010Prop47
 90
       50
102
RTVSPost2010PropOp47
 70
     1
102
RTVSPost2010Prop48
 90
       50
102
RTVSPost2010PropOp48
 70
     1
102
RTVSPost2010Prop49
280
     0
102
RTVSPost2010PropOp49
 70
     1
102
RTVSPost2010Prop50
 90
       50
102
RTVSPost2010PropOp50
 70
     1
102
RTVSPost2010Prop51ColorIndex
 90
      256
102
RTVSPost2010Prop51ColorRGB
 90
-16777216
102
RTVSPost2010PropOp51
 70
     0
102
RTVSPost2010Prop52
140
1.0
102
RTVSPost2010PropOp52
 70
     0
102
RTVSPost2010Prop53
 90
        2
102
RTVSPost2010PropOp53
 70
     1
102
RTVSPost2010Prop54
  1
strokes_ogs.tif
102
RTVSPost2010PropOp54
 70
     1
102
RTVSPost2010Prop55
280
     0
102
RTVSPost2010PropOp55
 70
     1
102
RTVSPost2010Prop56
140
1.0
102
RTVSPost2010PropOp56
 70
     1
102
RTVSPost2010Prop57
140
1.0
102
RTVSPost2010PropOp57
 70
     1
  0
XRECORD
  5
BD
102
{ACAD_REACTORS
330
BC
102
}
330
BC
100
AcDbXrecord
280
     1
102
RTVSPropertyOp0
 70
     0
102
RTVSPropertyOp1
 70
     0
102
RTVSPropertyOp2
 70
     0
102
RTVSPropertyOp3
 70
     0
102
RTVSPropertyOp4
 70
     0
102
RTVSPropertyOp5
 70
     0
102
RTVSPropertyOp6
 70
     0
102
RTVSPropertyOp7
 70
     0
102
RTVSPropertyOp8
 70
     0
102
RTVSPropertyOp9
 70
     0
102
RTVSPropertyOp10
 70
     0
102
RTVSPropertyOp11
 70
     0
102
RTVSPropertyOp12
 70
     0
102
RTVSPropertyOp13
 70
     0
102
RTVSPropertyOp14
 70
     2
102
RTVSPropertyOp15
 70
     0
102
RTVSPropertyOp16
 70
     0
102
RTVSPropertyOp17
 70
     0
102
RTVSPropertyOp18
 70
     0
102
RTVSPropertyOp19
 70
     0
102
RTVSPropertyOp20
 70
     0
102
RTVSPropertyOp21
 70
     0
102
RTVSPropertyOp22
 70
     0
102
RTVSPropertyOp23
 70
     0
102
RTVSPropertyOp24
 70
     0
102
RTVSPropertyOp25
 70
     0
102
RTVSPropertyOp26
 70
     0
102
RTVSPropertyOp27
 70
     0
102
RTVSPropertyOp28
 70
     0
102
RTVSPropertyOp29
 70
     0
102
RTVSPropertyOp30
 70
     0
102
RTVSPropertyOp31
 70
     0
102
RTVSPropertyOp32
 70
     0
102
RTVSPropertyOp33
 70
     0
102
RTVSPropertyOp34
 70
     0
102
RTVSPropertyOp35
 70
     0
102
RTVSPropertyOp36
 70
     0
102
RTVSPropertyOp37
 70
     0
102
RTVSPropertyOp38
 70
     0
102
RTVSPropertyOp39
 70
     0
102
RTVSPropertyOp40
 70
     0
102
RTVSPropertyOp41
 70
     0
102
RTVSPropertyOp42
 70
     0
102
RTVSPropertyOp43
 70
     0
102
RTVSPropertyOp44
 70
     0
102
RTVSPropertyOp45
 70
     0
102
RTVSPropertyOp46
 70
     0
102
RTVSPropertyOp47
 70
     0
102
RTVSPropertyOp48
 70
     0
102
RTVSPropertyOp49
 70
     0
102
RTVSPropertyOp50
 70
     0
102
RTVSPropertyOp51
 70
     0
102
RTVSPropertyOp52
 70
     0
102
RTVSPropertyOp53
 70
     0
102
RTVSPropertyOp54
 70
     0
102
RTVSPropertyOp55
 70
     0
102
RTVSPropertyOp56
 70
     0
102
RTVSPropertyOp57
 70
     0
102
RTVSPost2010Prop28
280
     0
102
RTVSPost2010PropOp28
 70
     0
102
RTVSPost2010Prop29
280
     1
102
RTVSPost2010PropOp29
 70
     0
102
RTVSPost2010Prop30
280
     1
102
RTVSPost2010PropOp30
 70
     0
102
RTVSPost2010Prop31
280
     0
102
RTVSPost2010PropOp31
 70
     0
102
RTVSPost2010Prop32
280
     0
102
RTVSPost2010PropOp32
 70
     0
102
RTVSPost2010Prop33
280
     0
102
RTVSPost2010PropOp33
 70
     0
102
RTVSPost2010Prop34
280
     0
102
RTVSPost2010PropOp34
 70
     0
102
RTVSPost2010Prop35
280
     0
102
RTVSPost2010PropOp35
 70
     0
102
RTVSPost2010Prop36
280
     0
102
RTVSPost2010PropOp36
 70
     0
102
RTVSPost2010Prop37
 90
       50
102
RTVSPost2010PropOp37
 70
     0
102
RTVSPost2010Prop38
140
0.0
102
RTVSPost2010PropOp38
 70
     0
102
RTVSPost2010Prop39
140
1.0
102
RTVSPost2010PropOp39
 70
     0
102
RTVSPost2010Prop40
 90
        0
102
RTVSPost2010PropOp40
 70
     0
102
RTVSPost2010Prop41ColorIndex
 90
       18
102
RTVSPost2010Prop41ColorRGB
 90
        0
102
RTVSPost2010PropOp41
 70
     0
102
RTVSPost2010Prop42
 90
       50
102
RTVSPost2010PropOp42
 70
     0
102
RTVSPost2010Prop43
 90
        3
102
RTVSPost2010PropOp43
 70
     0
102
RTVSPost2010Prop44ColorIndex
 90
        5
102
RTVSPost2010Prop44ColorRGB
 90
      255
102
RTVSPost2010PropOp44
 70
     0
102
RTVSPost2010Prop45
280
     0
102
RTVSPost2010PropOp45
 70
     0
102
RTVSPost2010Prop46
 90
       50
102
RTVSPost2010PropOp46
 70
     0
102
RTVSPost2010Prop47
 90
       50
102
RTVSPost2010PropOp47
 70
     0
102
RTVSPost2010Prop48
 90
       50
102
RTVSPost2010PropOp48
 70
     0
102
RTVSPost2010Prop49
280
     0
102
RTVSPost2010PropOp49
 70
     0
102
RTVSPost2010Prop50
 90
       50
102
RTVSPost2010PropOp50
 70
     0
102
RTVSPost2010Prop51ColorIndex
 90
      256
102
RTVSPost2010Prop51ColorRGB
 90
-16777216
102
RTVSPost2010PropOp51
 70
     0
102
RTVSPost2010Prop52
140
1.0
102
RTVSPost2010PropOp52
 70
     0
102
RTVSPost2010Prop53
 90
        2
102
RTVSPost2010PropOp53
 70
     0
102
RTVSPost2010Prop54
  1
strokes_ogs.tif
102
RTVSPost2010PropOp54
 70
     0
102
RTVSPost2010Prop55
280
     0
102
RTVSPost2010PropOp55
 70
     0
102
RTVSPost2010Prop56
140
1.0
102
RTVSPost2010PropOp56
 70
     0
102
RTVSPost2010Prop57
140
1.0
102
RTVSPost2010PropOp57
 70
     0
  0
XRECORD
  5
B5
102
{ACAD_REACTORS
330
B4
102
}
330
B4
100
AcDbXrecord
280
     1
102
RTVSPropertyOp0
 70
     1
102
RTVSPropertyOp1
 70
     1
102
RTVSPropertyOp2
 70
     1
102
RTVSPropertyOp3
 70
     1
102
RTVSPropertyOp4
 70
     1
102
RTVSPropertyOp5
 70
     1
102
RTVSPropertyOp6
 70
     1
102
RTVSPropertyOp7
 70
     1
102
RTVSPropertyOp8
 70
     1
102
RTVSPropertyOp9
 70
     1
102
RTVSPropertyOp10
 70
     1
102
RTVSPropertyOp11
 70
     1
102
RTVSPropertyOp12
 70
     1
102
RTVSPropertyOp13
 70
     1
102
RTVSPropertyOp14
 70
     1
102
RTVSPropertyOp15
 70
     1
102
RTVSPropertyOp16
 70
     1
102
RTVSPropertyOp17
 70
     1
102
RTVSPropertyOp18
 70
     1
102
RTVSPropertyOp19
 70
     1
102
RTVSPropertyOp20
 70
     1
102
RTVSPropertyOp21
 70
     1
102
RTVSPropertyOp22
 70
     1
102
RTVSPropertyOp23
 70
     1
102
RTVSPropertyOp24
 70
     1
102
RTVSPropertyOp25
 70
     1
102
RTVSPropertyOp26
 70
     1
102
RTVSPropertyOp27
 70
     1
102
RTVSPropertyOp28
 70
     1
102
RTVSPropertyOp29
 70
     1
102
RTVSPropertyOp30
 70
     1
102
RTVSPropertyOp31
 70
     1
102
RTVSPropertyOp32
 70
     1
102
RTVSPropertyOp33
 70
     1
102
RTVSPropertyOp34
 70
     1
102
RTVSPropertyOp35
 70
     1
102
RTVSPropertyOp36
 70
     1
102
RTVSPropertyOp37
 70
     1
102
RTVSPropertyOp38
 70
     1
102
RTVSPropertyOp39
 70
     1
102
RTVSPropertyOp40
 70
     1
102
RTVSPropertyOp41
 70
     1
102
RTVSPropertyOp42
 70
     1
102
RTVSPropertyOp43
 70
     1
102
RTVSPropertyOp44
 70
     1
102
RTVSPropertyOp45
 70
     1
102
RTVSPropertyOp46
 70
     1
102
RTVSPropertyOp47
 70
     1
102
RTVSPropertyOp48
 70
     1
102
RTVSPropertyOp49
 70
     1
102
RTVSPropertyOp50
 70
     1
102
RTVSPropertyOp51
 70
     0
102
RTVSPropertyOp52
 70
     0
102
RTVSPropertyOp53
 70
     1
102
RTVSPropertyOp54
 70
     1
102
RTVSPropertyOp55
 70
     1
102
RTVSPropertyOp56
 70
     1
102
RTVSPropertyOp57
 70
     1
102
RTVSPost2010Prop28
280
     0
102
RTVSPost2010PropOp28
 70
     1
102
RTVSPost2010Prop29
280
     1
102
RTVSPost2010PropOp29
 70
     1
102
RTVSPost2010Prop30
280
     1
102
RTVSPost2010PropOp30
 70
     1
102
RTVSPost2010Prop31
280
     0
102
RTVSPost2010PropOp31
 70
     1
102
RTVSPost2010Prop32
280
     0
102
RTVSPost2010PropOp32
 70
     1
102
RTVSPost2010Prop33
280
     0
102
RTVSPost2010PropOp33
 70
     1
102
RTVSPost2010Prop34
280
     0
102
RTVSPost2010PropOp34
 70
     1
102
RTVSPost2010Prop35
280
     0
102
RTVSPost2010PropOp35
 70
     1
102
RTVSPost2010Prop36
280
     0
102
RTVSPost2010PropOp36
 70
     1
102
RTVSPost2010Prop37
 90
       50
102
RTVSPost2010PropOp37
 70
     1
102
RTVSPost2010Prop38
140
0.0
102
RTVSPost2010PropOp38
 70
     1
102
RTVSPost2010Prop39
140
1.0
102
RTVSPost2010PropOp39
 70
     1
102
RTVSPost2010Prop40
 90
        0
102
RTVSPost2010PropOp40
 70
     1
102
RTVSPost2010Prop41ColorIndex
 90
       18
102
RTVSPost2010Prop41ColorRGB
 90
        0
102
RTVSPost2010PropOp41
 70
     1
102
RTVSPost2010Prop42
 90
       50
102
RTVSPost2010PropOp42
 70
     1
102
RTVSPost2010Prop43
 90
        3
102
RTVSPost2010PropOp43
 70
     1
102
RTVSPost2010Prop44ColorIndex
 90
        5
102
RTVSPost2010Prop44ColorRGB
 90
      255
102
RTVSPost2010PropOp44
 70
     1
102
RTVSPost2010Prop45
280
     0
102
RTVSPost2010PropOp45
 70
     1
102
RTVSPost2010Prop46
 90
       50
102
RTVSPost2010PropOp46
 70
     1
102
RTVSPost2010Prop47
 90
       50
102
RTVSPost2010PropOp47
 70
     1
102
RTVSPost2010Prop48
 90
       50
102
RTVSPost2010PropOp48
 70
     1
102
RTVSPost2010Prop49
280
     0
102
RTVSPost2010PropOp49
 70
     1
102
RTVSPost2010Prop50
 90
       50
102
RTVSPost2010PropOp50
 70
     1
102
RTVSPost2010Prop51ColorIndex
 90
      256
102
RTVSPost2010Prop51ColorRGB
 90
-16777216
102
RTVSPost2010PropOp51
 70
     0
102
RTVSPost2010Prop52
140
1.0
102
RTVSPost2010PropOp52
 70
     0
102
RTVSPost2010Prop53
 90
        2
102
RTVSPost2010PropOp53
 70
     1
102
RTVSPost2010Prop54
  1
strokes_ogs.tif
102
RTVSPost2010PropOp54
 70
     1
102
RTVSPost2010Prop55
280
     0
102
RTVSPost2010PropOp55
 70
     1
102
RTVSPost2010Prop56
140
1.0
102
RTVSPost2010PropOp56
 70
     1
102
RTVSPost2010Prop57
140
1.0
102
RTVSPost2010PropOp57
 70
     1
  0
XRECORD
  5
99
102
{ACAD_REACTORS
330
98
102
}
330
98
100
AcDbXrecord
280
     1
102
RTVSPropertyOp0
 70
     1
102
RTVSPropertyOp1
 70
     1
102
RTVSPropertyOp2
 70
     1
102
RTVSPropertyOp3
 70
     1
102
RTVSPropertyOp4
 70
     1
102
RTVSPropertyOp5
 70
     1
102
RTVSPropertyOp6
 70
     1
102
RTVSPropertyOp7
 70
     1
102
RTVSPropertyOp8
 70
     1
102
RTVSPropertyOp9
 70
     1
102
RTVSPropertyOp10
 70
     1
102
RTVSPropertyOp11
 70
     1
102
RTVSPropertyOp12
 70
     1
102
RTVSPropertyOp13
 70
     1
102
RTVSPropertyOp14
 70
     1
102
RTVSPropertyOp15
 70
     1
102
RTVSPropertyOp16
 70
     1
102
RTVSPropertyOp17
 70
     1
102
RTVSPropertyOp18
 70
     1
102
RTVSPropertyOp19
 70
     1
102
RTVSPropertyOp20
 70
     1
102
RTVSPropertyOp21
 70
     1
102
RTVSPropertyOp22
 70
     1
102
RTVSPropertyOp23
 70
     1
102
RTVSPropertyOp24
 70
     1
102
RTVSPropertyOp25
 70
     1
102
RTVSPropertyOp26
 70
     1
102
RTVSPropertyOp27
 70
     1
102
RTVSPropertyOp28
 70
     1
102
RTVSPropertyOp29
 70
     1
102
RTVSPropertyOp30
 70
     1
102
RTVSPropertyOp31
 70
     1
102
RTVSPropertyOp32
 70
     1
102
RTVSPropertyOp33
 70
     1
102
RTVSPropertyOp34
 70
     1
102
RTVSPropertyOp35
 70
     1
102
RTVSPropertyOp36
 70
     1
102
RTVSPropertyOp37
 70
     1
102
RTVSPropertyOp38
 70
     1
102
RTVSPropertyOp39
 70
     1
102
RTVSPropertyOp40
 70
     1
102
RTVSPropertyOp41
 70
     1
102
RTVSPropertyOp42
 70
     1
102
RTVSPropertyOp43
 70
     1
102
RTVSPropertyOp44
 70
     1
102
RTVSPropertyOp45
 70
     1
102
RTVSPropertyOp46
 70
     1
102
RTVSPropertyOp47
 70
     1
102
RTVSPropertyOp48
 70
     1
102
RTVSPropertyOp49
 70
     1
102
RTVSPropertyOp50
 70
     1
102
RTVSPropertyOp51
 70
     0
102
RTVSPropertyOp52
 70
     0
102
RTVSPropertyOp53
 70
     1
102
RTVSPropertyOp54
 70
     1
102
RTVSPropertyOp55
 70
     1
102
RTVSPropertyOp56
 70
     1
102
RTVSPropertyOp57
 70
     1
102
RTVSPost2010Prop28
280
     0
102
RTVSPost2010PropOp28
 70
     1
102
RTVSPost2010Prop29
280
     1
102
RTVSPost2010PropOp29
 70
     1
102
RTVSPost2010Prop30
280
     1
102
RTVSPost2010PropOp30
 70
     1
102
RTVSPost2010Prop31
280
     0
102
RTVSPost2010PropOp31
 70
     1
102
RTVSPost2010Prop32
280
     0
102
RTVSPost2010PropOp32
 70
     1
102
RTVSPost2010Prop33
280
     0
102
RTVSPost2010PropOp33
 70
     1
102
RTVSPost2010Prop34
280
     0
102
RTVSPost2010PropOp34
 70
     1
102
RTVSPost2010Prop35
280
     0
102
RTVSPost2010PropOp35
 70
     1
102
RTVSPost2010Prop36
280
     0
102
RTVSPost2010PropOp36
 70
     1
102
RTVSPost2010Prop37
 90
       50
102
RTVSPost2010PropOp37
 70
     1
102
RTVSPost2010Prop38
140
0.0
102
RTVSPost2010PropOp38
 70
     1
102
RTVSPost2010Prop39
140
1.0
102
RTVSPost2010PropOp39
 70
     1
102
RTVSPost2010Prop40
 90
        0
102
RTVSPost2010PropOp40
 70
     1
102
RTVSPost2010Prop41ColorIndex
 90
       18
102
RTVSPost2010Prop41ColorRGB
 90
        0
102
RTVSPost2010PropOp41
 70
     1
102
RTVSPost2010Prop42
 90
       50
102
RTVSPost2010PropOp42
 70
     1
102
RTVSPost2010Prop43
 90
        3
102
RTVSPost2010PropOp43
 70
     1
102
RTVSPost2010Prop44ColorIndex
 90
        5
102
RTVSPost2010Prop44ColorRGB
 90
      255
102
RTVSPost2010PropOp44
 70
     1
102
RTVSPost2010Prop45
280
     0
102
RTVSPost2010PropOp45
 70
     1
102
RTVSPost2010Prop46
 90
       50
102
RTVSPost2010PropOp46
 70
     1
102
RTVSPost2010Prop47
 90
       50
102
RTVSPost2010PropOp47
 70
     1
102
RTVSPost2010Prop48
 90
       50
102
RTVSPost2010PropOp48
 70
     1
102
RTVSPost2010Prop49
280
     0
102
RTVSPost2010PropOp49
 70
     1
102
RTVSPost2010Prop50
 90
       50
102
RTVSPost2010PropOp50
 70
     1
102
RTVSPost2010Prop51ColorIndex
 90
      256
102
RTVSPost2010Prop51ColorRGB
 90
-16777216
102
RTVSPost2010PropOp51
 70
     0
102
RTVSPost2010Prop52
140
1.0
102
RTVSPost2010PropOp52
 70
     0
102
RTVSPost2010Prop53
 90
        2
102
RTVSPost2010PropOp53
 70
     1
102
RTVSPost2010Prop54
  1
strokes_ogs.tif
102
RTVSPost2010PropOp54
 70
     1
102
RTVSPost2010Prop55
280
     0
102
RTVSPost2010PropOp55
 70
     1
102
RTVSPost2010Prop56
140
1.0
102
RTVSPost2010PropOp56
 70
     1
102
RTVSPost2010Prop57
140
1.0
102
RTVSPost2010PropOp57
 70
     1
  0
XRECORD
  5
9B
102
{ACAD_REACTORS
330
9A
102
}
330
9A
100
AcDbXrecord
280
     1
102
RTVSPropertyOp0
 70
     1
102
RTVSPropertyOp1
 70
     1
102
RTVSPropertyOp2
 70
     1
102
RTVSPropertyOp3
 70
     1
102
RTVSPropertyOp4
 70
     1
102
RTVSPropertyOp5
 70
     1
102
RTVSPropertyOp6
 70
     1
102
RTVSPropertyOp7
 70
     1
102
RTVSPropertyOp8
 70
     1
102
RTVSPropertyOp9
 70
     1
102
RTVSPropertyOp10
 70
     1
102
RTVSPropertyOp11
 70
     1
102
RTVSPropertyOp12
 70
     1
102
RTVSPropertyOp13
 70
     1
102
RTVSPropertyOp14
 70
     1
102
RTVSPropertyOp15
 70
     1
102
RTVSPropertyOp16
 70
     1
102
RTVSPropertyOp17
 70
     1
102
RTVSPropertyOp18
 70
     1
102
RTVSPropertyOp19
 70
     1
102
RTVSPropertyOp20
 70
     1
102
RTVSPropertyOp21
 70
     1
102
RTVSPropertyOp22
 70
     1
102
RTVSPropertyOp23
 70
     1
102
RTVSPropertyOp24
 70
     1
102
RTVSPropertyOp25
 70
     1
102
RTVSPropertyOp26
 70
     1
102
RTVSPropertyOp27
 70
     1
102
RTVSPropertyOp28
 70
     1
102
RTVSPropertyOp29
 70
     1
102
RTVSPropertyOp30
 70
     1
102
RTVSPropertyOp31
 70
     1
102
RTVSPropertyOp32
 70
     1
102
RTVSPropertyOp33
 70
     1
102
RTVSPropertyOp34
 70
     1
102
RTVSPropertyOp35
 70
     1
102
RTVSPropertyOp36
 70
     1
102
RTVSPropertyOp37
 70
     1
102
RTVSPropertyOp38
 70
     1
102
RTVSPropertyOp39
 70
     1
102
RTVSPropertyOp40
 70
     1
102
RTVSPropertyOp41
 70
     1
102
RTVSPropertyOp42
 70
     1
102
RTVSPropertyOp43
 70
     1
102
RTVSPropertyOp44
 70
     1
102
RTVSPropertyOp45
 70
     1
102
RTVSPropertyOp46
 70
     1
102
RTVSPropertyOp47
 70
     1
102
RTVSPropertyOp48
 70
     1
102
RTVSPropertyOp49
 70
     1
102
RTVSPropertyOp50
 70
     1
102
RTVSPropertyOp51
 70
     0
102
RTVSPropertyOp52
 70
     0
102
RTVSPropertyOp53
 70
     1
102
RTVSPropertyOp54
 70
     1
102
RTVSPropertyOp55
 70
     1
102
RTVSPropertyOp56
 70
     1
102
RTVSPropertyOp57
 70
     1
102
RTVSPost2010Prop28
280
     0
102
RTVSPost2010PropOp28
 70
     1
102
RTVSPost2010Prop29
280
     1
102
RTVSPost2010PropOp29
 70
     1
102
RTVSPost2010Prop30
280
     1
102
RTVSPost2010PropOp30
 70
     1
102
RTVSPost2010Prop31
280
     0
102
RTVSPost2010PropOp31
 70
     1
102
RTVSPost2010Prop32
280
     0
102
RTVSPost2010PropOp32
 70
     1
102
RTVSPost2010Prop33
280
     0
102
RTVSPost2010PropOp33
 70
     1
102
RTVSPost2010Prop34
280
     0
102
RTVSPost2010PropOp34
 70
     1
102
RTVSPost2010Prop35
280
     0
102
RTVSPost2010PropOp35
 70
     1
102
RTVSPost2010Prop36
280
     0
102
RTVSPost2010PropOp36
 70
     1
102
RTVSPost2010Prop37
 90
       50
102
RTVSPost2010PropOp37
 70
     1
102
RTVSPost2010Prop38
140
0.0
102
RTVSPost2010PropOp38
 70
     1
102
RTVSPost2010Prop39
140
1.0
102
RTVSPost2010PropOp39
 70
     1
102
RTVSPost2010Prop40
 90
        0
102
RTVSPost2010PropOp40
 70
     1
102
RTVSPost2010Prop41ColorIndex
 90
       18
102
RTVSPost2010Prop41ColorRGB
 90
        0
102
RTVSPost2010PropOp41
 70
     1
102
RTVSPost2010Prop42
 90
       50
102
RTVSPost2010PropOp42
 70
     1
102
RTVSPost2010Prop43
 90
        3
102
RTVSPost2010PropOp43
 70
     1
102
RTVSPost2010Prop44ColorIndex
 90
        5
102
RTVSPost2010Prop44ColorRGB
 90
      255
102
RTVSPost2010PropOp44
 70
     1
102
RTVSPost2010Prop45
280
     0
102
RTVSPost2010PropOp45
 70
     1
102
RTVSPost2010Prop46
 90
       50
102
RTVSPost2010PropOp46
 70
     1
102
RTVSPost2010Prop47
 90
       50
102
RTVSPost2010PropOp47
 70
     1
102
RTVSPost2010Prop48
 90
       50
102
RTVSPost2010PropOp48
 70
     1
102
RTVSPost2010Prop49
280
     0
102
RTVSPost2010PropOp49
 70
     1
102
RTVSPost2010Prop50
 90
       50
102
RTVSPost2010PropOp50
 70
     1
102
RTVSPost2010Prop51ColorIndex
 90
      256
102
RTVSPost2010Prop51ColorRGB
 90
-16777216
102
RTVSPost2010PropOp51
 70
     0
102
RTVSPost2010Prop52
140
1.0
102
RTVSPost2010PropOp52
 70
     0
102
RTVSPost2010Prop53
 90
        2
102
RTVSPost2010PropOp53
 70
     1
102
RTVSPost2010Prop54
  1
strokes_ogs.tif
102
RTVSPost2010PropOp54
 70
     1
102
RTVSPost2010Prop55
280
     0
102
RTVSPost2010PropOp55
 70
     1
102
RTVSPost2010Prop56
140
1.0
102
RTVSPost2010PropOp56
 70
     1
102
RTVSPost2010Prop57
140
1.0
102
RTVSPost2010PropOp57
 70
     1
  0
XRECORD
  5
9D
102
{ACAD_REACTORS
330
9C
102
}
330
9C
100
AcDbXrecord
280
     1
102
RTVSPropertyOp0
 70
     1
102
RTVSPropertyOp1
 70
     1
102
RTVSPropertyOp2
 70
     1
102
RTVSPropertyOp3
 70
     1
102
RTVSPropertyOp4
 70
     1
102
RTVSPropertyOp5
 70
     1
102
RTVSPropertyOp6
 70
     1
102
RTVSPropertyOp7
 70
     1
102
RTVSPropertyOp8
 70
     1
102
RTVSPropertyOp9
 70
     1
102
RTVSPropertyOp10
 70
     1
102
RTVSPropertyOp11
 70
     1
102
RTVSPropertyOp12
 70
     1
102
RTVSPropertyOp13
 70
     1
102
RTVSPropertyOp14
 70
     1
102
RTVSPropertyOp15
 70
     1
102
RTVSPropertyOp16
 70
     1
102
RTVSPropertyOp17
 70
     1
102
RTVSPropertyOp18
 70
     1
102
RTVSPropertyOp19
 70
     1
102
RTVSPropertyOp20
 70
     1
102
RTVSPropertyOp21
 70
     1
102
RTVSPropertyOp22
 70
     1
102
RTVSPropertyOp23
 70
     1
102
RTVSPropertyOp24
 70
     1
102
RTVSPropertyOp25
 70
     1
102
RTVSPropertyOp26
 70
     1
102
RTVSPropertyOp27
 70
     1
102
RTVSPropertyOp28
 70
     1
102
RTVSPropertyOp29
 70
     1
102
RTVSPropertyOp30
 70
     1
102
RTVSPropertyOp31
 70
     1
102
RTVSPropertyOp32
 70
     1
102
RTVSPropertyOp33
 70
     1
102
RTVSPropertyOp34
 70
     1
102
RTVSPropertyOp35
 70
     1
102
RTVSPropertyOp36
 70
     1
102
RTVSPropertyOp37
 70
     1
102
RTVSPropertyOp38
 70
     1
102
RTVSPropertyOp39
 70
     1
102
RTVSPropertyOp40
 70
     1
102
RTVSPropertyOp41
 70
     1
102
RTVSPropertyOp42
 70
     1
102
RTVSPropertyOp43
 70
     1
102
RTVSPropertyOp44
 70
     1
102
RTVSPropertyOp45
 70
     1
102
RTVSPropertyOp46
 70
     1
102
RTVSPropertyOp47
 70
     1
102
RTVSPropertyOp48
 70
     1
102
RTVSPropertyOp49
 70
     1
102
RTVSPropertyOp50
 70
     1
102
RTVSPropertyOp51
 70
     0
102
RTVSPropertyOp52
 70
     0
102
RTVSPropertyOp53
 70
     1
102
RTVSPropertyOp54
 70
     1
102
RTVSPropertyOp55
 70
     1
102
RTVSPropertyOp56
 70
     1
102
RTVSPropertyOp57
 70
     1
102
RTVSPost2010Prop28
280
     0
102
RTVSPost2010PropOp28
 70
     1
102
RTVSPost2010Prop29
280
     1
102
RTVSPost2010PropOp29
 70
     1
102
RTVSPost2010Prop30
280
     1
102
RTVSPost2010PropOp30
 70
     1
102
RTVSPost2010Prop31
280
     0
102
RTVSPost2010PropOp31
 70
     1
102
RTVSPost2010Prop32
280
     0
102
RTVSPost2010PropOp32
 70
     1
102
RTVSPost2010Prop33
280
     0
102
RTVSPost2010PropOp33
 70
     1
102
RTVSPost2010Prop34
280
     0
102
RTVSPost2010PropOp34
 70
     1
102
RTVSPost2010Prop35
280
     0
102
RTVSPost2010PropOp35
 70
     1
102
RTVSPost2010Prop36
280
     0
102
RTVSPost2010PropOp36
 70
     1
102
RTVSPost2010Prop37
 90
       50
102
RTVSPost2010PropOp37
 70
     1
102
RTVSPost2010Prop38
140
0.0
102
RTVSPost2010PropOp38
 70
     1
102
RTVSPost2010Prop39
140
1.0
102
RTVSPost2010PropOp39
 70
     1
102
RTVSPost2010Prop40
 90
        0
102
RTVSPost2010PropOp40
 70
     1
102
RTVSPost2010Prop41ColorIndex
 90
       18
102
RTVSPost2010Prop41ColorRGB
 90
        0
102
RTVSPost2010PropOp41
 70
     1
102
RTVSPost2010Prop42
 90
       50
102
RTVSPost2010PropOp42
 70
     1
102
RTVSPost2010Prop43
 90
        3
102
RTVSPost2010PropOp43
 70
     1
102
RTVSPost2010Prop44ColorIndex
 90
        5
102
RTVSPost2010Prop44ColorRGB
 90
      255
102
RTVSPost2010PropOp44
 70
     1
102
RTVSPost2010Prop45
280
     0
102
RTVSPost2010PropOp45
 70
     1
102
RTVSPost2010Prop46
 90
       50
102
RTVSPost2010PropOp46
 70
     1
102
RTVSPost2010Prop47
 90
       50
102
RTVSPost2010PropOp47
 70
     1
102
RTVSPost2010Prop48
 90
       50
102
RTVSPost2010PropOp48
 70
     1
102
RTVSPost2010Prop49
280
     0
102
RTVSPost2010PropOp49
 70
     1
102
RTVSPost2010Prop50
 90
       50
102
RTVSPost2010PropOp50
 70
     1
102
RTVSPost2010Prop51ColorIndex
 90
      256
102
RTVSPost2010Prop51ColorRGB
 90
-16777216
102
RTVSPost2010PropOp51
 70
     0
102
RTVSPost2010Prop52
140
1.0
102
RTVSPost2010PropOp52
 70
     0
102
RTVSPost2010Prop53
 90
        2
102
RTVSPost2010PropOp53
 70
     1
102
RTVSPost2010Prop54
  1
strokes_ogs.tif
102
RTVSPost2010PropOp54
 70
     1
102
RTVSPost2010Prop55
280
     0
102
RTVSPost2010PropOp55
 70
     1
102
RTVSPost2010Prop56
140
1.0
102
RTVSPost2010PropOp56
 70
     1
102
RTVSPost2010Prop57
140
1.0
102
RTVSPost2010PropOp57
 70
     1
  0
XRECORD
  5
9F
102
{ACAD_REACTORS
330
9E
102
}
330
9E
100
AcDbXrecord
280
     1
102
RTVSPropertyOp0
 70
     1
102
RTVSPropertyOp1
 70
     1
102
RTVSPropertyOp2
 70
     1
102
RTVSPropertyOp3
 70
     1
102
RTVSPropertyOp4
 70
     1
102
RTVSPropertyOp5
 70
     1
102
RTVSPropertyOp6
 70
     1
102
RTVSPropertyOp7
 70
     1
102
RTVSPropertyOp8
 70
     1
102
RTVSPropertyOp9
 70
     1
102
RTVSPropertyOp10
 70
     1
102
RTVSPropertyOp11
 70
     1
102
RTVSPropertyOp12
 70
     1
102
RTVSPropertyOp13
 70
     1
102
RTVSPropertyOp14
 70
     1
102
RTVSPropertyOp15
 70
     1
102
RTVSPropertyOp16
 70
     1
102
RTVSPropertyOp17
 70
     1
102
RTVSPropertyOp18
 70
     1
102
RTVSPropertyOp19
 70
     1
102
RTVSPropertyOp20
 70
     1
102
RTVSPropertyOp21
 70
     1
102
RTVSPropertyOp22
 70
     1
102
RTVSPropertyOp23
 70
     1
102
RTVSPropertyOp24
 70
     1
102
RTVSPropertyOp25
 70
     1
102
RTVSPropertyOp26
 70
     1
102
RTVSPropertyOp27
 70
     1
102
RTVSPropertyOp28
 70
     1
102
RTVSPropertyOp29
 70
     1
102
RTVSPropertyOp30
 70
     1
102
RTVSPropertyOp31
 70
     1
102
RTVSPropertyOp32
 70
     1
102
RTVSPropertyOp33
 70
     1
102
RTVSPropertyOp34
 70
     1
102
RTVSPropertyOp35
 70
     1
102
RTVSPropertyOp36
 70
     1
102
RTVSPropertyOp37
 70
     1
102
RTVSPropertyOp38
 70
     1
102
RTVSPropertyOp39
 70
     1
102
RTVSPropertyOp40
 70
     1
102
RTVSPropertyOp41
 70
     1
102
RTVSPropertyOp42
 70
     1
102
RTVSPropertyOp43
 70
     1
102
RTVSPropertyOp44
 70
     1
102
RTVSPropertyOp45
 70
     1
102
RTVSPropertyOp46
 70
     1
102
RTVSPropertyOp47
 70
     1
102
RTVSPropertyOp48
 70
     1
102
RTVSPropertyOp49
 70
     1
102
RTVSPropertyOp50
 70
     1
102
RTVSPropertyOp51
 70
     0
102
RTVSPropertyOp52
 70
     0
102
RTVSPropertyOp53
 70
     1
102
RTVSPropertyOp54
 70
     1
102
RTVSPropertyOp55
 70
     1
102
RTVSPropertyOp56
 70
     1
102
RTVSPropertyOp57
 70
     1
102
RTVSPost2010Prop28
280
     0
102
RTVSPost2010PropOp28
 70
     1
102
RTVSPost2010Prop29
280
     1
102
RTVSPost2010PropOp29
 70
     1
102
RTVSPost2010Prop30
280
     1
102
RTVSPost2010PropOp30
 70
     1
102
RTVSPost2010Prop31
280
     0
102
RTVSPost2010PropOp31
 70
     1
102
RTVSPost2010Prop32
280
     0
102
RTVSPost2010PropOp32
 70
     1
102
RTVSPost2010Prop33
280
     0
102
RTVSPost2010PropOp33
 70
     1
102
RTVSPost2010Prop34
280
     0
102
RTVSPost2010PropOp34
 70
     1
102
RTVSPost2010Prop35
280
     0
102
RTVSPost2010PropOp35
 70
     1
102
RTVSPost2010Prop36
280
     0
102
RTVSPost2010PropOp36
 70
     1
102
RTVSPost2010Prop37
 90
       50
102
RTVSPost2010PropOp37
 70
     1
102
RTVSPost2010Prop38
140
0.0
102
RTVSPost2010PropOp38
 70
     1
102
RTVSPost2010Prop39
140
1.0
102
RTVSPost2010PropOp39
 70
     1
102
RTVSPost2010Prop40
 90
        0
102
RTVSPost2010PropOp40
 70
     1
102
RTVSPost2010Prop41ColorIndex
 90
       18
102
RTVSPost2010Prop41ColorRGB
 90
        0
102
RTVSPost2010PropOp41
 70
     1
102
RTVSPost2010Prop42
 90
       50
102
RTVSPost2010PropOp42
 70
     1
102
RTVSPost2010Prop43
 90
        3
102
RTVSPost2010PropOp43
 70
     1
102
RTVSPost2010Prop44ColorIndex
 90
        5
102
RTVSPost2010Prop44ColorRGB
 90
      255
102
RTVSPost2010PropOp44
 70
     1
102
RTVSPost2010Prop45
280
     0
102
RTVSPost2010PropOp45
 70
     1
102
RTVSPost2010Prop46
 90
       50
102
RTVSPost2010PropOp46
 70
     1
102
RTVSPost2010Prop47
 90
       50
102
RTVSPost2010PropOp47
 70
     1
102
RTVSPost2010Prop48
 90
       50
102
RTVSPost2010PropOp48
 70
     1
102
RTVSPost2010Prop49
280
     0
102
RTVSPost2010PropOp49
 70
     1
102
RTVSPost2010Prop50
 90
       50
102
RTVSPost2010PropOp50
 70
     1
102
RTVSPost2010Prop51ColorIndex
 90
      256
102
RTVSPost2010Prop51ColorRGB
 90
-16777216
102
RTVSPost2010PropOp51
 70
     0
102
RTVSPost2010Prop52
140
1.0
102
RTVSPost2010PropOp52
 70
     0
102
RTVSPost2010Prop53
 90
        2
102
RTVSPost2010PropOp53
 70
     1
102
RTVSPost2010Prop54
  1
strokes_ogs.tif
102
RTVSPost2010PropOp54
 70
     1
102
RTVSPost2010Prop55
280
     0
102
RTVSPost2010PropOp55
 70
     1
102
RTVSPost2010Prop56
140
1.0
102
RTVSPost2010PropOp56
 70
     1
102
RTVSPost2010Prop57
140
1.0
102
RTVSPost2010PropOp57
 70
     1
  0
XRECORD
  5
A5
102
{ACAD_REACTORS
330
A4
102
}
330
A4
100
AcDbXrecord
280
     1
102
RTVSPropertyOp0
 70
     1
102
RTVSPropertyOp1
 70
     1
102
RTVSPropertyOp2
 70
     1
102
RTVSPropertyOp3
 70
     1
102
RTVSPropertyOp4
 70
     1
102
RTVSPropertyOp5
 70
     1
102
RTVSPropertyOp6
 70
     1
102
RTVSPropertyOp7
 70
     1
102
RTVSPropertyOp8
 70
     1
102
RTVSPropertyOp9
 70
     1
102
RTVSPropertyOp10
 70
     1
102
RTVSPropertyOp11
 70
     1
102
RTVSPropertyOp12
 70
     1
102
RTVSPropertyOp13
 70
     1
102
RTVSPropertyOp14
 70
     1
102
RTVSPropertyOp15
 70
     1
102
RTVSPropertyOp16
 70
     1
102
RTVSPropertyOp17
 70
     1
102
RTVSPropertyOp18
 70
     1
102
RTVSPropertyOp19
 70
     1
102
RTVSPropertyOp20
 70
     1
102
RTVSPropertyOp21
 70
     1
102
RTVSPropertyOp22
 70
     1
102
RTVSPropertyOp23
 70
     1
102
RTVSPropertyOp24
 70
     1
102
RTVSPropertyOp25
 70
     1
102
RTVSPropertyOp26
 70
     1
102
RTVSPropertyOp27
 70
     1
102
RTVSPropertyOp28
 70
     1
102
RTVSPropertyOp29
 70
     1
102
RTVSPropertyOp30
 70
     1
102
RTVSPropertyOp31
 70
     1
102
RTVSPropertyOp32
 70
     1
102
RTVSPropertyOp33
 70
     1
102
RTVSPropertyOp34
 70
     1
102
RTVSPropertyOp35
 70
     1
102
RTVSPropertyOp36
 70
     1
102
RTVSPropertyOp37
 70
     1
102
RTVSPropertyOp38
 70
     1
102
RTVSPropertyOp39
 70
     1
102
RTVSPropertyOp40
 70
     1
102
RTVSPropertyOp41
 70
     1
102
RTVSPropertyOp42
 70
     1
102
RTVSPropertyOp43
 70
     1
102
RTVSPropertyOp44
 70
     1
102
RTVSPropertyOp45
 70
     1
102
RTVSPropertyOp46
 70
     1
102
RTVSPropertyOp47
 70
     1
102
RTVSPropertyOp48
 70
     1
102
RTVSPropertyOp49
 70
     1
102
RTVSPropertyOp50
 70
     1
102
RTVSPropertyOp51
 70
     0
102
RTVSPropertyOp52
 70
     0
102
RTVSPropertyOp53
 70
     1
102
RTVSPropertyOp54
 70
     1
102
RTVSPropertyOp55
 70
     1
102
RTVSPropertyOp56
 70
     1
102
RTVSPropertyOp57
 70
     1
102
RTVSPost2010Prop28
280
     0
102
RTVSPost2010PropOp28
 70
     1
102
RTVSPost2010Prop29
280
     1
102
RTVSPost2010PropOp29
 70
     1
102
RTVSPost2010Prop30
280
     1
102
RTVSPost2010PropOp30
 70
     1
102
RTVSPost2010Prop31
280
     0
102
RTVSPost2010PropOp31
 70
     1
102
RTVSPost2010Prop32
280
     0
102
RTVSPost2010PropOp32
 70
     1
102
RTVSPost2010Prop33
280
     0
102
RTVSPost2010PropOp33
 70
     1
102
RTVSPost2010Prop34
280
     0
102
RTVSPost2010PropOp34
 70
     1
102
RTVSPost2010Prop35
280
     0
102
RTVSPost2010PropOp35
 70
     1
102
RTVSPost2010Prop36
280
     0
102
RTVSPost2010PropOp36
 70
     1
102
RTVSPost2010Prop37
 90
       50
102
RTVSPost2010PropOp37
 70
     1
102
RTVSPost2010Prop38
140
0.0
102
RTVSPost2010PropOp38
 70
     1
102
RTVSPost2010Prop39
140
1.0
102
RTVSPost2010PropOp39
 70
     1
102
RTVSPost2010Prop40
 90
        0
102
RTVSPost2010PropOp40
 70
     1
102
RTVSPost2010Prop41ColorIndex
 90
       18
102
RTVSPost2010Prop41ColorRGB
 90
        0
102
RTVSPost2010PropOp41
 70
     1
102
RTVSPost2010Prop42
 90
       50
102
RTVSPost2010PropOp42
 70
     1
102
RTVSPost2010Prop43
 90
        3
102
RTVSPost2010PropOp43
 70
     1
102
RTVSPost2010Prop44ColorIndex
 90
        5
102
RTVSPost2010Prop44ColorRGB
 90
      255
102
RTVSPost2010PropOp44
 70
     1
102
RTVSPost2010Prop45
280
     0
102
RTVSPost2010PropOp45
 70
     1
102
RTVSPost2010Prop46
 90
       50
102
RTVSPost2010PropOp46
 70
     1
102
RTVSPost2010Prop47
 90
       50
102
RTVSPost2010PropOp47
 70
     1
102
RTVSPost2010Prop48
 90
       50
102
RTVSPost2010PropOp48
 70
     1
102
RTVSPost2010Prop49
280
     0
102
RTVSPost2010PropOp49
 70
     1
102
RTVSPost2010Prop50
 90
       50
102
RTVSPost2010PropOp50
 70
     1
102
RTVSPost2010Prop51ColorIndex
 90
      256
102
RTVSPost2010Prop51ColorRGB
 90
-16777216
102
RTVSPost2010PropOp51
 70
     0
102
RTVSPost2010Prop52
140
1.0
102
RTVSPost2010PropOp52
 70
     0
102
RTVSPost2010Prop53
 90
        2
102
RTVSPost2010PropOp53
 70
     1
102
RTVSPost2010Prop54
  1
strokes_ogs.tif
102
RTVSPost2010PropOp54
 70
     1
102
RTVSPost2010Prop55
280
     0
102
RTVSPost2010PropOp55
 70
     1
102
RTVSPost2010Prop56
140
1.0
102
RTVSPost2010PropOp56
 70
     1
102
RTVSPost2010Prop57
140
1.0
102
RTVSPost2010PropOp57
 70
     1
  0
XRECORD
  5
B9
102
{ACAD_REACTORS
330
B8
102
}
330
B8
100
AcDbXrecord
280
     1
102
RTVSPropertyOp0
 70
     0
102
RTVSPropertyOp1
 70
     0
102
RTVSPropertyOp2
 70
     0
102
RTVSPropertyOp3
 70
     0
102
RTVSPropertyOp4
 70
     0
102
RTVSPropertyOp5
 70
     0
102
RTVSPropertyOp6
 70
     0
102
RTVSPropertyOp7
 70
     0
102
RTVSPropertyOp8
 70
     0
102
RTVSPropertyOp9
 70
     0
102
RTVSPropertyOp10
 70
     0
102
RTVSPropertyOp11
 70
     0
102
RTVSPropertyOp12
 70
     0
102
RTVSPropertyOp13
 70
     0
102
RTVSPropertyOp14
 70
     2
102
RTVSPropertyOp15
 70
     0
102
RTVSPropertyOp16
 70
     0
102
RTVSPropertyOp17
 70
     0
102
RTVSPropertyOp18
 70
     0
102
RTVSPropertyOp19
 70
     0
102
RTVSPropertyOp20
 70
     0
102
RTVSPropertyOp21
 70
     0
102
RTVSPropertyOp22
 70
     0
102
RTVSPropertyOp23
 70
     0
102
RTVSPropertyOp24
 70
     0
102
RTVSPropertyOp25
 70
     0
102
RTVSPropertyOp26
 70
     0
102
RTVSPropertyOp27
 70
     0
102
RTVSPropertyOp28
 70
     0
102
RTVSPropertyOp29
 70
     0
102
RTVSPropertyOp30
 70
     0
102
RTVSPropertyOp31
 70
     0
102
RTVSPropertyOp32
 70
     0
102
RTVSPropertyOp33
 70
     0
102
RTVSPropertyOp34
 70
     0
102
RTVSPropertyOp35
 70
     0
102
RTVSPropertyOp36
 70
     0
102
RTVSPropertyOp37
 70
     0
102
RTVSPropertyOp38
 70
     0
102
RTVSPropertyOp39
 70
     0
102
RTVSPropertyOp40
 70
     0
102
RTVSPropertyOp41
 70
     0
102
RTVSPropertyOp42
 70
     0
102
RTVSPropertyOp43
 70
     0
102
RTVSPropertyOp44
 70
     0
102
RTVSPropertyOp45
 70
     0
102
RTVSPropertyOp46
 70
     0
102
RTVSPropertyOp47
 70
     0
102
RTVSPropertyOp48
 70
     0
102
RTVSPropertyOp49
 70
     0
102
RTVSPropertyOp50
 70
     0
102
RTVSPropertyOp51
 70
     0
102
RTVSPropertyOp52
 70
     0
102
RTVSPropertyOp53
 70
     0
102
RTVSPropertyOp54
 70
     0
102
RTVSPropertyOp55
 70
     0
102
RTVSPropertyOp56
 70
     0
102
RTVSPropertyOp57
 70
     0
102
RTVSPost2010Prop28
280
     0
102
RTVSPost2010PropOp28
 70
     0
102
RTVSPost2010Prop29
280
     1
102
RTVSPost2010PropOp29
 70
     0
102
RTVSPost2010Prop30
280
     1
102
RTVSPost2010PropOp30
 70
     0
102
RTVSPost2010Prop31
280
     0
102
RTVSPost2010PropOp31
 70
     0
102
RTVSPost2010Prop32
280
     0
102
RTVSPost2010PropOp32
 70
     0
102
RTVSPost2010Prop33
280
     0
102
RTVSPost2010PropOp33
 70
     0
102
RTVSPost2010Prop34
280
     0
102
RTVSPost2010PropOp34
 70
     0
102
RTVSPost2010Prop35
280
     0
102
RTVSPost2010PropOp35
 70
     0
102
RTVSPost2010Prop36
280
     0
102
RTVSPost2010PropOp36
 70
     0
102
RTVSPost2010Prop37
 90
       50
102
RTVSPost2010PropOp37
 70
     0
102
RTVSPost2010Prop38
140
0.0
102
RTVSPost2010PropOp38
 70
     0
102
RTVSPost2010Prop39
140
1.0
102
RTVSPost2010PropOp39
 70
     0
102
RTVSPost2010Prop40
 90
        0
102
RTVSPost2010PropOp40
 70
     0
102
RTVSPost2010Prop41ColorIndex
 90
       18
102
RTVSPost2010Prop41ColorRGB
 90
        0
102
RTVSPost2010PropOp41
 70
     0
102
RTVSPost2010Prop42
 90
       50
102
RTVSPost2010PropOp42
 70
     0
102
RTVSPost2010Prop43
 90
        3
102
RTVSPost2010PropOp43
 70
     0
102
RTVSPost2010Prop44ColorIndex
 90
        5
102
RTVSPost2010Prop44ColorRGB
 90
      255
102
RTVSPost2010PropOp44
 70
     0
102
RTVSPost2010Prop45
280
     0
102
RTVSPost2010PropOp45
 70
     0
102
RTVSPost2010Prop46
 90
       50
102
RTVSPost2010PropOp46
 70
     0
102
RTVSPost2010Prop47
 90
       50
102
RTVSPost2010PropOp47
 70
     0
102
RTVSPost2010Prop48
 90
       50
102
RTVSPost2010PropOp48
 70
     0
102
RTVSPost2010Prop49
280
     0
102
RTVSPost2010PropOp49
 70
     0
102
RTVSPost2010Prop50
 90
       50
102
RTVSPost2010PropOp50
 70
     0
102
RTVSPost2010Prop51ColorIndex
 90
      256
102
RTVSPost2010Prop51ColorRGB
 90
-16777216
102
RTVSPost2010PropOp51
 70
     0
102
RTVSPost2010Prop52
140
1.0
102
RTVSPost2010PropOp52
 70
     0
102
RTVSPost2010Prop53
 90
        2
102
RTVSPost2010PropOp53
 70
     0
102
RTVSPost2010Prop54
  1
strokes_ogs.tif
102
RTVSPost2010PropOp54
 70
     0
102
RTVSPost2010Prop55
280
     0
102
RTVSPost2010PropOp55
 70
     0
102
RTVSPost2010Prop56
140
1.0
102
RTVSPost2010PropOp56
 70
     0
102
RTVSPost2010Prop57
140
1.0
102
RTVSPost2010PropOp57
 70
     0
  0
XRECORD
  5
B3
102
{ACAD_REACTORS
330
B2
102
}
330
B2
100
AcDbXrecord
280
     1
102
RTVSPropertyOp0
 70
     1
102
RTVSPropertyOp1
 70
     1
102
RTVSPropertyOp2
 70
     1
102
RTVSPropertyOp3
 70
     1
102
RTVSPropertyOp4
 70
     1
102
RTVSPropertyOp5
 70
     1
102
RTVSPropertyOp6
 70
     1
102
RTVSPropertyOp7
 70
     1
102
RTVSPropertyOp8
 70
     1
102
RTVSPropertyOp9
 70
     1
102
RTVSPropertyOp10
 70
     1
102
RTVSPropertyOp11
 70
     1
102
RTVSPropertyOp12
 70
     1
102
RTVSPropertyOp13
 70
     1
102
RTVSPropertyOp14
 70
     1
102
RTVSPropertyOp15
 70
     1
102
RTVSPropertyOp16
 70
     1
102
RTVSPropertyOp17
 70
     1
102
RTVSPropertyOp18
 70
     1
102
RTVSPropertyOp19
 70
     1
102
RTVSPropertyOp20
 70
     1
102
RTVSPropertyOp21
 70
     1
102
RTVSPropertyOp22
 70
     1
102
RTVSPropertyOp23
 70
     1
102
RTVSPropertyOp24
 70
     1
102
RTVSPropertyOp25
 70
     1
102
RTVSPropertyOp26
 70
     1
102
RTVSPropertyOp27
 70
     1
102
RTVSPropertyOp28
 70
     1
102
RTVSPropertyOp29
 70
     1
102
RTVSPropertyOp30
 70
     1
102
RTVSPropertyOp31
 70
     1
102
RTVSPropertyOp32
 70
     1
102
RTVSPropertyOp33
 70
     1
102
RTVSPropertyOp34
 70
     1
102
RTVSPropertyOp35
 70
     1
102
RTVSPropertyOp36
 70
     1
102
RTVSPropertyOp37
 70
     1
102
RTVSPropertyOp38
 70
     1
102
RTVSPropertyOp39
 70
     1
102
RTVSPropertyOp40
 70
     1
102
RTVSPropertyOp41
 70
     1
102
RTVSPropertyOp42
 70
     1
102
RTVSPropertyOp43
 70
     1
102
RTVSPropertyOp44
 70
     1
102
RTVSPropertyOp45
 70
     1
102
RTVSPropertyOp46
 70
     1
102
RTVSPropertyOp47
 70
     1
102
RTVSPropertyOp48
 70
     1
102
RTVSPropertyOp49
 70
     1
102
RTVSPropertyOp50
 70
     1
102
RTVSPropertyOp51
 70
     0
102
RTVSPropertyOp52
 70
     0
102
RTVSPropertyOp53
 70
     1
102
RTVSPropertyOp54
 70
     1
102
RTVSPropertyOp55
 70
     1
102
RTVSPropertyOp56
 70
     1
102
RTVSPropertyOp57
 70
     1
102
RTVSPost2010Prop28
280
     0
102
RTVSPost2010PropOp28
 70
     1
102
RTVSPost2010Prop29
280
     1
102
RTVSPost2010PropOp29
 70
     1
102
RTVSPost2010Prop30
280
     1
102
RTVSPost2010PropOp30
 70
     1
102
RTVSPost2010Prop31
280
     0
102
RTVSPost2010PropOp31
 70
     1
102
RTVSPost2010Prop32
280
     0
102
RTVSPost2010PropOp32
 70
     1
102
RTVSPost2010Prop33
280
     0
102
RTVSPost2010PropOp33
 70
     1
102
RTVSPost2010Prop34
280
     0
102
RTVSPost2010PropOp34
 70
     1
102
RTVSPost2010Prop35
280
     0
102
RTVSPost2010PropOp35
 70
     1
102
RTVSPost2010Prop36
280
     0
102
RTVSPost2010PropOp36
 70
     1
102
RTVSPost2010Prop37
 90
       50
102
RTVSPost2010PropOp37
 70
     1
102
RTVSPost2010Prop38
140
0.0
102
RTVSPost2010PropOp38
 70
     1
102
RTVSPost2010Prop39
140
1.0
102
RTVSPost2010PropOp39
 70
     1
102
RTVSPost2010Prop40
 90
        0
102
RTVSPost2010PropOp40
 70
     1
102
RTVSPost2010Prop41ColorIndex
 90
       18
102
RTVSPost2010Prop41ColorRGB
 90
        0
102
RTVSPost2010PropOp41
 70
     1
102
RTVSPost2010Prop42
 90
       50
102
RTVSPost2010PropOp42
 70
     1
102
RTVSPost2010Prop43
 90
        3
102
RTVSPost2010PropOp43
 70
     1
102
RTVSPost2010Prop44ColorIndex
 90
        5
102
RTVSPost2010Prop44ColorRGB
 90
      255
102
RTVSPost2010PropOp44
 70
     1
102
RTVSPost2010Prop45
280
     0
102
RTVSPost2010PropOp45
 70
     1
102
RTVSPost2010Prop46
 90
       50
102
RTVSPost2010PropOp46
 70
     1
102
RTVSPost2010Prop47
 90
       50
102
RTVSPost2010PropOp47
 70
     1
102
RTVSPost2010Prop48
 90
       50
102
RTVSPost2010PropOp48
 70
     1
102
RTVSPost2010Prop49
280
     0
102
RTVSPost2010PropOp49
 70
     1
102
RTVSPost2010Prop50
 90
       50
102
RTVSPost2010PropOp50
 70
     1
102
RTVSPost2010Prop51ColorIndex
 90
      256
102
RTVSPost2010Prop51ColorRGB
 90
-16777216
102
RTVSPost2010PropOp51
 70
     0
102
RTVSPost2010Prop52
140
1.0
102
RTVSPost2010PropOp52
 70
     0
102
RTVSPost2010Prop53
 90
        2
102
RTVSPost2010PropOp53
 70
     1
102
RTVSPost2010Prop54
  1
strokes_ogs.tif
102
RTVSPost2010PropOp54
 70
     1
102
RTVSPost2010Prop55
280
     0
102
RTVSPost2010PropOp55
 70
     1
102
RTVSPost2010Prop56
140
1.0
102
RTVSPost2010PropOp56
 70
     1
102
RTVSPost2010Prop57
140
1.0
102
RTVSPost2010PropOp57
 70
     1
  0
XRECORD
  5
BB
102
{ACAD_REACTORS
330
BA
102
}
330
BA
100
AcDbXrecord
280
     1
102
RTVSPropertyOp0
 70
     0
102
RTVSPropertyOp1
 70
     0
102
RTVSPropertyOp2
 70
     0
102
RTVSPropertyOp3
 70
     0
102
RTVSPropertyOp4
 70
     0
102
RTVSPropertyOp5
 70
     0
102
RTVSPropertyOp6
 70
     0
102
RTVSPropertyOp7
 70
     0
102
RTVSPropertyOp8
 70
     0
102
RTVSPropertyOp9
 70
     0
102
RTVSPropertyOp10
 70
     0
102
RTVSPropertyOp11
 70
     0
102
RTVSPropertyOp12
 70
     0
102
RTVSPropertyOp13
 70
     0
102
RTVSPropertyOp14
 70
     2
102
RTVSPropertyOp15
 70
     0
102
RTVSPropertyOp16
 70
     0
102
RTVSPropertyOp17
 70
     0
102
RTVSPropertyOp18
 70
     0
102
RTVSPropertyOp19
 70
     0
102
RTVSPropertyOp20
 70
     0
102
RTVSPropertyOp21
 70
     0
102
RTVSPropertyOp22
 70
     0
102
RTVSPropertyOp23
 70
     0
102
RTVSPropertyOp24
 70
     0
102
RTVSPropertyOp25
 70
     0
102
RTVSPropertyOp26
 70
     0
102
RTVSPropertyOp27
 70
     0
102
RTVSPropertyOp28
 70
     0
102
RTVSPropertyOp29
 70
     0
102
RTVSPropertyOp30
 70
     0
102
RTVSPropertyOp31
 70
     0
102
RTVSPropertyOp32
 70
     0
102
RTVSPropertyOp33
 70
     0
102
RTVSPropertyOp34
 70
     0
102
RTVSPropertyOp35
 70
     0
102
RTVSPropertyOp36
 70
     0
102
RTVSPropertyOp37
 70
     0
102
RTVSPropertyOp38
 70
     0
102
RTVSPropertyOp39
 70
     0
102
RTVSPropertyOp40
 70
     0
102
RTVSPropertyOp41
 70
     0
102
RTVSPropertyOp42
 70
     0
102
RTVSPropertyOp43
 70
     0
102
RTVSPropertyOp44
 70
     0
102
RTVSPropertyOp45
 70
     0
102
RTVSPropertyOp46
 70
     0
102
RTVSPropertyOp47
 70
     0
102
RTVSPropertyOp48
 70
     0
102
RTVSPropertyOp49
 70
     0
102
RTVSPropertyOp50
 70
     0
102
RTVSPropertyOp51
 70
     0
102
RTVSPropertyOp52
 70
     0
102
RTVSPropertyOp53
 70
     0
102
RTVSPropertyOp54
 70
     0
102
RTVSPropertyOp55
 70
     0
102
RTVSPropertyOp56
 70
     0
102
RTVSPropertyOp57
 70
     0
102
RTVSPost2010Prop28
280
     0
102
RTVSPost2010PropOp28
 70
     0
102
RTVSPost2010Prop29
280
     1
102
RTVSPost2010PropOp29
 70
     0
102
RTVSPost2010Prop30
280
     1
102
RTVSPost2010PropOp30
 70
     0
102
RTVSPost2010Prop31
280
     0
102
RTVSPost2010PropOp31
 70
     0
102
RTVSPost2010Prop32
280
     0
102
RTVSPost2010PropOp32
 70
     0
102
RTVSPost2010Prop33
280
     0
102
RTVSPost2010PropOp33
 70
     0
102
RTVSPost2010Prop34
280
     0
102
RTVSPost2010PropOp34
 70
     0
102
RTVSPost2010Prop35
280
     0
102
RTVSPost2010PropOp35
 70
     0
102
RTVSPost2010Prop36
280
     0
102
RTVSPost2010PropOp36
 70
     0
102
RTVSPost2010Prop37
 90
       50
102
RTVSPost2010PropOp37
 70
     0
102
RTVSPost2010Prop38
140
0.0
102
RTVSPost2010PropOp38
 70
     0
102
RTVSPost2010Prop39
140
1.0
102
RTVSPost2010PropOp39
 70
     0
102
RTVSPost2010Prop40
 90
        0
102
RTVSPost2010PropOp40
 70
     0
102
RTVSPost2010Prop41ColorIndex
 90
       18
102
RTVSPost2010Prop41ColorRGB
 90
        0
102
RTVSPost2010PropOp41
 70
     0
102
RTVSPost2010Prop42
 90
       50
102
RTVSPost2010PropOp42
 70
     0
102
RTVSPost2010Prop43
 90
        3
102
RTVSPost2010PropOp43
 70
     0
102
RTVSPost2010Prop44ColorIndex
 90
        5
102
RTVSPost2010Prop44ColorRGB
 90
      255
102
RTVSPost2010PropOp44
 70
     0
102
RTVSPost2010Prop45
280
     0
102
RTVSPost2010PropOp45
 70
     0
102
RTVSPost2010Prop46
 90
       50
102
RTVSPost2010PropOp46
 70
     0
102
RTVSPost2010Prop47
 90
       50
102
RTVSPost2010PropOp47
 70
     0
102
RTVSPost2010Prop48
 90
       50
102
RTVSPost2010PropOp48
 70
     0
102
RTVSPost2010Prop49
280
     0
102
RTVSPost2010PropOp49
 70
     0
102
RTVSPost2010Prop50
 90
       50
102
RTVSPost2010PropOp50
 70
     0
102
RTVSPost2010Prop51ColorIndex
 90
      256
102
RTVSPost2010Prop51ColorRGB
 90
-16777216
102
RTVSPost2010PropOp51
 70
     0
102
RTVSPost2010Prop52
140
1.0
102
RTVSPost2010PropOp52
 70
     0
102
RTVSPost2010Prop53
 90
        2
102
RTVSPost2010PropOp53
 70
     0
102
RTVSPost2010Prop54
  1
strokes_ogs.tif
102
RTVSPost2010PropOp54
 70
     0
102
RTVSPost2010Prop55
280
     0
102
RTVSPost2010PropOp55
 70
     0
102
RTVSPost2010Prop56
140
1.0
102
RTVSPost2010PropOp56
 70
     0
102
RTVSPost2010Prop57
140
1.0
102
RTVSPost2010PropOp57
 70
     0
  0
XRECORD
  5
A9
102
{ACAD_REACTORS
330
A8
102
}
330
A8
100
AcDbXrecord
280
     1
102
RTVSPropertyOp0
 70
     1
102
RTVSPropertyOp1
 70
     1
102
RTVSPropertyOp2
 70
     1
102
RTVSPropertyOp3
 70
     1
102
RTVSPropertyOp4
 70
     1
102
RTVSPropertyOp5
 70
     1
102
RTVSPropertyOp6
 70
     1
102
RTVSPropertyOp7
 70
     1
102
RTVSPropertyOp8
 70
     1
102
RTVSPropertyOp9
 70
     1
102
RTVSPropertyOp10
 70
     1
102
RTVSPropertyOp11
 70
     1
102
RTVSPropertyOp12
 70
     1
102
RTVSPropertyOp13
 70
     1
102
RTVSPropertyOp14
 70
     1
102
RTVSPropertyOp15
 70
     1
102
RTVSPropertyOp16
 70
     1
102
RTVSPropertyOp17
 70
     1
102
RTVSPropertyOp18
 70
     1
102
RTVSPropertyOp19
 70
     1
102
RTVSPropertyOp20
 70
     1
102
RTVSPropertyOp21
 70
     1
102
RTVSPropertyOp22
 70
     1
102
RTVSPropertyOp23
 70
     1
102
RTVSPropertyOp24
 70
     1
102
RTVSPropertyOp25
 70
     1
102
RTVSPropertyOp26
 70
     1
102
RTVSPropertyOp27
 70
     1
102
RTVSPropertyOp28
 70
     1
102
RTVSPropertyOp29
 70
     1
102
RTVSPropertyOp30
 70
     1
102
RTVSPropertyOp31
 70
     1
102
RTVSPropertyOp32
 70
     1
102
RTVSPropertyOp33
 70
     1
102
RTVSPropertyOp34
 70
     1
102
RTVSPropertyOp35
 70
     1
102
RTVSPropertyOp36
 70
     1
102
RTVSPropertyOp37
 70
     1
102
RTVSPropertyOp38
 70
     1
102
RTVSPropertyOp39
 70
     1
102
RTVSPropertyOp40
 70
     1
102
RTVSPropertyOp41
 70
     1
102
RTVSPropertyOp42
 70
     1
102
RTVSPropertyOp43
 70
     1
102
RTVSPropertyOp44
 70
     1
102
RTVSPropertyOp45
 70
     1
102
RTVSPropertyOp46
 70
     1
102
RTVSPropertyOp47
 70
     1
102
RTVSPropertyOp48
 70
     1
102
RTVSPropertyOp49
 70
     1
102
RTVSPropertyOp50
 70
     1
102
RTVSPropertyOp51
 70
     0
102
RTVSPropertyOp52
 70
     0
102
RTVSPropertyOp53
 70
     1
102
RTVSPropertyOp54
 70
     1
102
RTVSPropertyOp55
 70
     1
102
RTVSPropertyOp56
 70
     1
102
RTVSPropertyOp57
 70
     1
102
RTVSPost2010Prop28
280
     0
102
RTVSPost2010PropOp28
 70
     1
102
RTVSPost2010Prop29
280
     1
102
RTVSPost2010PropOp29
 70
     1
102
RTVSPost2010Prop30
280
     1
102
RTVSPost2010PropOp30
 70
     1
102
RTVSPost2010Prop31
280
     0
102
RTVSPost2010PropOp31
 70
     1
102
RTVSPost2010Prop32
280
     0
102
RTVSPost2010PropOp32
 70
     1
102
RTVSPost2010Prop33
280
     0
102
RTVSPost2010PropOp33
 70
     1
102
RTVSPost2010Prop34
280
     0
102
RTVSPost2010PropOp34
 70
     1
102
RTVSPost2010Prop35
280
     0
102
RTVSPost2010PropOp35
 70
     1
102
RTVSPost2010Prop36
280
     0
102
RTVSPost2010PropOp36
 70
     1
102
RTVSPost2010Prop37
 90
       50
102
RTVSPost2010PropOp37
 70
     1
102
RTVSPost2010Prop38
140
0.0
102
RTVSPost2010PropOp38
 70
     1
102
RTVSPost2010Prop39
140
1.0
102
RTVSPost2010PropOp39
 70
     1
102
RTVSPost2010Prop40
 90
        0
102
RTVSPost2010PropOp40
 70
     1
102
RTVSPost2010Prop41ColorIndex
 90
       18
102
RTVSPost2010Prop41ColorRGB
 90
        0
102
RTVSPost2010PropOp41
 70
     1
102
RTVSPost2010Prop42
 90
       50
102
RTVSPost2010PropOp42
 70
     1
102
RTVSPost2010Prop43
 90
        3
102
RTVSPost2010PropOp43
 70
     1
102
RTVSPost2010Prop44ColorIndex
 90
        5
102
RTVSPost2010Prop44ColorRGB
 90
      255
102
RTVSPost2010PropOp44
 70
     1
102
RTVSPost2010Prop45
280
     0
102
RTVSPost2010PropOp45
 70
     1
102
RTVSPost2010Prop46
 90
       50
102
RTVSPost2010PropOp46
 70
     1
102
RTVSPost2010Prop47
 90
       50
102
RTVSPost2010PropOp47
 70
     1
102
RTVSPost2010Prop48
 90
       50
102
RTVSPost2010PropOp48
 70
     1
102
RTVSPost2010Prop49
280
     0
102
RTVSPost2010PropOp49
 70
     1
102
RTVSPost2010Prop50
 90
       50
102
RTVSPost2010PropOp50
 70
     1
102
RTVSPost2010Prop51ColorIndex
 90
      256
102
RTVSPost2010Prop51ColorRGB
 90
-16777216
102
RTVSPost2010PropOp51
 70
     0
102
RTVSPost2010Prop52
140
1.0
102
RTVSPost2010PropOp52
 70
     0
102
RTVSPost2010Prop53
 90
        2
102
RTVSPost2010PropOp53
 70
     1
102
RTVSPost2010Prop54
  1
strokes_ogs.tif
102
RTVSPost2010PropOp54
 70
     1
102
RTVSPost2010Prop55
280
     0
102
RTVSPost2010PropOp55
 70
     1
102
RTVSPost2010Prop56
140
1.0
102
RTVSPost2010PropOp56
 70
     1
102
RTVSPost2010Prop57
140
1.0
102
RTVSPost2010PropOp57
 70
     1
  0
XRECORD
  5
C7
102
{ACAD_REACTORS
330
C6
102
}
330
C6
100
AcDbXrecord
280
     1
102
RTVSPropertyOp0
 70
     1
102
RTVSPropertyOp1
 70
     1
102
RTVSPropertyOp2
 70
     1
102
RTVSPropertyOp3
 70
     1
102
RTVSPropertyOp4
 70
     1
102
RTVSPropertyOp5
 70
     1
102
RTVSPropertyOp6
 70
     1
102
RTVSPropertyOp7
 70
     1
102
RTVSPropertyOp8
 70
     1
102
RTVSPropertyOp9
 70
     1
102
RTVSPropertyOp10
 70
     1
102
RTVSPropertyOp11
 70
     1
102
RTVSPropertyOp12
 70
     1
102
RTVSPropertyOp13
 70
     1
102
RTVSPropertyOp14
 70
     1
102
RTVSPropertyOp15
 70
     1
102
RTVSPropertyOp16
 70
     1
102
RTVSPropertyOp17
 70
     1
102
RTVSPropertyOp18
 70
     1
102
RTVSPropertyOp19
 70
     1
102
RTVSPropertyOp20
 70
     1
102
RTVSPropertyOp21
 70
     1
102
RTVSPropertyOp22
 70
     1
102
RTVSPropertyOp23
 70
     1
102
RTVSPropertyOp24
 70
     1
102
RTVSPropertyOp25
 70
     1
102
RTVSPropertyOp26
 70
     1
102
RTVSPropertyOp27
 70
     1
102
RTVSPropertyOp28
 70
     1
102
RTVSPropertyOp29
 70
     1
102
RTVSPropertyOp30
 70
     1
102
RTVSPropertyOp31
 70
     1
102
RTVSPropertyOp32
 70
     1
102
RTVSPropertyOp33
 70
     1
102
RTVSPropertyOp34
 70
     1
102
RTVSPropertyOp35
 70
     1
102
RTVSPropertyOp36
 70
     1
102
RTVSPropertyOp37
 70
     1
102
RTVSPropertyOp38
 70
     1
102
RTVSPropertyOp39
 70
     1
102
RTVSPropertyOp40
 70
     1
102
RTVSPropertyOp41
 70
     1
102
RTVSPropertyOp42
 70
     1
102
RTVSPropertyOp43
 70
     1
102
RTVSPropertyOp44
 70
     1
102
RTVSPropertyOp45
 70
     1
102
RTVSPropertyOp46
 70
     1
102
RTVSPropertyOp47
 70
     1
102
RTVSPropertyOp48
 70
     1
102
RTVSPropertyOp49
 70
     1
102
RTVSPropertyOp50
 70
     1
102
RTVSPropertyOp51
 70
     0
102
RTVSPropertyOp52
 70
     0
102
RTVSPropertyOp53
 70
     1
102
RTVSPropertyOp54
 70
     1
102
RTVSPropertyOp55
 70
     1
102
RTVSPropertyOp56
 70
     1
102
RTVSPropertyOp57
 70
     1
102
RTVSPost2010Prop28
280
     0
102
RTVSPost2010PropOp28
 70
     1
102
RTVSPost2010Prop29
280
     1
102
RTVSPost2010PropOp29
 70
     1
102
RTVSPost2010Prop30
280
     1
102
RTVSPost2010PropOp30
 70
     1
102
RTVSPost2010Prop31
280
     0
102
RTVSPost2010PropOp31
 70
     1
102
RTVSPost2010Prop32
280
     0
102
RTVSPost2010PropOp32
 70
     1
102
RTVSPost2010Prop33
280
     0
102
RTVSPost2010PropOp33
 70
     1
102
RTVSPost2010Prop34
280
     0
102
RTVSPost2010PropOp34
 70
     1
102
RTVSPost2010Prop35
280
     0
102
RTVSPost2010PropOp35
 70
     1
102
RTVSPost2010Prop36
280
     0
102
RTVSPost2010PropOp36
 70
     1
102
RTVSPost2010Prop37
 90
       50
102
RTVSPost2010PropOp37
 70
     1
102
RTVSPost2010Prop38
140
0.0
102
RTVSPost2010PropOp38
 70
     1
102
RTVSPost2010Prop39
140
1.0
102
RTVSPost2010PropOp39
 70
     1
102
RTVSPost2010Prop40
 90
        0
102
RTVSPost2010PropOp40
 70
     1
102
RTVSPost2010Prop41ColorIndex
 90
       18
102
RTVSPost2010Prop41ColorRGB
 90
        0
102
RTVSPost2010PropOp41
 70
     1
102
RTVSPost2010Prop42
 90
       50
102
RTVSPost2010PropOp42
 70
     1
102
RTVSPost2010Prop43
 90
        3
102
RTVSPost2010PropOp43
 70
     1
102
RTVSPost2010Prop44ColorIndex
 90
        5
102
RTVSPost2010Prop44ColorRGB
 90
      255
102
RTVSPost2010PropOp44
 70
     1
102
RTVSPost2010Prop45
280
     0
102
RTVSPost2010PropOp45
 70
     1
102
RTVSPost2010Prop46
 90
       50
102
RTVSPost2010PropOp46
 70
     1
102
RTVSPost2010Prop47
 90
       50
102
RTVSPost2010PropOp47
 70
     1
102
RTVSPost2010Prop48
 90
       50
102
RTVSPost2010PropOp48
 70
     1
102
RTVSPost2010Prop49
280
     0
102
RTVSPost2010PropOp49
 70
     1
102
RTVSPost2010Prop50
 90
       50
102
RTVSPost2010PropOp50
 70
     1
102
RTVSPost2010Prop51ColorIndex
 90
      256
102
RTVSPost2010Prop51ColorRGB
 90
-16777216
102
RTVSPost2010PropOp51
 70
     0
102
RTVSPost2010Prop52
140
1.0
102
RTVSPost2010PropOp52
 70
     0
102
RTVSPost2010Prop53
 90
        2
102
RTVSPost2010PropOp53
 70
     1
102
RTVSPost2010Prop54
  1
strokes_ogs.tif
102
RTVSPost2010PropOp54
 70
     1
102
RTVSPost2010Prop55
280
     0
102
RTVSPost2010PropOp55
 70
     1
102
RTVSPost2010Prop56
140
1.0
102
RTVSPost2010PropOp56
 70
     1
102
RTVSPost2010Prop57
140
1.0
102
RTVSPost2010PropOp57
 70
     1
  0
XRECORD
  5
C5
102
{ACAD_REACTORS
330
C4
102
}
330
C4
100
AcDbXrecord
280
     1
102
RTVSPropertyOp0
 70
     1
102
RTVSPropertyOp1
 70
     1
102
RTVSPropertyOp2
 70
     1
102
RTVSPropertyOp3
 70
     1
102
RTVSPropertyOp4
 70
     1
102
RTVSPropertyOp5
 70
     1
102
RTVSPropertyOp6
 70
     1
102
RTVSPropertyOp7
 70
     1
102
RTVSPropertyOp8
 70
     1
102
RTVSPropertyOp9
 70
     1
102
RTVSPropertyOp10
 70
     1
102
RTVSPropertyOp11
 70
     1
102
RTVSPropertyOp12
 70
     1
102
RTVSPropertyOp13
 70
     1
102
RTVSPropertyOp14
 70
     1
102
RTVSPropertyOp15
 70
     1
102
RTVSPropertyOp16
 70
     1
102
RTVSPropertyOp17
 70
     1
102
RTVSPropertyOp18
 70
     1
102
RTVSPropertyOp19
 70
     1
102
RTVSPropertyOp20
 70
     1
102
RTVSPropertyOp21
 70
     1
102
RTVSPropertyOp22
 70
     1
102
RTVSPropertyOp23
 70
     1
102
RTVSPropertyOp24
 70
     1
102
RTVSPropertyOp25
 70
     1
102
RTVSPropertyOp26
 70
     1
102
RTVSPropertyOp27
 70
     1
102
RTVSPropertyOp28
 70
     1
102
RTVSPropertyOp29
 70
     1
102
RTVSPropertyOp30
 70
     1
102
RTVSPropertyOp31
 70
     1
102
RTVSPropertyOp32
 70
     1
102
RTVSPropertyOp33
 70
     1
102
RTVSPropertyOp34
 70
     1
102
RTVSPropertyOp35
 70
     1
102
RTVSPropertyOp36
 70
     1
102
RTVSPropertyOp37
 70
     1
102
RTVSPropertyOp38
 70
     1
102
RTVSPropertyOp39
 70
     1
102
RTVSPropertyOp40
 70
     1
102
RTVSPropertyOp41
 70
     1
102
RTVSPropertyOp42
 70
     1
102
RTVSPropertyOp43
 70
     1
102
RTVSPropertyOp44
 70
     1
102
RTVSPropertyOp45
 70
     1
102
RTVSPropertyOp46
 70
     1
102
RTVSPropertyOp47
 70
     1
102
RTVSPropertyOp48
 70
     1
102
RTVSPropertyOp49
 70
     1
102
RTVSPropertyOp50
 70
     1
102
RTVSPropertyOp51
 70
     0
102
RTVSPropertyOp52
 70
     0
102
RTVSPropertyOp53
 70
     1
102
RTVSPropertyOp54
 70
     1
102
RTVSPropertyOp55
 70
     1
102
RTVSPropertyOp56
 70
     1
102
RTVSPropertyOp57
 70
     1
102
RTVSPost2010Prop28
280
     0
102
RTVSPost2010PropOp28
 70
     1
102
RTVSPost2010Prop29
280
     1
102
RTVSPost2010PropOp29
 70
     1
102
RTVSPost2010Prop30
280
     1
102
RTVSPost2010PropOp30
 70
     1
102
RTVSPost2010Prop31
280
     0
102
RTVSPost2010PropOp31
 70
     1
102
RTVSPost2010Prop32
280
     0
102
RTVSPost2010PropOp32
 70
     1
102
RTVSPost2010Prop33
280
     0
102
RTVSPost2010PropOp33
 70
     1
102
RTVSPost2010Prop34
280
     0
102
RTVSPost2010PropOp34
 70
     1
102
RTVSPost2010Prop35
280
     0
102
RTVSPost2010PropOp35
 70
     1
102
RTVSPost2010Prop36
280
     0
102
RTVSPost2010PropOp36
 70
     1
102
RTVSPost2010Prop37
 90
       50
102
RTVSPost2010PropOp37
 70
     1
102
RTVSPost2010Prop38
140
0.0
102
RTVSPost2010PropOp38
 70
     1
102
RTVSPost2010Prop39
140
1.0
102
RTVSPost2010PropOp39
 70
     1
102
RTVSPost2010Prop40
 90
        0
102
RTVSPost2010PropOp40
 70
     1
102
RTVSPost2010Prop41ColorIndex
 90
       18
102
RTVSPost2010Prop41ColorRGB
 90
        0
102
RTVSPost2010PropOp41
 70
     1
102
RTVSPost2010Prop42
 90
       50
102
RTVSPost2010PropOp42
 70
     1
102
RTVSPost2010Prop43
 90
        3
102
RTVSPost2010PropOp43
 70
     1
102
RTVSPost2010Prop44ColorIndex
 90
        5
102
RTVSPost2010Prop44ColorRGB
 90
      255
102
RTVSPost2010PropOp44
 70
     1
102
RTVSPost2010Prop45
280
     0
102
RTVSPost2010PropOp45
 70
     1
102
RTVSPost2010Prop46
 90
       50
102
RTVSPost2010PropOp46
 70
     1
102
RTVSPost2010Prop47
 90
       50
102
RTVSPost2010PropOp47
 70
     1
102
RTVSPost2010Prop48
 90
       50
102
RTVSPost2010PropOp48
 70
     1
102
RTVSPost2010Prop49
280
     0
102
RTVSPost2010PropOp49
 70
     1
102
RTVSPost2010Prop50
 90
       50
102
RTVSPost2010PropOp50
 70
     1
102
RTVSPost2010Prop51ColorIndex
 90
      256
102
RTVSPost2010Prop51ColorRGB
 90
-16777216
102
RTVSPost2010PropOp51
 70
     0
102
RTVSPost2010Prop52
140
1.0
102
RTVSPost2010PropOp52
 70
     0
102
RTVSPost2010Prop53
 90
        2
102
RTVSPost2010PropOp53
 70
     1
102
RTVSPost2010Prop54
  1
strokes_ogs.tif
102
RTVSPost2010PropOp54
 70
     1
102
RTVSPost2010Prop55
280
     0
102
RTVSPost2010PropOp55
 70
     1
102
RTVSPost2010Prop56
140
1.0
102
RTVSPost2010PropOp56
 70
     1
102
RTVSPost2010Prop57
140
1.0
102
RTVSPost2010PropOp57
 70
     1
  0
XRECORD
  5
BF
102
{ACAD_REACTORS
330
BE
102
}
330
BE
100
AcDbXrecord
280
     1
102
RTVSPropertyOp0
 70
     1
102
RTVSPropertyOp1
 70
     1
102
RTVSPropertyOp2
 70
     1
102
RTVSPropertyOp3
 70
     1
102
RTVSPropertyOp4
 70
     1
102
RTVSPropertyOp5
 70
     1
102
RTVSPropertyOp6
 70
     1
102
RTVSPropertyOp7
 70
     1
102
RTVSPropertyOp8
 70
     1
102
RTVSPropertyOp9
 70
     1
102
RTVSPropertyOp10
 70
     1
102
RTVSPropertyOp11
 70
     1
102
RTVSPropertyOp12
 70
     1
102
RTVSPropertyOp13
 70
     1
102
RTVSPropertyOp14
 70
     1
102
RTVSPropertyOp15
 70
     1
102
RTVSPropertyOp16
 70
     1
102
RTVSPropertyOp17
 70
     1
102
RTVSPropertyOp18
 70
     1
102
RTVSPropertyOp19
 70
     1
102
RTVSPropertyOp20
 70
     1
102
RTVSPropertyOp21
 70
     1
102
RTVSPropertyOp22
 70
     1
102
RTVSPropertyOp23
 70
     1
102
RTVSPropertyOp24
 70
     1
102
RTVSPropertyOp25
 70
     1
102
RTVSPropertyOp26
 70
     1
102
RTVSPropertyOp27
 70
     1
102
RTVSPropertyOp28
 70
     1
102
RTVSPropertyOp29
 70
     1
102
RTVSPropertyOp30
 70
     1
102
RTVSPropertyOp31
 70
     1
102
RTVSPropertyOp32
 70
     1
102
RTVSPropertyOp33
 70
     1
102
RTVSPropertyOp34
 70
     1
102
RTVSPropertyOp35
 70
     1
102
RTVSPropertyOp36
 70
     1
102
RTVSPropertyOp37
 70
     1
102
RTVSPropertyOp38
 70
     1
102
RTVSPropertyOp39
 70
     1
102
RTVSPropertyOp40
 70
     1
102
RTVSPropertyOp41
 70
     1
102
RTVSPropertyOp42
 70
     1
102
RTVSPropertyOp43
 70
     1
102
RTVSPropertyOp44
 70
     1
102
RTVSPropertyOp45
 70
     1
102
RTVSPropertyOp46
 70
     1
102
RTVSPropertyOp47
 70
     1
102
RTVSPropertyOp48
 70
     1
102
RTVSPropertyOp49
 70
     1
102
RTVSPropertyOp50
 70
     1
102
RTVSPropertyOp51
 70
     0
102
RTVSPropertyOp52
 70
     0
102
RTVSPropertyOp53
 70
     1
102
RTVSPropertyOp54
 70
     1
102
RTVSPropertyOp55
 70
     1
102
RTVSPropertyOp56
 70
     1
102
RTVSPropertyOp57
 70
     1
102
RTVSPost2010Prop28
280
     0
102
RTVSPost2010PropOp28
 70
     1
102
RTVSPost2010Prop29
280
     1
102
RTVSPost2010PropOp29
 70
     1
102
RTVSPost2010Prop30
280
     1
102
RTVSPost2010PropOp30
 70
     1
102
RTVSPost2010Prop31
280
     0
102
RTVSPost2010PropOp31
 70
     1
102
RTVSPost2010Prop32
280
     0
102
RTVSPost2010PropOp32
 70
     1
102
RTVSPost2010Prop33
280
     0
102
RTVSPost2010PropOp33
 70
     1
102
RTVSPost2010Prop34
280
     0
102
RTVSPost2010PropOp34
 70
     1
102
RTVSPost2010Prop35
280
     0
102
RTVSPost2010PropOp35
 70
     1
102
RTVSPost2010Prop36
280
     0
102
RTVSPost2010PropOp36
 70
     1
102
RTVSPost2010Prop37
 90
       50
102
RTVSPost2010PropOp37
 70
     1
102
RTVSPost2010Prop38
140
0.0
102
RTVSPost2010PropOp38
 70
     1
102
RTVSPost2010Prop39
140
1.0
102
RTVSPost2010PropOp39
 70
     1
102
RTVSPost2010Prop40
 90
        0
102
RTVSPost2010PropOp40
 70
     1
102
RTVSPost2010Prop41ColorIndex
 90
       18
102
RTVSPost2010Prop41ColorRGB
 90
        0
102
RTVSPost2010PropOp41
 70
     1
102
RTVSPost2010Prop42
 90
       50
102
RTVSPost2010PropOp42
 70
     1
102
RTVSPost2010Prop43
 90
        3
102
RTVSPost2010PropOp43
 70
     1
102
RTVSPost2010Prop44ColorIndex
 90
        5
102
RTVSPost2010Prop44ColorRGB
 90
      255
102
RTVSPost2010PropOp44
 70
     1
102
RTVSPost2010Prop45
280
     0
102
RTVSPost2010PropOp45
 70
     1
102
RTVSPost2010Prop46
 90
       50
102
RTVSPost2010PropOp46
 70
     1
102
RTVSPost2010Prop47
 90
       50
102
RTVSPost2010PropOp47
 70
     1
102
RTVSPost2010Prop48
 90
       50
102
RTVSPost2010PropOp48
 70
     1
102
RTVSPost2010Prop49
280
     0
102
RTVSPost2010PropOp49
 70
     1
102
RTVSPost2010Prop50
 90
       50
102
RTVSPost2010PropOp50
 70
     1
102
RTVSPost2010Prop51ColorIndex
 90
      256
102
RTVSPost2010Prop51ColorRGB
 90
-16777216
102
RTVSPost2010PropOp51
 70
     0
102
RTVSPost2010Prop52
140
1.0
102
RTVSPost2010PropOp52
 70
     0
102
RTVSPost2010Prop53
 90
        2
102
RTVSPost2010PropOp53
 70
     1
102
RTVSPost2010Prop54
  1
strokes_ogs.tif
102
RTVSPost2010PropOp54
 70
     1
102
RTVSPost2010Prop55
280
     0
102
RTVSPost2010PropOp55
 70
     1
102
RTVSPost2010Prop56
140
1.0
102
RTVSPost2010PropOp56
 70
     1
102
RTVSPost2010Prop57
140
1.0
102
RTVSPost2010PropOp57
 70
     1
  0
XRECORD
  5
C1
102
{ACAD_REACTORS
330
C0
102
}
330
C0
100
AcDbXrecord
280
     1
102
RTVSPropertyOp0
 70
     1
102
RTVSPropertyOp1
 70
     1
102
RTVSPropertyOp2
 70
     1
102
RTVSPropertyOp3
 70
     1
102
RTVSPropertyOp4
 70
     1
102
RTVSPropertyOp5
 70
     1
102
RTVSPropertyOp6
 70
     1
102
RTVSPropertyOp7
 70
     1
102
RTVSPropertyOp8
 70
     1
102
RTVSPropertyOp9
 70
     1
102
RTVSPropertyOp10
 70
     1
102
RTVSPropertyOp11
 70
     1
102
RTVSPropertyOp12
 70
     1
102
RTVSPropertyOp13
 70
     1
102
RTVSPropertyOp14
 70
     1
102
RTVSPropertyOp15
 70
     1
102
RTVSPropertyOp16
 70
     1
102
RTVSPropertyOp17
 70
     1
102
RTVSPropertyOp18
 70
     1
102
RTVSPropertyOp19
 70
     1
102
RTVSPropertyOp20
 70
     1
102
RTVSPropertyOp21
 70
     1
102
RTVSPropertyOp22
 70
     1
102
RTVSPropertyOp23
 70
     1
102
RTVSPropertyOp24
 70
     1
102
RTVSPropertyOp25
 70
     1
102
RTVSPropertyOp26
 70
     1
102
RTVSPropertyOp27
 70
     1
102
RTVSPropertyOp28
 70
     1
102
RTVSPropertyOp29
 70
     1
102
RTVSPropertyOp30
 70
     1
102
RTVSPropertyOp31
 70
     1
102
RTVSPropertyOp32
 70
     1
102
RTVSPropertyOp33
 70
     1
102
RTVSPropertyOp34
 70
     1
102
RTVSPropertyOp35
 70
     1
102
RTVSPropertyOp36
 70
     1
102
RTVSPropertyOp37
 70
     1
102
RTVSPropertyOp38
 70
     1
102
RTVSPropertyOp39
 70
     1
102
RTVSPropertyOp40
 70
     1
102
RTVSPropertyOp41
 70
     1
102
RTVSPropertyOp42
 70
     1
102
RTVSPropertyOp43
 70
     1
102
RTVSPropertyOp44
 70
     1
102
RTVSPropertyOp45
 70
     1
102
RTVSPropertyOp46
 70
     1
102
RTVSPropertyOp47
 70
     1
102
RTVSPropertyOp48
 70
     1
102
RTVSPropertyOp49
 70
     1
102
RTVSPropertyOp50
 70
     1
102
RTVSPropertyOp51
 70
     0
102
RTVSPropertyOp52
 70
     0
102
RTVSPropertyOp53
 70
     1
102
RTVSPropertyOp54
 70
     1
102
RTVSPropertyOp55
 70
     1
102
RTVSPropertyOp56
 70
     1
102
RTVSPropertyOp57
 70
     1
102
RTVSPost2010Prop28
280
     0
102
RTVSPost2010PropOp28
 70
     1
102
RTVSPost2010Prop29
280
     1
102
RTVSPost2010PropOp29
 70
     1
102
RTVSPost2010Prop30
280
     1
102
RTVSPost2010PropOp30
 70
     1
102
RTVSPost2010Prop31
280
     0
102
RTVSPost2010PropOp31
 70
     1
102
RTVSPost2010Prop32
280
     0
102
RTVSPost2010PropOp32
 70
     1
102
RTVSPost2010Prop33
280
     0
102
RTVSPost2010PropOp33
 70
     1
102
RTVSPost2010Prop34
280
     0
102
RTVSPost2010PropOp34
 70
     1
102
RTVSPost2010Prop35
280
     0
102
RTVSPost2010PropOp35
 70
     1
102
RTVSPost2010Prop36
280
     0
102
RTVSPost2010PropOp36
 70
     1
102
RTVSPost2010Prop37
 90
       50
102
RTVSPost2010PropOp37
 70
     1
102
RTVSPost2010Prop38
140
0.0
102
RTVSPost2010PropOp38
 70
     1
102
RTVSPost2010Prop39
140
1.0
102
RTVSPost2010PropOp39
 70
     1
102
RTVSPost2010Prop40
 90
        0
102
RTVSPost2010PropOp40
 70
     1
102
RTVSPost2010Prop41ColorIndex
 90
       18
102
RTVSPost2010Prop41ColorRGB
 90
        0
102
RTVSPost2010PropOp41
 70
     1
102
RTVSPost2010Prop42
 90
       50
102
RTVSPost2010PropOp42
 70
     1
102
RTVSPost2010Prop43
 90
        3
102
RTVSPost2010PropOp43
 70
     1
102
RTVSPost2010Prop44ColorIndex
 90
        5
102
RTVSPost2010Prop44ColorRGB
 90
      255
102
RTVSPost2010PropOp44
 70
     1
102
RTVSPost2010Prop45
280
     0
102
RTVSPost2010PropOp45
 70
     1
102
RTVSPost2010Prop46
 90
       50
102
RTVSPost2010PropOp46
 70
     1
102
RTVSPost2010Prop47
 90
       50
102
RTVSPost2010PropOp47
 70
     1
102
RTVSPost2010Prop48
 90
       50
102
RTVSPost2010PropOp48
 70
     1
102
RTVSPost2010Prop49
280
     0
102
RTVSPost2010PropOp49
 70
     1
102
RTVSPost2010Prop50
 90
       50
102
RTVSPost2010PropOp50
 70
     1
102
RTVSPost2010Prop51ColorIndex
 90
      256
102
RTVSPost2010Prop51ColorRGB
 90
-16777216
102
RTVSPost2010PropOp51
 70
     0
102
RTVSPost2010Prop52
140
1.0
102
RTVSPost2010PropOp52
 70
     0
102
RTVSPost2010Prop53
 90
        2
102
RTVSPost2010PropOp53
 70
     1
102
RTVSPost2010Prop54
  1
strokes_ogs.tif
102
RTVSPost2010PropOp54
 70
     1
102
RTVSPost2010Prop55
280
     0
102
RTVSPost2010PropOp55
 70
     1
102
RTVSPost2010Prop56
140
1.0
102
RTVSPost2010PropOp56
 70
     1
102
RTVSPost2010Prop57
140
1.0
102
RTVSPost2010PropOp57
 70
     1
  0
XRECORD
  5
B1
102
{ACAD_REACTORS
330
B0
102
}
330
B0
100
AcDbXrecord
280
     1
102
RTVSPropertyOp0
 70
     1
102
RTVSPropertyOp1
 70
     1
102
RTVSPropertyOp2
 70
     1
102
RTVSPropertyOp3
 70
     1
102
RTVSPropertyOp4
 70
     1
102
RTVSPropertyOp5
 70
     1
102
RTVSPropertyOp6
 70
     1
102
RTVSPropertyOp7
 70
     1
102
RTVSPropertyOp8
 70
     1
102
RTVSPropertyOp9
 70
     1
102
RTVSPropertyOp10
 70
     1
102
RTVSPropertyOp11
 70
     1
102
RTVSPropertyOp12
 70
     1
102
RTVSPropertyOp13
 70
     1
102
RTVSPropertyOp14
 70
     1
102
RTVSPropertyOp15
 70
     1
102
RTVSPropertyOp16
 70
     1
102
RTVSPropertyOp17
 70
     1
102
RTVSPropertyOp18
 70
     1
102
RTVSPropertyOp19
 70
     1
102
RTVSPropertyOp20
 70
     1
102
RTVSPropertyOp21
 70
     1
102
RTVSPropertyOp22
 70
     1
102
RTVSPropertyOp23
 70
     1
102
RTVSPropertyOp24
 70
     1
102
RTVSPropertyOp25
 70
     1
102
RTVSPropertyOp26
 70
     1
102
RTVSPropertyOp27
 70
     1
102
RTVSPropertyOp28
 70
     1
102
RTVSPropertyOp29
 70
     1
102
RTVSPropertyOp30
 70
     1
102
RTVSPropertyOp31
 70
     1
102
RTVSPropertyOp32
 70
     1
102
RTVSPropertyOp33
 70
     1
102
RTVSPropertyOp34
 70
     1
102
RTVSPropertyOp35
 70
     1
102
RTVSPropertyOp36
 70
     1
102
RTVSPropertyOp37
 70
     1
102
RTVSPropertyOp38
 70
     1
102
RTVSPropertyOp39
 70
     1
102
RTVSPropertyOp40
 70
     1
102
RTVSPropertyOp41
 70
     1
102
RTVSPropertyOp42
 70
     1
102
RTVSPropertyOp43
 70
     1
102
RTVSPropertyOp44
 70
     1
102
RTVSPropertyOp45
 70
     1
102
RTVSPropertyOp46
 70
     1
102
RTVSPropertyOp47
 70
     1
102
RTVSPropertyOp48
 70
     1
102
RTVSPropertyOp49
 70
     1
102
RTVSPropertyOp50
 70
     1
102
RTVSPropertyOp51
 70
     0
102
RTVSPropertyOp52
 70
     0
102
RTVSPropertyOp53
 70
     1
102
RTVSPropertyOp54
 70
     1
102
RTVSPropertyOp55
 70
     1
102
RTVSPropertyOp56
 70
     1
102
RTVSPropertyOp57
 70
     1
102
RTVSPost2010Prop28
280
     0
102
RTVSPost2010PropOp28
 70
     1
102
RTVSPost2010Prop29
280
     1
102
RTVSPost2010PropOp29
 70
     1
102
RTVSPost2010Prop30
280
     1
102
RTVSPost2010PropOp30
 70
     1
102
RTVSPost2010Prop31
280
     0
102
RTVSPost2010PropOp31
 70
     1
102
RTVSPost2010Prop32
280
     0
102
RTVSPost2010PropOp32
 70
     1
102
RTVSPost2010Prop33
280
     0
102
RTVSPost2010PropOp33
 70
     1
102
RTVSPost2010Prop34
280
     0
102
RTVSPost2010PropOp34
 70
     1
102
RTVSPost2010Prop35
280
     0
102
RTVSPost2010PropOp35
 70
     1
102
RTVSPost2010Prop36
280
     0
102
RTVSPost2010PropOp36
 70
     1
102
RTVSPost2010Prop37
 90
       50
102
RTVSPost2010PropOp37
 70
     1
102
RTVSPost2010Prop38
140
0.0
102
RTVSPost2010PropOp38
 70
     1
102
RTVSPost2010Prop39
140
1.0
102
RTVSPost2010PropOp39
 70
     1
102
RTVSPost2010Prop40
 90
        0
102
RTVSPost2010PropOp40
 70
     1
102
RTVSPost2010Prop41ColorIndex
 90
       18
102
RTVSPost2010Prop41ColorRGB
 90
        0
102
RTVSPost2010PropOp41
 70
     1
102
RTVSPost2010Prop42
 90
       50
102
RTVSPost2010PropOp42
 70
     1
102
RTVSPost2010Prop43
 90
        3
102
RTVSPost2010PropOp43
 70
     1
102
RTVSPost2010Prop44ColorIndex
 90
        5
102
RTVSPost2010Prop44ColorRGB
 90
      255
102
RTVSPost2010PropOp44
 70
     1
102
RTVSPost2010Prop45
280
     0
102
RTVSPost2010PropOp45
 70
     1
102
RTVSPost2010Prop46
 90
       50
102
RTVSPost2010PropOp46
 70
     1
102
RTVSPost2010Prop47
 90
       50
102
RTVSPost2010PropOp47
 70
     1
102
RTVSPost2010Prop48
 90
       50
102
RTVSPost2010PropOp48
 70
     1
102
RTVSPost2010Prop49
280
     0
102
RTVSPost2010PropOp49
 70
     1
102
RTVSPost2010Prop50
 90
       50
102
RTVSPost2010PropOp50
 70
     1
102
RTVSPost2010Prop51ColorIndex
 90
      256
102
RTVSPost2010Prop51ColorRGB
 90
-16777216
102
RTVSPost2010PropOp51
 70
     0
102
RTVSPost2010Prop52
140
1.0
102
RTVSPost2010PropOp52
 70
     0
102
RTVSPost2010Prop53
 90
        2
102
RTVSPost2010PropOp53
 70
     1
102
RTVSPost2010Prop54
  1
strokes_ogs.tif
102
RTVSPost2010PropOp54
 70
     1
102
RTVSPost2010Prop55
280
     0
102
RTVSPost2010PropOp55
 70
     1
102
RTVSPost2010Prop56
140
1.0
102
RTVSPost2010PropOp56
 70
     1
102
RTVSPost2010Prop57
140
1.0
102
RTVSPost2010PropOp57
 70
     1
  0
XRECORD
  5
A3
102
{ACAD_REACTORS
330
A2
102
}
330
A2
100
AcDbXrecord
280
     1
102
RTVSPropertyOp0
 70
     1
102
RTVSPropertyOp1
 70
     1
102
RTVSPropertyOp2
 70
     1
102
RTVSPropertyOp3
 70
     1
102
RTVSPropertyOp4
 70
     1
102
RTVSPropertyOp5
 70
     1
102
RTVSPropertyOp6
 70
     1
102
RTVSPropertyOp7
 70
     1
102
RTVSPropertyOp8
 70
     1
102
RTVSPropertyOp9
 70
     1
102
RTVSPropertyOp10
 70
     1
102
RTVSPropertyOp11
 70
     1
102
RTVSPropertyOp12
 70
     1
102
RTVSPropertyOp13
 70
     1
102
RTVSPropertyOp14
 70
     1
102
RTVSPropertyOp15
 70
     1
102
RTVSPropertyOp16
 70
     1
102
RTVSPropertyOp17
 70
     1
102
RTVSPropertyOp18
 70
     1
102
RTVSPropertyOp19
 70
     1
102
RTVSPropertyOp20
 70
     1
102
RTVSPropertyOp21
 70
     1
102
RTVSPropertyOp22
 70
     1
102
RTVSPropertyOp23
 70
     1
102
RTVSPropertyOp24
 70
     1
102
RTVSPropertyOp25
 70
     1
102
RTVSPropertyOp26
 70
     1
102
RTVSPropertyOp27
 70
     1
102
RTVSPropertyOp28
 70
     1
102
RTVSPropertyOp29
 70
     1
102
RTVSPropertyOp30
 70
     1
102
RTVSPropertyOp31
 70
     1
102
RTVSPropertyOp32
 70
     1
102
RTVSPropertyOp33
 70
     1
102
RTVSPropertyOp34
 70
     1
102
RTVSPropertyOp35
 70
     1
102
RTVSPropertyOp36
 70
     1
102
RTVSPropertyOp37
 70
     1
102
RTVSPropertyOp38
 70
     1
102
RTVSPropertyOp39
 70
     1
102
RTVSPropertyOp40
 70
     1
102
RTVSPropertyOp41
 70
     1
102
RTVSPropertyOp42
 70
     1
102
RTVSPropertyOp43
 70
     1
102
RTVSPropertyOp44
 70
     1
102
RTVSPropertyOp45
 70
     1
102
RTVSPropertyOp46
 70
     1
102
RTVSPropertyOp47
 70
     1
102
RTVSPropertyOp48
 70
     1
102
RTVSPropertyOp49
 70
     1
102
RTVSPropertyOp50
 70
     1
102
RTVSPropertyOp51
 70
     0
102
RTVSPropertyOp52
 70
     0
102
RTVSPropertyOp53
 70
     1
102
RTVSPropertyOp54
 70
     1
102
RTVSPropertyOp55
 70
     1
102
RTVSPropertyOp56
 70
     1
102
RTVSPropertyOp57
 70
     1
102
RTVSPost2010Prop28
280
     0
102
RTVSPost2010PropOp28
 70
     1
102
RTVSPost2010Prop29
280
     1
102
RTVSPost2010PropOp29
 70
     1
102
RTVSPost2010Prop30
280
     1
102
RTVSPost2010PropOp30
 70
     1
102
RTVSPost2010Prop31
280
     0
102
RTVSPost2010PropOp31
 70
     1
102
RTVSPost2010Prop32
280
     0
102
RTVSPost2010PropOp32
 70
     1
102
RTVSPost2010Prop33
280
     0
102
RTVSPost2010PropOp33
 70
     1
102
RTVSPost2010Prop34
280
     0
102
RTVSPost2010PropOp34
 70
     1
102
RTVSPost2010Prop35
280
     0
102
RTVSPost2010PropOp35
 70
     1
102
RTVSPost2010Prop36
280
     0
102
RTVSPost2010PropOp36
 70
     1
102
RTVSPost2010Prop37
 90
       50
102
RTVSPost2010PropOp37
 70
     1
102
RTVSPost2010Prop38
140
0.0
102
RTVSPost2010PropOp38
 70
     1
102
RTVSPost2010Prop39
140
1.0
102
RTVSPost2010PropOp39
 70
     1
102
RTVSPost2010Prop40
 90
        0
102
RTVSPost2010PropOp40
 70
     1
102
RTVSPost2010Prop41ColorIndex
 90
       18
102
RTVSPost2010Prop41ColorRGB
 90
        0
102
RTVSPost2010PropOp41
 70
     1
102
RTVSPost2010Prop42
 90
       50
102
RTVSPost2010PropOp42
 70
     1
102
RTVSPost2010Prop43
 90
        3
102
RTVSPost2010PropOp43
 70
     1
102
RTVSPost2010Prop44ColorIndex
 90
        5
102
RTVSPost2010Prop44ColorRGB
 90
      255
102
RTVSPost2010PropOp44
 70
     1
102
RTVSPost2010Prop45
280
     0
102
RTVSPost2010PropOp45
 70
     1
102
RTVSPost2010Prop46
 90
       50
102
RTVSPost2010PropOp46
 70
     1
102
RTVSPost2010Prop47
 90
       50
102
RTVSPost2010PropOp47
 70
     1
102
RTVSPost2010Prop48
 90
       50
102
RTVSPost2010PropOp48
 70
     1
102
RTVSPost2010Prop49
280
     0
102
RTVSPost2010PropOp49
 70
     1
102
RTVSPost2010Prop50
 90
       50
102
RTVSPost2010PropOp50
 70
     1
102
RTVSPost2010Prop51ColorIndex
 90
      256
102
RTVSPost2010Prop51ColorRGB
 90
-16777216
102
RTVSPost2010PropOp51
 70
     0
102
RTVSPost2010Prop52
140
1.0
102
RTVSPost2010PropOp52
 70
     0
102
RTVSPost2010Prop53
 90
        2
102
RTVSPost2010PropOp53
 70
     1
102
RTVSPost2010Prop54
  1
strokes_ogs.tif
102
RTVSPost2010PropOp54
 70
     1
102
RTVSPost2010Prop55
280
     0
102
RTVSPost2010PropOp55
 70
     1
102
RTVSPost2010Prop56
140
1.0
102
RTVSPost2010PropOp56
 70
     1
102
RTVSPost2010Prop57
140
1.0
102
RTVSPost2010PropOp57
 70
     1
  0
XRECORD
  5
C3
102
{ACAD_REACTORS
330
C2
102
}
330
C2
100
AcDbXrecord
280
     1
102
RTVSPropertyOp0
 70
     1
102
RTVSPropertyOp1
 70
     1
102
RTVSPropertyOp2
 70
     1
102
RTVSPropertyOp3
 70
     1
102
RTVSPropertyOp4
 70
     1
102
RTVSPropertyOp5
 70
     1
102
RTVSPropertyOp6
 70
     1
102
RTVSPropertyOp7
 70
     1
102
RTVSPropertyOp8
 70
     1
102
RTVSPropertyOp9
 70
     1
102
RTVSPropertyOp10
 70
     1
102
RTVSPropertyOp11
 70
     1
102
RTVSPropertyOp12
 70
     1
102
RTVSPropertyOp13
 70
     1
102
RTVSPropertyOp14
 70
     1
102
RTVSPropertyOp15
 70
     1
102
RTVSPropertyOp16
 70
     1
102
RTVSPropertyOp17
 70
     1
102
RTVSPropertyOp18
 70
     1
102
RTVSPropertyOp19
 70
     1
102
RTVSPropertyOp20
 70
     1
102
RTVSPropertyOp21
 70
     1
102
RTVSPropertyOp22
 70
     1
102
RTVSPropertyOp23
 70
     1
102
RTVSPropertyOp24
 70
     1
102
RTVSPropertyOp25
 70
     1
102
RTVSPropertyOp26
 70
     1
102
RTVSPropertyOp27
 70
     1
102
RTVSPropertyOp28
 70
     1
102
RTVSPropertyOp29
 70
     1
102
RTVSPropertyOp30
 70
     1
102
RTVSPropertyOp31
 70
     1
102
RTVSPropertyOp32
 70
     1
102
RTVSPropertyOp33
 70
     1
102
RTVSPropertyOp34
 70
     1
102
RTVSPropertyOp35
 70
     1
102
RTVSPropertyOp36
 70
     1
102
RTVSPropertyOp37
 70
     1
102
RTVSPropertyOp38
 70
     1
102
RTVSPropertyOp39
 70
     1
102
RTVSPropertyOp40
 70
     1
102
RTVSPropertyOp41
 70
     1
102
RTVSPropertyOp42
 70
     1
102
RTVSPropertyOp43
 70
     1
102
RTVSPropertyOp44
 70
     1
102
RTVSPropertyOp45
 70
     1
102
RTVSPropertyOp46
 70
     1
102
RTVSPropertyOp47
 70
     1
102
RTVSPropertyOp48
 70
     1
102
RTVSPropertyOp49
 70
     1
102
RTVSPropertyOp50
 70
     1
102
RTVSPropertyOp51
 70
     0
102
RTVSPropertyOp52
 70
     0
102
RTVSPropertyOp53
 70
     1
102
RTVSPropertyOp54
 70
     1
102
RTVSPropertyOp55
 70
     1
102
RTVSPropertyOp56
 70
     1
102
RTVSPropertyOp57
 70
     1
102
RTVSPost2010Prop28
280
     0
102
RTVSPost2010PropOp28
 70
     1
102
RTVSPost2010Prop29
280
     1
102
RTVSPost2010PropOp29
 70
     1
102
RTVSPost2010Prop30
280
     1
102
RTVSPost2010PropOp30
 70
     1
102
RTVSPost2010Prop31
280
     0
102
RTVSPost2010PropOp31
 70
     1
102
RTVSPost2010Prop32
280
     0
102
RTVSPost2010PropOp32
 70
     1
102
RTVSPost2010Prop33
280
     0
102
RTVSPost2010PropOp33
 70
     1
102
RTVSPost2010Prop34
280
     0
102
RTVSPost2010PropOp34
 70
     1
102
RTVSPost2010Prop35
280
     0
102
RTVSPost2010PropOp35
 70
     1
102
RTVSPost2010Prop36
280
     0
102
RTVSPost2010PropOp36
 70
     1
102
RTVSPost2010Prop37
 90
       50
102
RTVSPost2010PropOp37
 70
     1
102
RTVSPost2010Prop38
140
0.0
102
RTVSPost2010PropOp38
 70
     1
102
RTVSPost2010Prop39
140
1.0
102
RTVSPost2010PropOp39
 70
     1
102
RTVSPost2010Prop40
 90
        0
102
RTVSPost2010PropOp40
 70
     1
102
RTVSPost2010Prop41ColorIndex
 90
       18
102
RTVSPost2010Prop41ColorRGB
 90
        0
102
RTVSPost2010PropOp41
 70
     1
102
RTVSPost2010Prop42
 90
       50
102
RTVSPost2010PropOp42
 70
     1
102
RTVSPost2010Prop43
 90
        3
102
RTVSPost2010PropOp43
 70
     1
102
RTVSPost2010Prop44ColorIndex
 90
        5
102
RTVSPost2010Prop44ColorRGB
 90
      255
102
RTVSPost2010PropOp44
 70
     1
102
RTVSPost2010Prop45
280
     0
102
RTVSPost2010PropOp45
 70
     1
102
RTVSPost2010Prop46
 90
       50
102
RTVSPost2010PropOp46
 70
     1
102
RTVSPost2010Prop47
 90
       50
102
RTVSPost2010PropOp47
 70
     1
102
RTVSPost2010Prop48
 90
       50
102
RTVSPost2010PropOp48
 70
     1
102
RTVSPost2010Prop49
280
     0
102
RTVSPost2010PropOp49
 70
     1
102
RTVSPost2010Prop50
 90
       50
102
RTVSPost2010PropOp50
 70
     1
102
RTVSPost2010Prop51ColorIndex
 90
      256
102
RTVSPost2010Prop51ColorRGB
 90
-16777216
102
RTVSPost2010PropOp51
 70
     0
102
RTVSPost2010Prop52
140
1.0
102
RTVSPost2010PropOp52
 70
     0
102
RTVSPost2010Prop53
 90
        2
102
RTVSPost2010PropOp53
 70
     1
102
RTVSPost2010Prop54
  1
strokes_ogs.tif
102
RTVSPost2010PropOp54
 70
     1
102
RTVSPost2010Prop55
280
     0
102
RTVSPost2010PropOp55
 70
     1
102
RTVSPost2010Prop56
140
1.0
102
RTVSPost2010PropOp56
 70
     1
102
RTVSPost2010Prop57
140
1.0
102
RTVSPost2010PropOp57
 70
     1
  0
ENDSEC
  0
EOF
