  0
SECTION
  2
HEADER
  9
$ACADVER
  1
AC1021
  9
$ACADMAINTVER
 70
    25
  9
$DWGCODEPAGE
  3
ANSI_1251
  9
$LASTSAVEDBY
  1
DukereD
  9
$INSBASE
 10
0.0
 20
0.0
 30
0.0
  9
$EXTMIN
 10
1796.6029
 20
410.2698
 30
0.0
  9
$EXTMAX
 10
2379.2191
 20
798.6357
 30
0.0
  9
$LIMMIN
 10
0.0
 20
0.0
  9
$LIMMAX
 10
12.0
 20
9.0
  9
$ORTHOMODE
 70
     0
  9
$REGENMODE
 70
     1
  9
$FILLMODE
 70
     1
  9
$QTEXTMODE
 70
     0
  9
$MIRRTEXT
 70
     1
  9
$LTSCALE
 40
1.0
  9
$ATTMODE
 70
     1
  9
$TEXTSIZE
 40
0.2
  9
$TRACEWID
 40
0.05
  9
$TEXTSTYLE
  7
Standard
  9
$CLAYER
  8
0
  9
$CELTYPE
  6
ByLayer
  9
$CECOLOR
 62
   256
  9
$CELTSCALE
 40
1.0
  9
$DISPSILH
 70
     0
  9
$DIMSCALE
 40
1.0
  9
$DIMASZ
 40
0.18
  9
$DIMEXO
 40
0.0625
  9
$DIMDLI
 40
0.38
  9
$DIMRND
 40
0.0
  9
$DIMDLE
 40
0.0
  9
$DIMEXE
 40
0.18
  9
$DIMTP
 40
0.0
  9
$DIMTM
 40
0.0
  9
$DIMTXT
 40
0.18
  9
$DIMCEN
 40
0.09
  9
$DIMTSZ
 40
0.0
  9
$DIMTOL
 70
     0
  9
$DIMLIM
 70
     0
  9
$DIMTIH
 70
     1
  9
$DIMTOH
 70
     1
  9
$DIMSE1
 70
     0
  9
$DIMSE2
 70
     0
  9
$DIMTAD
 70
     0
  9
$DIMZIN
 70
     0
  9
$DIMBLK
  1

  9
$DIMASO
 70
     1
  9
$DIMSHO
 70
     1
  9
$DIMPOST
  1

  9
$DIMAPOST
  1

  9
$DIMALT
 70
     0
  9
$DIMALTD
 70
     2
  9
$DIMALTF
 40
25.4
  9
$DIMLFAC
 40
1.0
  9
$DIMTOFL
 70
     0
  9
$DIMTVP
 40
0.0
  9
$DIMTIX
 70
     0
  9
$DIMSOXD
 70
     0
  9
$DIMSAH
 70
     0
  9
$DIMBLK1
  1

  9
$DIMBLK2
  1

  9
$DIMSTYLE
  2
Standard
  9
$DIMCLRD
 70
     0
  9
$DIMCLRE
 70
     0
  9
$DIMCLRT
 70
     0
  9
$DIMTFAC
 40
1.0
  9
$DIMGAP
 40
0.09
  9
$DIMJUST
 70
     0
  9
$DIMSD1
 70
     0
  9
$DIMSD2
 70
     0
  9
$DIMTOLJ
 70
     1
  9
$DIMTZIN
 70
     0
  9
$DIMALTZ
 70
     0
  9
$DIMALTTZ
 70
     0
  9
$DIMUPT
 70
     0
  9
$DIMDEC
 70
     4
  9
$DIMTDEC
 70
     4
  9
$DIMALTU
 70
     2
  9
$DIMALTTD
 70
     2
  9
$DIMTXSTY
  7
Standard
  9
$DIMAUNIT
 70
     0
  9
$DIMADEC
 70
     0
  9
$DIMALTRND
 40
0.0
  9
$DIMAZIN
 70
     0
  9
$DIMDSEP
 70
    46
  9
$DIMATFIT
 70
     3
  9
$DIMFRAC
 70
     0
  9
$DIMLDRBLK
  1

  9
$DIMLUNIT
 70
     2
  9
$DIMLWD
 70
    -2
  9
$DIMLWE
 70
    -2
  9
$DIMTMOVE
 70
     0
  9
$DIMFXL
 40
1.0
  9
$DIMFXLON
 70
     0
  9
$DIMJOGANG
 40
0.7853981633974483
  9
$DIMTFILL
 70
     0
  9
$DIMTFILLCLR
 70
     0
  9
$DIMARCSYM
 70
     0
  9
$DIMLTYPE
  6

  9
$DIMLTEX1
  6

  9
$DIMLTEX2
  6

  9
$LUNITS
 70
     2
  9
$LUPREC
 70
     4
  9
$SKETCHINC
 40
0.1
  9
$FILLETRAD
 40
0.5
  9
$AUNITS
 70
     0
  9
$AUPREC
 70
     0
  9
$MENU
  1
.
  9
$ELEVATION
 40
0.0
  9
$PELEVATION
 40
0.0
  9
$THICKNESS
 40
0.0
  9
$LIMCHECK
 70
     0
  9
$CHAMFERA
 40
0.0
  9
$CHAMFERB
 40
0.0
  9
$CHAMFERC
 40
0.0
  9
$CHAMFERD
 40
0.0
  9
$SKPOLY
 70
     0
  9
$TDCREATE
 40
2458944.010721192
  9
$TDUCREATE
 40
2458943.885721192
  9
$TDUPDATE
 40
2458944.010721262
  9
$TDUUPDATE
 40
2458943.885721262
  9
$TDINDWG
 40
0.0000000116
  9
$TDUSRTIMER
 40
0.0000000116
  9
$USRTIMER
 70
     1
  9
$ANGBASE
 50
0.0
  9
$ANGDIR
 70
     0
  9
$PDMODE
 70
     0
  9
$PDSIZE
 40
0.0
  9
$PLINEWID
 40
0.0
  9
$SPLFRAME
 70
     0
  9
$SPLINETYPE
 70
     6
  9
$SPLINESEGS
 70
     8
  9
$HANDSEED
  5
E9
  9
$SURFTAB1
 70
     6
  9
$SURFTAB2
 70
     6
  9
$SURFTYPE
 70
     6
  9
$SURFU
 70
     6
  9
$SURFV
 70
     6
  9
$UCSBASE
  2

  9
$UCSNAME
  2

  9
$UCSORG
 10
0.0
 20
0.0
 30
0.0
  9
$UCSXDIR
 10
1.0
 20
0.0
 30
0.0
  9
$UCSYDIR
 10
0.0
 20
1.0
 30
0.0
  9
$UCSORTHOREF
  2

  9
$UCSORTHOVIEW
 70
     0
  9
$UCSORGTOP
 10
0.0
 20
0.0
 30
0.0
  9
$UCSORGBOTTOM
 10
0.0
 20
0.0
 30
0.0
  9
$UCSORGLEFT
 10
0.0
 20
0.0
 30
0.0
  9
$UCSORGRIGHT
 10
0.0
 20
0.0
 30
0.0
  9
$UCSORGFRONT
 10
0.0
 20
0.0
 30
0.0
  9
$UCSORGBACK
 10
0.0
 20
0.0
 30
0.0
  9
$PUCSBASE
  2

  9
$PUCSNAME
  2

  9
$PUCSORG
 10
0.0
 20
0.0
 30
0.0
  9
$PUCSXDIR
 10
1.0
 20
0.0
 30
0.0
  9
$PUCSYDIR
 10
0.0
 20
1.0
 30
0.0
  9
$PUCSORTHOREF
  2

  9
$PUCSORTHOVIEW
 70
     0
  9
$PUCSORGTOP
 10
0.0
 20
0.0
 30
0.0
  9
$PUCSORGBOTTOM
 10
0.0
 20
0.0
 30
0.0
  9
$PUCSORGLEFT
 10
0.0
 20
0.0
 30
0.0
  9
$PUCSORGRIGHT
 10
0.0
 20
0.0
 30
0.0
  9
$PUCSORGFRONT
 10
0.0
 20
0.0
 30
0.0
  9
$PUCSORGBACK
 10
0.0
 20
0.0
 30
0.0
  9
$USERI1
 70
     0
  9
$USERI2
 70
     0
  9
$USERI3
 70
     0
  9
$USERI4
 70
     0
  9
$USERI5
 70
     0
  9
$USERR1
 40
0.0
  9
$USERR2
 40
0.0
  9
$USERR3
 40
0.0
  9
$USERR4
 40
0.0
  9
$USERR5
 40
0.0
  9
$WORLDVIEW
 70
     1
  9
$SHADEDGE
 70
     3
  9
$SHADEDIF
 70
    70
  9
$TILEMODE
 70
     1
  9
$MAXACTVP
 70
    64
  9
$PINSBASE
 10
0.0
 20
0.0
 30
0.0
  9
$PLIMCHECK
 70
     0
  9
$PEXTMIN
 10
1.000000000000000E+20
 20
1.000000000000000E+20
 30
1.000000000000000E+20
  9
$PEXTMAX
 10
-1.000000000000000E+20
 20
-1.000000000000000E+20
 30
-1.000000000000000E+20
  9
$PLIMMIN
 10
0.0
 20
0.0
  9
$PLIMMAX
 10
12.0
 20
9.0
  9
$UNITMODE
 70
     0
  9
$VISRETAIN
 70
     1
  9
$PLINEGEN
 70
     0
  9
$PSLTSCALE
 70
     1
  9
$TREEDEPTH
 70
  3020
  9
$CMLSTYLE
  2
Standard
  9
$CMLJUST
 70
     0
  9
$CMLSCALE
 40
1.0
  9
$PROXYGRAPHICS
 70
     1
  9
$MEASUREMENT
 70
     0
  9
$CELWEIGHT
370
    -1
  9
$ENDCAPS
280
     0
  9
$JOINSTYLE
280
     0
  9
$LWDISPLAY
290
     0
  9
$INSUNITS
 70
     4
  9
$HYPERLINKBASE
  1

  9
$STYLESHEET
  1

  9
$XEDIT
290
     1
  9
$CEPSNTYPE
380
     0
  9
$PSTYLEMODE
290
     1
  9
$FINGERPRINTGUID
  2
{35e25283-1100-45d1-9407-7a6d3ac2f48b}
  9
$VERSIONGUID
  2
{FAEB1C32-E019-11D5-929B-00C0DF256EC4}
  9
$EXTNAMES
290
     1
  9
$PSVPSCALE
 40
0.0
  9
$OLESTARTUP
290
     0
  9
$SORTENTS
280
   127
  9
$INDEXCTL
280
     0
  9
$HIDETEXT
280
     1
  9
$XCLIPFRAME
290
     0
  9
$HALOGAP
280
     0
  9
$OBSCOLOR
 70
   257
  9
$OBSLTYPE
280
     0
  9
$INTERSECTIONDISPLAY
280
     0
  9
$INTERSECTIONCOLOR
 70
   257
  9
$DIMASSOC
280
     2
  9
$PROJECTNAME
  1

  9
$CAMERADISPLAY
290
     0
  9
$LENSLENGTH
 40
50.0
  9
$CAMERAHEIGHT
 40
0.0
  9
$STEPSPERSEC
 40
2.0
  9
$STEPSIZE
 40
6.0
  9
$3DDWFPREC
 40
2.0
  9
$PSOLWIDTH
 40
0.25
  9
$PSOLHEIGHT
 40
4.0
  9
$LOFTANG1
 40
1.570796326794897
  9
$LOFTANG2
 40
1.570796326794897
  9
$LOFTMAG1
 40
0.0
  9
$LOFTMAG2
 40
0.0
  9
$LOFTPARAM
 70
     7
  9
$LOFTNORMALS
280
     1
  9
$LATITUDE
 40
37.795
  9
$LONGITUDE
 40
-122.394
  9
$NORTHDIRECTION
 40
0.0
  9
$TIMEZONE
 70
 -8000
  9
$LIGHTGLYPHDISPLAY
280
     1
  9
$TILEMODELIGHTSYNCH
280
     1
  9
$CMATERIAL
347
44
  9
$SOLIDHIST
280
     0
  9
$SHOWHIST
280
     1
  9
$DWFFRAME
280
     2
  9
$DGNFRAME
280
     2
  9
$REALWORLDSCALE
290
     1
  9
$INTERFERECOLOR
 62
   256
  9
$CSHADOW
280
     0
  9
$SHADOWPLANELOCATION
 40
0.0
  0
ENDSEC
  0
SECTION
  2
CLASSES
  0
CLASS
  1
ACDBDICTIONARYWDFLT
  2
AcDbDictionaryWithDefault
  3
ObjectDBX Classes
 90
        0
 91
        3
280
     0
281
     0
  0
CLASS
  1
VISUALSTYLE
  2
AcDbVisualStyle
  3
ObjectDBX Classes
 90
     4095
 91
        3
280
     0
281
     0
  0
CLASS
  1
MATERIAL
  2
AcDbMaterial
  3
ObjectDBX Classes
 90
     1153
 91
        3
280
     0
281
     0
  0
CLASS
  1
SCALE
  2
AcDbScale
  3
ObjectDBX Classes
 90
     1153
 91
        3
280
     0
281
     0
  0
CLASS
  1
TABLESTYLE
  2
AcDbTableStyle
  3
ObjectDBX Classes
 90
     4095
 91
        3
280
     0
281
     0
  0
CLASS
  1
MLEADERSTYLE
  2
AcDbMLeaderStyle
  3
ACDB_MLEADERSTYLE_CLASS
 90
     4095
 91
        3
280
     0
281
     0
  0
CLASS
  1
SUN
  2
AcDbSun
  3
SCENEOE
 90
     1153
 91
        3
280
     0
281
     0
  0
CLASS
  1
DICTIONARYVAR
  2
AcDbDictionaryVar
  3
ObjectDBX Classes
 90
        0
 91
        3
280
     0
281
     0
  0
CLASS
  1
CELLSTYLEMAP
  2
AcDbCellStyleMap
  3
ObjectDBX Classes
 90
     1152
 91
        3
280
     0
281
     0
  0
ENDSEC
  0
SECTION
  2
TABLES
  0
TABLE
  2
VPORT
  5
8
330
0
100
AcDbSymbolTable
 70
     1
  0
VPORT
  5
29
330
8
100
AcDbSymbolTableRecord
100
AcDbViewportTableRecord
  2
*Active
 70
     0
 10
0.0
 20
0.0
 11
1.0
 21
1.0
 12
10.42990654205607
 22
4.5
 13
0.0
 23
0.0
 14
0.5
 24
0.5
 15
0.5
 25
0.5
 16
0.0
 26
0.0
 36
1.0
 17
0.0
 27
0.0
 37
0.0
 40
9.0
 41
1.972972972850329
 42
50.0
 43
0.0
 44
0.0
 50
0.0
 51
0.0
 71
     0
 72
   100
 73
     1
 74
     3
 75
     0
 76
     0
 77
     0
 78
     0
281
     0
 65
     1
110
0.0
120
0.0
130
0.0
111
1.0
121
0.0
131
0.0
112
0.0
122
1.0
132
0.0
 79
     0
146
0.0
348
2F
 60
     3
 61
     5
292
     1
282
     1
141
0.0
142
0.0
 63
   250
361
6D
  0
ENDTAB
  0
TABLE
  2
LTYPE
  5
5
330
0
100
AcDbSymbolTable
 70
     1
  0
LTYPE
  5
14
330
5
100
AcDbSymbolTableRecord
100
AcDbLinetypeTableRecord
  2
ByBlock
 70
     0
  3

 72
    65
 73
     0
 40
0.0
  0
LTYPE
  5
15
330
5
100
AcDbSymbolTableRecord
100
AcDbLinetypeTableRecord
  2
ByLayer
 70
     0
  3

 72
    65
 73
     0
 40
0.0
  0
LTYPE
  5
16
330
5
100
AcDbSymbolTableRecord
100
AcDbLinetypeTableRecord
  2
Continuous
 70
     0
  3
Solid line
 72
    65
 73
     0
 40
0.0
  0
ENDTAB
  0
TABLE
  2
LAYER
  5
2
330
0
100
AcDbSymbolTable
 70
     1
  0
LAYER
  5
10
330
2
100
AcDbSymbolTableRecord
100
AcDbLayerTableRecord
  2
0
 70
     0
 62
     7
  6
Continuous
370
    -3
390
F
347
46
  0
ENDTAB
  0
TABLE
  2
STYLE
  5
3
330
0
100
AcDbSymbolTable
 70
     1
  0
STYLE
  5
11
330
3
100
AcDbSymbolTableRecord
100
AcDbTextStyleTableRecord
  2
Standard
 70
     0
 40
0.0
 41
1.0
 50
0.0
 71
     0
 42
0.2
  3
txt
  4

  0
ENDTAB
  0
TABLE
  2
VIEW
  5
6
330
0
100
AcDbSymbolTable
 70
     0
  0
ENDTAB
  0
TABLE
  2
UCS
  5
7
330
0
100
AcDbSymbolTable
 70
     0
  0
ENDTAB
  0
TABLE
  2
APPID
  5
9
330
0
100
AcDbSymbolTable
 70
     3
  0
APPID
  5
12
330
9
100
AcDbSymbolTableRecord
100
AcDbRegAppTableRecord
  2
ACAD
 70
     0
  0
APPID
  5
6E
330
9
100
AcDbSymbolTableRecord
100
AcDbRegAppTableRecord
  2
ODA
 70
     0
  0
APPID
  5
E1
330
9
100
AcDbSymbolTableRecord
100
AcDbRegAppTableRecord
  2
ACAD_MLEADERVER
 70
     0
  0
ENDTAB
  0
TABLE
  2
DIMSTYLE
  5
A
330
0
100
AcDbSymbolTable
 70
     1
100
AcDbDimStyleTable
  0
DIMSTYLE
105
27
330
A
100
AcDbSymbolTableRecord
100
AcDbDimStyleTableRecord
  2
Standard
 70
     0
178
     0
340
11
  0
ENDTAB
  0
TABLE
  2
BLOCK_RECORD
  5
1
330
0
100
AcDbSymbolTable
 70
     1
  0
BLOCK_RECORD
  5
1F
330
1
100
AcDbSymbolTableRecord
100
AcDbBlockTableRecord
  2
*Model_Space
340
22
 70
     0
280
     1
281
     0
  0
BLOCK_RECORD
  5
1B
330
1
100
AcDbSymbolTableRecord
100
AcDbBlockTableRecord
  2
*Paper_Space
340
1E
 70
     0
280
     1
281
     0
  0
BLOCK_RECORD
  5
23
330
1
100
AcDbSymbolTableRecord
100
AcDbBlockTableRecord
  2
*Paper_Space0
340
26
 70
     0
280
     1
281
     0
  0
ENDTAB
  0
ENDSEC
  0
SECTION
  2
BLOCKS
  0
BLOCK
  5
20
330
1F
100
AcDbEntity
  8
0
100
AcDbBlockBegin
  2
*Model_Space
 70
     0
 10
0.0
 20
0.0
 30
0.0
  3
*Model_Space
  1

  0
ENDBLK
  5
21
330
1F
100
AcDbEntity
  8
0
100
AcDbBlockEnd
  0
BLOCK
  5
1C
330
1B
100
AcDbEntity
 67
     1
  8
0
100
AcDbBlockBegin
  2
*Paper_Space
 70
     0
 10
0.0
 20
0.0
 30
0.0
  3
*Paper_Space
  1

  0
ENDBLK
  5
1D
330
1B
100
AcDbEntity
 67
     1
  8
0
100
AcDbBlockEnd
  0
BLOCK
  5
24
330
23
100
AcDbEntity
  8
0
100
AcDbBlockBegin
  2
*Paper_Space0
 70
     0
 10
0.0
 20
0.0
 30
0.0
  3
*Paper_Space0
  1

  0
ENDBLK
  5
25
330
23
100
AcDbEntity
  8
0
100
AcDbBlockEnd
  0
ENDSEC
  0
SECTION
  2
ENTITIES
  0
SPLINE
  5
6F
330
1F
100
AcDbEntity
  8
0
 62
   242
370
     9
100
AcDbSpline
210
0.0
220
0.0
230
1.0
 70
    11
 71
     3
 72
   134
 73
   130
 74
     0
 42
0.0000000001
 43
0.0000000001
 40
0.0
 40
0.0
 40
0.0
 40
0.0
 40
0.0232558139534884
 40
0.0232558139534884
 40
0.0232558139534884
 40
0.0465116279069767
 40
0.0465116279069767
 40
0.0465116279069767
 40
0.0697674418604651
 40
0.0697674418604651
 40
0.0697674418604651
 40
0.0930232558139535
 40
0.0930232558139535
 40
0.0930232558139535
 40
0.1162790697674419
 40
0.1162790697674419
 40
0.1162790697674419
 40
0.1395348837209302
 40
0.1395348837209302
 40
0.1395348837209302
 40
0.1627906976744186
 40
0.1627906976744186
 40
0.1627906976744186
 40
0.186046511627907
 40
0.186046511627907
 40
0.186046511627907
 40
0.2093023255813953
 40
0.2093023255813953
 40
0.2093023255813953
 40
0.2325581395348837
 40
0.2325581395348837
 40
0.2325581395348837
 40
0.2558139534883721
 40
0.2558139534883721
 40
0.2558139534883721
 40
0.2790697674418605
 40
0.2790697674418605
 40
0.2790697674418605
 40
0.3023255813953488
 40
0.3023255813953488
 40
0.3023255813953488
 40
0.3255813953488372
 40
0.3255813953488372
 40
0.3255813953488372
 40
0.3488372093023256
 40
0.3488372093023256
 40
0.3488372093023256
 40
0.3720930232558139
 40
0.3720930232558139
 40
0.3720930232558139
 40
0.3953488372093023
 40
0.3953488372093023
 40
0.3953488372093023
 40
0.4186046511627907
 40
0.4186046511627907
 40
0.4186046511627907
 40
0.4418604651162791
 40
0.4418604651162791
 40
0.4418604651162791
 40
0.4651162790697674
 40
0.4651162790697674
 40
0.4651162790697674
 40
0.4883720930232558
 40
0.4883720930232558
 40
0.4883720930232558
 40
0.5116279069767442
 40
0.5116279069767442
 40
0.5116279069767442
 40
0.5348837209302325
 40
0.5348837209302325
 40
0.5348837209302325
 40
0.5581395348837209
 40
0.5581395348837209
 40
0.5581395348837209
 40
0.5813953488372093
 40
0.5813953488372093
 40
0.5813953488372093
 40
0.6046511627906976
 40
0.6046511627906976
 40
0.6046511627906976
 40
0.627906976744186
 40
0.627906976744186
 40
0.627906976744186
 40
0.6511627906976745
 40
0.6511627906976745
 40
0.6511627906976745
 40
0.6744186046511628
 40
0.6744186046511628
 40
0.6744186046511628
 40
0.6976744186046512
 40
0.6976744186046512
 40
0.6976744186046512
 40
0.7209302325581395
 40
0.7209302325581395
 40
0.7209302325581395
 40
0.7441860465116279
 40
0.7441860465116279
 40
0.7441860465116279
 40
0.7674418604651163
 40
0.7674418604651163
 40
0.7674418604651163
 40
0.7906976744186046
 40
0.7906976744186046
 40
0.7906976744186046
 40
0.813953488372093
 40
0.813953488372093
 40
0.813953488372093
 40
0.8372093023255813
 40
0.8372093023255813
 40
0.8372093023255813
 40
0.8604651162790697
 40
0.8604651162790697
 40
0.8604651162790697
 40
0.8837209302325582
 40
0.8837209302325582
 40
0.8837209302325582
 40
0.9069767441860465
 40
0.9069767441860465
 40
0.9069767441860465
 40
0.9302325581395349
 40
0.9302325581395349
 40
0.9302325581395349
 40
0.9534883720930233
 40
0.9534883720930233
 40
0.9534883720930233
 40
0.9767441860465116
 40
0.9767441860465116
 40
0.9767441860465116
 40
1.0
 40
1.0
 40
1.0
 40
1.0
 10
1804.1542
 20
495.5033
 30
0.0
 10
1802.6536
 20
484.809
 30
0.0
 10
1803.5779
 20
473.9142
 30
0.0
 10
1806.8585
 20
463.6255
 30
0.0
 10
1806.8585
 20
463.6255
 30
0.0
 10
1806.509
 20
463.4984
 30
0.0
 10
1806.509
 20
463.4984
 30
0.0
 10
1805.7256
 20
464.4161
 30
0.0
 10
1804.8741
 20
464.8163
 30
0.0
 10
1804.209
 20
464.5791
 30
0.0
 10
1803.0405
 20
464.156
 30
0.0
 10
1802.7797
 20
461.9185
 30
0.0
 10
1803.6266
 20
459.5817
 30
0.0
 10
1804.4735
 20
457.2447
 30
0.0
 10
1806.1074
 20
455.6937
 30
0.0
 10
1807.2756
 20
456.1174
 30
0.0
 10
1807.9386
 20
456.3611
 30
0.0
 10
1808.3364
 20
457.2142
 30
0.0
 10
1808.3498
 20
458.4211
 30
0.0
 10
1808.3498
 20
458.4211
 30
0.0
 10
1808.7438
 20
458.5643
 30
0.0
 10
1808.7438
 20
458.5643
 30
0.0
 10
1812.8052
 20
448.5638
 30
0.0
 10
1819.0632
 20
439.6042
 30
0.0
 10
1827.0547
 20
432.3487
 30
0.0
 10
1827.0547
 20
432.3487
 30
0.0
 10
1826.7804
 20
432.0228
 30
0.0
 10
1826.7804
 20
432.0228
 30
0.0
 10
1825.6429
 20
432.4259
 30
0.0
 10
1824.7052
 20
432.3464
 30
0.0
 10
1824.248
 20
431.808
 30
0.0
 10
1823.4478
 20
430.8572
 30
0.0
 10
1824.3409
 20
428.7892
 30
0.0
 10
1826.2427
 20
427.189
 30
0.0
 10
1828.1445
 20
425.5887
 30
0.0
 10
1830.3349
 20
425.0623
 30
0.0
 10
1831.1348
 20
426.0133
 30
0.0
 10
1831.5865
 20
426.5564
 30
0.0
 10
1831.5051
 20
427.4935
 30
0.0
 10
1830.9131
 20
428.5455
 30
0.0
 10
1830.9131
 20
428.5455
 30
0.0
 10
1831.2063
 20
428.8945
 30
0.0
 10
1831.2063
 20
428.8945
 30
0.0
 10
1831.2063
 20
428.8945
 30
0.0
 10
1830.8621
 20
429.1841
 30
0.0
 10
1830.8621
 20
429.1841
 30
0.0
 10
1830.8621
 20
429.1841
 30
0.0
 10
1830.6557
 20
429.3571
 30
0.0
 10
1830.6557
 20
429.3571
 30
0.0
 10
1839.2815
 20
422.4806
 30
0.0
 10
1849.3721
 20
417.6782
 30
0.0
 10
1860.1485
 20
415.3204
 30
0.0
 10
1860.1485
 20
415.3204
 30
0.0
 10
1860.0735
 20
414.899
 30
0.0
 10
1860.0735
 20
414.899
 30
0.0
 10
1858.8873
 20
414.6795
 30
0.0
 10
1858.1151
 20
414.1421
 30
0.0
 10
1857.988
 20
413.4476
 30
0.0
 10
1857.7702
 20
412.224
 30
0.0
 10
1859.5778
 20
410.8795
 30
0.0
 10
1862.025
 20
410.4447
 30
0.0
 10
1864.4719
 20
410.0097
 30
0.0
 10
1866.6317
 20
410.6488
 30
0.0
 10
1866.8494
 20
411.8721
 30
0.0
 10
1866.9699
 20
412.5681
 30
0.0
 10
1866.4299
 20
413.3391
 30
0.0
 10
1865.3914
 20
413.9542
 30
0.0
 10
1865.3914
 20
413.9542
 30
0.0
 10
1865.4699
 20
414.3957
 30
0.0
 10
1865.4699
 20
414.3957
 30
0.0
 10
1876.1582
 20
412.8988
 30
0.0
 10
1887.0463
 20
413.8241
 30
0.0
 10
1897.3288
 20
417.1029
 30
0.0
 10
1897.3288
 20
417.1029
 30
0.0
 10
1897.4688
 20
416.7166
 30
0.0
 10
1897.4688
 20
416.7166
 30
0.0
 10
1896.5512
 20
415.9333
 30
0.0
 10
1896.1512
 20
415.0819
 30
0.0
 10
1896.3883
 20
414.4169
 30
0.0
 10
1896.8114
 20
413.2484
 30
0.0
 10
1899.0489
 20
412.9877
 30
0.0
 10
1901.3858
 20
413.8346
 30
0.0
 10
1903.7225
 20
414.6813
 30
0.0
 10
1905.2737
 20
416.3149
 30
0.0
 10
1904.8503
 20
417.4833
 30
0.0
 10
1904.6066
 20
418.1463
 30
0.0
 10
1903.7536
 20
418.544
 30
0.0
 10
1902.5467
 20
418.5574
 30
0.0
 10
1902.5467
 20
418.5574
 30
0.0
 10
1902.4199
 20
418.9059
 30
0.0
 10
1902.4199
 20
418.9059
 30
0.0
 10
1904.0181
 20
419.58
 30
0.0
 10
1905.5913
 20
420.3115
 30
0.0
 10
1907.1368
 20
421.0992
 30
0.0
 10
1907.1368
 20
421.0992
 30
0.0
 10
1905.0065
 20
429.1158
 30
0.0
 10
1905.0065
 20
429.1158
 30
0.0
 10
1905.0065
 20
429.1158
 30
0.0
 10
1879.1861
 20
428.0177
 30
0.0
 10
1879.1861
 20
428.0177
 30
0.0
 10
1879.1861
 20
428.0177
 30
0.0
 10
1818.0073
 20
479.4949
 30
0.0
 10
1818.0073
 20
479.4949
 30
0.0
 10
1818.0073
 20
479.4949
 30
0.0
 10
1814.6747
 20
505.1228
 30
0.0
 10
1814.6747
 20
505.1228
 30
0.0
 10
1814.6747
 20
505.1228
 30
0.0
 10
1806.4391
 20
505.8284
 30
0.0
 10
1806.4391
 20
505.8284
 30
0.0
 10
1805.9264
 20
504.1771
 30
0.0
 10
1805.4734
 20
502.508
 30
0.0
 10
1805.081
 20
500.8241
 30
0.0
 10
1805.081
 20
500.8241
 30
0.0
 10
1804.6918
 20
500.8933
 30
0.0
 10
1804.6918
 20
500.8933
 30
0.0
 10
1804.4722
 20
502.0799
 30
0.0
 10
1803.9345
 20
502.8521
 30
0.0
 10
1803.2397
 20
502.9788
 30
0.0
 10
1802.0163
 20
503.1963
 30
0.0
 10
1800.672
 20
501.389
 30
0.0
 10
1800.237
 20
498.942
 30
0.0
 10
1799.8021
 20
496.4948
 30
0.0
 10
1800.4415
 20
494.3349
 30
0.0
 10
1801.6652
 20
494.1177
 30
0.0
 10
1802.3612
 20
493.9973
 30
0.0
 10
1803.1322
 20
494.5373
 30
0.0
 10
1803.7473
 20
495.5758
 30
0.0
 10
1803.7473
 20
495.5758
 30
0.0
 10
1804.1542
 20
495.5033
 30
0.0
 10
1804.1542
 20
495.5033
 30
0.0
  0
SPLINE
  5
70
330
1F
100
AcDbEntity
  8
0
 62
   242
370
     9
100
AcDbSpline
210
0.0
220
0.0
230
1.0
 70
    11
 71
     3
 72
    29
 73
    25
 74
     0
 42
0.0000000001
 43
0.0000000001
 40
0.0
 40
0.0
 40
0.0
 40
0.0
 40
0.125
 40
0.125
 40
0.125
 40
0.25
 40
0.25
 40
0.25
 40
0.375
 40
0.375
 40
0.375
 40
0.5
 40
0.5
 40
0.5
 40
0.625
 40
0.625
 40
0.625
 40
0.75
 40
0.75
 40
0.75
 40
0.875
 40
0.875
 40
0.875
 40
1.0
 40
1.0
 40
1.0
 40
1.0
 10
2021.9346
 20
538.6002
 30
0.0
 10
2066.2546
 20
538.6002
 30
0.0
 10
2096.6432
 20
695.9884
 30
0.0
 10
2096.6432
 20
740.3084
 30
0.0
 10
2096.6432
 20
740.3084
 30
0.0
 10
2096.6432
 20
778.6001
 30
0.0
 10
2096.6432
 20
778.6001
 30
0.0
 10
2096.6432
 20
789.6801
 30
0.0
 10
2087.7229
 20
798.6004
 30
0.0
 10
2076.6429
 20
798.6004
 30
0.0
 10
2076.6429
 20
798.6004
 30
0.0
 10
1816.6433
 20
798.6004
 30
0.0
 10
1816.6433
 20
798.6004
 30
0.0
 10
1805.5633
 20
798.6004
 30
0.0
 10
1796.6429
 20
789.6801
 30
0.0
 10
1796.6429
 20
778.6001
 30
0.0
 10
1796.6429
 20
778.6001
 30
0.0
 10
1796.6429
 20
740.3084
 30
0.0
 10
1796.6429
 20
740.3084
 30
0.0
 10
1796.6429
 20
695.9884
 30
0.0
 10
1827.0316
 20
538.6002
 30
0.0
 10
1871.3515
 20
538.6002
 30
0.0
 10
1871.3515
 20
538.6002
 30
0.0
 10
2021.9346
 20
538.6002
 30
0.0
 10
2021.9346
 20
538.6002
 30
0.0
  0
SPLINE
  5
71
330
1F
100
AcDbEntity
  8
0
 62
   242
370
     9
100
AcDbSpline
210
0.0
220
0.0
230
1.0
 70
    11
 71
     3
 72
    29
 73
    25
 74
     0
 42
0.0000000001
 43
0.0000000001
 40
0.0
 40
0.0
 40
0.0
 40
0.0
 40
0.125
 40
0.125
 40
0.125
 40
0.25
 40
0.25
 40
0.25
 40
0.375
 40
0.375
 40
0.375
 40
0.5
 40
0.5
 40
0.5
 40
0.625
 40
0.625
 40
0.625
 40
0.75
 40
0.75
 40
0.75
 40
0.875
 40
0.875
 40
0.875
 40
1.0
 40
1.0
 40
1.0
 40
1.0
 10
2020.7114
 20
551.5015
 30
0.0
 10
2020.7114
 20
551.5015
 30
0.0
 10
2021.9048
 20
549.8701
 30
0.0
 10
2021.9048
 20
549.8701
 30
0.0
 10
2021.9048
 20
549.8701
 30
0.0
 10
2026.1813
 20
549.8701
 30
0.0
 10
2026.1813
 20
549.8701
 30
0.0
 10
2026.1813
 20
549.8701
 30
0.0
 10
2027.3752
 20
551.5015
 30
0.0
 10
2027.3752
 20
551.5015
 30
0.0
 10
2027.3752
 20
551.5015
 30
0.0
 10
2027.5659
 20
551.2403
 30
0.0
 10
2027.5659
 20
551.2403
 30
0.0
 10
2027.5659
 20
551.2403
 30
0.0
 10
2026.2929
 20
549.5015
 30
0.0
 10
2026.2929
 20
549.5015
 30
0.0
 10
2026.2929
 20
549.5015
 30
0.0
 10
2021.7932
 20
549.5015
 30
0.0
 10
2021.7932
 20
549.5015
 30
0.0
 10
2021.7932
 20
549.5015
 30
0.0
 10
2020.5203
 20
551.2403
 30
0.0
 10
2020.5203
 20
551.2403
 30
0.0
 10
2020.5203
 20
551.2403
 30
0.0
 10
2020.7114
 20
551.5015
 30
0.0
 10
2020.7114
 20
551.5015
 30
0.0
  0
SPLINE
  5
72
330
1F
100
AcDbEntity
  8
0
 62
   242
370
     9
100
AcDbSpline
210
0.0
220
0.0
230
1.0
 70
    11
 71
     3
 72
    29
 73
    25
 74
     0
 42
0.0000000001
 43
0.0000000001
 40
0.0
 40
0.0
 40
0.0
 40
0.0
 40
0.125
 40
0.125
 40
0.125
 40
0.25
 40
0.25
 40
0.25
 40
0.375
 40
0.375
 40
0.375
 40
0.5
 40
0.5
 40
0.5
 40
0.625
 40
0.625
 40
0.625
 40
0.75
 40
0.75
 40
0.75
 40
0.875
 40
0.875
 40
0.875
 40
1.0
 40
1.0
 40
1.0
 40
1.0
 10
2079.2673
 20
785.4186
 30
0.0
 10
2079.2673
 20
785.4186
 30
0.0
 10
2077.9413
 20
783.7872
 30
0.0
 10
2077.9413
 20
783.7872
 30
0.0
 10
2077.9413
 20
783.7872
 30
0.0
 10
2077.7289
 20
784.0484
 30
0.0
 10
2077.7289
 20
784.0484
 30
0.0
 10
2077.7289
 20
784.0484
 30
0.0
 10
2079.1433
 20
785.7872
 30
0.0
 10
2079.1433
 20
785.7872
 30
0.0
 10
2079.1433
 20
785.7872
 30
0.0
 10
2084.143
 20
785.7872
 30
0.0
 10
2084.143
 20
785.7872
 30
0.0
 10
2084.143
 20
785.7872
 30
0.0
 10
2085.5574
 20
784.0484
 30
0.0
 10
2085.5574
 20
784.0484
 30
0.0
 10
2085.5574
 20
784.0484
 30
0.0
 10
2085.3455
 20
783.7872
 30
0.0
 10
2085.3455
 20
783.7872
 30
0.0
 10
2085.3455
 20
783.7872
 30
0.0
 10
2084.019
 20
785.4186
 30
0.0
 10
2084.019
 20
785.4186
 30
0.0
 10
2084.019
 20
785.4186
 30
0.0
 10
2079.2673
 20
785.4186
 30
0.0
 10
2079.2673
 20
785.4186
 30
0.0
  0
SPLINE
  5
73
330
1F
100
AcDbEntity
  8
0
 62
   242
370
     9
100
AcDbSpline
210
0.0
220
0.0
230
1.0
 70
    11
 71
     3
 72
    29
 73
    25
 74
     0
 42
0.0000000001
 43
0.0000000001
 40
0.0
 40
0.0
 40
0.0
 40
0.0
 40
0.125
 40
0.125
 40
0.125
 40
0.25
 40
0.25
 40
0.25
 40
0.375
 40
0.375
 40
0.375
 40
0.5
 40
0.5
 40
0.5
 40
0.625
 40
0.625
 40
0.625
 40
0.75
 40
0.75
 40
0.75
 40
0.875
 40
0.875
 40
0.875
 40
1.0
 40
1.0
 40
1.0
 40
1.0
 10
1809.2673
 20
785.4186
 30
0.0
 10
1809.2673
 20
785.4186
 30
0.0
 10
1807.9413
 20
783.7872
 30
0.0
 10
1807.9413
 20
783.7872
 30
0.0
 10
1807.9413
 20
783.7872
 30
0.0
 10
1807.7289
 20
784.0484
 30
0.0
 10
1807.7289
 20
784.0484
 30
0.0
 10
1807.7289
 20
784.0484
 30
0.0
 10
1809.1433
 20
785.7872
 30
0.0
 10
1809.1433
 20
785.7872
 30
0.0
 10
1809.1433
 20
785.7872
 30
0.0
 10
1814.143
 20
785.7872
 30
0.0
 10
1814.143
 20
785.7872
 30
0.0
 10
1814.143
 20
785.7872
 30
0.0
 10
1815.5574
 20
784.0484
 30
0.0
 10
1815.5574
 20
784.0484
 30
0.0
 10
1815.5574
 20
784.0484
 30
0.0
 10
1815.3455
 20
783.7872
 30
0.0
 10
1815.3455
 20
783.7872
 30
0.0
 10
1815.3455
 20
783.7872
 30
0.0
 10
1814.0189
 20
785.4186
 30
0.0
 10
1814.0189
 20
785.4186
 30
0.0
 10
1814.0189
 20
785.4186
 30
0.0
 10
1809.2673
 20
785.4186
 30
0.0
 10
1809.2673
 20
785.4186
 30
0.0
  0
SPLINE
  5
74
330
1F
100
AcDbEntity
  8
0
 62
   242
370
     9
100
AcDbSpline
210
0.0
220
0.0
230
1.0
 70
    11
 71
     3
 72
    29
 73
    25
 74
     0
 42
0.0000000001
 43
0.0000000001
 40
0.0
 40
0.0
 40
0.0
 40
0.0
 40
0.125
 40
0.125
 40
0.125
 40
0.25
 40
0.25
 40
0.25
 40
0.375
 40
0.375
 40
0.375
 40
0.5
 40
0.5
 40
0.5
 40
0.625
 40
0.625
 40
0.625
 40
0.75
 40
0.75
 40
0.75
 40
0.875
 40
0.875
 40
0.875
 40
1.0
 40
1.0
 40
1.0
 40
1.0
 10
1865.9114
 20
551.5015
 30
0.0
 10
1865.9114
 20
551.5015
 30
0.0
 10
1867.1048
 20
549.8701
 30
0.0
 10
1867.1048
 20
549.8701
 30
0.0
 10
1867.1048
 20
549.8701
 30
0.0
 10
1871.3813
 20
549.8701
 30
0.0
 10
1871.3813
 20
549.8701
 30
0.0
 10
1871.3813
 20
549.8701
 30
0.0
 10
1872.5752
 20
551.5015
 30
0.0
 10
1872.5752
 20
551.5015
 30
0.0
 10
1872.5752
 20
551.5015
 30
0.0
 10
1872.7659
 20
551.2403
 30
0.0
 10
1872.7659
 20
551.2403
 30
0.0
 10
1872.7659
 20
551.2403
 30
0.0
 10
1871.4929
 20
549.5015
 30
0.0
 10
1871.4929
 20
549.5015
 30
0.0
 10
1871.4929
 20
549.5015
 30
0.0
 10
1866.9932
 20
549.5015
 30
0.0
 10
1866.9932
 20
549.5015
 30
0.0
 10
1866.9932
 20
549.5015
 30
0.0
 10
1865.7203
 20
551.2403
 30
0.0
 10
1865.7203
 20
551.2403
 30
0.0
 10
1865.7203
 20
551.2403
 30
0.0
 10
1865.9114
 20
551.5015
 30
0.0
 10
1865.9114
 20
551.5015
 30
0.0
  0
SPLINE
  5
75
330
1F
100
AcDbEntity
  8
0
 62
   242
370
     9
100
AcDbSpline
210
0.0
220
0.0
230
1.0
 70
    11
 71
     3
 72
    29
 73
    25
 74
     0
 42
0.0000000001
 43
0.0000000001
 40
0.0
 40
0.0
 40
0.0
 40
0.0
 40
0.125
 40
0.125
 40
0.125
 40
0.25
 40
0.25
 40
0.25
 40
0.375
 40
0.375
 40
0.375
 40
0.5
 40
0.5
 40
0.5
 40
0.625
 40
0.625
 40
0.625
 40
0.75
 40
0.75
 40
0.75
 40
0.875
 40
0.875
 40
0.875
 40
1.0
 40
1.0
 40
1.0
 40
1.0
 10
1987.4813
 20
549.8701
 30
0.0
 10
1987.4813
 20
549.8701
 30
0.0
 10
1988.6752
 20
551.5015
 30
0.0
 10
1988.6752
 20
551.5015
 30
0.0
 10
1988.6752
 20
551.5015
 30
0.0
 10
1988.8659
 20
551.2403
 30
0.0
 10
1988.8659
 20
551.2403
 30
0.0
 10
1988.8659
 20
551.2403
 30
0.0
 10
1987.5929
 20
549.5015
 30
0.0
 10
1987.5929
 20
549.5015
 30
0.0
 10
1987.5929
 20
549.5015
 30
0.0
 10
1983.0932
 20
549.5015
 30
0.0
 10
1983.0932
 20
549.5015
 30
0.0
 10
1983.0932
 20
549.5015
 30
0.0
 10
1981.8203
 20
551.2403
 30
0.0
 10
1981.8203
 20
551.2403
 30
0.0
 10
1981.8203
 20
551.2403
 30
0.0
 10
1982.0114
 20
551.5015
 30
0.0
 10
1982.0114
 20
551.5015
 30
0.0
 10
1982.0114
 20
551.5015
 30
0.0
 10
1983.2048
 20
549.8701
 30
0.0
 10
1983.2048
 20
549.8701
 30
0.0
 10
1983.2048
 20
549.8701
 30
0.0
 10
1987.4813
 20
549.8701
 30
0.0
 10
1987.4813
 20
549.8701
 30
0.0
  0
SPLINE
  5
76
330
1F
100
AcDbEntity
  8
0
 62
   242
370
     9
100
AcDbSpline
210
0.0
220
0.0
230
1.0
 70
    11
 71
     3
 72
    29
 73
    25
 74
     0
 42
0.0000000001
 43
0.0000000001
 40
0.0
 40
0.0
 40
0.0
 40
0.0
 40
0.125
 40
0.125
 40
0.125
 40
0.25
 40
0.25
 40
0.25
 40
0.375
 40
0.375
 40
0.375
 40
0.5
 40
0.5
 40
0.5
 40
0.625
 40
0.625
 40
0.625
 40
0.75
 40
0.75
 40
0.75
 40
0.875
 40
0.875
 40
0.875
 40
1.0
 40
1.0
 40
1.0
 40
1.0
 10
2030.2673
 20
785.4186
 30
0.0
 10
2030.2673
 20
785.4186
 30
0.0
 10
2028.9413
 20
783.7872
 30
0.0
 10
2028.9413
 20
783.7872
 30
0.0
 10
2028.9413
 20
783.7872
 30
0.0
 10
2028.7289
 20
784.0484
 30
0.0
 10
2028.7289
 20
784.0484
 30
0.0
 10
2028.7289
 20
784.0484
 30
0.0
 10
2030.1433
 20
785.7872
 30
0.0
 10
2030.1433
 20
785.7872
 30
0.0
 10
2030.1433
 20
785.7872
 30
0.0
 10
2035.143
 20
785.7872
 30
0.0
 10
2035.143
 20
785.7872
 30
0.0
 10
2035.143
 20
785.7872
 30
0.0
 10
2036.5574
 20
784.0484
 30
0.0
 10
2036.5574
 20
784.0484
 30
0.0
 10
2036.5574
 20
784.0484
 30
0.0
 10
2036.3455
 20
783.7872
 30
0.0
 10
2036.3455
 20
783.7872
 30
0.0
 10
2036.3455
 20
783.7872
 30
0.0
 10
2035.019
 20
785.4186
 30
0.0
 10
2035.019
 20
785.4186
 30
0.0
 10
2035.019
 20
785.4186
 30
0.0
 10
2030.2673
 20
785.4186
 30
0.0
 10
2030.2673
 20
785.4186
 30
0.0
  0
SPLINE
  5
77
330
1F
100
AcDbEntity
  8
0
 62
   242
370
     9
100
AcDbSpline
210
0.0
220
0.0
230
1.0
 70
    11
 71
     3
 72
    29
 73
    25
 74
     0
 42
0.0000000001
 43
0.0000000001
 40
0.0
 40
0.0
 40
0.0
 40
0.0
 40
0.125
 40
0.125
 40
0.125
 40
0.25
 40
0.25
 40
0.25
 40
0.375
 40
0.375
 40
0.375
 40
0.5
 40
0.5
 40
0.5
 40
0.625
 40
0.625
 40
0.625
 40
0.75
 40
0.75
 40
0.75
 40
0.875
 40
0.875
 40
0.875
 40
1.0
 40
1.0
 40
1.0
 40
1.0
 10
1989.0189
 20
760.4186
 30
0.0
 10
1989.0189
 20
760.4186
 30
0.0
 10
1984.2673
 20
760.4186
 30
0.0
 10
1984.2673
 20
760.4186
 30
0.0
 10
1984.2673
 20
760.4186
 30
0.0
 10
1982.9413
 20
758.7872
 30
0.0
 10
1982.9413
 20
758.7872
 30
0.0
 10
1982.9413
 20
758.7872
 30
0.0
 10
1982.7289
 20
759.0484
 30
0.0
 10
1982.7289
 20
759.0484
 30
0.0
 10
1982.7289
 20
759.0484
 30
0.0
 10
1984.1433
 20
760.7872
 30
0.0
 10
1984.1433
 20
760.7872
 30
0.0
 10
1984.1433
 20
760.7872
 30
0.0
 10
1989.143
 20
760.7872
 30
0.0
 10
1989.143
 20
760.7872
 30
0.0
 10
1989.143
 20
760.7872
 30
0.0
 10
1990.5574
 20
759.0484
 30
0.0
 10
1990.5574
 20
759.0484
 30
0.0
 10
1990.5574
 20
759.0484
 30
0.0
 10
1990.3455
 20
758.7872
 30
0.0
 10
1990.3455
 20
758.7872
 30
0.0
 10
1990.3455
 20
758.7872
 30
0.0
 10
1989.0189
 20
760.4186
 30
0.0
 10
1989.0189
 20
760.4186
 30
0.0
  0
SPLINE
  5
78
330
1F
100
AcDbEntity
  8
0
 62
   242
370
     9
100
AcDbSpline
210
0.0
220
0.0
230
1.0
 70
    11
 71
     3
 72
    29
 73
    25
 74
     0
 42
0.0000000001
 43
0.0000000001
 40
0.0
 40
0.0
 40
0.0
 40
0.0
 40
0.125
 40
0.125
 40
0.125
 40
0.25
 40
0.25
 40
0.25
 40
0.375
 40
0.375
 40
0.375
 40
0.5
 40
0.5
 40
0.5
 40
0.625
 40
0.625
 40
0.625
 40
0.75
 40
0.75
 40
0.75
 40
0.875
 40
0.875
 40
0.875
 40
1.0
 40
1.0
 40
1.0
 40
1.0
 10
1990.3455
 20
783.7872
 30
0.0
 10
1990.3455
 20
783.7872
 30
0.0
 10
1989.0189
 20
785.4186
 30
0.0
 10
1989.0189
 20
785.4186
 30
0.0
 10
1989.0189
 20
785.4186
 30
0.0
 10
1984.2673
 20
785.4186
 30
0.0
 10
1984.2673
 20
785.4186
 30
0.0
 10
1984.2673
 20
785.4186
 30
0.0
 10
1982.9413
 20
783.7872
 30
0.0
 10
1982.9413
 20
783.7872
 30
0.0
 10
1982.9413
 20
783.7872
 30
0.0
 10
1982.7289
 20
784.0484
 30
0.0
 10
1982.7289
 20
784.0484
 30
0.0
 10
1982.7289
 20
784.0484
 30
0.0
 10
1984.1433
 20
785.7872
 30
0.0
 10
1984.1433
 20
785.7872
 30
0.0
 10
1984.1433
 20
785.7872
 30
0.0
 10
1989.143
 20
785.7872
 30
0.0
 10
1989.143
 20
785.7872
 30
0.0
 10
1989.143
 20
785.7872
 30
0.0
 10
1990.5574
 20
784.0484
 30
0.0
 10
1990.5574
 20
784.0484
 30
0.0
 10
1990.5574
 20
784.0484
 30
0.0
 10
1990.3455
 20
783.7872
 30
0.0
 10
1990.3455
 20
783.7872
 30
0.0
  0
SPLINE
  5
79
330
1F
100
AcDbEntity
  8
0
 62
   242
370
     9
100
AcDbSpline
210
0.0
220
0.0
230
1.0
 70
    11
 71
     3
 72
    29
 73
    25
 74
     0
 42
0.0000000001
 43
0.0000000001
 40
0.0
 40
0.0
 40
0.0
 40
0.0
 40
0.125
 40
0.125
 40
0.125
 40
0.25
 40
0.25
 40
0.25
 40
0.375
 40
0.375
 40
0.375
 40
0.5
 40
0.5
 40
0.5
 40
0.625
 40
0.625
 40
0.625
 40
0.75
 40
0.75
 40
0.75
 40
0.875
 40
0.875
 40
0.875
 40
1.0
 40
1.0
 40
1.0
 40
1.0
 10
2077.9413
 20
758.7872
 30
0.0
 10
2077.9413
 20
758.7872
 30
0.0
 10
2079.2673
 20
760.4186
 30
0.0
 10
2079.2673
 20
760.4186
 30
0.0
 10
2079.2673
 20
760.4186
 30
0.0
 10
2084.019
 20
760.4186
 30
0.0
 10
2084.019
 20
760.4186
 30
0.0
 10
2084.019
 20
760.4186
 30
0.0
 10
2085.3455
 20
758.7872
 30
0.0
 10
2085.3455
 20
758.7872
 30
0.0
 10
2085.3455
 20
758.7872
 30
0.0
 10
2085.5574
 20
759.0484
 30
0.0
 10
2085.5574
 20
759.0484
 30
0.0
 10
2085.5574
 20
759.0484
 30
0.0
 10
2084.143
 20
760.7872
 30
0.0
 10
2084.143
 20
760.7872
 30
0.0
 10
2084.143
 20
760.7872
 30
0.0
 10
2079.1433
 20
760.7872
 30
0.0
 10
2079.1433
 20
760.7872
 30
0.0
 10
2079.1433
 20
760.7872
 30
0.0
 10
2077.7289
 20
759.0484
 30
0.0
 10
2077.7289
 20
759.0484
 30
0.0
 10
2077.7289
 20
759.0484
 30
0.0
 10
2077.9413
 20
758.7872
 30
0.0
 10
2077.9413
 20
758.7872
 30
0.0
  0
SPLINE
  5
7A
330
1F
100
AcDbEntity
  8
0
 62
   242
370
     9
100
AcDbSpline
210
0.0
220
0.0
230
1.0
 70
    11
 71
     3
 72
    29
 73
    25
 74
     0
 42
0.0000000001
 43
0.0000000001
 40
0.0
 40
0.0
 40
0.0
 40
0.0
 40
0.125
 40
0.125
 40
0.125
 40
0.25
 40
0.25
 40
0.25
 40
0.375
 40
0.375
 40
0.375
 40
0.5
 40
0.5
 40
0.5
 40
0.625
 40
0.625
 40
0.625
 40
0.75
 40
0.75
 40
0.75
 40
0.875
 40
0.875
 40
0.875
 40
1.0
 40
1.0
 40
1.0
 40
1.0
 10
2030.2673
 20
760.4186
 30
0.0
 10
2030.2673
 20
760.4186
 30
0.0
 10
2028.9413
 20
758.7872
 30
0.0
 10
2028.9413
 20
758.7872
 30
0.0
 10
2028.9413
 20
758.7872
 30
0.0
 10
2028.7289
 20
759.0484
 30
0.0
 10
2028.7289
 20
759.0484
 30
0.0
 10
2028.7289
 20
759.0484
 30
0.0
 10
2030.1433
 20
760.7872
 30
0.0
 10
2030.1433
 20
760.7872
 30
0.0
 10
2030.1433
 20
760.7872
 30
0.0
 10
2035.143
 20
760.7872
 30
0.0
 10
2035.143
 20
760.7872
 30
0.0
 10
2035.143
 20
760.7872
 30
0.0
 10
2036.5574
 20
759.0484
 30
0.0
 10
2036.5574
 20
759.0484
 30
0.0
 10
2036.5574
 20
759.0484
 30
0.0
 10
2036.3455
 20
758.7872
 30
0.0
 10
2036.3455
 20
758.7872
 30
0.0
 10
2036.3455
 20
758.7872
 30
0.0
 10
2035.019
 20
760.4186
 30
0.0
 10
2035.019
 20
760.4186
 30
0.0
 10
2035.019
 20
760.4186
 30
0.0
 10
2030.2673
 20
760.4186
 30
0.0
 10
2030.2673
 20
760.4186
 30
0.0
  0
SPLINE
  5
7B
330
1F
100
AcDbEntity
  8
0
 62
   242
370
     9
100
AcDbSpline
210
0.0
220
0.0
230
1.0
 70
    11
 71
     3
 72
    29
 73
    25
 74
     0
 42
0.0000000001
 43
0.0000000001
 40
0.0
 40
0.0
 40
0.0
 40
0.0
 40
0.125
 40
0.125
 40
0.125
 40
0.25
 40
0.25
 40
0.25
 40
0.375
 40
0.375
 40
0.375
 40
0.5
 40
0.5
 40
0.5
 40
0.625
 40
0.625
 40
0.625
 40
0.75
 40
0.75
 40
0.75
 40
0.875
 40
0.875
 40
0.875
 40
1.0
 40
1.0
 40
1.0
 40
1.0
 10
1858.2673
 20
785.4186
 30
0.0
 10
1858.2673
 20
785.4186
 30
0.0
 10
1856.9413
 20
783.7872
 30
0.0
 10
1856.9413
 20
783.7872
 30
0.0
 10
1856.9413
 20
783.7872
 30
0.0
 10
1856.7289
 20
784.0484
 30
0.0
 10
1856.7289
 20
784.0484
 30
0.0
 10
1856.7289
 20
784.0484
 30
0.0
 10
1858.1433
 20
785.7872
 30
0.0
 10
1858.1433
 20
785.7872
 30
0.0
 10
1858.1433
 20
785.7872
 30
0.0
 10
1863.143
 20
785.7872
 30
0.0
 10
1863.143
 20
785.7872
 30
0.0
 10
1863.143
 20
785.7872
 30
0.0
 10
1864.5574
 20
784.0484
 30
0.0
 10
1864.5574
 20
784.0484
 30
0.0
 10
1864.5574
 20
784.0484
 30
0.0
 10
1864.3455
 20
783.7872
 30
0.0
 10
1864.3455
 20
783.7872
 30
0.0
 10
1864.3455
 20
783.7872
 30
0.0
 10
1863.0189
 20
785.4186
 30
0.0
 10
1863.0189
 20
785.4186
 30
0.0
 10
1863.0189
 20
785.4186
 30
0.0
 10
1858.2673
 20
785.4186
 30
0.0
 10
1858.2673
 20
785.4186
 30
0.0
  0
SPLINE
  5
7C
330
1F
100
AcDbEntity
  8
0
 62
   242
370
     9
100
AcDbSpline
210
0.0
220
0.0
230
1.0
 70
    11
 71
     3
 72
    29
 73
    25
 74
     0
 42
0.0000000001
 43
0.0000000001
 40
0.0
 40
0.0
 40
0.0
 40
0.0
 40
0.125
 40
0.125
 40
0.125
 40
0.25
 40
0.25
 40
0.25
 40
0.375
 40
0.375
 40
0.375
 40
0.5
 40
0.5
 40
0.5
 40
0.625
 40
0.625
 40
0.625
 40
0.75
 40
0.75
 40
0.75
 40
0.875
 40
0.875
 40
0.875
 40
1.0
 40
1.0
 40
1.0
 40
1.0
 10
1904.2673
 20
785.4186
 30
0.0
 10
1904.2673
 20
785.4186
 30
0.0
 10
1902.9413
 20
783.7872
 30
0.0
 10
1902.9413
 20
783.7872
 30
0.0
 10
1902.9413
 20
783.7872
 30
0.0
 10
1902.7289
 20
784.0484
 30
0.0
 10
1902.7289
 20
784.0484
 30
0.0
 10
1902.7289
 20
784.0484
 30
0.0
 10
1904.1433
 20
785.7872
 30
0.0
 10
1904.1433
 20
785.7872
 30
0.0
 10
1904.1433
 20
785.7872
 30
0.0
 10
1909.143
 20
785.7872
 30
0.0
 10
1909.143
 20
785.7872
 30
0.0
 10
1909.143
 20
785.7872
 30
0.0
 10
1910.5574
 20
784.0484
 30
0.0
 10
1910.5574
 20
784.0484
 30
0.0
 10
1910.5574
 20
784.0484
 30
0.0
 10
1910.3455
 20
783.7872
 30
0.0
 10
1910.3455
 20
783.7872
 30
0.0
 10
1910.3455
 20
783.7872
 30
0.0
 10
1909.0189
 20
785.4186
 30
0.0
 10
1909.0189
 20
785.4186
 30
0.0
 10
1909.0189
 20
785.4186
 30
0.0
 10
1904.2673
 20
785.4186
 30
0.0
 10
1904.2673
 20
785.4186
 30
0.0
  0
SPLINE
  5
7D
330
1F
100
AcDbEntity
  8
0
 62
   242
370
     9
100
AcDbSpline
210
0.0
220
0.0
230
1.0
 70
    11
 71
     3
 72
    29
 73
    25
 74
     0
 42
0.0000000001
 43
0.0000000001
 40
0.0
 40
0.0
 40
0.0
 40
0.0
 40
0.125
 40
0.125
 40
0.125
 40
0.25
 40
0.25
 40
0.25
 40
0.375
 40
0.375
 40
0.375
 40
0.5
 40
0.5
 40
0.5
 40
0.625
 40
0.625
 40
0.625
 40
0.75
 40
0.75
 40
0.75
 40
0.875
 40
0.875
 40
0.875
 40
1.0
 40
1.0
 40
1.0
 40
1.0
 10
1944.2673
 20
785.4186
 30
0.0
 10
1944.2673
 20
785.4186
 30
0.0
 10
1942.9413
 20
783.7872
 30
0.0
 10
1942.9413
 20
783.7872
 30
0.0
 10
1942.9413
 20
783.7872
 30
0.0
 10
1942.7289
 20
784.0484
 30
0.0
 10
1942.7289
 20
784.0484
 30
0.0
 10
1942.7289
 20
784.0484
 30
0.0
 10
1944.1433
 20
785.7872
 30
0.0
 10
1944.1433
 20
785.7872
 30
0.0
 10
1944.1433
 20
785.7872
 30
0.0
 10
1949.143
 20
785.7872
 30
0.0
 10
1949.143
 20
785.7872
 30
0.0
 10
1949.143
 20
785.7872
 30
0.0
 10
1950.5574
 20
784.0484
 30
0.0
 10
1950.5574
 20
784.0484
 30
0.0
 10
1950.5574
 20
784.0484
 30
0.0
 10
1950.3455
 20
783.7872
 30
0.0
 10
1950.3455
 20
783.7872
 30
0.0
 10
1950.3455
 20
783.7872
 30
0.0
 10
1949.0189
 20
785.4186
 30
0.0
 10
1949.0189
 20
785.4186
 30
0.0
 10
1949.0189
 20
785.4186
 30
0.0
 10
1944.2673
 20
785.4186
 30
0.0
 10
1944.2673
 20
785.4186
 30
0.0
  0
SPLINE
  5
7E
330
1F
100
AcDbEntity
  8
0
 62
   242
370
     9
100
AcDbSpline
210
0.0
220
0.0
230
1.0
 70
    11
 71
     3
 72
    29
 73
    25
 74
     0
 42
0.0000000001
 43
0.0000000001
 40
0.0
 40
0.0
 40
0.0
 40
0.0
 40
0.125
 40
0.125
 40
0.125
 40
0.25
 40
0.25
 40
0.25
 40
0.375
 40
0.375
 40
0.375
 40
0.5
 40
0.5
 40
0.5
 40
0.625
 40
0.625
 40
0.625
 40
0.75
 40
0.75
 40
0.75
 40
0.875
 40
0.875
 40
0.875
 40
1.0
 40
1.0
 40
1.0
 40
1.0
 10
1809.2673
 20
760.4186
 30
0.0
 10
1809.2673
 20
760.4186
 30
0.0
 10
1807.9413
 20
758.7872
 30
0.0
 10
1807.9413
 20
758.7872
 30
0.0
 10
1807.9413
 20
758.7872
 30
0.0
 10
1807.7289
 20
759.0484
 30
0.0
 10
1807.7289
 20
759.0484
 30
0.0
 10
1807.7289
 20
759.0484
 30
0.0
 10
1809.1433
 20
760.7872
 30
0.0
 10
1809.1433
 20
760.7872
 30
0.0
 10
1809.1433
 20
760.7872
 30
0.0
 10
1814.143
 20
760.7872
 30
0.0
 10
1814.143
 20
760.7872
 30
0.0
 10
1814.143
 20
760.7872
 30
0.0
 10
1815.5574
 20
759.0484
 30
0.0
 10
1815.5574
 20
759.0484
 30
0.0
 10
1815.5574
 20
759.0484
 30
0.0
 10
1815.3455
 20
758.7872
 30
0.0
 10
1815.3455
 20
758.7872
 30
0.0
 10
1815.3455
 20
758.7872
 30
0.0
 10
1814.0189
 20
760.4186
 30
0.0
 10
1814.0189
 20
760.4186
 30
0.0
 10
1814.0189
 20
760.4186
 30
0.0
 10
1809.2673
 20
760.4186
 30
0.0
 10
1809.2673
 20
760.4186
 30
0.0
  0
SPLINE
  5
7F
330
1F
100
AcDbEntity
  8
0
 62
   242
370
     9
100
AcDbSpline
210
0.0
220
0.0
230
1.0
 70
    11
 71
     3
 72
    29
 73
    25
 74
     0
 42
0.0000000001
 43
0.0000000001
 40
0.0
 40
0.0
 40
0.0
 40
0.0
 40
0.125
 40
0.125
 40
0.125
 40
0.25
 40
0.25
 40
0.25
 40
0.375
 40
0.375
 40
0.375
 40
0.5
 40
0.5
 40
0.5
 40
0.625
 40
0.625
 40
0.625
 40
0.75
 40
0.75
 40
0.75
 40
0.875
 40
0.875
 40
0.875
 40
1.0
 40
1.0
 40
1.0
 40
1.0
 10
1858.2673
 20
760.4186
 30
0.0
 10
1858.2673
 20
760.4186
 30
0.0
 10
1856.9413
 20
758.7872
 30
0.0
 10
1856.9413
 20
758.7872
 30
0.0
 10
1856.9413
 20
758.7872
 30
0.0
 10
1856.7289
 20
759.0484
 30
0.0
 10
1856.7289
 20
759.0484
 30
0.0
 10
1856.7289
 20
759.0484
 30
0.0
 10
1858.1433
 20
760.7872
 30
0.0
 10
1858.1433
 20
760.7872
 30
0.0
 10
1858.1433
 20
760.7872
 30
0.0
 10
1863.143
 20
760.7872
 30
0.0
 10
1863.143
 20
760.7872
 30
0.0
 10
1863.143
 20
760.7872
 30
0.0
 10
1864.5574
 20
759.0484
 30
0.0
 10
1864.5574
 20
759.0484
 30
0.0
 10
1864.5574
 20
759.0484
 30
0.0
 10
1864.3455
 20
758.7872
 30
0.0
 10
1864.3455
 20
758.7872
 30
0.0
 10
1864.3455
 20
758.7872
 30
0.0
 10
1863.0189
 20
760.4186
 30
0.0
 10
1863.0189
 20
760.4186
 30
0.0
 10
1863.0189
 20
760.4186
 30
0.0
 10
1858.2673
 20
760.4186
 30
0.0
 10
1858.2673
 20
760.4186
 30
0.0
  0
SPLINE
  5
80
330
1F
100
AcDbEntity
  8
0
 62
   242
370
     9
100
AcDbSpline
210
0.0
220
0.0
230
1.0
 70
    11
 71
     3
 72
    29
 73
    25
 74
     0
 42
0.0000000001
 43
0.0000000001
 40
0.0
 40
0.0
 40
0.0
 40
0.0
 40
0.125
 40
0.125
 40
0.125
 40
0.25
 40
0.25
 40
0.25
 40
0.375
 40
0.375
 40
0.375
 40
0.5
 40
0.5
 40
0.5
 40
0.625
 40
0.625
 40
0.625
 40
0.75
 40
0.75
 40
0.75
 40
0.875
 40
0.875
 40
0.875
 40
1.0
 40
1.0
 40
1.0
 40
1.0
 10
1904.2673
 20
760.4186
 30
0.0
 10
1904.2673
 20
760.4186
 30
0.0
 10
1902.9413
 20
758.7872
 30
0.0
 10
1902.9413
 20
758.7872
 30
0.0
 10
1902.9413
 20
758.7872
 30
0.0
 10
1902.7289
 20
759.0484
 30
0.0
 10
1902.7289
 20
759.0484
 30
0.0
 10
1902.7289
 20
759.0484
 30
0.0
 10
1904.1433
 20
760.7872
 30
0.0
 10
1904.1433
 20
760.7872
 30
0.0
 10
1904.1433
 20
760.7872
 30
0.0
 10
1909.143
 20
760.7872
 30
0.0
 10
1909.143
 20
760.7872
 30
0.0
 10
1909.143
 20
760.7872
 30
0.0
 10
1910.5574
 20
759.0484
 30
0.0
 10
1910.5574
 20
759.0484
 30
0.0
 10
1910.5574
 20
759.0484
 30
0.0
 10
1910.3455
 20
758.7872
 30
0.0
 10
1910.3455
 20
758.7872
 30
0.0
 10
1910.3455
 20
758.7872
 30
0.0
 10
1909.0189
 20
760.4186
 30
0.0
 10
1909.0189
 20
760.4186
 30
0.0
 10
1909.0189
 20
760.4186
 30
0.0
 10
1904.2673
 20
760.4186
 30
0.0
 10
1904.2673
 20
760.4186
 30
0.0
  0
SPLINE
  5
81
330
1F
100
AcDbEntity
  8
0
 62
   242
370
     9
100
AcDbSpline
210
0.0
220
0.0
230
1.0
 70
    11
 71
     3
 72
    29
 73
    25
 74
     0
 42
0.0000000001
 43
0.0000000001
 40
0.0
 40
0.0
 40
0.0
 40
0.0
 40
0.125
 40
0.125
 40
0.125
 40
0.25
 40
0.25
 40
0.25
 40
0.375
 40
0.375
 40
0.375
 40
0.5
 40
0.5
 40
0.5
 40
0.625
 40
0.625
 40
0.625
 40
0.75
 40
0.75
 40
0.75
 40
0.875
 40
0.875
 40
0.875
 40
1.0
 40
1.0
 40
1.0
 40
1.0
 10
1944.2673
 20
760.4186
 30
0.0
 10
1944.2673
 20
760.4186
 30
0.0
 10
1942.9413
 20
758.7872
 30
0.0
 10
1942.9413
 20
758.7872
 30
0.0
 10
1942.9413
 20
758.7872
 30
0.0
 10
1942.7289
 20
759.0484
 30
0.0
 10
1942.7289
 20
759.0484
 30
0.0
 10
1942.7289
 20
759.0484
 30
0.0
 10
1944.1433
 20
760.7872
 30
0.0
 10
1944.1433
 20
760.7872
 30
0.0
 10
1944.1433
 20
760.7872
 30
0.0
 10
1949.143
 20
760.7872
 30
0.0
 10
1949.143
 20
760.7872
 30
0.0
 10
1949.143
 20
760.7872
 30
0.0
 10
1950.5574
 20
759.0484
 30
0.0
 10
1950.5574
 20
759.0484
 30
0.0
 10
1950.5574
 20
759.0484
 30
0.0
 10
1950.3455
 20
758.7872
 30
0.0
 10
1950.3455
 20
758.7872
 30
0.0
 10
1950.3455
 20
758.7872
 30
0.0
 10
1949.0189
 20
760.4186
 30
0.0
 10
1949.0189
 20
760.4186
 30
0.0
 10
1949.0189
 20
760.4186
 30
0.0
 10
1944.2673
 20
760.4186
 30
0.0
 10
1944.2673
 20
760.4186
 30
0.0
  0
SPLINE
  5
82
330
1F
100
AcDbEntity
  8
0
 62
   242
370
     9
100
AcDbSpline
210
0.0
220
0.0
230
1.0
 70
    11
 71
     3
 72
    29
 73
    25
 74
     0
 42
0.0000000001
 43
0.0000000001
 40
0.0
 40
0.0
 40
0.0
 40
0.0
 40
0.125
 40
0.125
 40
0.125
 40
0.25
 40
0.25
 40
0.25
 40
0.375
 40
0.375
 40
0.375
 40
0.5
 40
0.5
 40
0.5
 40
0.625
 40
0.625
 40
0.625
 40
0.75
 40
0.75
 40
0.75
 40
0.875
 40
0.875
 40
0.875
 40
1.0
 40
1.0
 40
1.0
 40
1.0
 10
1943.3114
 20
551.5015
 30
0.0
 10
1943.3114
 20
551.5015
 30
0.0
 10
1944.5048
 20
549.8701
 30
0.0
 10
1944.5048
 20
549.8701
 30
0.0
 10
1944.5048
 20
549.8701
 30
0.0
 10
1948.7813
 20
549.8701
 30
0.0
 10
1948.7813
 20
549.8701
 30
0.0
 10
1948.7813
 20
549.8701
 30
0.0
 10
1949.9752
 20
551.5015
 30
0.0
 10
1949.9752
 20
551.5015
 30
0.0
 10
1949.9752
 20
551.5015
 30
0.0
 10
1950.1659
 20
551.2403
 30
0.0
 10
1950.1659
 20
551.2403
 30
0.0
 10
1950.1659
 20
551.2403
 30
0.0
 10
1948.8929
 20
549.5015
 30
0.0
 10
1948.8929
 20
549.5015
 30
0.0
 10
1948.8929
 20
549.5015
 30
0.0
 10
1944.3932
 20
549.5015
 30
0.0
 10
1944.3932
 20
549.5015
 30
0.0
 10
1944.3932
 20
549.5015
 30
0.0
 10
1943.1203
 20
551.2403
 30
0.0
 10
1943.1203
 20
551.2403
 30
0.0
 10
1943.1203
 20
551.2403
 30
0.0
 10
1943.3114
 20
551.5015
 30
0.0
 10
1943.3114
 20
551.5015
 30
0.0
  0
SPLINE
  5
83
330
1F
100
AcDbEntity
  8
0
 62
   242
370
     9
100
AcDbSpline
210
0.0
220
0.0
230
1.0
 70
    11
 71
     3
 72
    29
 73
    25
 74
     0
 42
0.0000000001
 43
0.0000000001
 40
0.0
 40
0.0
 40
0.0
 40
0.0
 40
0.125
 40
0.125
 40
0.125
 40
0.25
 40
0.25
 40
0.25
 40
0.375
 40
0.375
 40
0.375
 40
0.5
 40
0.5
 40
0.5
 40
0.625
 40
0.625
 40
0.625
 40
0.75
 40
0.75
 40
0.75
 40
0.875
 40
0.875
 40
0.875
 40
1.0
 40
1.0
 40
1.0
 40
1.0
 10
1904.6114
 20
551.5015
 30
0.0
 10
1904.6114
 20
551.5015
 30
0.0
 10
1905.8048
 20
549.8701
 30
0.0
 10
1905.8048
 20
549.8701
 30
0.0
 10
1905.8048
 20
549.8701
 30
0.0
 10
1910.0813
 20
549.8701
 30
0.0
 10
1910.0813
 20
549.8701
 30
0.0
 10
1910.0813
 20
549.8701
 30
0.0
 10
1911.2752
 20
551.5015
 30
0.0
 10
1911.2752
 20
551.5015
 30
0.0
 10
1911.2752
 20
551.5015
 30
0.0
 10
1911.4659
 20
551.2403
 30
0.0
 10
1911.4659
 20
551.2403
 30
0.0
 10
1911.4659
 20
551.2403
 30
0.0
 10
1910.1929
 20
549.5015
 30
0.0
 10
1910.1929
 20
549.5015
 30
0.0
 10
1910.1929
 20
549.5015
 30
0.0
 10
1905.6932
 20
549.5015
 30
0.0
 10
1905.6932
 20
549.5015
 30
0.0
 10
1905.6932
 20
549.5015
 30
0.0
 10
1904.4203
 20
551.2403
 30
0.0
 10
1904.4203
 20
551.2403
 30
0.0
 10
1904.4203
 20
551.2403
 30
0.0
 10
1904.6114
 20
551.5015
 30
0.0
 10
1904.6114
 20
551.5015
 30
0.0
  0
SPLINE
  5
84
330
1F
100
AcDbEntity
  8
0
 62
   242
370
     9
100
AcDbSpline
210
0.0
220
0.0
230
1.0
 70
    11
 71
     3
 72
    29
 73
    25
 74
     0
 42
0.0000000001
 43
0.0000000001
 40
0.0
 40
0.0
 40
0.0
 40
0.0
 40
0.125
 40
0.125
 40
0.125
 40
0.25
 40
0.25
 40
0.25
 40
0.375
 40
0.375
 40
0.375
 40
0.5
 40
0.5
 40
0.5
 40
0.625
 40
0.625
 40
0.625
 40
0.75
 40
0.75
 40
0.75
 40
0.875
 40
0.875
 40
0.875
 40
1.0
 40
1.0
 40
1.0
 40
1.0
 10
2153.8893
 20
798.6004
 30
0.0
 10
2109.5693
 20
798.6004
 30
0.0
 10
2079.1807
 20
641.2122
 30
0.0
 10
2079.1807
 20
596.8922
 30
0.0
 10
2079.1807
 20
596.8922
 30
0.0
 10
2079.1807
 20
558.6005
 30
0.0
 10
2079.1807
 20
558.6005
 30
0.0
 10
2079.1807
 20
547.5205
 30
0.0
 10
2088.101
 20
538.6002
 30
0.0
 10
2099.181
 20
538.6002
 30
0.0
 10
2099.181
 20
538.6002
 30
0.0
 10
2359.1806
 20
538.6002
 30
0.0
 10
2359.1806
 20
538.6002
 30
0.0
 10
2370.2606
 20
538.6002
 30
0.0
 10
2379.181
 20
547.5205
 30
0.0
 10
2379.181
 20
558.6005
 30
0.0
 10
2379.181
 20
558.6005
 30
0.0
 10
2379.181
 20
596.8922
 30
0.0
 10
2379.181
 20
596.8922
 30
0.0
 10
2379.181
 20
641.2122
 30
0.0
 10
2348.7923
 20
798.6004
 30
0.0
 10
2304.4724
 20
798.6004
 30
0.0
 10
2304.4724
 20
798.6004
 30
0.0
 10
2153.8893
 20
798.6004
 30
0.0
 10
2153.8893
 20
798.6004
 30
0.0
  0
SPLINE
  5
85
330
1F
100
AcDbEntity
  8
0
 62
   242
370
     9
100
AcDbSpline
210
0.0
220
0.0
230
1.0
 70
    11
 71
     3
 72
    29
 73
    25
 74
     0
 42
0.0000000001
 43
0.0000000001
 40
0.0
 40
0.0
 40
0.0
 40
0.0
 40
0.125
 40
0.125
 40
0.125
 40
0.25
 40
0.25
 40
0.25
 40
0.375
 40
0.375
 40
0.375
 40
0.5
 40
0.5
 40
0.5
 40
0.625
 40
0.625
 40
0.625
 40
0.75
 40
0.75
 40
0.75
 40
0.875
 40
0.875
 40
0.875
 40
1.0
 40
1.0
 40
1.0
 40
1.0
 10
2155.1125
 20
785.6991
 30
0.0
 10
2155.1125
 20
785.6991
 30
0.0
 10
2153.9191
 20
787.3305
 30
0.0
 10
2153.9191
 20
787.3305
 30
0.0
 10
2153.9191
 20
787.3305
 30
0.0
 10
2149.6426
 20
787.3305
 30
0.0
 10
2149.6426
 20
787.3305
 30
0.0
 10
2149.6426
 20
787.3305
 30
0.0
 10
2148.4487
 20
785.6991
 30
0.0
 10
2148.4487
 20
785.6991
 30
0.0
 10
2148.4487
 20
785.6991
 30
0.0
 10
2148.258
 20
785.9603
 30
0.0
 10
2148.258
 20
785.9603
 30
0.0
 10
2148.258
 20
785.9603
 30
0.0
 10
2149.531
 20
787.6991
 30
0.0
 10
2149.531
 20
787.6991
 30
0.0
 10
2149.531
 20
787.6991
 30
0.0
 10
2154.0307
 20
787.6991
 30
0.0
 10
2154.0307
 20
787.6991
 30
0.0
 10
2154.0307
 20
787.6991
 30
0.0
 10
2155.3036
 20
785.9603
 30
0.0
 10
2155.3036
 20
785.9603
 30
0.0
 10
2155.3036
 20
785.9603
 30
0.0
 10
2155.1125
 20
785.6991
 30
0.0
 10
2155.1125
 20
785.6991
 30
0.0
  0
SPLINE
  5
86
330
1F
100
AcDbEntity
  8
0
 62
   242
370
     9
100
AcDbSpline
210
0.0
220
0.0
230
1.0
 70
    11
 71
     3
 72
    29
 73
    25
 74
     0
 42
0.0000000001
 43
0.0000000001
 40
0.0
 40
0.0
 40
0.0
 40
0.0
 40
0.125
 40
0.125
 40
0.125
 40
0.25
 40
0.25
 40
0.25
 40
0.375
 40
0.375
 40
0.375
 40
0.5
 40
0.5
 40
0.5
 40
0.625
 40
0.625
 40
0.625
 40
0.75
 40
0.75
 40
0.75
 40
0.875
 40
0.875
 40
0.875
 40
1.0
 40
1.0
 40
1.0
 40
1.0
 10
2096.5566
 20
551.782
 30
0.0
 10
2096.5566
 20
551.782
 30
0.0
 10
2097.8826
 20
553.4134
 30
0.0
 10
2097.8826
 20
553.4134
 30
0.0
 10
2097.8826
 20
553.4134
 30
0.0
 10
2098.095
 20
553.1522
 30
0.0
 10
2098.095
 20
553.1522
 30
0.0
 10
2098.095
 20
553.1522
 30
0.0
 10
2096.6806
 20
551.4134
 30
0.0
 10
2096.6806
 20
551.4134
 30
0.0
 10
2096.6806
 20
551.4134
 30
0.0
 10
2091.6809
 20
551.4134
 30
0.0
 10
2091.6809
 20
551.4134
 30
0.0
 10
2091.6809
 20
551.4134
 30
0.0
 10
2090.2665
 20
553.1522
 30
0.0
 10
2090.2665
 20
553.1522
 30
0.0
 10
2090.2665
 20
553.1522
 30
0.0
 10
2090.4784
 20
553.4134
 30
0.0
 10
2090.4784
 20
553.4134
 30
0.0
 10
2090.4784
 20
553.4134
 30
0.0
 10
2091.8049
 20
551.782
 30
0.0
 10
2091.8049
 20
551.782
 30
0.0
 10
2091.8049
 20
551.782
 30
0.0
 10
2096.5566
 20
551.782
 30
0.0
 10
2096.5566
 20
551.782
 30
0.0
  0
SPLINE
  5
87
330
1F
100
AcDbEntity
  8
0
 62
   242
370
     9
100
AcDbSpline
210
0.0
220
0.0
230
1.0
 70
    11
 71
     3
 72
    29
 73
    25
 74
     0
 42
0.0000000001
 43
0.0000000001
 40
0.0
 40
0.0
 40
0.0
 40
0.0
 40
0.125
 40
0.125
 40
0.125
 40
0.25
 40
0.25
 40
0.25
 40
0.375
 40
0.375
 40
0.375
 40
0.5
 40
0.5
 40
0.5
 40
0.625
 40
0.625
 40
0.625
 40
0.75
 40
0.75
 40
0.75
 40
0.875
 40
0.875
 40
0.875
 40
1.0
 40
1.0
 40
1.0
 40
1.0
 10
2366.5566
 20
551.782
 30
0.0
 10
2366.5566
 20
551.782
 30
0.0
 10
2367.8826
 20
553.4134
 30
0.0
 10
2367.8826
 20
553.4134
 30
0.0
 10
2367.8826
 20
553.4134
 30
0.0
 10
2368.095
 20
553.1522
 30
0.0
 10
2368.095
 20
553.1522
 30
0.0
 10
2368.095
 20
553.1522
 30
0.0
 10
2366.6806
 20
551.4134
 30
0.0
 10
2366.6806
 20
551.4134
 30
0.0
 10
2366.6806
 20
551.4134
 30
0.0
 10
2361.6809
 20
551.4134
 30
0.0
 10
2361.6809
 20
551.4134
 30
0.0
 10
2361.6809
 20
551.4134
 30
0.0
 10
2360.2665
 20
553.1522
 30
0.0
 10
2360.2665
 20
553.1522
 30
0.0
 10
2360.2665
 20
553.1522
 30
0.0
 10
2360.4784
 20
553.4134
 30
0.0
 10
2360.4784
 20
553.4134
 30
0.0
 10
2360.4784
 20
553.4134
 30
0.0
 10
2361.805
 20
551.782
 30
0.0
 10
2361.805
 20
551.782
 30
0.0
 10
2361.805
 20
551.782
 30
0.0
 10
2366.5566
 20
551.782
 30
0.0
 10
2366.5566
 20
551.782
 30
0.0
  0
SPLINE
  5
88
330
1F
100
AcDbEntity
  8
0
 62
   242
370
     9
100
AcDbSpline
210
0.0
220
0.0
230
1.0
 70
    11
 71
     3
 72
    29
 73
    25
 74
     0
 42
0.0000000001
 43
0.0000000001
 40
0.0
 40
0.0
 40
0.0
 40
0.0
 40
0.125
 40
0.125
 40
0.125
 40
0.25
 40
0.25
 40
0.25
 40
0.375
 40
0.375
 40
0.375
 40
0.5
 40
0.5
 40
0.5
 40
0.625
 40
0.625
 40
0.625
 40
0.75
 40
0.75
 40
0.75
 40
0.875
 40
0.875
 40
0.875
 40
1.0
 40
1.0
 40
1.0
 40
1.0
 10
2309.9125
 20
785.6991
 30
0.0
 10
2309.9125
 20
785.6991
 30
0.0
 10
2308.7191
 20
787.3305
 30
0.0
 10
2308.7191
 20
787.3305
 30
0.0
 10
2308.7191
 20
787.3305
 30
0.0
 10
2304.4426
 20
787.3305
 30
0.0
 10
2304.4426
 20
787.3305
 30
0.0
 10
2304.4426
 20
787.3305
 30
0.0
 10
2303.2487
 20
785.6991
 30
0.0
 10
2303.2487
 20
785.6991
 30
0.0
 10
2303.2487
 20
785.6991
 30
0.0
 10
2303.058
 20
785.9603
 30
0.0
 10
2303.058
 20
785.9603
 30
0.0
 10
2303.058
 20
785.9603
 30
0.0
 10
2304.331
 20
787.6991
 30
0.0
 10
2304.331
 20
787.6991
 30
0.0
 10
2304.331
 20
787.6991
 30
0.0
 10
2308.8307
 20
787.6991
 30
0.0
 10
2308.8307
 20
787.6991
 30
0.0
 10
2308.8307
 20
787.6991
 30
0.0
 10
2310.1036
 20
785.9603
 30
0.0
 10
2310.1036
 20
785.9603
 30
0.0
 10
2310.1036
 20
785.9603
 30
0.0
 10
2309.9125
 20
785.6991
 30
0.0
 10
2309.9125
 20
785.6991
 30
0.0
  0
SPLINE
  5
89
330
1F
100
AcDbEntity
  8
0
 62
   242
370
     9
100
AcDbSpline
210
0.0
220
0.0
230
1.0
 70
    11
 71
     3
 72
    29
 73
    25
 74
     0
 42
0.0000000001
 43
0.0000000001
 40
0.0
 40
0.0
 40
0.0
 40
0.0
 40
0.125
 40
0.125
 40
0.125
 40
0.25
 40
0.25
 40
0.25
 40
0.375
 40
0.375
 40
0.375
 40
0.5
 40
0.5
 40
0.5
 40
0.625
 40
0.625
 40
0.625
 40
0.75
 40
0.75
 40
0.75
 40
0.875
 40
0.875
 40
0.875
 40
1.0
 40
1.0
 40
1.0
 40
1.0
 10
2188.3426
 20
787.3305
 30
0.0
 10
2188.3426
 20
787.3305
 30
0.0
 10
2187.1487
 20
785.6991
 30
0.0
 10
2187.1487
 20
785.6991
 30
0.0
 10
2187.1487
 20
785.6991
 30
0.0
 10
2186.958
 20
785.9603
 30
0.0
 10
2186.958
 20
785.9603
 30
0.0
 10
2186.958
 20
785.9603
 30
0.0
 10
2188.231
 20
787.6991
 30
0.0
 10
2188.231
 20
787.6991
 30
0.0
 10
2188.231
 20
787.6991
 30
0.0
 10
2192.7307
 20
787.6991
 30
0.0
 10
2192.7307
 20
787.6991
 30
0.0
 10
2192.7307
 20
787.6991
 30
0.0
 10
2194.0036
 20
785.9603
 30
0.0
 10
2194.0036
 20
785.9603
 30
0.0
 10
2194.0036
 20
785.9603
 30
0.0
 10
2193.8125
 20
785.6991
 30
0.0
 10
2193.8125
 20
785.6991
 30
0.0
 10
2193.8125
 20
785.6991
 30
0.0
 10
2192.6191
 20
787.3305
 30
0.0
 10
2192.6191
 20
787.3305
 30
0.0
 10
2192.6191
 20
787.3305
 30
0.0
 10
2188.3426
 20
787.3305
 30
0.0
 10
2188.3426
 20
787.3305
 30
0.0
  0
SPLINE
  5
8A
330
1F
100
AcDbEntity
  8
0
 62
   242
370
     9
100
AcDbSpline
210
0.0
220
0.0
230
1.0
 70
    11
 71
     3
 72
    29
 73
    25
 74
     0
 42
0.0000000001
 43
0.0000000001
 40
0.0
 40
0.0
 40
0.0
 40
0.0
 40
0.125
 40
0.125
 40
0.125
 40
0.25
 40
0.25
 40
0.25
 40
0.375
 40
0.375
 40
0.375
 40
0.5
 40
0.5
 40
0.5
 40
0.625
 40
0.625
 40
0.625
 40
0.75
 40
0.75
 40
0.75
 40
0.875
 40
0.875
 40
0.875
 40
1.0
 40
1.0
 40
1.0
 40
1.0
 10
2145.5566
 20
551.782
 30
0.0
 10
2145.5566
 20
551.782
 30
0.0
 10
2146.8826
 20
553.4134
 30
0.0
 10
2146.8826
 20
553.4134
 30
0.0
 10
2146.8826
 20
553.4134
 30
0.0
 10
2147.095
 20
553.1522
 30
0.0
 10
2147.095
 20
553.1522
 30
0.0
 10
2147.095
 20
553.1522
 30
0.0
 10
2145.6806
 20
551.4134
 30
0.0
 10
2145.6806
 20
551.4134
 30
0.0
 10
2145.6806
 20
551.4134
 30
0.0
 10
2140.6809
 20
551.4134
 30
0.0
 10
2140.6809
 20
551.4134
 30
0.0
 10
2140.6809
 20
551.4134
 30
0.0
 10
2139.2665
 20
553.1522
 30
0.0
 10
2139.2665
 20
553.1522
 30
0.0
 10
2139.2665
 20
553.1522
 30
0.0
 10
2139.4784
 20
553.4134
 30
0.0
 10
2139.4784
 20
553.4134
 30
0.0
 10
2139.4784
 20
553.4134
 30
0.0
 10
2140.8049
 20
551.782
 30
0.0
 10
2140.8049
 20
551.782
 30
0.0
 10
2140.8049
 20
551.782
 30
0.0
 10
2145.5566
 20
551.782
 30
0.0
 10
2145.5566
 20
551.782
 30
0.0
  0
SPLINE
  5
8B
330
1F
100
AcDbEntity
  8
0
 62
   242
370
     9
100
AcDbSpline
210
0.0
220
0.0
230
1.0
 70
    11
 71
     3
 72
    29
 73
    25
 74
     0
 42
0.0000000001
 43
0.0000000001
 40
0.0
 40
0.0
 40
0.0
 40
0.0
 40
0.125
 40
0.125
 40
0.125
 40
0.25
 40
0.25
 40
0.25
 40
0.375
 40
0.375
 40
0.375
 40
0.5
 40
0.5
 40
0.5
 40
0.625
 40
0.625
 40
0.625
 40
0.75
 40
0.75
 40
0.75
 40
0.875
 40
0.875
 40
0.875
 40
1.0
 40
1.0
 40
1.0
 40
1.0
 10
2186.805
 20
576.782
 30
0.0
 10
2186.805
 20
576.782
 30
0.0
 10
2191.5566
 20
576.782
 30
0.0
 10
2191.5566
 20
576.782
 30
0.0
 10
2191.5566
 20
576.782
 30
0.0
 10
2192.8826
 20
578.4134
 30
0.0
 10
2192.8826
 20
578.4134
 30
0.0
 10
2192.8826
 20
578.4134
 30
0.0
 10
2193.095
 20
578.1522
 30
0.0
 10
2193.095
 20
578.1522
 30
0.0
 10
2193.095
 20
578.1522
 30
0.0
 10
2191.6806
 20
576.4134
 30
0.0
 10
2191.6806
 20
576.4134
 30
0.0
 10
2191.6806
 20
576.4134
 30
0.0
 10
2186.6809
 20
576.4134
 30
0.0
 10
2186.6809
 20
576.4134
 30
0.0
 10
2186.6809
 20
576.4134
 30
0.0
 10
2185.2665
 20
578.1522
 30
0.0
 10
2185.2665
 20
578.1522
 30
0.0
 10
2185.2665
 20
578.1522
 30
0.0
 10
2185.4784
 20
578.4134
 30
0.0
 10
2185.4784
 20
578.4134
 30
0.0
 10
2185.4784
 20
578.4134
 30
0.0
 10
2186.805
 20
576.782
 30
0.0
 10
2186.805
 20
576.782
 30
0.0
  0
SPLINE
  5
8C
330
1F
100
AcDbEntity
  8
0
 62
   242
370
     9
100
AcDbSpline
210
0.0
220
0.0
230
1.0
 70
    11
 71
     3
 72
    29
 73
    25
 74
     0
 42
0.0000000001
 43
0.0000000001
 40
0.0
 40
0.0
 40
0.0
 40
0.0
 40
0.125
 40
0.125
 40
0.125
 40
0.25
 40
0.25
 40
0.25
 40
0.375
 40
0.375
 40
0.375
 40
0.5
 40
0.5
 40
0.5
 40
0.625
 40
0.625
 40
0.625
 40
0.75
 40
0.75
 40
0.75
 40
0.875
 40
0.875
 40
0.875
 40
1.0
 40
1.0
 40
1.0
 40
1.0
 10
2185.4784
 20
553.4134
 30
0.0
 10
2185.4784
 20
553.4134
 30
0.0
 10
2186.805
 20
551.782
 30
0.0
 10
2186.805
 20
551.782
 30
0.0
 10
2186.805
 20
551.782
 30
0.0
 10
2191.5566
 20
551.782
 30
0.0
 10
2191.5566
 20
551.782
 30
0.0
 10
2191.5566
 20
551.782
 30
0.0
 10
2192.8826
 20
553.4134
 30
0.0
 10
2192.8826
 20
553.4134
 30
0.0
 10
2192.8826
 20
553.4134
 30
0.0
 10
2193.095
 20
553.1522
 30
0.0
 10
2193.095
 20
553.1522
 30
0.0
 10
2193.095
 20
553.1522
 30
0.0
 10
2191.6806
 20
551.4134
 30
0.0
 10
2191.6806
 20
551.4134
 30
0.0
 10
2191.6806
 20
551.4134
 30
0.0
 10
2186.6809
 20
551.4134
 30
0.0
 10
2186.6809
 20
551.4134
 30
0.0
 10
2186.6809
 20
551.4134
 30
0.0
 10
2185.2665
 20
553.1522
 30
0.0
 10
2185.2665
 20
553.1522
 30
0.0
 10
2185.2665
 20
553.1522
 30
0.0
 10
2185.4784
 20
553.4134
 30
0.0
 10
2185.4784
 20
553.4134
 30
0.0
  0
SPLINE
  5
8D
330
1F
100
AcDbEntity
  8
0
 62
   242
370
     9
100
AcDbSpline
210
0.0
220
0.0
230
1.0
 70
    11
 71
     3
 72
    29
 73
    25
 74
     0
 42
0.0000000001
 43
0.0000000001
 40
0.0
 40
0.0
 40
0.0
 40
0.0
 40
0.125
 40
0.125
 40
0.125
 40
0.25
 40
0.25
 40
0.25
 40
0.375
 40
0.375
 40
0.375
 40
0.5
 40
0.5
 40
0.5
 40
0.625
 40
0.625
 40
0.625
 40
0.75
 40
0.75
 40
0.75
 40
0.875
 40
0.875
 40
0.875
 40
1.0
 40
1.0
 40
1.0
 40
1.0
 10
2097.8826
 20
578.4134
 30
0.0
 10
2097.8826
 20
578.4134
 30
0.0
 10
2096.5566
 20
576.782
 30
0.0
 10
2096.5566
 20
576.782
 30
0.0
 10
2096.5566
 20
576.782
 30
0.0
 10
2091.8049
 20
576.782
 30
0.0
 10
2091.8049
 20
576.782
 30
0.0
 10
2091.8049
 20
576.782
 30
0.0
 10
2090.4784
 20
578.4134
 30
0.0
 10
2090.4784
 20
578.4134
 30
0.0
 10
2090.4784
 20
578.4134
 30
0.0
 10
2090.2665
 20
578.1522
 30
0.0
 10
2090.2665
 20
578.1522
 30
0.0
 10
2090.2665
 20
578.1522
 30
0.0
 10
2091.6809
 20
576.4134
 30
0.0
 10
2091.6809
 20
576.4134
 30
0.0
 10
2091.6809
 20
576.4134
 30
0.0
 10
2096.6806
 20
576.4134
 30
0.0
 10
2096.6806
 20
576.4134
 30
0.0
 10
2096.6806
 20
576.4134
 30
0.0
 10
2098.095
 20
578.1522
 30
0.0
 10
2098.095
 20
578.1522
 30
0.0
 10
2098.095
 20
578.1522
 30
0.0
 10
2097.8826
 20
578.4134
 30
0.0
 10
2097.8826
 20
578.4134
 30
0.0
  0
SPLINE
  5
8E
330
1F
100
AcDbEntity
  8
0
 62
   242
370
     9
100
AcDbSpline
210
0.0
220
0.0
230
1.0
 70
    11
 71
     3
 72
    29
 73
    25
 74
     0
 42
0.0000000001
 43
0.0000000001
 40
0.0
 40
0.0
 40
0.0
 40
0.0
 40
0.125
 40
0.125
 40
0.125
 40
0.25
 40
0.25
 40
0.25
 40
0.375
 40
0.375
 40
0.375
 40
0.5
 40
0.5
 40
0.5
 40
0.625
 40
0.625
 40
0.625
 40
0.75
 40
0.75
 40
0.75
 40
0.875
 40
0.875
 40
0.875
 40
1.0
 40
1.0
 40
1.0
 40
1.0
 10
2145.5566
 20
576.782
 30
0.0
 10
2145.5566
 20
576.782
 30
0.0
 10
2146.8826
 20
578.4134
 30
0.0
 10
2146.8826
 20
578.4134
 30
0.0
 10
2146.8826
 20
578.4134
 30
0.0
 10
2147.095
 20
578.1522
 30
0.0
 10
2147.095
 20
578.1522
 30
0.0
 10
2147.095
 20
578.1522
 30
0.0
 10
2145.6806
 20
576.4134
 30
0.0
 10
2145.6806
 20
576.4134
 30
0.0
 10
2145.6806
 20
576.4134
 30
0.0
 10
2140.6809
 20
576.4134
 30
0.0
 10
2140.6809
 20
576.4134
 30
0.0
 10
2140.6809
 20
576.4134
 30
0.0
 10
2139.2665
 20
578.1522
 30
0.0
 10
2139.2665
 20
578.1522
 30
0.0
 10
2139.2665
 20
578.1522
 30
0.0
 10
2139.4784
 20
578.4134
 30
0.0
 10
2139.4784
 20
578.4134
 30
0.0
 10
2139.4784
 20
578.4134
 30
0.0
 10
2140.8049
 20
576.782
 30
0.0
 10
2140.8049
 20
576.782
 30
0.0
 10
2140.8049
 20
576.782
 30
0.0
 10
2145.5566
 20
576.782
 30
0.0
 10
2145.5566
 20
576.782
 30
0.0
  0
SPLINE
  5
8F
330
1F
100
AcDbEntity
  8
0
 62
   242
370
     9
100
AcDbSpline
210
0.0
220
0.0
230
1.0
 70
    11
 71
     3
 72
    29
 73
    25
 74
     0
 42
0.0000000001
 43
0.0000000001
 40
0.0
 40
0.0
 40
0.0
 40
0.0
 40
0.125
 40
0.125
 40
0.125
 40
0.25
 40
0.25
 40
0.25
 40
0.375
 40
0.375
 40
0.375
 40
0.5
 40
0.5
 40
0.5
 40
0.625
 40
0.625
 40
0.625
 40
0.75
 40
0.75
 40
0.75
 40
0.875
 40
0.875
 40
0.875
 40
1.0
 40
1.0
 40
1.0
 40
1.0
 10
2317.5566
 20
551.782
 30
0.0
 10
2317.5566
 20
551.782
 30
0.0
 10
2318.8826
 20
553.4134
 30
0.0
 10
2318.8826
 20
553.4134
 30
0.0
 10
2318.8826
 20
553.4134
 30
0.0
 10
2319.095
 20
553.1522
 30
0.0
 10
2319.095
 20
553.1522
 30
0.0
 10
2319.095
 20
553.1522
 30
0.0
 10
2317.6806
 20
551.4134
 30
0.0
 10
2317.6806
 20
551.4134
 30
0.0
 10
2317.6806
 20
551.4134
 30
0.0
 10
2312.6809
 20
551.4134
 30
0.0
 10
2312.6809
 20
551.4134
 30
0.0
 10
2312.6809
 20
551.4134
 30
0.0
 10
2311.2665
 20
553.1522
 30
0.0
 10
2311.2665
 20
553.1522
 30
0.0
 10
2311.2665
 20
553.1522
 30
0.0
 10
2311.4784
 20
553.4134
 30
0.0
 10
2311.4784
 20
553.4134
 30
0.0
 10
2311.4784
 20
553.4134
 30
0.0
 10
2312.805
 20
551.782
 30
0.0
 10
2312.805
 20
551.782
 30
0.0
 10
2312.805
 20
551.782
 30
0.0
 10
2317.5566
 20
551.782
 30
0.0
 10
2317.5566
 20
551.782
 30
0.0
  0
SPLINE
  5
90
330
1F
100
AcDbEntity
  8
0
 62
   242
370
     9
100
AcDbSpline
210
0.0
220
0.0
230
1.0
 70
    11
 71
     3
 72
    29
 73
    25
 74
     0
 42
0.0000000001
 43
0.0000000001
 40
0.0
 40
0.0
 40
0.0
 40
0.0
 40
0.125
 40
0.125
 40
0.125
 40
0.25
 40
0.25
 40
0.25
 40
0.375
 40
0.375
 40
0.375
 40
0.5
 40
0.5
 40
0.5
 40
0.625
 40
0.625
 40
0.625
 40
0.75
 40
0.75
 40
0.75
 40
0.875
 40
0.875
 40
0.875
 40
1.0
 40
1.0
 40
1.0
 40
1.0
 10
2271.5566
 20
551.782
 30
0.0
 10
2271.5566
 20
551.782
 30
0.0
 10
2272.8826
 20
553.4134
 30
0.0
 10
2272.8826
 20
553.4134
 30
0.0
 10
2272.8826
 20
553.4134
 30
0.0
 10
2273.095
 20
553.1522
 30
0.0
 10
2273.095
 20
553.1522
 30
0.0
 10
2273.095
 20
553.1522
 30
0.0
 10
2271.6806
 20
551.4134
 30
0.0
 10
2271.6806
 20
551.4134
 30
0.0
 10
2271.6806
 20
551.4134
 30
0.0
 10
2266.6809
 20
551.4134
 30
0.0
 10
2266.6809
 20
551.4134
 30
0.0
 10
2266.6809
 20
551.4134
 30
0.0
 10
2265.2665
 20
553.1522
 30
0.0
 10
2265.2665
 20
553.1522
 30
0.0
 10
2265.2665
 20
553.1522
 30
0.0
 10
2265.4784
 20
553.4134
 30
0.0
 10
2265.4784
 20
553.4134
 30
0.0
 10
2265.4784
 20
553.4134
 30
0.0
 10
2266.805
 20
551.782
 30
0.0
 10
2266.805
 20
551.782
 30
0.0
 10
2266.805
 20
551.782
 30
0.0
 10
2271.5566
 20
551.782
 30
0.0
 10
2271.5566
 20
551.782
 30
0.0
  0
SPLINE
  5
91
330
1F
100
AcDbEntity
  8
0
 62
   242
370
     9
100
AcDbSpline
210
0.0
220
0.0
230
1.0
 70
    11
 71
     3
 72
    29
 73
    25
 74
     0
 42
0.0000000001
 43
0.0000000001
 40
0.0
 40
0.0
 40
0.0
 40
0.0
 40
0.125
 40
0.125
 40
0.125
 40
0.25
 40
0.25
 40
0.25
 40
0.375
 40
0.375
 40
0.375
 40
0.5
 40
0.5
 40
0.5
 40
0.625
 40
0.625
 40
0.625
 40
0.75
 40
0.75
 40
0.75
 40
0.875
 40
0.875
 40
0.875
 40
1.0
 40
1.0
 40
1.0
 40
1.0
 10
2231.5566
 20
551.782
 30
0.0
 10
2231.5566
 20
551.782
 30
0.0
 10
2232.8826
 20
553.4134
 30
0.0
 10
2232.8826
 20
553.4134
 30
0.0
 10
2232.8826
 20
553.4134
 30
0.0
 10
2233.095
 20
553.1522
 30
0.0
 10
2233.095
 20
553.1522
 30
0.0
 10
2233.095
 20
553.1522
 30
0.0
 10
2231.6806
 20
551.4134
 30
0.0
 10
2231.6806
 20
551.4134
 30
0.0
 10
2231.6806
 20
551.4134
 30
0.0
 10
2226.6809
 20
551.4134
 30
0.0
 10
2226.6809
 20
551.4134
 30
0.0
 10
2226.6809
 20
551.4134
 30
0.0
 10
2225.2665
 20
553.1522
 30
0.0
 10
2225.2665
 20
553.1522
 30
0.0
 10
2225.2665
 20
553.1522
 30
0.0
 10
2225.4784
 20
553.4134
 30
0.0
 10
2225.4784
 20
553.4134
 30
0.0
 10
2225.4784
 20
553.4134
 30
0.0
 10
2226.805
 20
551.782
 30
0.0
 10
2226.805
 20
551.782
 30
0.0
 10
2226.805
 20
551.782
 30
0.0
 10
2231.5566
 20
551.782
 30
0.0
 10
2231.5566
 20
551.782
 30
0.0
  0
SPLINE
  5
92
330
1F
100
AcDbEntity
  8
0
 62
   242
370
     9
100
AcDbSpline
210
0.0
220
0.0
230
1.0
 70
    11
 71
     3
 72
    29
 73
    25
 74
     0
 42
0.0000000001
 43
0.0000000001
 40
0.0
 40
0.0
 40
0.0
 40
0.0
 40
0.125
 40
0.125
 40
0.125
 40
0.25
 40
0.25
 40
0.25
 40
0.375
 40
0.375
 40
0.375
 40
0.5
 40
0.5
 40
0.5
 40
0.625
 40
0.625
 40
0.625
 40
0.75
 40
0.75
 40
0.75
 40
0.875
 40
0.875
 40
0.875
 40
1.0
 40
1.0
 40
1.0
 40
1.0
 10
2366.5566
 20
576.782
 30
0.0
 10
2366.5566
 20
576.782
 30
0.0
 10
2367.8826
 20
578.4134
 30
0.0
 10
2367.8826
 20
578.4134
 30
0.0
 10
2367.8826
 20
578.4134
 30
0.0
 10
2368.095
 20
578.1522
 30
0.0
 10
2368.095
 20
578.1522
 30
0.0
 10
2368.095
 20
578.1522
 30
0.0
 10
2366.6806
 20
576.4134
 30
0.0
 10
2366.6806
 20
576.4134
 30
0.0
 10
2366.6806
 20
576.4134
 30
0.0
 10
2361.6809
 20
576.4134
 30
0.0
 10
2361.6809
 20
576.4134
 30
0.0
 10
2361.6809
 20
576.4134
 30
0.0
 10
2360.2665
 20
578.1522
 30
0.0
 10
2360.2665
 20
578.1522
 30
0.0
 10
2360.2665
 20
578.1522
 30
0.0
 10
2360.4784
 20
578.4134
 30
0.0
 10
2360.4784
 20
578.4134
 30
0.0
 10
2360.4784
 20
578.4134
 30
0.0
 10
2361.805
 20
576.782
 30
0.0
 10
2361.805
 20
576.782
 30
0.0
 10
2361.805
 20
576.782
 30
0.0
 10
2366.5566
 20
576.782
 30
0.0
 10
2366.5566
 20
576.782
 30
0.0
  0
SPLINE
  5
93
330
1F
100
AcDbEntity
  8
0
 62
   242
370
     9
100
AcDbSpline
210
0.0
220
0.0
230
1.0
 70
    11
 71
     3
 72
    29
 73
    25
 74
     0
 42
0.0000000001
 43
0.0000000001
 40
0.0
 40
0.0
 40
0.0
 40
0.0
 40
0.125
 40
0.125
 40
0.125
 40
0.25
 40
0.25
 40
0.25
 40
0.375
 40
0.375
 40
0.375
 40
0.5
 40
0.5
 40
0.5
 40
0.625
 40
0.625
 40
0.625
 40
0.75
 40
0.75
 40
0.75
 40
0.875
 40
0.875
 40
0.875
 40
1.0
 40
1.0
 40
1.0
 40
1.0
 10
2317.5566
 20
576.782
 30
0.0
 10
2317.5566
 20
576.782
 30
0.0
 10
2318.8826
 20
578.4134
 30
0.0
 10
2318.8826
 20
578.4134
 30
0.0
 10
2318.8826
 20
578.4134
 30
0.0
 10
2319.095
 20
578.1522
 30
0.0
 10
2319.095
 20
578.1522
 30
0.0
 10
2319.095
 20
578.1522
 30
0.0
 10
2317.6806
 20
576.4134
 30
0.0
 10
2317.6806
 20
576.4134
 30
0.0
 10
2317.6806
 20
576.4134
 30
0.0
 10
2312.6809
 20
576.4134
 30
0.0
 10
2312.6809
 20
576.4134
 30
0.0
 10
2312.6809
 20
576.4134
 30
0.0
 10
2311.2665
 20
578.1522
 30
0.0
 10
2311.2665
 20
578.1522
 30
0.0
 10
2311.2665
 20
578.1522
 30
0.0
 10
2311.4784
 20
578.4134
 30
0.0
 10
2311.4784
 20
578.4134
 30
0.0
 10
2311.4784
 20
578.4134
 30
0.0
 10
2312.805
 20
576.782
 30
0.0
 10
2312.805
 20
576.782
 30
0.0
 10
2312.805
 20
576.782
 30
0.0
 10
2317.5566
 20
576.782
 30
0.0
 10
2317.5566
 20
576.782
 30
0.0
  0
SPLINE
  5
94
330
1F
100
AcDbEntity
  8
0
 62
   242
370
     9
100
AcDbSpline
210
0.0
220
0.0
230
1.0
 70
    11
 71
     3
 72
    29
 73
    25
 74
     0
 42
0.0000000001
 43
0.0000000001
 40
0.0
 40
0.0
 40
0.0
 40
0.0
 40
0.125
 40
0.125
 40
0.125
 40
0.25
 40
0.25
 40
0.25
 40
0.375
 40
0.375
 40
0.375
 40
0.5
 40
0.5
 40
0.5
 40
0.625
 40
0.625
 40
0.625
 40
0.75
 40
0.75
 40
0.75
 40
0.875
 40
0.875
 40
0.875
 40
1.0
 40
1.0
 40
1.0
 40
1.0
 10
2271.5566
 20
576.782
 30
0.0
 10
2271.5566
 20
576.782
 30
0.0
 10
2272.8826
 20
578.4134
 30
0.0
 10
2272.8826
 20
578.4134
 30
0.0
 10
2272.8826
 20
578.4134
 30
0.0
 10
2273.095
 20
578.1522
 30
0.0
 10
2273.095
 20
578.1522
 30
0.0
 10
2273.095
 20
578.1522
 30
0.0
 10
2271.6806
 20
576.4134
 30
0.0
 10
2271.6806
 20
576.4134
 30
0.0
 10
2271.6806
 20
576.4134
 30
0.0
 10
2266.6809
 20
576.4134
 30
0.0
 10
2266.6809
 20
576.4134
 30
0.0
 10
2266.6809
 20
576.4134
 30
0.0
 10
2265.2665
 20
578.1522
 30
0.0
 10
2265.2665
 20
578.1522
 30
0.0
 10
2265.2665
 20
578.1522
 30
0.0
 10
2265.4784
 20
578.4134
 30
0.0
 10
2265.4784
 20
578.4134
 30
0.0
 10
2265.4784
 20
578.4134
 30
0.0
 10
2266.805
 20
576.782
 30
0.0
 10
2266.805
 20
576.782
 30
0.0
 10
2266.805
 20
576.782
 30
0.0
 10
2271.5566
 20
576.782
 30
0.0
 10
2271.5566
 20
576.782
 30
0.0
  0
SPLINE
  5
95
330
1F
100
AcDbEntity
  8
0
 62
   242
370
     9
100
AcDbSpline
210
0.0
220
0.0
230
1.0
 70
    11
 71
     3
 72
    29
 73
    25
 74
     0
 42
0.0000000001
 43
0.0000000001
 40
0.0
 40
0.0
 40
0.0
 40
0.0
 40
0.125
 40
0.125
 40
0.125
 40
0.25
 40
0.25
 40
0.25
 40
0.375
 40
0.375
 40
0.375
 40
0.5
 40
0.5
 40
0.5
 40
0.625
 40
0.625
 40
0.625
 40
0.75
 40
0.75
 40
0.75
 40
0.875
 40
0.875
 40
0.875
 40
1.0
 40
1.0
 40
1.0
 40
1.0
 10
2231.5566
 20
576.782
 30
0.0
 10
2231.5566
 20
576.782
 30
0.0
 10
2232.8826
 20
578.4134
 30
0.0
 10
2232.8826
 20
578.4134
 30
0.0
 10
2232.8826
 20
578.4134
 30
0.0
 10
2233.095
 20
578.1522
 30
0.0
 10
2233.095
 20
578.1522
 30
0.0
 10
2233.095
 20
578.1522
 30
0.0
 10
2231.6806
 20
576.4134
 30
0.0
 10
2231.6806
 20
576.4134
 30
0.0
 10
2231.6806
 20
576.4134
 30
0.0
 10
2226.6809
 20
576.4134
 30
0.0
 10
2226.6809
 20
576.4134
 30
0.0
 10
2226.6809
 20
576.4134
 30
0.0
 10
2225.2665
 20
578.1522
 30
0.0
 10
2225.2665
 20
578.1522
 30
0.0
 10
2225.2665
 20
578.1522
 30
0.0
 10
2225.4784
 20
578.4134
 30
0.0
 10
2225.4784
 20
578.4134
 30
0.0
 10
2225.4784
 20
578.4134
 30
0.0
 10
2226.805
 20
576.782
 30
0.0
 10
2226.805
 20
576.782
 30
0.0
 10
2226.805
 20
576.782
 30
0.0
 10
2231.5566
 20
576.782
 30
0.0
 10
2231.5566
 20
576.782
 30
0.0
  0
SPLINE
  5
96
330
1F
100
AcDbEntity
  8
0
 62
   242
370
     9
100
AcDbSpline
210
0.0
220
0.0
230
1.0
 70
    11
 71
     3
 72
    29
 73
    25
 74
     0
 42
0.0000000001
 43
0.0000000001
 40
0.0
 40
0.0
 40
0.0
 40
0.0
 40
0.125
 40
0.125
 40
0.125
 40
0.25
 40
0.25
 40
0.25
 40
0.375
 40
0.375
 40
0.375
 40
0.5
 40
0.5
 40
0.5
 40
0.625
 40
0.625
 40
0.625
 40
0.75
 40
0.75
 40
0.75
 40
0.875
 40
0.875
 40
0.875
 40
1.0
 40
1.0
 40
1.0
 40
1.0
 10
2232.5125
 20
785.6991
 30
0.0
 10
2232.5125
 20
785.6991
 30
0.0
 10
2231.3191
 20
787.3305
 30
0.0
 10
2231.3191
 20
787.3305
 30
0.0
 10
2231.3191
 20
787.3305
 30
0.0
 10
2227.0426
 20
787.3305
 30
0.0
 10
2227.0426
 20
787.3305
 30
0.0
 10
2227.0426
 20
787.3305
 30
0.0
 10
2225.8487
 20
785.6991
 30
0.0
 10
2225.8487
 20
785.6991
 30
0.0
 10
2225.8487
 20
785.6991
 30
0.0
 10
2225.658
 20
785.9603
 30
0.0
 10
2225.658
 20
785.9603
 30
0.0
 10
2225.658
 20
785.9603
 30
0.0
 10
2226.931
 20
787.6991
 30
0.0
 10
2226.931
 20
787.6991
 30
0.0
 10
2226.931
 20
787.6991
 30
0.0
 10
2231.4307
 20
787.6991
 30
0.0
 10
2231.4307
 20
787.6991
 30
0.0
 10
2231.4307
 20
787.6991
 30
0.0
 10
2232.7036
 20
785.9603
 30
0.0
 10
2232.7036
 20
785.9603
 30
0.0
 10
2232.7036
 20
785.9603
 30
0.0
 10
2232.5125
 20
785.6991
 30
0.0
 10
2232.5125
 20
785.6991
 30
0.0
  0
SPLINE
  5
97
330
1F
100
AcDbEntity
  8
0
 62
   242
370
     9
100
AcDbSpline
210
0.0
220
0.0
230
1.0
 70
    11
 71
     3
 72
    29
 73
    25
 74
     0
 42
0.0000000001
 43
0.0000000001
 40
0.0
 40
0.0
 40
0.0
 40
0.0
 40
0.125
 40
0.125
 40
0.125
 40
0.25
 40
0.25
 40
0.25
 40
0.375
 40
0.375
 40
0.375
 40
0.5
 40
0.5
 40
0.5
 40
0.625
 40
0.625
 40
0.625
 40
0.75
 40
0.75
 40
0.75
 40
0.875
 40
0.875
 40
0.875
 40
1.0
 40
1.0
 40
1.0
 40
1.0
 10
2271.2125
 20
785.6991
 30
0.0
 10
2271.2125
 20
785.6991
 30
0.0
 10
2270.0191
 20
787.3305
 30
0.0
 10
2270.0191
 20
787.3305
 30
0.0
 10
2270.0191
 20
787.3305
 30
0.0
 10
2265.7426
 20
787.3305
 30
0.0
 10
2265.7426
 20
787.3305
 30
0.0
 10
2265.7426
 20
787.3305
 30
0.0
 10
2264.5487
 20
785.6991
 30
0.0
 10
2264.5487
 20
785.6991
 30
0.0
 10
2264.5487
 20
785.6991
 30
0.0
 10
2264.358
 20
785.9603
 30
0.0
 10
2264.358
 20
785.9603
 30
0.0
 10
2264.358
 20
785.9603
 30
0.0
 10
2265.631
 20
787.6991
 30
0.0
 10
2265.631
 20
787.6991
 30
0.0
 10
2265.631
 20
787.6991
 30
0.0
 10
2270.1307
 20
787.6991
 30
0.0
 10
2270.1307
 20
787.6991
 30
0.0
 10
2270.1307
 20
787.6991
 30
0.0
 10
2271.4036
 20
785.9603
 30
0.0
 10
2271.4036
 20
785.9603
 30
0.0
 10
2271.4036
 20
785.9603
 30
0.0
 10
2271.2125
 20
785.6991
 30
0.0
 10
2271.2125
 20
785.6991
 30
0.0
  0
SPLINE
  5
98
330
1F
100
AcDbEntity
  8
0
 62
   242
370
     9
100
AcDbSpline
210
0.0
220
0.0
230
1.0
 70
    11
 71
     3
 72
   767
 73
   763
 74
     0
 42
0.0000000001
 43
0.0000000001
 40
0.0
 40
0.0
 40
0.0
 40
0.0
 40
0.0039370078740157
 40
0.0039370078740157
 40
0.0039370078740157
 40
0.0078740157480315
 40
0.0078740157480315
 40
0.0078740157480315
 40
0.0118110236220472
 40
0.0118110236220472
 40
0.0118110236220472
 40
0.015748031496063
 40
0.015748031496063
 40
0.015748031496063
 40
0.0196850393700787
 40
0.0196850393700787
 40
0.0196850393700787
 40
0.0236220472440945
 40
0.0236220472440945
 40
0.0236220472440945
 40
0.0275590551181102
 40
0.0275590551181102
 40
0.0275590551181102
 40
0.031496062992126
 40
0.031496062992126
 40
0.031496062992126
 40
0.0354330708661417
 40
0.0354330708661417
 40
0.0354330708661417
 40
0.0393700787401575
 40
0.0393700787401575
 40
0.0393700787401575
 40
0.0433070866141732
 40
0.0433070866141732
 40
0.0433070866141732
 40
0.047244094488189
 40
0.047244094488189
 40
0.047244094488189
 40
0.0511811023622047
 40
0.0511811023622047
 40
0.0511811023622047
 40
0.0551181102362205
 40
0.0551181102362205
 40
0.0551181102362205
 40
0.0590551181102362
 40
0.0590551181102362
 40
0.0590551181102362
 40
0.062992125984252
 40
0.062992125984252
 40
0.062992125984252
 40
0.0669291338582677
 40
0.0669291338582677
 40
0.0669291338582677
 40
0.0708661417322835
 40
0.0708661417322835
 40
0.0708661417322835
 40
0.0748031496062992
 40
0.0748031496062992
 40
0.0748031496062992
 40
0.078740157480315
 40
0.078740157480315
 40
0.078740157480315
 40
0.0826771653543307
 40
0.0826771653543307
 40
0.0826771653543307
 40
0.0866141732283465
 40
0.0866141732283465
 40
0.0866141732283465
 40
0.0905511811023622
 40
0.0905511811023622
 40
0.0905511811023622
 40
0.094488188976378
 40
0.094488188976378
 40
0.094488188976378
 40
0.0984251968503937
 40
0.0984251968503937
 40
0.0984251968503937
 40
0.1023622047244094
 40
0.1023622047244094
 40
0.1023622047244094
 40
0.1062992125984252
 40
0.1062992125984252
 40
0.1062992125984252
 40
0.1102362204724409
 40
0.1102362204724409
 40
0.1102362204724409
 40
0.1141732283464567
 40
0.1141732283464567
 40
0.1141732283464567
 40
0.1181102362204724
 40
0.1181102362204724
 40
0.1181102362204724
 40
0.1220472440944882
 40
0.1220472440944882
 40
0.1220472440944882
 40
0.1259842519685039
 40
0.1259842519685039
 40
0.1259842519685039
 40
0.1299212598425197
 40
0.1299212598425197
 40
0.1299212598425197
 40
0.1338582677165354
 40
0.1338582677165354
 40
0.1338582677165354
 40
0.1377952755905512
 40
0.1377952755905512
 40
0.1377952755905512
 40
0.1417322834645669
 40
0.1417322834645669
 40
0.1417322834645669
 40
0.1456692913385827
 40
0.1456692913385827
 40
0.1456692913385827
 40
0.1496062992125984
 40
0.1496062992125984
 40
0.1496062992125984
 40
0.1535433070866142
 40
0.1535433070866142
 40
0.1535433070866142
 40
0.1574803149606299
 40
0.1574803149606299
 40
0.1574803149606299
 40
0.1614173228346457
 40
0.1614173228346457
 40
0.1614173228346457
 40
0.1653543307086614
 40
0.1653543307086614
 40
0.1653543307086614
 40
0.1692913385826772
 40
0.1692913385826772
 40
0.1692913385826772
 40
0.1732283464566929
 40
0.1732283464566929
 40
0.1732283464566929
 40
0.1771653543307087
 40
0.1771653543307087
 40
0.1771653543307087
 40
0.1811023622047244
 40
0.1811023622047244
 40
0.1811023622047244
 40
0.1850393700787402
 40
0.1850393700787402
 40
0.1850393700787402
 40
0.1889763779527559
 40
0.1889763779527559
 40
0.1889763779527559
 40
0.1929133858267716
 40
0.1929133858267716
 40
0.1929133858267716
 40
0.1968503937007874
 40
0.1968503937007874
 40
0.1968503937007874
 40
0.2007874015748032
 40
0.2007874015748032
 40
0.2007874015748032
 40
0.2047244094488189
 40
0.2047244094488189
 40
0.2047244094488189
 40
0.2086614173228346
 40
0.2086614173228346
 40
0.2086614173228346
 40
0.2125984251968504
 40
0.2125984251968504
 40
0.2125984251968504
 40
0.2165354330708661
 40
0.2165354330708661
 40
0.2165354330708661
 40
0.2204724409448819
 40
0.2204724409448819
 40
0.2204724409448819
 40
0.2244094488188976
 40
0.2244094488188976
 40
0.2244094488188976
 40
0.2283464566929134
 40
0.2283464566929134
 40
0.2283464566929134
 40
0.2322834645669291
 40
0.2322834645669291
 40
0.2322834645669291
 40
0.2362204724409449
 40
0.2362204724409449
 40
0.2362204724409449
 40
0.2401574803149606
 40
0.2401574803149606
 40
0.2401574803149606
 40
0.2440944881889764
 40
0.2440944881889764
 40
0.2440944881889764
 40
0.2480314960629921
 40
0.2480314960629921
 40
0.2480314960629921
 40
0.2519685039370079
 40
0.2519685039370079
 40
0.2519685039370079
 40
0.2559055118110236
 40
0.2559055118110236
 40
0.2559055118110236
 40
0.2598425196850394
 40
0.2598425196850394
 40
0.2598425196850394
 40
0.2637795275590551
 40
0.2637795275590551
 40
0.2637795275590551
 40
0.2677165354330708
 40
0.2677165354330708
 40
0.2677165354330708
 40
0.2716535433070866
 40
0.2716535433070866
 40
0.2716535433070866
 40
0.2755905511811024
 40
0.2755905511811024
 40
0.2755905511811024
 40
0.2795275590551181
 40
0.2795275590551181
 40
0.2795275590551181
 40
0.2834645669291339
 40
0.2834645669291339
 40
0.2834645669291339
 40
0.2874015748031496
 40
0.2874015748031496
 40
0.2874015748031496
 40
0.2913385826771653
 40
0.2913385826771653
 40
0.2913385826771653
 40
0.2952755905511811
 40
0.2952755905511811
 40
0.2952755905511811
 40
0.2992125984251969
 40
0.2992125984251969
 40
0.2992125984251969
 40
0.3031496062992126
 40
0.3031496062992126
 40
0.3031496062992126
 40
0.3070866141732284
 40
0.3070866141732284
 40
0.3070866141732284
 40
0.3110236220472441
 40
0.3110236220472441
 40
0.3110236220472441
 40
0.3149606299212598
 40
0.3149606299212598
 40
0.3149606299212598
 40
0.3188976377952756
 40
0.3188976377952756
 40
0.3188976377952756
 40
0.3228346456692913
 40
0.3228346456692913
 40
0.3228346456692913
 40
0.3267716535433071
 40
0.3267716535433071
 40
0.3267716535433071
 40
0.3307086614173228
 40
0.3307086614173228
 40
0.3307086614173228
 40
0.3346456692913386
 40
0.3346456692913386
 40
0.3346456692913386
 40
0.3385826771653543
 40
0.3385826771653543
 40
0.3385826771653543
 40
0.3425196850393701
 40
0.3425196850393701
 40
0.3425196850393701
 40
0.3464566929133858
 40
0.3464566929133858
 40
0.3464566929133858
 40
0.3503937007874016
 40
0.3503937007874016
 40
0.3503937007874016
 40
0.3543307086614173
 40
0.3543307086614173
 40
0.3543307086614173
 40
0.358267716535433
 40
0.358267716535433
 40
0.358267716535433
 40
0.3622047244094488
 40
0.3622047244094488
 40
0.3622047244094488
 40
0.3661417322834646
 40
0.3661417322834646
 40
0.3661417322834646
 40
0.3700787401574803
 40
0.3700787401574803
 40
0.3700787401574803
 40
0.3740157480314961
 40
0.3740157480314961
 40
0.3740157480314961
 40
0.3779527559055118
 40
0.3779527559055118
 40
0.3779527559055118
 40
0.3818897637795275
 40
0.3818897637795275
 40
0.3818897637795275
 40
0.3858267716535433
 40
0.3858267716535433
 40
0.3858267716535433
 40
0.389763779527559
 40
0.389763779527559
 40
0.389763779527559
 40
0.3937007874015748
 40
0.3937007874015748
 40
0.3937007874015748
 40
0.3976377952755906
 40
0.3976377952755906
 40
0.3976377952755906
 40
0.4015748031496063
 40
0.4015748031496063
 40
0.4015748031496063
 40
0.405511811023622
 40
0.405511811023622
 40
0.405511811023622
 40
0.4094488188976378
 40
0.4094488188976378
 40
0.4094488188976378
 40
0.4133858267716535
 40
0.4133858267716535
 40
0.4133858267716535
 40
0.4173228346456693
 40
0.4173228346456693
 40
0.4173228346456693
 40
0.421259842519685
 40
0.421259842519685
 40
0.421259842519685
 40
0.4251968503937008
 40
0.4251968503937008
 40
0.4251968503937008
 40
0.4291338582677166
 40
0.4291338582677166
 40
0.4291338582677166
 40
0.4330708661417323
 40
0.4330708661417323
 40
0.4330708661417323
 40
0.437007874015748
 40
0.437007874015748
 40
0.437007874015748
 40
0.4409448818897638
 40
0.4409448818897638
 40
0.4409448818897638
 40
0.4448818897637795
 40
0.4448818897637795
 40
0.4448818897637795
 40
0.4488188976377953
 40
0.4488188976377953
 40
0.4488188976377953
 40
0.452755905511811
 40
0.452755905511811
 40
0.452755905511811
 40
0.4566929133858267
 40
0.4566929133858267
 40
0.4566929133858267
 40
0.4606299212598425
 40
0.4606299212598425
 40
0.4606299212598425
 40
0.4645669291338583
 40
0.4645669291338583
 40
0.4645669291338583
 40
0.468503937007874
 40
0.468503937007874
 40
0.468503937007874
 40
0.4724409448818898
 40
0.4724409448818898
 40
0.4724409448818898
 40
0.4763779527559055
 40
0.4763779527559055
 40
0.4763779527559055
 40
0.4803149606299212
 40
0.4803149606299212
 40
0.4803149606299212
 40
0.484251968503937
 40
0.484251968503937
 40
0.484251968503937
 40
0.4881889763779528
 40
0.4881889763779528
 40
0.4881889763779528
 40
0.4921259842519685
 40
0.4921259842519685
 40
0.4921259842519685
 40
0.4960629921259843
 40
0.4960629921259843
 40
0.4960629921259843
 40
0.5
 40
0.5
 40
0.5
 40
0.5039370078740157
 40
0.5039370078740157
 40
0.5039370078740157
 40
0.5078740157480315
 40
0.5078740157480315
 40
0.5078740157480315
 40
0.5118110236220472
 40
0.5118110236220472
 40
0.5118110236220472
 40
0.515748031496063
 40
0.515748031496063
 40
0.515748031496063
 40
0.5196850393700787
 40
0.5196850393700787
 40
0.5196850393700787
 40
0.5236220472440944
 40
0.5236220472440944
 40
0.5236220472440944
 40
0.5275590551181102
 40
0.5275590551181102
 40
0.5275590551181102
 40
0.5314960629921259
 40
0.5314960629921259
 40
0.5314960629921259
 40
0.5354330708661417
 40
0.5354330708661417
 40
0.5354330708661417
 40
0.5393700787401575
 40
0.5393700787401575
 40
0.5393700787401575
 40
0.5433070866141733
 40
0.5433070866141733
 40
0.5433070866141733
 40
0.547244094488189
 40
0.547244094488189
 40
0.547244094488189
 40
0.5511811023622047
 40
0.5511811023622047
 40
0.5511811023622047
 40
0.5551181102362205
 40
0.5551181102362205
 40
0.5551181102362205
 40
0.5590551181102362
 40
0.5590551181102362
 40
0.5590551181102362
 40
0.562992125984252
 40
0.562992125984252
 40
0.562992125984252
 40
0.5669291338582677
 40
0.5669291338582677
 40
0.5669291338582677
 40
0.5708661417322834
 40
0.5708661417322834
 40
0.5708661417322834
 40
0.5748031496062992
 40
0.5748031496062992
 40
0.5748031496062992
 40
0.5787401574803149
 40
0.5787401574803149
 40
0.5787401574803149
 40
0.5826771653543307
 40
0.5826771653543307
 40
0.5826771653543307
 40
0.5866141732283464
 40
0.5866141732283464
 40
0.5866141732283464
 40
0.5905511811023622
 40
0.5905511811023622
 40
0.5905511811023622
 40
0.5944881889763779
 40
0.5944881889763779
 40
0.5944881889763779
 40
0.5984251968503937
 40
0.5984251968503937
 40
0.5984251968503937
 40
0.6023622047244095
 40
0.6023622047244095
 40
0.6023622047244095
 40
0.6062992125984252
 40
0.6062992125984252
 40
0.6062992125984252
 40
0.610236220472441
 40
0.610236220472441
 40
0.610236220472441
 40
0.6141732283464567
 40
0.6141732283464567
 40
0.6141732283464567
 40
0.6181102362204725
 40
0.6181102362204725
 40
0.6181102362204725
 40
0.6220472440944882
 40
0.6220472440944882
 40
0.6220472440944882
 40
0.6259842519685039
 40
0.6259842519685039
 40
0.6259842519685039
 40
0.6299212598425197
 40
0.6299212598425197
 40
0.6299212598425197
 40
0.6338582677165354
 40
0.6338582677165354
 40
0.6338582677165354
 40
0.6377952755905512
 40
0.6377952755905512
 40
0.6377952755905512
 40
0.6417322834645669
 40
0.6417322834645669
 40
0.6417322834645669
 40
0.6456692913385826
 40
0.6456692913385826
 40
0.6456692913385826
 40
0.6496062992125984
 40
0.6496062992125984
 40
0.6496062992125984
 40
0.6535433070866141
 40
0.6535433070866141
 40
0.6535433070866141
 40
0.6574803149606299
 40
0.6574803149606299
 40
0.6574803149606299
 40
0.6614173228346456
 40
0.6614173228346456
 40
0.6614173228346456
 40
0.6653543307086615
 40
0.6653543307086615
 40
0.6653543307086615
 40
0.6692913385826772
 40
0.6692913385826772
 40
0.6692913385826772
 40
0.6732283464566929
 40
0.6732283464566929
 40
0.6732283464566929
 40
0.6771653543307087
 40
0.6771653543307087
 40
0.6771653543307087
 40
0.6811023622047244
 40
0.6811023622047244
 40
0.6811023622047244
 40
0.6850393700787402
 40
0.6850393700787402
 40
0.6850393700787402
 40
0.6889763779527559
 40
0.6889763779527559
 40
0.6889763779527559
 40
0.6929133858267716
 40
0.6929133858267716
 40
0.6929133858267716
 40
0.6968503937007874
 40
0.6968503937007874
 40
0.6968503937007874
 40
0.7007874015748031
 40
0.7007874015748031
 40
0.7007874015748031
 40
0.7047244094488189
 40
0.7047244094488189
 40
0.7047244094488189
 40
0.7086614173228346
 40
0.7086614173228346
 40
0.7086614173228346
 40
0.7125984251968503
 40
0.7125984251968503
 40
0.7125984251968503
 40
0.7165354330708661
 40
0.7165354330708661
 40
0.7165354330708661
 40
0.7204724409448818
 40
0.7204724409448818
 40
0.7204724409448818
 40
0.7244094488188977
 40
0.7244094488188977
 40
0.7244094488188977
 40
0.7283464566929134
 40
0.7283464566929134
 40
0.7283464566929134
 40
0.7322834645669292
 40
0.7322834645669292
 40
0.7322834645669292
 40
0.7362204724409449
 40
0.7362204724409449
 40
0.7362204724409449
 40
0.7401574803149606
 40
0.7401574803149606
 40
0.7401574803149606
 40
0.7440944881889764
 40
0.7440944881889764
 40
0.7440944881889764
 40
0.7480314960629921
 40
0.7480314960629921
 40
0.7480314960629921
 40
0.7519685039370079
 40
0.7519685039370079
 40
0.7519685039370079
 40
0.7559055118110236
 40
0.7559055118110236
 40
0.7559055118110236
 40
0.7598425196850394
 40
0.7598425196850394
 40
0.7598425196850394
 40
0.7637795275590551
 40
0.7637795275590551
 40
0.7637795275590551
 40
0.7677165354330708
 40
0.7677165354330708
 40
0.7677165354330708
 40
0.7716535433070866
 40
0.7716535433070866
 40
0.7716535433070866
 40
0.7755905511811023
 40
0.7755905511811023
 40
0.7755905511811023
 40
0.7795275590551181
 40
0.7795275590551181
 40
0.7795275590551181
 40
0.7834645669291338
 40
0.7834645669291338
 40
0.7834645669291338
 40
0.7874015748031495
 40
0.7874015748031495
 40
0.7874015748031495
 40
0.7913385826771654
 40
0.7913385826771654
 40
0.7913385826771654
 40
0.7952755905511811
 40
0.7952755905511811
 40
0.7952755905511811
 40
0.7992125984251969
 40
0.7992125984251969
 40
0.7992125984251969
 40
0.8031496062992126
 40
0.8031496062992126
 40
0.8031496062992126
 40
0.8070866141732284
 40
0.8070866141732284
 40
0.8070866141732284
 40
0.8110236220472441
 40
0.8110236220472441
 40
0.8110236220472441
 40
0.8149606299212598
 40
0.8149606299212598
 40
0.8149606299212598
 40
0.8188976377952756
 40
0.8188976377952756
 40
0.8188976377952756
 40
0.8228346456692913
 40
0.8228346456692913
 40
0.8228346456692913
 40
0.8267716535433071
 40
0.8267716535433071
 40
0.8267716535433071
 40
0.8307086614173228
 40
0.8307086614173228
 40
0.8307086614173228
 40
0.8346456692913385
 40
0.8346456692913385
 40
0.8346456692913385
 40
0.8385826771653543
 40
0.8385826771653543
 40
0.8385826771653543
 40
0.84251968503937
 40
0.84251968503937
 40
0.84251968503937
 40
0.8464566929133858
 40
0.8464566929133858
 40
0.8464566929133858
 40
0.8503937007874016
 40
0.8503937007874016
 40
0.8503937007874016
 40
0.8543307086614174
 40
0.8543307086614174
 40
0.8543307086614174
 40
0.8582677165354331
 40
0.8582677165354331
 40
0.8582677165354331
 40
0.8622047244094488
 40
0.8622047244094488
 40
0.8622047244094488
 40
0.8661417322834646
 40
0.8661417322834646
 40
0.8661417322834646
 40
0.8700787401574803
 40
0.8700787401574803
 40
0.8700787401574803
 40
0.8740157480314961
 40
0.8740157480314961
 40
0.8740157480314961
 40
0.8779527559055118
 40
0.8779527559055118
 40
0.8779527559055118
 40
0.8818897637795275
 40
0.8818897637795275
 40
0.8818897637795275
 40
0.8858267716535433
 40
0.8858267716535433
 40
0.8858267716535433
 40
0.889763779527559
 40
0.889763779527559
 40
0.889763779527559
 40
0.8937007874015748
 40
0.8937007874015748
 40
0.8937007874015748
 40
0.8976377952755905
 40
0.8976377952755905
 40
0.8976377952755905
 40
0.9015748031496063
 40
0.9015748031496063
 40
0.9015748031496063
 40
0.905511811023622
 40
0.905511811023622
 40
0.905511811023622
 40
0.9094488188976377
 40
0.9094488188976377
 40
0.9094488188976377
 40
0.9133858267716535
 40
0.9133858267716535
 40
0.9133858267716535
 40
0.9173228346456693
 40
0.9173228346456693
 40
0.9173228346456693
 40
0.9212598425196851
 40
0.9212598425196851
 40
0.9212598425196851
 40
0.9251968503937008
 40
0.9251968503937008
 40
0.9251968503937008
 40
0.9291338582677166
 40
0.9291338582677166
 40
0.9291338582677166
 40
0.9330708661417323
 40
0.9330708661417323
 40
0.9330708661417323
 40
0.937007874015748
 40
0.937007874015748
 40
0.937007874015748
 40
0.9409448818897638
 40
0.9409448818897638
 40
0.9409448818897638
 40
0.9448818897637795
 40
0.9448818897637795
 40
0.9448818897637795
 40
0.9488188976377953
 40
0.9488188976377953
 40
0.9488188976377953
 40
0.952755905511811
 40
0.952755905511811
 40
0.952755905511811
 40
0.9566929133858267
 40
0.9566929133858267
 40
0.9566929133858267
 40
0.9606299212598425
 40
0.9606299212598425
 40
0.9606299212598425
 40
0.9645669291338582
 40
0.9645669291338582
 40
0.9645669291338582
 40
0.968503937007874
 40
0.968503937007874
 40
0.968503937007874
 40
0.9724409448818897
 40
0.9724409448818897
 40
0.9724409448818897
 40
0.9763779527559056
 40
0.9763779527559056
 40
0.9763779527559056
 40
0.9803149606299213
 40
0.9803149606299213
 40
0.9803149606299213
 40
0.984251968503937
 40
0.984251968503937
 40
0.984251968503937
 40
0.9881889763779528
 40
0.9881889763779528
 40
0.9881889763779528
 40
0.9921259842519685
 40
0.9921259842519685
 40
0.9921259842519685
 40
0.9960629921259843
 40
0.9960629921259843
 40
0.9960629921259843
 40
1.0
 40
1.0
 40
1.0
 40
1.0
 10
1966.0712
 20
478.949
 30
0.0
 10
1966.0712
 20
478.949
 30
0.0
 10
1954.8337
 20
483.1592
 30
0.0
 10
1954.8337
 20
483.1592
 30
0.0
 10
1957.4276
 20
482.1874
 30
0.0
 10
1960.2985
 20
483.4934
 30
0.0
 10
1961.2704
 20
486.0873
 30
0.0
 10
1961.2704
 20
486.0873
 30
0.0
 10
1972.4976
 20
516.0533
 30
0.0
 10
1972.4976
 20
516.0533
 30
0.0
 10
1973.4695
 20
518.6472
 30
0.0
 10
1972.1633
 20
521.5176
 30
0.0
 10
1969.5694
 20
522.4895
 30
0.0
 10
1969.5694
 20
522.4895
 30
0.0
 10
1967.6966
 20
523.1912
 30
0.0
 10
1967.6966
 20
523.1912
 30
0.0
 10
1967.6966
 20
523.1912
 30
0.0
 10
1967.8743
 20
523.6654
 30
0.0
 10
1967.8743
 20
523.6654
 30
0.0
 10
1969.2151
 20
523.6658
 30
0.0
 10
1970.1676
 20
524.0972
 30
0.0
 10
1970.4466
 20
524.8307
 30
0.0
 10
1970.6793
 20
525.4515
 30
0.0
 10
1970.4091
 20
526.2319
 30
0.0
 10
1969.6955
 20
526.9999
 30
0.0
 10
1968.9818
 20
527.768
 30
0.0
 10
1967.8832
 20
528.4609
 30
0.0
 10
1966.6412
 20
528.9257
 30
0.0
 10
1965.3994
 20
529.3908
 30
0.0
 10
1964.116
 20
529.5904
 30
0.0
 10
1963.0735
 20
529.4803
 30
0.0
 10
1962.031
 20
529.3702
 30
0.0
 10
1961.3147
 20
528.9595
 30
0.0
 10
1961.0822
 20
528.3386
 30
0.0
 10
1960.8101
 20
527.6024
 30
0.0
 10
1961.2445
 20
526.6511
 30
0.0
 10
1962.2552
 20
525.7696
 30
0.0
 10
1962.2552
 20
525.7696
 30
0.0
 10
1962.0777
 20
525.2958
 30
0.0
 10
1962.0777
 20
525.2958
 30
0.0
 10
1962.0777
 20
525.2958
 30
0.0
 10
1960.205
 20
525.9975
 30
0.0
 10
1960.205
 20
525.9975
 30
0.0
 10
1957.6111
 20
526.9693
 30
0.0
 10
1954.7408
 20
525.6637
 30
0.0
 10
1953.769
 20
523.0697
 30
0.0
 10
1953.769
 20
523.0697
 30
0.0
 10
1942.5417
 20
493.1037
 30
0.0
 10
1942.5417
 20
493.1037
 30
0.0
 10
1941.5699
 20
490.5098
 30
0.0
 10
1942.8754
 20
487.6391
 30
0.0
 10
1945.4693
 20
486.6672
 30
0.0
 10
1945.4693
 20
486.6672
 30
0.0
 10
1934.2323
 20
490.8774
 30
0.0
 10
1934.2323
 20
490.8774
 30
0.0
 10
1936.8262
 20
489.9055
 30
0.0
 10
1939.6967
 20
491.2116
 30
0.0
 10
1940.6685
 20
493.8056
 30
0.0
 10
1940.6685
 20
493.8056
 30
0.0
 10
1951.1939
 20
521.8983
 30
0.0
 10
1951.1939
 20
521.8983
 30
0.0
 10
1952.1658
 20
524.4923
 30
0.0
 10
1950.8603
 20
527.363
 30
0.0
 10
1948.2663
 20
528.3348
 30
0.0
 10
1948.2663
 20
528.3348
 30
0.0
 10
1946.3936
 20
529.0365
 30
0.0
 10
1946.3936
 20
529.0365
 30
0.0
 10
1946.3936
 20
529.0365
 30
0.0
 10
1946.5712
 20
529.5107
 30
0.0
 10
1946.5712
 20
529.5107
 30
0.0
 10
1947.9121
 20
529.5111
 30
0.0
 10
1948.8645
 20
529.9425
 30
0.0
 10
1949.1435
 20
530.676
 30
0.0
 10
1949.3762
 20
531.2968
 30
0.0
 10
1949.106
 20
532.0772
 30
0.0
 10
1948.3924
 20
532.8452
 30
0.0
 10
1947.6787
 20
533.6133
 30
0.0
 10
1946.5801
 20
534.3062
 30
0.0
 10
1945.3383
 20
534.7715
 30
0.0
 10
1944.0965
 20
535.2366
 30
0.0
 10
1942.8131
 20
535.4362
 30
0.0
 10
1941.7706
 20
535.3261
 30
0.0
 10
1940.7281
 20
535.216
 30
0.0
 10
1940.0118
 20
534.8053
 30
0.0
 10
1939.7793
 20
534.1844
 30
0.0
 10
1939.5073
 20
533.4482
 30
0.0
 10
1939.9416
 20
532.4969
 30
0.0
 10
1940.9524
 20
531.6154
 30
0.0
 10
1940.9524
 20
531.6154
 30
0.0
 10
1940.7749
 20
531.1416
 30
0.0
 10
1940.7749
 20
531.1416
 30
0.0
 10
1940.7749
 20
531.1416
 30
0.0
 10
1938.9021
 20
531.8433
 30
0.0
 10
1938.9021
 20
531.8433
 30
0.0
 10
1936.3082
 20
532.8151
 30
0.0
 10
1933.4373
 20
531.5092
 30
0.0
 10
1932.4654
 20
528.9152
 30
0.0
 10
1932.4654
 20
528.9152
 30
0.0
 10
1921.94
 20
500.8225
 30
0.0
 10
1921.94
 20
500.8225
 30
0.0
 10
1920.9682
 20
498.2286
 30
0.0
 10
1922.2742
 20
495.3577
 30
0.0
 10
1924.8681
 20
494.3858
 30
0.0
 10
1924.8681
 20
494.3858
 30
0.0
 10
1908.0118
 20
500.7013
 30
0.0
 10
1908.0118
 20
500.7013
 30
0.0
 10
1910.6058
 20
499.7294
 30
0.0
 10
1913.4766
 20
501.0354
 30
0.0
 10
1914.4485
 20
503.6293
 30
0.0
 10
1914.4485
 20
503.6293
 30
0.0
 10
1920.7638
 20
520.4851
 30
0.0
 10
1920.7638
 20
520.4851
 30
0.0
 10
1921.7356
 20
523.079
 30
0.0
 10
1920.4297
 20
525.9499
 30
0.0
 10
1917.8357
 20
526.9217
 30
0.0
 10
1917.8357
 20
526.9217
 30
0.0
 10
1915.963
 20
527.6234
 30
0.0
 10
1915.963
 20
527.6234
 30
0.0
 10
1915.963
 20
527.6234
 30
0.0
 10
1916.1406
 20
528.0976
 30
0.0
 10
1916.1406
 20
528.0976
 30
0.0
 10
1917.4815
 20
528.098
 30
0.0
 10
1918.4339
 20
528.5295
 30
0.0
 10
1918.7129
 20
529.2629
 30
0.0
 10
1918.9456
 20
529.8838
 30
0.0
 10
1918.6754
 20
530.6641
 30
0.0
 10
1917.9619
 20
531.4322
 30
0.0
 10
1917.2482
 20
532.2002
 30
0.0
 10
1916.1496
 20
532.8931
 30
0.0
 10
1914.9077
 20
533.3584
 30
0.0
 10
1913.6659
 20
533.8237
 30
0.0
 10
1912.3826
 20
534.0231
 30
0.0
 10
1911.3401
 20
533.913
 30
0.0
 10
1910.2975
 20
533.8029
 30
0.0
 10
1909.5812
 20
533.3923
 30
0.0
 10
1909.3487
 20
532.7714
 30
0.0
 10
1909.0767
 20
532.0352
 30
0.0
 10
1909.511
 20
531.0838
 30
0.0
 10
1910.5218
 20
530.2023
 30
0.0
 10
1910.5218
 20
530.2023
 30
0.0
 10
1910.3443
 20
529.7285
 30
0.0
 10
1910.3443
 20
529.7285
 30
0.0
 10
1910.3443
 20
529.7285
 30
0.0
 10
1908.4715
 20
530.4302
 30
0.0
 10
1908.4715
 20
530.4302
 30
0.0
 10
1905.8776
 20
531.402
 30
0.0
 10
1903.0072
 20
530.0959
 30
0.0
 10
1902.0353
 20
527.502
 30
0.0
 10
1902.0353
 20
527.502
 30
0.0
 10
1895.72
 20
510.6462
 30
0.0
 10
1895.72
 20
510.6462
 30
0.0
 10
1894.7482
 20
508.0523
 30
0.0
 10
1896.0537
 20
505.1816
 30
0.0
 10
1898.6476
 20
504.2097
 30
0.0
 10
1898.6476
 20
504.2097
 30
0.0
 10
1870.5549
 20
514.7351
 30
0.0
 10
1870.5549
 20
514.7351
 30
0.0
 10
1873.1488
 20
513.7632
 30
0.0
 10
1876.0193
 20
515.0694
 30
0.0
 10
1876.9911
 20
517.6633
 30
0.0
 10
1876.9911
 20
517.6633
 30
0.0
 10
1878.3944
 20
521.4088
 30
0.0
 10
1878.3944
 20
521.4088
 30
0.0
 10
1879.3663
 20
524.0027
 30
0.0
 10
1878.0608
 20
526.8735
 30
0.0
 10
1875.4669
 20
527.8453
 30
0.0
 10
1875.4669
 20
527.8453
 30
0.0
 10
1873.5941
 20
528.547
 30
0.0
 10
1873.5941
 20
528.547
 30
0.0
 10
1873.5941
 20
528.547
 30
0.0
 10
1873.7718
 20
529.0212
 30
0.0
 10
1873.7718
 20
529.0212
 30
0.0
 10
1875.1127
 20
529.0217
 30
0.0
 10
1876.0651
 20
529.4531
 30
0.0
 10
1876.344
 20
530.1865
 30
0.0
 10
1876.5768
 20
530.8074
 30
0.0
 10
1876.3066
 20
531.5877
 30
0.0
 10
1875.593
 20
532.3558
 30
0.0
 10
1874.8794
 20
533.1239
 30
0.0
 10
1873.7808
 20
533.8168
 30
0.0
 10
1872.5389
 20
534.282
 30
0.0
 10
1871.297
 20
534.7472
 30
0.0
 10
1870.0137
 20
534.9468
 30
0.0
 10
1868.9712
 20
534.8367
 30
0.0
 10
1867.9287
 20
534.7265
 30
0.0
 10
1867.2123
 20
534.3158
 30
0.0
 10
1866.9798
 20
533.6949
 30
0.0
 10
1866.7078
 20
532.9588
 30
0.0
 10
1867.1422
 20
532.0074
 30
0.0
 10
1868.1529
 20
531.1258
 30
0.0
 10
1868.1529
 20
531.1258
 30
0.0
 10
1867.9754
 20
530.6521
 30
0.0
 10
1867.9754
 20
530.6521
 30
0.0
 10
1867.9754
 20
530.6521
 30
0.0
 10
1866.1022
 20
531.3539
 30
0.0
 10
1866.1022
 20
531.3539
 30
0.0
 10
1863.5083
 20
532.3258
 30
0.0
 10
1860.6378
 20
531.0197
 30
0.0
 10
1859.666
 20
528.4257
 30
0.0
 10
1859.666
 20
528.4257
 30
0.0
 10
1858.2627
 20
524.6802
 30
0.0
 10
1858.2627
 20
524.6802
 30
0.0
 10
1857.2908
 20
522.0863
 30
0.0
 10
1858.5963
 20
519.2156
 30
0.0
 10
1861.1902
 20
518.2437
 30
0.0
 10
1861.1902
 20
518.2437
 30
0.0
 10
1847.1441
 20
523.5063
 30
0.0
 10
1847.1441
 20
523.5063
 30
0.0
 10
1848.116
 20
526.1002
 30
0.0
 10
1846.8098
 20
528.9706
 30
0.0
 10
1844.2159
 20
529.9425
 30
0.0
 10
1844.2159
 20
529.9425
 30
0.0
 10
1816.1231
 20
540.4679
 30
0.0
 10
1816.1231
 20
540.4679
 30
0.0
 10
1813.5294
 20
541.4402
 30
0.0
 10
1810.6587
 20
540.1347
 30
0.0
 10
1809.6868
 20
537.5408
 30
0.0
 10
1809.6868
 20
537.5408
 30
0.0
 10
1802.6698
 20
518.8119
 30
0.0
 10
1802.6698
 20
518.8119
 30
0.0
 10
1801.6979
 20
516.218
 30
0.0
 10
1803.004
 20
513.3475
 30
0.0
 10
1805.598
 20
512.3757
 30
0.0
 10
1805.598
 20
512.3757
 30
0.0
 10
1833.6907
 20
501.8503
 30
0.0
 10
1833.6907
 20
501.8503
 30
0.0
 10
1836.2846
 20
500.8784
 30
0.0
 10
1839.1554
 20
502.1839
 30
0.0
 10
1840.1272
 20
504.7778
 30
0.0
 10
1840.1272
 20
504.7778
 30
0.0
 10
1854.1733
 20
499.5153
 30
0.0
 10
1854.1733
 20
499.5153
 30
0.0
 10
1851.5794
 20
500.4871
 30
0.0
 10
1848.709
 20
499.181
 30
0.0
 10
1847.7371
 20
496.587
 30
0.0
 10
1847.7371
 20
496.587
 30
0.0
 10
1846.3338
 20
492.8416
 30
0.0
 10
1846.3338
 20
492.8416
 30
0.0
 10
1845.362
 20
490.2477
 30
0.0
 10
1846.6675
 20
487.377
 30
0.0
 10
1849.2614
 20
486.4051
 30
0.0
 10
1849.2614
 20
486.4051
 30
0.0
 10
1851.1346
 20
485.7033
 30
0.0
 10
1851.1346
 20
485.7033
 30
0.0
 10
1851.1346
 20
485.7033
 30
0.0
 10
1850.9571
 20
485.2294
 30
0.0
 10
1850.9571
 20
485.2294
 30
0.0
 10
1849.6159
 20
485.2291
 30
0.0
 10
1848.6634
 20
484.7974
 30
0.0
 10
1848.3847
 20
484.0637
 30
0.0
 10
1848.152
 20
483.4429
 30
0.0
 10
1848.4221
 20
482.6626
 30
0.0
 10
1849.1356
 20
481.8946
 30
0.0
 10
1849.8492
 20
481.1265
 30
0.0
 10
1850.9476
 20
480.4337
 30
0.0
 10
1852.1894
 20
479.9684
 30
0.0
 10
1853.4313
 20
479.5031
 30
0.0
 10
1854.7147
 20
479.3035
 30
0.0
 10
1855.7574
 20
479.4136
 30
0.0
 10
1856.7999
 20
479.5236
 30
0.0
 10
1857.5164
 20
479.9343
 30
0.0
 10
1857.7489
 20
480.5552
 30
0.0
 10
1858.0206
 20
481.2914
 30
0.0
 10
1857.5861
 20
482.2425
 30
0.0
 10
1856.5756
 20
483.1238
 30
0.0
 10
1856.5756
 20
483.1238
 30
0.0
 10
1856.7533
 20
483.5981
 30
0.0
 10
1856.7533
 20
483.5981
 30
0.0
 10
1856.7533
 20
483.5981
 30
0.0
 10
1858.6261
 20
482.8965
 30
0.0
 10
1858.6261
 20
482.8965
 30
0.0
 10
1861.22
 20
481.9246
 30
0.0
 10
1864.0904
 20
483.2308
 30
0.0
 10
1865.0623
 20
485.8247
 30
0.0
 10
1865.0623
 20
485.8247
 30
0.0
 10
1866.4656
 20
489.5701
 30
0.0
 10
1866.4656
 20
489.5701
 30
0.0
 10
1867.4374
 20
492.1641
 30
0.0
 10
1866.1319
 20
495.0348
 30
0.0
 10
1863.538
 20
496.0066
 30
0.0
 10
1863.538
 20
496.0066
 30
0.0
 10
1891.6307
 20
485.4813
 30
0.0
 10
1891.6307
 20
485.4813
 30
0.0
 10
1889.0368
 20
486.4531
 30
0.0
 10
1886.1664
 20
485.147
 30
0.0
 10
1885.1945
 20
482.5531
 30
0.0
 10
1885.1945
 20
482.5531
 30
0.0
 10
1878.8793
 20
465.6974
 30
0.0
 10
1878.8793
 20
465.6974
 30
0.0
 10
1877.9074
 20
463.1035
 30
0.0
 10
1879.2131
 20
460.2332
 30
0.0
 10
1881.807
 20
459.2614
 30
0.0
 10
1881.807
 20
459.2614
 30
0.0
 10
1883.6798
 20
458.5597
 30
0.0
 10
1883.6798
 20
458.5597
 30
0.0
 10
1883.6798
 20
458.5597
 30
0.0
 10
1883.5023
 20
458.0859
 30
0.0
 10
1883.5023
 20
458.0859
 30
0.0
 10
1882.1611
 20
458.0855
 30
0.0
 10
1881.2086
 20
457.6538
 30
0.0
 10
1880.9298
 20
456.9202
 30
0.0
 10
1880.6969
 20
456.2992
 30
0.0
 10
1880.9668
 20
455.5189
 30
0.0
 10
1881.6804
 20
454.7509
 30
0.0
 10
1882.3938
 20
453.9827
 30
0.0
 10
1883.4924
 20
453.2897
 30
0.0
 10
1884.7344
 20
452.8243
 30
0.0
 10
1885.9764
 20
452.3589
 30
0.0
 10
1887.26
 20
452.1594
 30
0.0
 10
1888.3028
 20
452.2696
 30
0.0
 10
1889.3454
 20
452.3797
 30
0.0
 10
1890.0618
 20
452.7905
 30
0.0
 10
1890.2941
 20
453.4117
 30
0.0
 10
1890.5657
 20
454.1478
 30
0.0
 10
1890.1313
 20
455.0989
 30
0.0
 10
1889.1208
 20
455.9804
 30
0.0
 10
1889.1208
 20
455.9804
 30
0.0
 10
1889.2985
 20
456.4546
 30
0.0
 10
1889.2985
 20
456.4546
 30
0.0
 10
1889.2985
 20
456.4546
 30
0.0
 10
1891.1712
 20
455.7529
 30
0.0
 10
1891.1712
 20
455.7529
 30
0.0
 10
1893.7651
 20
454.781
 30
0.0
 10
1896.6359
 20
456.0865
 30
0.0
 10
1897.6077
 20
458.6805
 30
0.0
 10
1897.6077
 20
458.6805
 30
0.0
 10
1903.923
 20
475.5361
 30
0.0
 10
1903.923
 20
475.5361
 30
0.0
 10
1904.8948
 20
478.1301
 30
0.0
 10
1903.5888
 20
481.001
 30
0.0
 10
1900.9949
 20
481.9728
 30
0.0
 10
1900.9949
 20
481.9728
 30
0.0
 10
1917.8512
 20
475.6574
 30
0.0
 10
1917.8512
 20
475.6574
 30
0.0
 10
1915.2573
 20
476.6292
 30
0.0
 10
1912.3864
 20
475.3232
 30
0.0
 10
1911.4145
 20
472.7293
 30
0.0
 10
1911.4145
 20
472.7293
 30
0.0
 10
1900.8891
 20
444.6366
 30
0.0
 10
1900.8891
 20
444.6366
 30
0.0
 10
1899.9173
 20
442.0427
 30
0.0
 10
1901.2233
 20
439.1718
 30
0.0
 10
1903.8172
 20
438.2
 30
0.0
 10
1903.8172
 20
438.2
 30
0.0
 10
1905.69
 20
437.4983
 30
0.0
 10
1905.69
 20
437.4983
 30
0.0
 10
1905.69
 20
437.4983
 30
0.0
 10
1905.5125
 20
437.0246
 30
0.0
 10
1905.5125
 20
437.0246
 30
0.0
 10
1904.1713
 20
437.0242
 30
0.0
 10
1903.2187
 20
436.5925
 30
0.0
 10
1902.94
 20
435.8588
 30
0.0
 10
1902.7073
 20
435.238
 30
0.0
 10
1902.9774
 20
434.4577
 30
0.0
 10
1903.6909
 20
433.6897
 30
0.0
 10
1904.4044
 20
432.9216
 30
0.0
 10
1905.5029
 20
432.2287
 30
0.0
 10
1906.7447
 20
431.7635
 30
0.0
 10
1907.9866
 20
431.2981
 30
0.0
 10
1909.27
 20
431.0985
 30
0.0
 10
1910.3127
 20
431.2086
 30
0.0
 10
1911.3553
 20
431.3187
 30
0.0
 10
1912.0717
 20
431.7294
 30
0.0
 10
1912.3043
 20
432.3503
 30
0.0
 10
1912.5759
 20
433.0864
 30
0.0
 10
1912.1414
 20
434.0375
 30
0.0
 10
1911.1309
 20
434.9189
 30
0.0
 10
1911.1309
 20
434.9189
 30
0.0
 10
1911.3086
 20
435.3932
 30
0.0
 10
1911.3086
 20
435.3932
 30
0.0
 10
1911.3086
 20
435.3932
 30
0.0
 10
1913.1814
 20
434.6915
 30
0.0
 10
1913.1814
 20
434.6915
 30
0.0
 10
1915.7753
 20
433.7197
 30
0.0
 10
1918.6458
 20
435.0258
 30
0.0
 10
1919.6176
 20
437.6197
 30
0.0
 10
1919.6176
 20
437.6197
 30
0.0
 10
1930.143
 20
465.7124
 30
0.0
 10
1930.143
 20
465.7124
 30
0.0
 10
1931.1148
 20
468.3063
 30
0.0
 10
1929.8093
 20
471.177
 30
0.0
 10
1927.2154
 20
472.1489
 30
0.0
 10
1927.2154
 20
472.1489
 30
0.0
 10
1938.4524
 20
467.9388
 30
0.0
 10
1938.4524
 20
467.9388
 30
0.0
 10
1935.8585
 20
468.9106
 30
0.0
 10
1932.9881
 20
467.6045
 30
0.0
 10
1932.0162
 20
465.0106
 30
0.0
 10
1932.0162
 20
465.0106
 30
0.0
 10
1920.789
 20
435.0447
 30
0.0
 10
1920.789
 20
435.0447
 30
0.0
 10
1919.8172
 20
432.4507
 30
0.0
 10
1921.1228
 20
429.5805
 30
0.0
 10
1923.7167
 20
428.6086
 30
0.0
 10
1923.7167
 20
428.6086
 30
0.0
 10
1925.5894
 20
427.907
 30
0.0
 10
1925.5894
 20
427.907
 30
0.0
 10
1925.5894
 20
427.907
 30
0.0
 10
1925.4119
 20
427.4333
 30
0.0
 10
1925.4119
 20
427.4333
 30
0.0
 10
1924.0708
 20
427.4329
 30
0.0
 10
1923.1183
 20
427.0011
 30
0.0
 10
1922.8396
 20
426.2675
 30
0.0
 10
1922.6069
 20
425.6466
 30
0.0
 10
1922.877
 20
424.8664
 30
0.0
 10
1923.5905
 20
424.0983
 30
0.0
 10
1924.304
 20
423.3303
 30
0.0
 10
1925.4025
 20
422.6374
 30
0.0
 10
1926.6443
 20
422.1721
 30
0.0
 10
1927.8861
 20
421.7068
 30
0.0
 10
1929.1695
 20
421.5072
 30
0.0
 10
1930.2122
 20
421.6173
 30
0.0
 10
1931.2548
 20
421.7274
 30
0.0
 10
1931.9713
 20
422.138
 30
0.0
 10
1932.2038
 20
422.759
 30
0.0
 10
1932.4755
 20
423.4952
 30
0.0
 10
1932.0409
 20
424.4463
 30
0.0
 10
1931.0305
 20
425.3276
 30
0.0
 10
1931.0305
 20
425.3276
 30
0.0
 10
1931.2082
 20
425.8018
 30
0.0
 10
1931.2082
 20
425.8018
 30
0.0
 10
1931.2082
 20
425.8018
 30
0.0
 10
1933.081
 20
425.1002
 30
0.0
 10
1933.081
 20
425.1002
 30
0.0
 10
1935.6749
 20
424.1283
 30
0.0
 10
1938.5456
 20
425.4338
 30
0.0
 10
1939.5175
 20
428.0277
 30
0.0
 10
1939.5175
 20
428.0277
 30
0.0
 10
1950.7447
 20
457.9937
 30
0.0
 10
1950.7447
 20
457.9937
 30
0.0
 10
1951.7165
 20
460.5876
 30
0.0
 10
1950.4105
 20
463.4585
 30
0.0
 10
1947.8166
 20
464.4303
 30
0.0
 10
1947.8166
 20
464.4303
 30
0.0
 10
1959.0541
 20
460.22
 30
0.0
 10
1959.0541
 20
460.22
 30
0.0
 10
1956.4602
 20
461.1919
 30
0.0
 10
1953.5893
 20
459.8859
 30
0.0
 10
1952.6174
 20
457.292
 30
0.0
 10
1952.6174
 20
457.292
 30
0.0
 10
1942.0921
 20
429.1993
 30
0.0
 10
1942.0921
 20
429.1993
 30
0.0
 10
1941.1202
 20
426.6054
 30
0.0
 10
1942.4262
 20
423.7345
 30
0.0
 10
1945.0201
 20
422.7627
 30
0.0
 10
1945.0201
 20
422.7627
 30
0.0
 10
1946.8929
 20
422.061
 30
0.0
 10
1946.8929
 20
422.061
 30
0.0
 10
1946.8929
 20
422.061
 30
0.0
 10
1946.7154
 20
421.5873
 30
0.0
 10
1946.7154
 20
421.5873
 30
0.0
 10
1945.3742
 20
421.5869
 30
0.0
 10
1944.4217
 20
421.1551
 30
0.0
 10
1944.1429
 20
420.4215
 30
0.0
 10
1943.9102
 20
419.8007
 30
0.0
 10
1944.1803
 20
419.0204
 30
0.0
 10
1944.8938
 20
418.2523
 30
0.0
 10
1945.6073
 20
417.4843
 30
0.0
 10
1946.7059
 20
416.7914
 30
0.0
 10
1947.9477
 20
416.3262
 30
0.0
 10
1949.1895
 20
415.8608
 30
0.0
 10
1950.4729
 20
415.6612
 30
0.0
 10
1951.5156
 20
415.7713
 30
0.0
 10
1952.5582
 20
415.8814
 30
0.0
 10
1953.2746
 20
416.292
 30
0.0
 10
1953.5072
 20
416.913
 30
0.0
 10
1953.7788
 20
417.6491
 30
0.0
 10
1953.3444
 20
418.6002
 30
0.0
 10
1952.3338
 20
419.4816
 30
0.0
 10
1952.3338
 20
419.4816
 30
0.0
 10
1952.5116
 20
419.9559
 30
0.0
 10
1952.5116
 20
419.9559
 30
0.0
 10
1952.5116
 20
419.9559
 30
0.0
 10
1954.3843
 20
419.2542
 30
0.0
 10
1954.3843
 20
419.2542
 30
0.0
 10
1956.9782
 20
418.2824
 30
0.0
 10
1959.8487
 20
419.5885
 30
0.0
 10
1960.8205
 20
422.1824
 30
0.0
 10
1960.8205
 20
422.1824
 30
0.0
 10
1971.3459
 20
450.2751
 30
0.0
 10
1971.3459
 20
450.2751
 30
0.0
 10
1972.3177
 20
452.869
 30
0.0
 10
1971.0122
 20
455.7397
 30
0.0
 10
1968.4183
 20
456.7116
 30
0.0
 10
1968.4183
 20
456.7116
 30
0.0
 10
1985.274
 20
450.3963
 30
0.0
 10
1985.274
 20
450.3963
 30
0.0
 10
1982.6801
 20
451.3682
 30
0.0
 10
1979.8092
 20
450.0622
 30
0.0
 10
1978.8373
 20
447.4683
 30
0.0
 10
1978.8373
 20
447.4683
 30
0.0
 10
1972.5221
 20
430.6126
 30
0.0
 10
1972.5221
 20
430.6126
 30
0.0
 10
1971.5502
 20
428.0187
 30
0.0
 10
1972.8564
 20
425.1483
 30
0.0
 10
1975.4503
 20
424.1764
 30
0.0
 10
1975.4503
 20
424.1764
 30
0.0
 10
1977.3231
 20
423.4748
 30
0.0
 10
1977.3231
 20
423.4748
 30
0.0
 10
1977.3231
 20
423.4748
 30
0.0
 10
1977.1456
 20
423.001
 30
0.0
 10
1977.1456
 20
423.001
 30
0.0
 10
1975.8044
 20
423.0006
 30
0.0
 10
1974.8519
 20
422.5689
 30
0.0
 10
1974.5731
 20
421.8352
 30
0.0
 10
1974.3401
 20
421.2143
 30
0.0
 10
1974.6101
 20
420.434
 30
0.0
 10
1975.3236
 20
419.6658
 30
0.0
 10
1976.0371
 20
418.8978
 30
0.0
 10
1977.1357
 20
418.2048
 30
0.0
 10
1978.3777
 20
417.7394
 30
0.0
 10
1979.6197
 20
417.274
 30
0.0
 10
1980.9033
 20
417.0745
 30
0.0
 10
1981.9461
 20
417.1846
 30
0.0
 10
1982.9887
 20
417.2947
 30
0.0
 10
1983.7051
 20
417.7056
 30
0.0
 10
1983.9374
 20
418.3268
 30
0.0
 10
1984.209
 20
419.0629
 30
0.0
 10
1983.7746
 20
420.014
 30
0.0
 10
1982.7641
 20
420.8954
 30
0.0
 10
1982.7641
 20
420.8954
 30
0.0
 10
1982.9418
 20
421.3696
 30
0.0
 10
1982.9418
 20
421.3696
 30
0.0
 10
1982.9418
 20
421.3696
 30
0.0
 10
1984.8145
 20
420.668
 30
0.0
 10
1984.8145
 20
420.668
 30
0.0
 10
1987.4084
 20
419.6961
 30
0.0
 10
1990.2792
 20
421.0016
 30
0.0
 10
1991.251
 20
423.5955
 30
0.0
 10
1991.251
 20
423.5955
 30
0.0
 10
1997.5663
 20
440.4512
 30
0.0
 10
1997.5663
 20
440.4512
 30
0.0
 10
1998.5381
 20
443.0451
 30
0.0
 10
1997.2321
 20
445.916
 30
0.0
 10
1994.6382
 20
446.8879
 30
0.0
 10
1994.6382
 20
446.8879
 30
0.0
 10
2022.7315
 20
436.3623
 30
0.0
 10
2022.7315
 20
436.3623
 30
0.0
 10
2020.1376
 20
437.3342
 30
0.0
 10
2017.2666
 20
436.0282
 30
0.0
 10
2016.2947
 20
433.4343
 30
0.0
 10
2016.2947
 20
433.4343
 30
0.0
 10
2014.8914
 20
429.6889
 30
0.0
 10
2014.8914
 20
429.6889
 30
0.0
 10
2013.9196
 20
427.0949
 30
0.0
 10
2015.2256
 20
424.2239
 30
0.0
 10
2017.8195
 20
423.2522
 30
0.0
 10
2017.8195
 20
423.2522
 30
0.0
 10
2019.6922
 20
422.5505
 30
0.0
 10
2019.6922
 20
422.5505
 30
0.0
 10
2019.6922
 20
422.5505
 30
0.0
 10
2019.5147
 20
422.0767
 30
0.0
 10
2019.5147
 20
422.0767
 30
0.0
 10
2018.1736
 20
422.0763
 30
0.0
 10
2017.221
 20
421.6447
 30
0.0
 10
2016.9424
 20
420.9109
 30
0.0
 10
2016.7097
 20
420.2901
 30
0.0
 10
2016.9798
 20
419.5098
 30
0.0
 10
2017.6933
 20
418.7419
 30
0.0
 10
2018.4068
 20
417.9738
 30
0.0
 10
2019.5053
 20
417.2809
 30
0.0
 10
2020.7471
 20
416.8156
 30
0.0
 10
2021.9889
 20
416.3503
 30
0.0
 10
2023.2723
 20
416.1507
 30
0.0
 10
2024.3149
 20
416.2608
 30
0.0
 10
2025.3576
 20
416.3708
 30
0.0
 10
2026.0741
 20
416.7816
 30
0.0
 10
2026.3066
 20
417.4024
 30
0.0
 10
2026.5782
 20
418.1386
 30
0.0
 10
2026.1438
 20
419.0897
 30
0.0
 10
2025.1333
 20
419.9711
 30
0.0
 10
2025.1333
 20
419.9711
 30
0.0
 10
2025.311
 20
420.4454
 30
0.0
 10
2025.311
 20
420.4454
 30
0.0
 10
2025.311
 20
420.4454
 30
0.0
 10
2027.1838
 20
419.7437
 30
0.0
 10
2027.1838
 20
419.7437
 30
0.0
 10
2029.7777
 20
418.7719
 30
0.0
 10
2032.6486
 20
420.0778
 30
0.0
 10
2033.6204
 20
422.6717
 30
0.0
 10
2033.6204
 20
422.6717
 30
0.0
 10
2035.0237
 20
426.4172
 30
0.0
 10
2035.0237
 20
426.4172
 30
0.0
 10
2035.9956
 20
429.0111
 30
0.0
 10
2034.6896
 20
431.882
 30
0.0
 10
2032.0957
 20
432.8539
 30
0.0
 10
2032.0957
 20
432.8539
 30
0.0
 10
2046.1423
 20
427.5911
 30
0.0
 10
2046.1423
 20
427.5911
 30
0.0
 10
2045.1704
 20
424.9972
 30
0.0
 10
2046.4761
 20
422.1269
 30
0.0
 10
2049.07
 20
421.1551
 30
0.0
 10
2049.07
 20
421.1551
 30
0.0
 10
2077.1632
 20
410.6295
 30
0.0
 10
2077.1632
 20
410.6295
 30
0.0
 10
2079.7571
 20
409.6577
 30
0.0
 10
2082.6273
 20
410.9633
 30
0.0
 10
2083.5992
 20
413.5573
 30
0.0
 10
2083.5992
 20
413.5573
 30
0.0
 10
2090.6163
 20
432.2862
 30
0.0
 10
2090.6163
 20
432.2862
 30
0.0
 10
2091.5881
 20
434.8801
 30
0.0
 10
2090.2824
 20
437.7504
 30
0.0
 10
2087.6885
 20
438.7222
 30
0.0
 10
2087.6885
 20
438.7222
 30
0.0
 10
2059.5954
 20
449.2477
 30
0.0
 10
2059.5954
 20
449.2477
 30
0.0
 10
2057.0015
 20
450.2196
 30
0.0
 10
2054.1312
 20
448.9139
 30
0.0
 10
2053.1594
 20
446.32
 30
0.0
 10
2053.1594
 20
446.32
 30
0.0
 10
2039.1128
 20
451.5828
 30
0.0
 10
2039.1128
 20
451.5828
 30
0.0
 10
2041.7067
 20
450.6109
 30
0.0
 10
2044.5776
 20
451.9169
 30
0.0
 10
2045.5494
 20
454.5108
 30
0.0
 10
2045.5494
 20
454.5108
 30
0.0
 10
2046.9528
 20
458.2563
 30
0.0
 10
2046.9528
 20
458.2563
 30
0.0
 10
2047.9246
 20
460.8503
 30
0.0
 10
2046.6187
 20
463.7212
 30
0.0
 10
2044.0247
 20
464.693
 30
0.0
 10
2044.0247
 20
464.693
 30
0.0
 10
2042.152
 20
465.3947
 30
0.0
 10
2042.152
 20
465.3947
 30
0.0
 10
2042.152
 20
465.3947
 30
0.0
 10
2042.3296
 20
465.8689
 30
0.0
 10
2042.3296
 20
465.8689
 30
0.0
 10
2043.6704
 20
465.8694
 30
0.0
 10
2044.6229
 20
466.3009
 30
0.0
 10
2044.9019
 20
467.0342
 30
0.0
 10
2045.1346
 20
467.6551
 30
0.0
 10
2044.8644
 20
468.4354
 30
0.0
 10
2044.1508
 20
469.2035
 30
0.0
 10
2043.4372
 20
469.9716
 30
0.0
 10
2042.3385
 20
470.6645
 30
0.0
 10
2041.0967
 20
471.1297
 30
0.0
 10
2039.8549
 20
471.5949
 30
0.0
 10
2038.5715
 20
471.7945
 30
0.0
 10
2037.529
 20
471.6843
 30
0.0
 10
2036.4865
 20
471.5742
 30
0.0
 10
2035.7702
 20
471.1635
 30
0.0
 10
2035.5377
 20
470.5426
 30
0.0
 10
2035.2656
 20
469.8065
 30
0.0
 10
2035.7
 20
468.8551
 30
0.0
 10
2036.7107
 20
467.9736
 30
0.0
 10
2036.7107
 20
467.9736
 30
0.0
 10
2036.5332
 20
467.4998
 30
0.0
 10
2036.5332
 20
467.4998
 30
0.0
 10
2036.5332
 20
467.4998
 30
0.0
 10
2034.6605
 20
468.2015
 30
0.0
 10
2034.6605
 20
468.2015
 30
0.0
 10
2032.0666
 20
469.1733
 30
0.0
 10
2029.1956
 20
467.8674
 30
0.0
 10
2028.2238
 20
465.2735
 30
0.0
 10
2028.2238
 20
465.2735
 30
0.0
 10
2026.8204
 20
461.5279
 30
0.0
 10
2026.8204
 20
461.5279
 30
0.0
 10
2025.8486
 20
458.934
 30
0.0
 10
2027.1546
 20
456.0631
 30
0.0
 10
2029.7486
 20
455.0912
 30
0.0
 10
2029.7486
 20
455.0912
 30
0.0
 10
2001.6553
 20
465.6168
 30
0.0
 10
2001.6553
 20
465.6168
 30
0.0
 10
2004.2492
 20
464.6449
 30
0.0
 10
2007.1201
 20
465.9509
 30
0.0
 10
2008.092
 20
468.5448
 30
0.0
 10
2008.092
 20
468.5448
 30
0.0
 10
2014.4073
 20
485.4006
 30
0.0
 10
2014.4073
 20
485.4006
 30
0.0
 10
2015.3791
 20
487.9945
 30
0.0
 10
2014.0731
 20
490.8654
 30
0.0
 10
2011.4792
 20
491.8373
 30
0.0
 10
2011.4792
 20
491.8373
 30
0.0
 10
2009.6065
 20
492.5389
 30
0.0
 10
2009.6065
 20
492.5389
 30
0.0
 10
2009.6065
 20
492.5389
 30
0.0
 10
2009.7841
 20
493.0131
 30
0.0
 10
2009.7841
 20
493.0131
 30
0.0
 10
2011.125
 20
493.0135
 30
0.0
 10
2012.0774
 20
493.445
 30
0.0
 10
2012.3564
 20
494.1784
 30
0.0
 10
2012.5891
 20
494.7994
 30
0.0
 10
2012.3189
 20
495.5797
 30
0.0
 10
2011.6053
 20
496.3477
 30
0.0
 10
2010.8917
 20
497.1157
 30
0.0
 10
2009.7931
 20
497.8086
 30
0.0
 10
2008.5512
 20
498.2739
 30
0.0
 10
2007.3094
 20
498.7392
 30
0.0
 10
2006.0261
 20
498.9386
 30
0.0
 10
2004.9836
 20
498.8286
 30
0.0
 10
2003.941
 20
498.7185
 30
0.0
 10
2003.2247
 20
498.3078
 30
0.0
 10
2002.9922
 20
497.6869
 30
0.0
 10
2002.7202
 20
496.9507
 30
0.0
 10
2003.1545
 20
495.9994
 30
0.0
 10
2004.1653
 20
495.1178
 30
0.0
 10
2004.1653
 20
495.1178
 30
0.0
 10
2003.9878
 20
494.6441
 30
0.0
 10
2003.9878
 20
494.6441
 30
0.0
 10
2003.9878
 20
494.6441
 30
0.0
 10
2002.115
 20
495.3457
 30
0.0
 10
2002.115
 20
495.3457
 30
0.0
 10
1999.5211
 20
496.3176
 30
0.0
 10
1996.6502
 20
495.0116
 30
0.0
 10
1995.6783
 20
492.4177
 30
0.0
 10
1995.6783
 20
492.4177
 30
0.0
 10
1989.3631
 20
475.5619
 30
0.0
 10
1989.3631
 20
475.5619
 30
0.0
 10
1988.3912
 20
472.968
 30
0.0
 10
1989.6972
 20
470.0971
 30
0.0
 10
1992.2911
 20
469.1253
 30
0.0
 10
1992.2911
 20
469.1253
 30
0.0
 10
1975.4354
 20
475.4405
 30
0.0
 10
1975.4354
 20
475.4405
 30
0.0
 10
1978.0293
 20
474.4686
 30
0.0
 10
1980.8997
 20
475.7748
 30
0.0
 10
1981.8716
 20
478.3687
 30
0.0
 10
1981.8716
 20
478.3687
 30
0.0
 10
1992.397
 20
506.4615
 30
0.0
 10
1992.397
 20
506.4615
 30
0.0
 10
1993.3688
 20
509.0554
 30
0.0
 10
1992.0633
 20
511.9261
 30
0.0
 10
1989.4694
 20
512.898
 30
0.0
 10
1989.4694
 20
512.898
 30
0.0
 10
1987.5967
 20
513.5996
 30
0.0
 10
1987.5967
 20
513.5996
 30
0.0
 10
1987.5967
 20
513.5996
 30
0.0
 10
1987.7743
 20
514.0738
 30
0.0
 10
1987.7743
 20
514.0738
 30
0.0
 10
1989.1152
 20
514.0742
 30
0.0
 10
1990.0676
 20
514.5057
 30
0.0
 10
1990.3466
 20
515.2391
 30
0.0
 10
1990.5793
 20
515.86
 30
0.0
 10
1990.3091
 20
516.6404
 30
0.0
 10
1989.5955
 20
517.4084
 30
0.0
 10
1988.8818
 20
518.1765
 30
0.0
 10
1987.7832
 20
518.8694
 30
0.0
 10
1986.5414
 20
519.3346
 30
0.0
 10
1985.2996
 20
519.7998
 30
0.0
 10
1984.0162
 20
519.9994
 30
0.0
 10
1982.9737
 20
519.8893
 30
0.0
 10
1981.9312
 20
519.7792
 30
0.0
 10
1981.2149
 20
519.3685
 30
0.0
 10
1980.9824
 20
518.7476
 30
0.0
 10
1980.7103
 20
518.0113
 30
0.0
 10
1981.1447
 20
517.0601
 30
0.0
 10
1982.1555
 20
516.1785
 30
0.0
 10
1982.1555
 20
516.1785
 30
0.0
 10
1981.978
 20
515.7048
 30
0.0
 10
1981.978
 20
515.7048
 30
0.0
 10
1981.978
 20
515.7048
 30
0.0
 10
1980.1052
 20
516.4064
 30
0.0
 10
1980.1052
 20
516.4064
 30
0.0
 10
1977.5113
 20
517.3783
 30
0.0
 10
1974.6404
 20
516.0723
 30
0.0
 10
1973.6685
 20
513.4784
 30
0.0
 10
1973.6685
 20
513.4784
 30
0.0
 10
1963.1431
 20
485.3856
 30
0.0
 10
1963.1431
 20
485.3856
 30
0.0
 10
1962.1713
 20
482.7917
 30
0.0
 10
1963.4773
 20
479.9208
 30
0.0
 10
1966.0712
 20
478.949
 30
0.0
  0
SPLINE
  5
99
330
1F
100
AcDbEntity
  8
0
 62
   242
370
     9
100
AcDbSpline
210
0.0
220
0.0
230
1.0
 70
    11
 71
     3
 72
    17
 73
    13
 74
     0
 42
0.0000000001
 43
0.0000000001
 40
0.0
 40
0.0
 40
0.0
 40
0.0
 40
0.25
 40
0.25
 40
0.25
 40
0.5
 40
0.5
 40
0.5
 40
0.75
 40
0.75
 40
0.75
 40
1.0
 40
1.0
 40
1.0
 40
1.0
 10
1839.8873
 20
524.0895
 30
0.0
 10
1839.8873
 20
524.0895
 30
0.0
 10
1834.2737
 20
509.1066
 30
0.0
 10
1834.2737
 20
509.1066
 30
0.0
 10
1834.2737
 20
509.1066
 30
0.0
 10
1831.4644
 20
510.1592
 30
0.0
 10
1831.4644
 20
510.1592
 30
0.0
 10
1831.4644
 20
510.1592
 30
0.0
 10
1837.078
 20
525.1421
 30
0.0
 10
1837.078
 20
525.1421
 30
0.0
 10
1837.078
 20
525.1421
 30
0.0
 10
1839.8873
 20
524.0895
 30
0.0
 10
1839.8873
 20
524.0895
 30
0.0
  0
SPLINE
  5
9A
330
1F
100
AcDbEntity
  8
0
 62
   242
370
     9
100
AcDbSpline
210
0.0
220
0.0
230
1.0
 70
    11
 71
     3
 72
    17
 73
    13
 74
     0
 42
0.0000000001
 43
0.0000000001
 40
0.0
 40
0.0
 40
0.0
 40
0.0
 40
0.25
 40
0.25
 40
0.25
 40
0.5
 40
0.5
 40
0.5
 40
0.75
 40
0.75
 40
0.75
 40
1.0
 40
1.0
 40
1.0
 40
1.0
 10
1832.3958
 20
526.8963
 30
0.0
 10
1832.3958
 20
526.8963
 30
0.0
 10
1826.7822
 20
511.9134
 30
0.0
 10
1826.7822
 20
511.9134
 30
0.0
 10
1826.7822
 20
511.9134
 30
0.0
 10
1823.9729
 20
512.966
 30
0.0
 10
1823.9729
 20
512.966
 30
0.0
 10
1823.9729
 20
512.966
 30
0.0
 10
1829.5865
 20
527.9489
 30
0.0
 10
1829.5865
 20
527.9489
 30
0.0
 10
1829.5865
 20
527.9489
 30
0.0
 10
1832.3958
 20
526.8963
 30
0.0
 10
1832.3958
 20
526.8963
 30
0.0
  0
SPLINE
  5
9B
330
1F
100
AcDbEntity
  8
0
 62
   242
370
     9
100
AcDbSpline
210
0.0
220
0.0
230
1.0
 70
    11
 71
     3
 72
    17
 73
    13
 74
     0
 42
0.0000000001
 43
0.0000000001
 40
0.0
 40
0.0
 40
0.0
 40
0.0
 40
0.25
 40
0.25
 40
0.25
 40
0.5
 40
0.5
 40
0.5
 40
0.75
 40
0.75
 40
0.75
 40
1.0
 40
1.0
 40
1.0
 40
1.0
 10
1824.9043
 20
529.7031
 30
0.0
 10
1824.9043
 20
529.7031
 30
0.0
 10
1819.2908
 20
514.7202
 30
0.0
 10
1819.2908
 20
514.7202
 30
0.0
 10
1819.2908
 20
514.7202
 30
0.0
 10
1816.4815
 20
515.7728
 30
0.0
 10
1816.4815
 20
515.7728
 30
0.0
 10
1816.4815
 20
515.7728
 30
0.0
 10
1822.095
 20
530.7557
 30
0.0
 10
1822.095
 20
530.7557
 30
0.0
 10
1822.095
 20
530.7557
 30
0.0
 10
1824.9043
 20
529.7031
 30
0.0
 10
1824.9043
 20
529.7031
 30
0.0
  0
SPLINE
  5
9C
330
1F
100
AcDbEntity
  8
0
 62
   242
370
     9
100
AcDbSpline
210
0.0
220
0.0
230
1.0
 70
    11
 71
     3
 72
    17
 73
    13
 74
     0
 42
0.0000000001
 43
0.0000000001
 40
0.0
 40
0.0
 40
0.0
 40
0.0
 40
0.25
 40
0.25
 40
0.25
 40
0.5
 40
0.5
 40
0.5
 40
0.75
 40
0.75
 40
0.75
 40
1.0
 40
1.0
 40
1.0
 40
1.0
 10
1817.4129
 20
532.5099
 30
0.0
 10
1817.4129
 20
532.5099
 30
0.0
 10
1811.7993
 20
517.527
 30
0.0
 10
1811.7993
 20
517.527
 30
0.0
 10
1811.7993
 20
517.527
 30
0.0
 10
1808.99
 20
518.5796
 30
0.0
 10
1808.99
 20
518.5796
 30
0.0
 10
1808.99
 20
518.5796
 30
0.0
 10
1814.6036
 20
533.5625
 30
0.0
 10
1814.6036
 20
533.5625
 30
0.0
 10
1814.6036
 20
533.5625
 30
0.0
 10
1817.4129
 20
532.5099
 30
0.0
 10
1817.4129
 20
532.5099
 30
0.0
  0
SPLINE
  5
9D
330
1F
100
AcDbEntity
  8
0
 62
   242
370
     9
100
AcDbSpline
210
0.0
220
0.0
230
1.0
 70
    11
 71
     3
 72
    17
 73
    13
 74
     0
 42
0.0000000001
 43
0.0000000001
 40
0.0
 40
0.0
 40
0.0
 40
0.0
 40
0.25
 40
0.25
 40
0.25
 40
0.5
 40
0.5
 40
0.5
 40
0.75
 40
0.75
 40
0.75
 40
1.0
 40
1.0
 40
1.0
 40
1.0
 10
2053.3986
 20
427.0081
 30
0.0
 10
2053.3986
 20
427.0081
 30
0.0
 10
2059.0122
 20
441.991
 30
0.0
 10
2059.0122
 20
441.991
 30
0.0
 10
2059.0122
 20
441.991
 30
0.0
 10
2061.8215
 20
440.9384
 30
0.0
 10
2061.8215
 20
440.9384
 30
0.0
 10
2061.8215
 20
440.9384
 30
0.0
 10
2056.2079
 20
425.9555
 30
0.0
 10
2056.2079
 20
425.9555
 30
0.0
 10
2056.2079
 20
425.9555
 30
0.0
 10
2053.3986
 20
427.0081
 30
0.0
 10
2053.3986
 20
427.0081
 30
0.0
  0
SPLINE
  5
9E
330
1F
100
AcDbEntity
  8
0
 62
   242
370
     9
100
AcDbSpline
210
0.0
220
0.0
230
1.0
 70
    11
 71
     3
 72
    17
 73
    13
 74
     0
 42
0.0000000001
 43
0.0000000001
 40
0.0
 40
0.0
 40
0.0
 40
0.0
 40
0.25
 40
0.25
 40
0.25
 40
0.5
 40
0.5
 40
0.5
 40
0.75
 40
0.75
 40
0.75
 40
1.0
 40
1.0
 40
1.0
 40
1.0
 10
2060.89
 20
424.2013
 30
0.0
 10
2060.89
 20
424.2013
 30
0.0
 10
2066.5036
 20
439.1842
 30
0.0
 10
2066.5036
 20
439.1842
 30
0.0
 10
2066.5036
 20
439.1842
 30
0.0
 10
2069.3129
 20
438.1316
 30
0.0
 10
2069.3129
 20
438.1316
 30
0.0
 10
2069.3129
 20
438.1316
 30
0.0
 10
2063.6993
 20
423.1487
 30
0.0
 10
2063.6993
 20
423.1487
 30
0.0
 10
2063.6993
 20
423.1487
 30
0.0
 10
2060.89
 20
424.2013
 30
0.0
 10
2060.89
 20
424.2013
 30
0.0
  0
SPLINE
  5
9F
330
1F
100
AcDbEntity
  8
0
 62
   242
370
     9
100
AcDbSpline
210
0.0
220
0.0
230
1.0
 70
    11
 71
     3
 72
    17
 73
    13
 74
     0
 42
0.0000000001
 43
0.0000000001
 40
0.0
 40
0.0
 40
0.0
 40
0.0
 40
0.25
 40
0.25
 40
0.25
 40
0.5
 40
0.5
 40
0.5
 40
0.75
 40
0.75
 40
0.75
 40
1.0
 40
1.0
 40
1.0
 40
1.0
 10
2068.3815
 20
421.3945
 30
0.0
 10
2068.3815
 20
421.3945
 30
0.0
 10
2073.9951
 20
436.3774
 30
0.0
 10
2073.9951
 20
436.3774
 30
0.0
 10
2073.9951
 20
436.3774
 30
0.0
 10
2076.8044
 20
435.3248
 30
0.0
 10
2076.8044
 20
435.3248
 30
0.0
 10
2076.8044
 20
435.3248
 30
0.0
 10
2071.1908
 20
420.3419
 30
0.0
 10
2071.1908
 20
420.3419
 30
0.0
 10
2071.1908
 20
420.3419
 30
0.0
 10
2068.3815
 20
421.3945
 30
0.0
 10
2068.3815
 20
421.3945
 30
0.0
  0
SPLINE
  5
A0
330
1F
100
AcDbEntity
  8
0
 62
   242
370
     9
100
AcDbSpline
210
0.0
220
0.0
230
1.0
 70
    11
 71
     3
 72
    17
 73
    13
 74
     0
 42
0.0000000001
 43
0.0000000001
 40
0.0
 40
0.0
 40
0.0
 40
0.0
 40
0.25
 40
0.25
 40
0.25
 40
0.5
 40
0.5
 40
0.5
 40
0.75
 40
0.75
 40
0.75
 40
1.0
 40
1.0
 40
1.0
 40
1.0
 10
2075.873
 20
418.5877
 30
0.0
 10
2075.873
 20
418.5877
 30
0.0
 10
2081.4865
 20
433.5706
 30
0.0
 10
2081.4865
 20
433.5706
 30
0.0
 10
2081.4865
 20
433.5706
 30
0.0
 10
2084.2958
 20
432.518
 30
0.0
 10
2084.2958
 20
432.518
 30
0.0
 10
2084.2958
 20
432.518
 30
0.0
 10
2078.6822
 20
417.5351
 30
0.0
 10
2078.6822
 20
417.5351
 30
0.0
 10
2078.6822
 20
417.5351
 30
0.0
 10
2075.873
 20
418.5877
 30
0.0
 10
2075.873
 20
418.5877
 30
0.0
  0
SPLINE
  5
A1
330
1F
100
AcDbEntity
  8
0
 62
   242
370
     9
100
AcDbSpline
210
0.0
220
0.0
230
1.0
 70
    11
 71
     3
 72
   767
 73
   763
 74
     0
 42
0.0000000001
 43
0.0000000001
 40
0.0
 40
0.0
 40
0.0
 40
0.0
 40
0.0039370078740157
 40
0.0039370078740157
 40
0.0039370078740157
 40
0.0078740157480315
 40
0.0078740157480315
 40
0.0078740157480315
 40
0.0118110236220472
 40
0.0118110236220472
 40
0.0118110236220472
 40
0.015748031496063
 40
0.015748031496063
 40
0.015748031496063
 40
0.0196850393700787
 40
0.0196850393700787
 40
0.0196850393700787
 40
0.0236220472440945
 40
0.0236220472440945
 40
0.0236220472440945
 40
0.0275590551181102
 40
0.0275590551181102
 40
0.0275590551181102
 40
0.031496062992126
 40
0.031496062992126
 40
0.031496062992126
 40
0.0354330708661417
 40
0.0354330708661417
 40
0.0354330708661417
 40
0.0393700787401575
 40
0.0393700787401575
 40
0.0393700787401575
 40
0.0433070866141732
 40
0.0433070866141732
 40
0.0433070866141732
 40
0.047244094488189
 40
0.047244094488189
 40
0.047244094488189
 40
0.0511811023622047
 40
0.0511811023622047
 40
0.0511811023622047
 40
0.0551181102362205
 40
0.0551181102362205
 40
0.0551181102362205
 40
0.0590551181102362
 40
0.0590551181102362
 40
0.0590551181102362
 40
0.062992125984252
 40
0.062992125984252
 40
0.062992125984252
 40
0.0669291338582677
 40
0.0669291338582677
 40
0.0669291338582677
 40
0.0708661417322835
 40
0.0708661417322835
 40
0.0708661417322835
 40
0.0748031496062992
 40
0.0748031496062992
 40
0.0748031496062992
 40
0.078740157480315
 40
0.078740157480315
 40
0.078740157480315
 40
0.0826771653543307
 40
0.0826771653543307
 40
0.0826771653543307
 40
0.0866141732283465
 40
0.0866141732283465
 40
0.0866141732283465
 40
0.0905511811023622
 40
0.0905511811023622
 40
0.0905511811023622
 40
0.094488188976378
 40
0.094488188976378
 40
0.094488188976378
 40
0.0984251968503937
 40
0.0984251968503937
 40
0.0984251968503937
 40
0.1023622047244094
 40
0.1023622047244094
 40
0.1023622047244094
 40
0.1062992125984252
 40
0.1062992125984252
 40
0.1062992125984252
 40
0.1102362204724409
 40
0.1102362204724409
 40
0.1102362204724409
 40
0.1141732283464567
 40
0.1141732283464567
 40
0.1141732283464567
 40
0.1181102362204724
 40
0.1181102362204724
 40
0.1181102362204724
 40
0.1220472440944882
 40
0.1220472440944882
 40
0.1220472440944882
 40
0.1259842519685039
 40
0.1259842519685039
 40
0.1259842519685039
 40
0.1299212598425197
 40
0.1299212598425197
 40
0.1299212598425197
 40
0.1338582677165354
 40
0.1338582677165354
 40
0.1338582677165354
 40
0.1377952755905512
 40
0.1377952755905512
 40
0.1377952755905512
 40
0.1417322834645669
 40
0.1417322834645669
 40
0.1417322834645669
 40
0.1456692913385827
 40
0.1456692913385827
 40
0.1456692913385827
 40
0.1496062992125984
 40
0.1496062992125984
 40
0.1496062992125984
 40
0.1535433070866142
 40
0.1535433070866142
 40
0.1535433070866142
 40
0.1574803149606299
 40
0.1574803149606299
 40
0.1574803149606299
 40
0.1614173228346457
 40
0.1614173228346457
 40
0.1614173228346457
 40
0.1653543307086614
 40
0.1653543307086614
 40
0.1653543307086614
 40
0.1692913385826772
 40
0.1692913385826772
 40
0.1692913385826772
 40
0.1732283464566929
 40
0.1732283464566929
 40
0.1732283464566929
 40
0.1771653543307087
 40
0.1771653543307087
 40
0.1771653543307087
 40
0.1811023622047244
 40
0.1811023622047244
 40
0.1811023622047244
 40
0.1850393700787402
 40
0.1850393700787402
 40
0.1850393700787402
 40
0.1889763779527559
 40
0.1889763779527559
 40
0.1889763779527559
 40
0.1929133858267716
 40
0.1929133858267716
 40
0.1929133858267716
 40
0.1968503937007874
 40
0.1968503937007874
 40
0.1968503937007874
 40
0.2007874015748032
 40
0.2007874015748032
 40
0.2007874015748032
 40
0.2047244094488189
 40
0.2047244094488189
 40
0.2047244094488189
 40
0.2086614173228346
 40
0.2086614173228346
 40
0.2086614173228346
 40
0.2125984251968504
 40
0.2125984251968504
 40
0.2125984251968504
 40
0.2165354330708661
 40
0.2165354330708661
 40
0.2165354330708661
 40
0.2204724409448819
 40
0.2204724409448819
 40
0.2204724409448819
 40
0.2244094488188976
 40
0.2244094488188976
 40
0.2244094488188976
 40
0.2283464566929134
 40
0.2283464566929134
 40
0.2283464566929134
 40
0.2322834645669291
 40
0.2322834645669291
 40
0.2322834645669291
 40
0.2362204724409449
 40
0.2362204724409449
 40
0.2362204724409449
 40
0.2401574803149606
 40
0.2401574803149606
 40
0.2401574803149606
 40
0.2440944881889764
 40
0.2440944881889764
 40
0.2440944881889764
 40
0.2480314960629921
 40
0.2480314960629921
 40
0.2480314960629921
 40
0.2519685039370079
 40
0.2519685039370079
 40
0.2519685039370079
 40
0.2559055118110236
 40
0.2559055118110236
 40
0.2559055118110236
 40
0.2598425196850394
 40
0.2598425196850394
 40
0.2598425196850394
 40
0.2637795275590551
 40
0.2637795275590551
 40
0.2637795275590551
 40
0.2677165354330708
 40
0.2677165354330708
 40
0.2677165354330708
 40
0.2716535433070866
 40
0.2716535433070866
 40
0.2716535433070866
 40
0.2755905511811024
 40
0.2755905511811024
 40
0.2755905511811024
 40
0.2795275590551181
 40
0.2795275590551181
 40
0.2795275590551181
 40
0.2834645669291339
 40
0.2834645669291339
 40
0.2834645669291339
 40
0.2874015748031496
 40
0.2874015748031496
 40
0.2874015748031496
 40
0.2913385826771653
 40
0.2913385826771653
 40
0.2913385826771653
 40
0.2952755905511811
 40
0.2952755905511811
 40
0.2952755905511811
 40
0.2992125984251969
 40
0.2992125984251969
 40
0.2992125984251969
 40
0.3031496062992126
 40
0.3031496062992126
 40
0.3031496062992126
 40
0.3070866141732284
 40
0.3070866141732284
 40
0.3070866141732284
 40
0.3110236220472441
 40
0.3110236220472441
 40
0.3110236220472441
 40
0.3149606299212598
 40
0.3149606299212598
 40
0.3149606299212598
 40
0.3188976377952756
 40
0.3188976377952756
 40
0.3188976377952756
 40
0.3228346456692913
 40
0.3228346456692913
 40
0.3228346456692913
 40
0.3267716535433071
 40
0.3267716535433071
 40
0.3267716535433071
 40
0.3307086614173228
 40
0.3307086614173228
 40
0.3307086614173228
 40
0.3346456692913386
 40
0.3346456692913386
 40
0.3346456692913386
 40
0.3385826771653543
 40
0.3385826771653543
 40
0.3385826771653543
 40
0.3425196850393701
 40
0.3425196850393701
 40
0.3425196850393701
 40
0.3464566929133858
 40
0.3464566929133858
 40
0.3464566929133858
 40
0.3503937007874016
 40
0.3503937007874016
 40
0.3503937007874016
 40
0.3543307086614173
 40
0.3543307086614173
 40
0.3543307086614173
 40
0.358267716535433
 40
0.358267716535433
 40
0.358267716535433
 40
0.3622047244094488
 40
0.3622047244094488
 40
0.3622047244094488
 40
0.3661417322834646
 40
0.3661417322834646
 40
0.3661417322834646
 40
0.3700787401574803
 40
0.3700787401574803
 40
0.3700787401574803
 40
0.3740157480314961
 40
0.3740157480314961
 40
0.3740157480314961
 40
0.3779527559055118
 40
0.3779527559055118
 40
0.3779527559055118
 40
0.3818897637795275
 40
0.3818897637795275
 40
0.3818897637795275
 40
0.3858267716535433
 40
0.3858267716535433
 40
0.3858267716535433
 40
0.389763779527559
 40
0.389763779527559
 40
0.389763779527559
 40
0.3937007874015748
 40
0.3937007874015748
 40
0.3937007874015748
 40
0.3976377952755906
 40
0.3976377952755906
 40
0.3976377952755906
 40
0.4015748031496063
 40
0.4015748031496063
 40
0.4015748031496063
 40
0.405511811023622
 40
0.405511811023622
 40
0.405511811023622
 40
0.4094488188976378
 40
0.4094488188976378
 40
0.4094488188976378
 40
0.4133858267716535
 40
0.4133858267716535
 40
0.4133858267716535
 40
0.4173228346456693
 40
0.4173228346456693
 40
0.4173228346456693
 40
0.421259842519685
 40
0.421259842519685
 40
0.421259842519685
 40
0.4251968503937008
 40
0.4251968503937008
 40
0.4251968503937008
 40
0.4291338582677166
 40
0.4291338582677166
 40
0.4291338582677166
 40
0.4330708661417323
 40
0.4330708661417323
 40
0.4330708661417323
 40
0.437007874015748
 40
0.437007874015748
 40
0.437007874015748
 40
0.4409448818897638
 40
0.4409448818897638
 40
0.4409448818897638
 40
0.4448818897637795
 40
0.4448818897637795
 40
0.4448818897637795
 40
0.4488188976377953
 40
0.4488188976377953
 40
0.4488188976377953
 40
0.452755905511811
 40
0.452755905511811
 40
0.452755905511811
 40
0.4566929133858267
 40
0.4566929133858267
 40
0.4566929133858267
 40
0.4606299212598425
 40
0.4606299212598425
 40
0.4606299212598425
 40
0.4645669291338583
 40
0.4645669291338583
 40
0.4645669291338583
 40
0.468503937007874
 40
0.468503937007874
 40
0.468503937007874
 40
0.4724409448818898
 40
0.4724409448818898
 40
0.4724409448818898
 40
0.4763779527559055
 40
0.4763779527559055
 40
0.4763779527559055
 40
0.4803149606299212
 40
0.4803149606299212
 40
0.4803149606299212
 40
0.484251968503937
 40
0.484251968503937
 40
0.484251968503937
 40
0.4881889763779528
 40
0.4881889763779528
 40
0.4881889763779528
 40
0.4921259842519685
 40
0.4921259842519685
 40
0.4921259842519685
 40
0.4960629921259843
 40
0.4960629921259843
 40
0.4960629921259843
 40
0.5
 40
0.5
 40
0.5
 40
0.5039370078740157
 40
0.5039370078740157
 40
0.5039370078740157
 40
0.5078740157480315
 40
0.5078740157480315
 40
0.5078740157480315
 40
0.5118110236220472
 40
0.5118110236220472
 40
0.5118110236220472
 40
0.515748031496063
 40
0.515748031496063
 40
0.515748031496063
 40
0.5196850393700787
 40
0.5196850393700787
 40
0.5196850393700787
 40
0.5236220472440944
 40
0.5236220472440944
 40
0.5236220472440944
 40
0.5275590551181102
 40
0.5275590551181102
 40
0.5275590551181102
 40
0.5314960629921259
 40
0.5314960629921259
 40
0.5314960629921259
 40
0.5354330708661417
 40
0.5354330708661417
 40
0.5354330708661417
 40
0.5393700787401575
 40
0.5393700787401575
 40
0.5393700787401575
 40
0.5433070866141733
 40
0.5433070866141733
 40
0.5433070866141733
 40
0.547244094488189
 40
0.547244094488189
 40
0.547244094488189
 40
0.5511811023622047
 40
0.5511811023622047
 40
0.5511811023622047
 40
0.5551181102362205
 40
0.5551181102362205
 40
0.5551181102362205
 40
0.5590551181102362
 40
0.5590551181102362
 40
0.5590551181102362
 40
0.562992125984252
 40
0.562992125984252
 40
0.562992125984252
 40
0.5669291338582677
 40
0.5669291338582677
 40
0.5669291338582677
 40
0.5708661417322834
 40
0.5708661417322834
 40
0.5708661417322834
 40
0.5748031496062992
 40
0.5748031496062992
 40
0.5748031496062992
 40
0.5787401574803149
 40
0.5787401574803149
 40
0.5787401574803149
 40
0.5826771653543307
 40
0.5826771653543307
 40
0.5826771653543307
 40
0.5866141732283464
 40
0.5866141732283464
 40
0.5866141732283464
 40
0.5905511811023622
 40
0.5905511811023622
 40
0.5905511811023622
 40
0.5944881889763779
 40
0.5944881889763779
 40
0.5944881889763779
 40
0.5984251968503937
 40
0.5984251968503937
 40
0.5984251968503937
 40
0.6023622047244095
 40
0.6023622047244095
 40
0.6023622047244095
 40
0.6062992125984252
 40
0.6062992125984252
 40
0.6062992125984252
 40
0.610236220472441
 40
0.610236220472441
 40
0.610236220472441
 40
0.6141732283464567
 40
0.6141732283464567
 40
0.6141732283464567
 40
0.6181102362204725
 40
0.6181102362204725
 40
0.6181102362204725
 40
0.6220472440944882
 40
0.6220472440944882
 40
0.6220472440944882
 40
0.6259842519685039
 40
0.6259842519685039
 40
0.6259842519685039
 40
0.6299212598425197
 40
0.6299212598425197
 40
0.6299212598425197
 40
0.6338582677165354
 40
0.6338582677165354
 40
0.6338582677165354
 40
0.6377952755905512
 40
0.6377952755905512
 40
0.6377952755905512
 40
0.6417322834645669
 40
0.6417322834645669
 40
0.6417322834645669
 40
0.6456692913385826
 40
0.6456692913385826
 40
0.6456692913385826
 40
0.6496062992125984
 40
0.6496062992125984
 40
0.6496062992125984
 40
0.6535433070866141
 40
0.6535433070866141
 40
0.6535433070866141
 40
0.6574803149606299
 40
0.6574803149606299
 40
0.6574803149606299
 40
0.6614173228346456
 40
0.6614173228346456
 40
0.6614173228346456
 40
0.6653543307086615
 40
0.6653543307086615
 40
0.6653543307086615
 40
0.6692913385826772
 40
0.6692913385826772
 40
0.6692913385826772
 40
0.6732283464566929
 40
0.6732283464566929
 40
0.6732283464566929
 40
0.6771653543307087
 40
0.6771653543307087
 40
0.6771653543307087
 40
0.6811023622047244
 40
0.6811023622047244
 40
0.6811023622047244
 40
0.6850393700787402
 40
0.6850393700787402
 40
0.6850393700787402
 40
0.6889763779527559
 40
0.6889763779527559
 40
0.6889763779527559
 40
0.6929133858267716
 40
0.6929133858267716
 40
0.6929133858267716
 40
0.6968503937007874
 40
0.6968503937007874
 40
0.6968503937007874
 40
0.7007874015748031
 40
0.7007874015748031
 40
0.7007874015748031
 40
0.7047244094488189
 40
0.7047244094488189
 40
0.7047244094488189
 40
0.7086614173228346
 40
0.7086614173228346
 40
0.7086614173228346
 40
0.7125984251968503
 40
0.7125984251968503
 40
0.7125984251968503
 40
0.7165354330708661
 40
0.7165354330708661
 40
0.7165354330708661
 40
0.7204724409448818
 40
0.7204724409448818
 40
0.7204724409448818
 40
0.7244094488188977
 40
0.7244094488188977
 40
0.7244094488188977
 40
0.7283464566929134
 40
0.7283464566929134
 40
0.7283464566929134
 40
0.7322834645669292
 40
0.7322834645669292
 40
0.7322834645669292
 40
0.7362204724409449
 40
0.7362204724409449
 40
0.7362204724409449
 40
0.7401574803149606
 40
0.7401574803149606
 40
0.7401574803149606
 40
0.7440944881889764
 40
0.7440944881889764
 40
0.7440944881889764
 40
0.7480314960629921
 40
0.7480314960629921
 40
0.7480314960629921
 40
0.7519685039370079
 40
0.7519685039370079
 40
0.7519685039370079
 40
0.7559055118110236
 40
0.7559055118110236
 40
0.7559055118110236
 40
0.7598425196850394
 40
0.7598425196850394
 40
0.7598425196850394
 40
0.7637795275590551
 40
0.7637795275590551
 40
0.7637795275590551
 40
0.7677165354330708
 40
0.7677165354330708
 40
0.7677165354330708
 40
0.7716535433070866
 40
0.7716535433070866
 40
0.7716535433070866
 40
0.7755905511811023
 40
0.7755905511811023
 40
0.7755905511811023
 40
0.7795275590551181
 40
0.7795275590551181
 40
0.7795275590551181
 40
0.7834645669291338
 40
0.7834645669291338
 40
0.7834645669291338
 40
0.7874015748031495
 40
0.7874015748031495
 40
0.7874015748031495
 40
0.7913385826771654
 40
0.7913385826771654
 40
0.7913385826771654
 40
0.7952755905511811
 40
0.7952755905511811
 40
0.7952755905511811
 40
0.7992125984251969
 40
0.7992125984251969
 40
0.7992125984251969
 40
0.8031496062992126
 40
0.8031496062992126
 40
0.8031496062992126
 40
0.8070866141732284
 40
0.8070866141732284
 40
0.8070866141732284
 40
0.8110236220472441
 40
0.8110236220472441
 40
0.8110236220472441
 40
0.8149606299212598
 40
0.8149606299212598
 40
0.8149606299212598
 40
0.8188976377952756
 40
0.8188976377952756
 40
0.8188976377952756
 40
0.8228346456692913
 40
0.8228346456692913
 40
0.8228346456692913
 40
0.8267716535433071
 40
0.8267716535433071
 40
0.8267716535433071
 40
0.8307086614173228
 40
0.8307086614173228
 40
0.8307086614173228
 40
0.8346456692913385
 40
0.8346456692913385
 40
0.8346456692913385
 40
0.8385826771653543
 40
0.8385826771653543
 40
0.8385826771653543
 40
0.84251968503937
 40
0.84251968503937
 40
0.84251968503937
 40
0.8464566929133858
 40
0.8464566929133858
 40
0.8464566929133858
 40
0.8503937007874016
 40
0.8503937007874016
 40
0.8503937007874016
 40
0.8543307086614174
 40
0.8543307086614174
 40
0.8543307086614174
 40
0.8582677165354331
 40
0.8582677165354331
 40
0.8582677165354331
 40
0.8622047244094488
 40
0.8622047244094488
 40
0.8622047244094488
 40
0.8661417322834646
 40
0.8661417322834646
 40
0.8661417322834646
 40
0.8700787401574803
 40
0.8700787401574803
 40
0.8700787401574803
 40
0.8740157480314961
 40
0.8740157480314961
 40
0.8740157480314961
 40
0.8779527559055118
 40
0.8779527559055118
 40
0.8779527559055118
 40
0.8818897637795275
 40
0.8818897637795275
 40
0.8818897637795275
 40
0.8858267716535433
 40
0.8858267716535433
 40
0.8858267716535433
 40
0.889763779527559
 40
0.889763779527559
 40
0.889763779527559
 40
0.8937007874015748
 40
0.8937007874015748
 40
0.8937007874015748
 40
0.8976377952755905
 40
0.8976377952755905
 40
0.8976377952755905
 40
0.9015748031496063
 40
0.9015748031496063
 40
0.9015748031496063
 40
0.905511811023622
 40
0.905511811023622
 40
0.905511811023622
 40
0.9094488188976377
 40
0.9094488188976377
 40
0.9094488188976377
 40
0.9133858267716535
 40
0.9133858267716535
 40
0.9133858267716535
 40
0.9173228346456693
 40
0.9173228346456693
 40
0.9173228346456693
 40
0.9212598425196851
 40
0.9212598425196851
 40
0.9212598425196851
 40
0.9251968503937008
 40
0.9251968503937008
 40
0.9251968503937008
 40
0.9291338582677166
 40
0.9291338582677166
 40
0.9291338582677166
 40
0.9330708661417323
 40
0.9330708661417323
 40
0.9330708661417323
 40
0.937007874015748
 40
0.937007874015748
 40
0.937007874015748
 40
0.9409448818897638
 40
0.9409448818897638
 40
0.9409448818897638
 40
0.9448818897637795
 40
0.9448818897637795
 40
0.9448818897637795
 40
0.9488188976377953
 40
0.9488188976377953
 40
0.9488188976377953
 40
0.952755905511811
 40
0.952755905511811
 40
0.952755905511811
 40
0.9566929133858267
 40
0.9566929133858267
 40
0.9566929133858267
 40
0.9606299212598425
 40
0.9606299212598425
 40
0.9606299212598425
 40
0.9645669291338582
 40
0.9645669291338582
 40
0.9645669291338582
 40
0.968503937007874
 40
0.968503937007874
 40
0.968503937007874
 40
0.9724409448818897
 40
0.9724409448818897
 40
0.9724409448818897
 40
0.9763779527559056
 40
0.9763779527559056
 40
0.9763779527559056
 40
0.9803149606299213
 40
0.9803149606299213
 40
0.9803149606299213
 40
0.984251968503937
 40
0.984251968503937
 40
0.984251968503937
 40
0.9881889763779528
 40
0.9881889763779528
 40
0.9881889763779528
 40
0.9921259842519685
 40
0.9921259842519685
 40
0.9921259842519685
 40
0.9960629921259843
 40
0.9960629921259843
 40
0.9960629921259843
 40
1.0
 40
1.0
 40
1.0
 40
1.0
 10
2220.1093
 20
479.9773
 30
0.0
 10
2220.1093
 20
479.9773
 30
0.0
 10
2208.6638
 20
483.584
 30
0.0
 10
2208.6638
 20
483.584
 30
0.0
 10
2211.3057
 20
482.7515
 30
0.0
 10
2214.1031
 20
484.2083
 30
0.0
 10
2214.9357
 20
486.8502
 30
0.0
 10
2214.9357
 20
486.8502
 30
0.0
 10
2224.5536
 20
517.3708
 30
0.0
 10
2224.5536
 20
517.3708
 30
0.0
 10
2225.3861
 20
520.0127
 30
0.0
 10
2223.9292
 20
522.8097
 30
0.0
 10
2221.2873
 20
523.6422
 30
0.0
 10
2221.2873
 20
523.6422
 30
0.0
 10
2219.3798
 20
524.2433
 30
0.0
 10
2219.3798
 20
524.2433
 30
0.0
 10
2219.3798
 20
524.2433
 30
0.0
 10
2219.532
 20
524.7263
 30
0.0
 10
2219.532
 20
524.7263
 30
0.0
 10
2220.8709
 20
524.798
 30
0.0
 10
2221.7991
 20
525.2795
 30
0.0
 10
2222.0387
 20
526.0267
 30
0.0
 10
2222.238
 20
526.659
 30
0.0
 10
2221.9268
 20
527.4239
 30
0.0
 10
2221.1733
 20
528.1529
 30
0.0
 10
2220.4198
 20
528.882
 30
0.0
 10
2219.2859
 20
529.5155
 30
0.0
 10
2218.0209
 20
529.9136
 30
0.0
 10
2216.7561
 20
530.3121
 30
0.0
 10
2215.464
 20
530.4431
 30
0.0
 10
2214.4288
 20
530.2777
 30
0.0
 10
2213.3936
 20
530.1123
 30
0.0
 10
2212.7002
 20
529.6641
 30
0.0
 10
2212.501
 20
529.0318
 30
0.0
 10
2212.2685
 20
528.2821
 30
0.0
 10
2212.7528
 20
527.3553
 30
0.0
 10
2213.8089
 20
526.5287
 30
0.0
 10
2213.8089
 20
526.5287
 30
0.0
 10
2213.6569
 20
526.0462
 30
0.0
 10
2213.6569
 20
526.0462
 30
0.0
 10
2213.6569
 20
526.0462
 30
0.0
 10
2211.7496
 20
526.6473
 30
0.0
 10
2211.7496
 20
526.6473
 30
0.0
 10
2209.1076
 20
527.4798
 30
0.0
 10
2206.3109
 20
526.0234
 30
0.0
 10
2205.4783
 20
523.3814
 30
0.0
 10
2205.4783
 20
523.3814
 30
0.0
 10
2195.8604
 20
492.8608
 30
0.0
 10
2195.8604
 20
492.8608
 30
0.0
 10
2195.0279
 20
490.2189
 30
0.0
 10
2196.4842
 20
487.4216
 30
0.0
 10
2199.1261
 20
486.5891
 30
0.0
 10
2199.1261
 20
486.5891
 30
0.0
 10
2187.6812
 20
490.1957
 30
0.0
 10
2187.6812
 20
490.1957
 30
0.0
 10
2190.3231
 20
489.3632
 30
0.0
 10
2193.12
 20
490.8201
 30
0.0
 10
2193.9525
 20
493.462
 30
0.0
 10
2193.9525
 20
493.462
 30
0.0
 10
2202.9692
 20
522.0748
 30
0.0
 10
2202.9692
 20
522.0748
 30
0.0
 10
2203.8017
 20
524.7167
 30
0.0
 10
2202.3454
 20
527.5139
 30
0.0
 10
2199.7035
 20
528.3465
 30
0.0
 10
2199.7035
 20
528.3465
 30
0.0
 10
2197.7961
 20
528.9475
 30
0.0
 10
2197.7961
 20
528.9475
 30
0.0
 10
2197.7961
 20
528.9475
 30
0.0
 10
2197.9483
 20
529.4305
 30
0.0
 10
2197.9483
 20
529.4305
 30
0.0
 10
2199.2872
 20
529.5022
 30
0.0
 10
2200.2154
 20
529.9837
 30
0.0
 10
2200.4549
 20
530.731
 30
0.0
 10
2200.6543
 20
531.3633
 30
0.0
 10
2200.343
 20
532.1282
 30
0.0
 10
2199.5896
 20
532.8572
 30
0.0
 10
2198.836
 20
533.5862
 30
0.0
 10
2197.7021
 20
534.2197
 30
0.0
 10
2196.4373
 20
534.6183
 30
0.0
 10
2195.1725
 20
535.0168
 30
0.0
 10
2193.8804
 20
535.1478
 30
0.0
 10
2192.8452
 20
534.9824
 30
0.0
 10
2191.81
 20
534.8171
 30
0.0
 10
2191.1166
 20
534.3689
 30
0.0
 10
2190.9174
 20
533.7365
 30
0.0
 10
2190.6849
 20
532.9868
 30
0.0
 10
2191.1692
 20
532.06
 30
0.0
 10
2192.2254
 20
531.2334
 30
0.0
 10
2192.2254
 20
531.2334
 30
0.0
 10
2192.0734
 20
530.7509
 30
0.0
 10
2192.0734
 20
530.7509
 30
0.0
 10
2192.0734
 20
530.7509
 30
0.0
 10
2190.166
 20
531.352
 30
0.0
 10
2190.166
 20
531.352
 30
0.0
 10
2187.524
 20
532.1845
 30
0.0
 10
2184.7266
 20
530.7278
 30
0.0
 10
2183.8941
 20
528.0858
 30
0.0
 10
2183.8941
 20
528.0858
 30
0.0
 10
2174.8774
 20
499.4731
 30
0.0
 10
2174.8774
 20
499.4731
 30
0.0
 10
2174.0449
 20
496.8312
 30
0.0
 10
2175.5017
 20
494.0338
 30
0.0
 10
2178.1436
 20
493.2013
 30
0.0
 10
2178.1436
 20
493.2013
 30
0.0
 10
2160.9754
 20
498.6114
 30
0.0
 10
2160.9754
 20
498.6114
 30
0.0
 10
2163.6173
 20
497.7789
 30
0.0
 10
2166.4147
 20
499.2357
 30
0.0
 10
2167.2472
 20
501.8776
 30
0.0
 10
2167.2472
 20
501.8776
 30
0.0
 10
2172.6573
 20
519.0453
 30
0.0
 10
2172.6573
 20
519.0453
 30
0.0
 10
2173.4898
 20
521.6873
 30
0.0
 10
2172.033
 20
524.4847
 30
0.0
 10
2169.3911
 20
525.3172
 30
0.0
 10
2169.3911
 20
525.3172
 30
0.0
 10
2167.4837
 20
525.9183
 30
0.0
 10
2167.4837
 20
525.9183
 30
0.0
 10
2167.4837
 20
525.9183
 30
0.0
 10
2167.6359
 20
526.4013
 30
0.0
 10
2167.6359
 20
526.4013
 30
0.0
 10
2168.9748
 20
526.473
 30
0.0
 10
2169.903
 20
526.9545
 30
0.0
 10
2170.1425
 20
527.7017
 30
0.0
 10
2170.3419
 20
528.3341
 30
0.0
 10
2170.0306
 20
529.099
 30
0.0
 10
2169.2772
 20
529.828
 30
0.0
 10
2168.5238
 20
530.557
 30
0.0
 10
2167.3898
 20
531.1905
 30
0.0
 10
2166.1249
 20
531.5891
 30
0.0
 10
2164.8602
 20
531.9876
 30
0.0
 10
2163.5681
 20
532.1185
 30
0.0
 10
2162.5329
 20
531.9532
 30
0.0
 10
2161.4976
 20
531.7878
 30
0.0
 10
2160.8042
 20
531.3396
 30
0.0
 10
2160.605
 20
530.7073
 30
0.0
 10
2160.3725
 20
529.9577
 30
0.0
 10
2160.8568
 20
529.0307
 30
0.0
 10
2161.9131
 20
528.2042
 30
0.0
 10
2161.9131
 20
528.2042
 30
0.0
 10
2161.761
 20
527.7217
 30
0.0
 10
2161.761
 20
527.7217
 30
0.0
 10
2161.761
 20
527.7217
 30
0.0
 10
2159.8536
 20
528.3227
 30
0.0
 10
2159.8536
 20
528.3227
 30
0.0
 10
2157.2116
 20
529.1553
 30
0.0
 10
2154.4147
 20
527.6984
 30
0.0
 10
2153.5822
 20
525.0564
 30
0.0
 10
2153.5822
 20
525.0564
 30
0.0
 10
2148.1722
 20
507.8887
 30
0.0
 10
2148.1722
 20
507.8887
 30
0.0
 10
2147.3396
 20
505.2468
 30
0.0
 10
2148.7959
 20
502.4495
 30
0.0
 10
2151.4378
 20
501.617
 30
0.0
 10
2151.4378
 20
501.617
 30
0.0
 10
2122.8252
 20
510.6336
 30
0.0
 10
2122.8252
 20
510.6336
 30
0.0
 10
2125.4671
 20
509.8011
 30
0.0
 10
2128.2641
 20
511.258
 30
0.0
 10
2129.0966
 20
513.8999
 30
0.0
 10
2129.0966
 20
513.8999
 30
0.0
 10
2130.2988
 20
517.7148
 30
0.0
 10
2130.2988
 20
517.7148
 30
0.0
 10
2131.1313
 20
520.3567
 30
0.0
 10
2129.675
 20
523.1539
 30
0.0
 10
2127.0331
 20
523.9865
 30
0.0
 10
2127.0331
 20
523.9865
 30
0.0
 10
2125.1256
 20
524.5876
 30
0.0
 10
2125.1256
 20
524.5876
 30
0.0
 10
2125.1256
 20
524.5876
 30
0.0
 10
2125.2778
 20
525.0706
 30
0.0
 10
2125.2778
 20
525.0706
 30
0.0
 10
2126.6168
 20
525.1423
 30
0.0
 10
2127.545
 20
525.6238
 30
0.0
 10
2127.7845
 20
526.371
 30
0.0
 10
2127.9839
 20
527.0034
 30
0.0
 10
2127.6726
 20
527.7682
 30
0.0
 10
2126.9192
 20
528.4973
 30
0.0
 10
2126.1658
 20
529.2263
 30
0.0
 10
2125.0318
 20
529.8598
 30
0.0
 10
2123.7669
 20
530.2583
 30
0.0
 10
2122.5021
 20
530.6569
 30
0.0
 10
2121.21
 20
530.7879
 30
0.0
 10
2120.1748
 20
530.6225
 30
0.0
 10
2119.1396
 20
530.4571
 30
0.0
 10
2118.4461
 20
530.0089
 30
0.0
 10
2118.247
 20
529.3765
 30
0.0
 10
2118.0145
 20
528.6269
 30
0.0
 10
2118.4988
 20
527.7
 30
0.0
 10
2119.555
 20
526.8735
 30
0.0
 10
2119.555
 20
526.8735
 30
0.0
 10
2119.403
 20
526.3909
 30
0.0
 10
2119.403
 20
526.3909
 30
0.0
 10
2119.403
 20
526.3909
 30
0.0
 10
2117.4951
 20
526.9922
 30
0.0
 10
2117.4951
 20
526.9922
 30
0.0
 10
2114.8531
 20
527.8247
 30
0.0
 10
2112.0562
 20
526.3678
 30
0.0
 10
2111.2237
 20
523.7259
 30
0.0
 10
2111.2237
 20
523.7259
 30
0.0
 10
2110.0215
 20
519.911
 30
0.0
 10
2110.0215
 20
519.911
 30
0.0
 10
2109.189
 20
517.2691
 30
0.0
 10
2110.6453
 20
514.4718
 30
0.0
 10
2113.2872
 20
513.6393
 30
0.0
 10
2113.2872
 20
513.6393
 30
0.0
 10
2098.9811
 20
518.1475
 30
0.0
 10
2098.9811
 20
518.1475
 30
0.0
 10
2099.8137
 20
520.7895
 30
0.0
 10
2098.3567
 20
523.5864
 30
0.0
 10
2095.7148
 20
524.4189
 30
0.0
 10
2095.7148
 20
524.4189
 30
0.0
 10
2067.1021
 20
533.4356
 30
0.0
 10
2067.1021
 20
533.4356
 30
0.0
 10
2064.4603
 20
534.2686
 30
0.0
 10
2061.6631
 20
532.8123
 30
0.0
 10
2060.8305
 20
530.1704
 30
0.0
 10
2060.8305
 20
530.1704
 30
0.0
 10
2054.8193
 20
511.0948
 30
0.0
 10
2054.8193
 20
511.0948
 30
0.0
 10
2053.9868
 20
508.4529
 30
0.0
 10
2055.4437
 20
505.656
 30
0.0
 10
2058.0856
 20
504.8234
 30
0.0
 10
2058.0856
 20
504.8234
 30
0.0
 10
2086.6983
 20
495.8068
 30
0.0
 10
2086.6983
 20
495.8068
 30
0.0
 10
2089.3403
 20
494.9742
 30
0.0
 10
2092.1375
 20
496.4305
 30
0.0
 10
2092.97
 20
499.0724
 30
0.0
 10
2092.97
 20
499.0724
 30
0.0
 10
2107.2761
 20
494.5642
 30
0.0
 10
2107.2761
 20
494.5642
 30
0.0
 10
2104.6342
 20
495.3968
 30
0.0
 10
2101.8373
 20
493.9398
 30
0.0
 10
2101.0047
 20
491.2979
 30
0.0
 10
2101.0047
 20
491.2979
 30
0.0
 10
2099.8026
 20
487.4831
 30
0.0
 10
2099.8026
 20
487.4831
 30
0.0
 10
2098.9701
 20
484.8412
 30
0.0
 10
2100.4264
 20
482.044
 30
0.0
 10
2103.0683
 20
481.2114
 30
0.0
 10
2103.0683
 20
481.2114
 30
0.0
 10
2104.9762
 20
480.6102
 30
0.0
 10
2104.9762
 20
480.6102
 30
0.0
 10
2104.9762
 20
480.6102
 30
0.0
 10
2104.8241
 20
480.1276
 30
0.0
 10
2104.8241
 20
480.1276
 30
0.0
 10
2103.4848
 20
480.0559
 30
0.0
 10
2102.5567
 20
479.5742
 30
0.0
 10
2102.3173
 20
478.8267
 30
0.0
 10
2102.1179
 20
478.1944
 30
0.0
 10
2102.4292
 20
477.4296
 30
0.0
 10
2103.1825
 20
476.7006
 30
0.0
 10
2103.9359
 20
475.9716
 30
0.0
 10
2105.0697
 20
475.3381
 30
0.0
 10
2106.3344
 20
474.9395
 30
0.0
 10
2107.5993
 20
474.5409
 30
0.0
 10
2108.8915
 20
474.4098
 30
0.0
 10
2109.9268
 20
474.5752
 30
0.0
 10
2110.9621
 20
474.7405
 30
0.0
 10
2111.6557
 20
475.1888
 30
0.0
 10
2111.8549
 20
475.8211
 30
0.0
 10
2112.087
 20
476.5707
 30
0.0
 10
2111.6026
 20
477.4974
 30
0.0
 10
2110.5466
 20
478.3237
 30
0.0
 10
2110.5466
 20
478.3237
 30
0.0
 10
2110.6989
 20
478.8068
 30
0.0
 10
2110.6989
 20
478.8068
 30
0.0
 10
2110.6989
 20
478.8068
 30
0.0
 10
2112.6063
 20
478.2057
 30
0.0
 10
2112.6063
 20
478.2057
 30
0.0
 10
2115.2482
 20
477.3732
 30
0.0
 10
2118.0451
 20
478.8301
 30
0.0
 10
2118.8777
 20
481.472
 30
0.0
 10
2118.8777
 20
481.472
 30
0.0
 10
2120.0798
 20
485.2868
 30
0.0
 10
2120.0798
 20
485.2868
 30
0.0
 10
2120.9124
 20
487.9287
 30
0.0
 10
2119.4561
 20
490.726
 30
0.0
 10
2116.8141
 20
491.5585
 30
0.0
 10
2116.8141
 20
491.5585
 30
0.0
 10
2145.4268
 20
482.5419
 30
0.0
 10
2145.4268
 20
482.5419
 30
0.0
 10
2142.7848
 20
483.3744
 30
0.0
 10
2139.9879
 20
481.9175
 30
0.0
 10
2139.1554
 20
479.2756
 30
0.0
 10
2139.1554
 20
479.2756
 30
0.0
 10
2133.7454
 20
462.1079
 30
0.0
 10
2133.7454
 20
462.1079
 30
0.0
 10
2132.9128
 20
459.466
 30
0.0
 10
2134.3693
 20
456.6692
 30
0.0
 10
2137.0112
 20
455.8367
 30
0.0
 10
2137.0112
 20
455.8367
 30
0.0
 10
2138.9187
 20
455.2356
 30
0.0
 10
2138.9187
 20
455.2356
 30
0.0
 10
2138.9187
 20
455.2356
 30
0.0
 10
2138.7666
 20
454.7531
 30
0.0
 10
2138.7666
 20
454.7531
 30
0.0
 10
2137.4273
 20
454.6813
 30
0.0
 10
2136.4991
 20
454.1996
 30
0.0
 10
2136.2598
 20
453.4522
 30
0.0
 10
2136.0602
 20
452.8197
 30
0.0
 10
2136.3712
 20
452.0549
 30
0.0
 10
2137.1246
 20
451.3259
 30
0.0
 10
2137.8779
 20
450.5967
 30
0.0
 10
2139.0118
 20
449.9631
 30
0.0
 10
2140.2767
 20
449.5644
 30
0.0
 10
2141.5418
 20
449.1658
 30
0.0
 10
2142.8342
 20
449.0348
 30
0.0
 10
2143.8696
 20
449.2002
 30
0.0
 10
2144.9049
 20
449.3656
 30
0.0
 10
2145.5984
 20
449.814
 30
0.0
 10
2145.7973
 20
450.4467
 30
0.0
 10
2146.0294
 20
451.1961
 30
0.0
 10
2145.545
 20
452.1228
 30
0.0
 10
2144.4891
 20
452.9493
 30
0.0
 10
2144.4891
 20
452.9493
 30
0.0
 10
2144.6413
 20
453.4322
 30
0.0
 10
2144.6413
 20
453.4322
 30
0.0
 10
2144.6413
 20
453.4322
 30
0.0
 10
2146.5488
 20
452.8312
 30
0.0
 10
2146.5488
 20
452.8312
 30
0.0
 10
2149.1907
 20
451.9986
 30
0.0
 10
2151.9879
 20
453.4549
 30
0.0
 10
2152.8205
 20
456.0968
 30
0.0
 10
2152.8205
 20
456.0968
 30
0.0
 10
2158.2305
 20
473.2645
 30
0.0
 10
2158.2305
 20
473.2645
 30
0.0
 10
2159.063
 20
475.9064
 30
0.0
 10
2157.6062
 20
478.7038
 30
0.0
 10
2154.9643
 20
479.5364
 30
0.0
 10
2154.9643
 20
479.5364
 30
0.0
 10
2172.1325
 20
474.1262
 30
0.0
 10
2172.1325
 20
474.1262
 30
0.0
 10
2169.4906
 20
474.9587
 30
0.0
 10
2166.6932
 20
473.5019
 30
0.0
 10
2165.8607
 20
470.86
 30
0.0
 10
2165.8607
 20
470.86
 30
0.0
 10
2156.8441
 20
442.2474
 30
0.0
 10
2156.8441
 20
442.2474
 30
0.0
 10
2156.0115
 20
439.6055
 30
0.0
 10
2157.4683
 20
436.8081
 30
0.0
 10
2160.1102
 20
435.9755
 30
0.0
 10
2160.1102
 20
435.9755
 30
0.0
 10
2162.0176
 20
435.3744
 30
0.0
 10
2162.0176
 20
435.3744
 30
0.0
 10
2162.0176
 20
435.3744
 30
0.0
 10
2161.8656
 20
434.8919
 30
0.0
 10
2161.8656
 20
434.8919
 30
0.0
 10
2160.5263
 20
434.8202
 30
0.0
 10
2159.5981
 20
434.3385
 30
0.0
 10
2159.3588
 20
433.591
 30
0.0
 10
2159.1594
 20
432.9587
 30
0.0
 10
2159.4706
 20
432.1939
 30
0.0
 10
2160.224
 20
431.4649
 30
0.0
 10
2160.9773
 20
430.7359
 30
0.0
 10
2162.1111
 20
430.1024
 30
0.0
 10
2163.3759
 20
429.7038
 30
0.0
 10
2164.6408
 20
429.3051
 30
0.0
 10
2165.9329
 20
429.1741
 30
0.0
 10
2166.9683
 20
429.3395
 30
0.0
 10
2168.0036
 20
429.5048
 30
0.0
 10
2168.6971
 20
429.953
 30
0.0
 10
2168.8963
 20
430.5855
 30
0.0
 10
2169.1284
 20
431.335
 30
0.0
 10
2168.644
 20
432.2616
 30
0.0
 10
2167.5881
 20
433.088
 30
0.0
 10
2167.5881
 20
433.088
 30
0.0
 10
2167.7403
 20
433.5711
 30
0.0
 10
2167.7403
 20
433.5711
 30
0.0
 10
2167.7403
 20
433.5711
 30
0.0
 10
2169.6478
 20
432.97
 30
0.0
 10
2169.6478
 20
432.97
 30
0.0
 10
2172.2897
 20
432.1374
 30
0.0
 10
2175.0866
 20
433.5944
 30
0.0
 10
2175.9191
 20
436.2363
 30
0.0
 10
2175.9191
 20
436.2363
 30
0.0
 10
2184.9358
 20
464.8489
 30
0.0
 10
2184.9358
 20
464.8489
 30
0.0
 10
2185.7683
 20
467.4909
 30
0.0
 10
2184.312
 20
470.2881
 30
0.0
 10
2181.6701
 20
471.1206
 30
0.0
 10
2181.6701
 20
471.1206
 30
0.0
 10
2193.115
 20
467.514
 30
0.0
 10
2193.115
 20
467.514
 30
0.0
 10
2190.4731
 20
468.3465
 30
0.0
 10
2187.6762
 20
466.8896
 30
0.0
 10
2186.8437
 20
464.2477
 30
0.0
 10
2186.8437
 20
464.2477
 30
0.0
 10
2177.2258
 20
433.7272
 30
0.0
 10
2177.2258
 20
433.7272
 30
0.0
 10
2176.3933
 20
431.0852
 30
0.0
 10
2177.8497
 20
428.2885
 30
0.0
 10
2180.4916
 20
427.4559
 30
0.0
 10
2180.4916
 20
427.4559
 30
0.0
 10
2182.399
 20
426.8549
 30
0.0
 10
2182.399
 20
426.8549
 30
0.0
 10
2182.399
 20
426.8549
 30
0.0
 10
2182.2469
 20
426.3724
 30
0.0
 10
2182.2469
 20
426.3724
 30
0.0
 10
2180.9078
 20
426.3006
 30
0.0
 10
2179.9795
 20
425.8189
 30
0.0
 10
2179.7402
 20
425.0714
 30
0.0
 10
2179.5409
 20
424.4391
 30
0.0
 10
2179.8521
 20
423.6743
 30
0.0
 10
2180.6054
 20
422.9453
 30
0.0
 10
2181.3587
 20
422.2163
 30
0.0
 10
2182.4925
 20
421.5828
 30
0.0
 10
2183.7573
 20
421.1842
 30
0.0
 10
2185.0221
 20
420.7856
 30
0.0
 10
2186.3143
 20
420.6545
 30
0.0
 10
2187.3497
 20
420.8199
 30
0.0
 10
2188.385
 20
420.9852
 30
0.0
 10
2189.0786
 20
421.4334
 30
0.0
 10
2189.2778
 20
422.0659
 30
0.0
 10
2189.5099
 20
422.8155
 30
0.0
 10
2189.0254
 20
423.7421
 30
0.0
 10
2187.9696
 20
424.5685
 30
0.0
 10
2187.9696
 20
424.5685
 30
0.0
 10
2188.1218
 20
425.0515
 30
0.0
 10
2188.1218
 20
425.0515
 30
0.0
 10
2188.1218
 20
425.0515
 30
0.0
 10
2190.0292
 20
424.4504
 30
0.0
 10
2190.0292
 20
424.4504
 30
0.0
 10
2192.6711
 20
423.6178
 30
0.0
 10
2195.4684
 20
425.0741
 30
0.0
 10
2196.3009
 20
427.7161
 30
0.0
 10
2196.3009
 20
427.7161
 30
0.0
 10
2205.9188
 20
458.2366
 30
0.0
 10
2205.9188
 20
458.2366
 30
0.0
 10
2206.7513
 20
460.8785
 30
0.0
 10
2205.2945
 20
463.6759
 30
0.0
 10
2202.6526
 20
464.5085
 30
0.0
 10
2202.6526
 20
464.5085
 30
0.0
 10
2214.098
 20
460.9017
 30
0.0
 10
2214.098
 20
460.9017
 30
0.0
 10
2211.4561
 20
461.7342
 30
0.0
 10
2208.6587
 20
460.2775
 30
0.0
 10
2207.8262
 20
457.6355
 30
0.0
 10
2207.8262
 20
457.6355
 30
0.0
 10
2198.8096
 20
429.0229
 30
0.0
 10
2198.8096
 20
429.0229
 30
0.0
 10
2197.977
 20
426.381
 30
0.0
 10
2199.4338
 20
423.5836
 30
0.0
 10
2202.0757
 20
422.751
 30
0.0
 10
2202.0757
 20
422.751
 30
0.0
 10
2203.9832
 20
422.15
 30
0.0
 10
2203.9832
 20
422.15
 30
0.0
 10
2203.9832
 20
422.15
 30
0.0
 10
2203.8311
 20
421.6674
 30
0.0
 10
2203.8311
 20
421.6674
 30
0.0
 10
2202.4918
 20
421.5958
 30
0.0
 10
2201.5636
 20
421.114
 30
0.0
 10
2201.3243
 20
420.3665
 30
0.0
 10
2201.1249
 20
419.7342
 30
0.0
 10
2201.4362
 20
418.9694
 30
0.0
 10
2202.1895
 20
418.2404
 30
0.0
 10
2202.9428
 20
417.5114
 30
0.0
 10
2204.0766
 20
416.8779
 30
0.0
 10
2205.3414
 20
416.4793
 30
0.0
 10
2206.6063
 20
416.0806
 30
0.0
 10
2207.8984
 20
415.9496
 30
0.0
 10
2208.9338
 20
416.115
 30
0.0
 10
2209.9691
 20
416.2804
 30
0.0
 10
2210.6626
 20
416.7285
 30
0.0
 10
2210.8618
 20
417.361
 30
0.0
 10
2211.0939
 20
418.1105
 30
0.0
 10
2210.6096
 20
419.0371
 30
0.0
 10
2209.5536
 20
419.8635
 30
0.0
 10
2209.5536
 20
419.8635
 30
0.0
 10
2209.7058
 20
420.3466
 30
0.0
 10
2209.7058
 20
420.3466
 30
0.0
 10
2209.7058
 20
420.3466
 30
0.0
 10
2211.6133
 20
419.7455
 30
0.0
 10
2211.6133
 20
419.7455
 30
0.0
 10
2214.2552
 20
418.913
 30
0.0
 10
2217.0521
 20
420.3699
 30
0.0
 10
2217.8846
 20
423.0118
 30
0.0
 10
2217.8846
 20
423.0118
 30
0.0
 10
2226.9013
 20
451.6244
 30
0.0
 10
2226.9013
 20
451.6244
 30
0.0
 10
2227.7338
 20
454.2664
 30
0.0
 10
2226.2775
 20
457.0636
 30
0.0
 10
2223.6356
 20
457.8961
 30
0.0
 10
2223.6356
 20
457.8961
 30
0.0
 10
2240.8032
 20
452.4861
 30
0.0
 10
2240.8032
 20
452.4861
 30
0.0
 10
2238.1613
 20
453.3187
 30
0.0
 10
2235.3639
 20
451.8619
 30
0.0
 10
2234.5314
 20
449.22
 30
0.0
 10
2234.5314
 20
449.22
 30
0.0
 10
2229.1214
 20
432.0523
 30
0.0
 10
2229.1214
 20
432.0523
 30
0.0
 10
2228.2888
 20
429.4104
 30
0.0
 10
2229.7458
 20
426.6135
 30
0.0
 10
2232.3877
 20
425.781
 30
0.0
 10
2232.3877
 20
425.781
 30
0.0
 10
2234.2951
 20
425.1799
 30
0.0
 10
2234.2951
 20
425.1799
 30
0.0
 10
2234.2951
 20
425.1799
 30
0.0
 10
2234.1431
 20
424.6974
 30
0.0
 10
2234.1431
 20
424.6974
 30
0.0
 10
2232.8038
 20
424.6256
 30
0.0
 10
2231.8756
 20
424.1439
 30
0.0
 10
2231.6363
 20
423.3964
 30
0.0
 10
2231.4366
 20
422.764
 30
0.0
 10
2231.7477
 20
421.9992
 30
0.0
 10
2232.501
 20
421.27
 30
0.0
 10
2233.2544
 20
420.541
 30
0.0
 10
2234.3883
 20
419.9074
 30
0.0
 10
2235.6532
 20
419.5087
 30
0.0
 10
2236.9183
 20
419.11
 30
0.0
 10
2238.2107
 20
418.979
 30
0.0
 10
2239.2461
 20
419.1445
 30
0.0
 10
2240.2813
 20
419.3099
 30
0.0
 10
2240.9749
 20
419.7583
 30
0.0
 10
2241.1738
 20
420.3909
 30
0.0
 10
2241.4059
 20
421.1404
 30
0.0
 10
2240.9215
 20
422.067
 30
0.0
 10
2239.8656
 20
422.8935
 30
0.0
 10
2239.8656
 20
422.8935
 30
0.0
 10
2240.0178
 20
423.3765
 30
0.0
 10
2240.0178
 20
423.3765
 30
0.0
 10
2240.0178
 20
423.3765
 30
0.0
 10
2241.9252
 20
422.7754
 30
0.0
 10
2241.9252
 20
422.7754
 30
0.0
 10
2244.5672
 20
421.9429
 30
0.0
 10
2247.3644
 20
423.3992
 30
0.0
 10
2248.1969
 20
426.0411
 30
0.0
 10
2248.1969
 20
426.0411
 30
0.0
 10
2253.6069
 20
443.2088
 30
0.0
 10
2253.6069
 20
443.2088
 30
0.0
 10
2254.4395
 20
445.8507
 30
0.0
 10
2252.9827
 20
448.6481
 30
0.0
 10
2250.3408
 20
449.4806
 30
0.0
 10
2250.3408
 20
449.4806
 30
0.0
 10
2278.954
 20
440.4638
 30
0.0
 10
2278.954
 20
440.4638
 30
0.0
 10
2276.3121
 20
441.2963
 30
0.0
 10
2273.5146
 20
439.8396
 30
0.0
 10
2272.682
 20
437.1977
 30
0.0
 10
2272.682
 20
437.1977
 30
0.0
 10
2271.4799
 20
433.3829
 30
0.0
 10
2271.4799
 20
433.3829
 30
0.0
 10
2270.6473
 20
430.741
 30
0.0
 10
2272.1042
 20
427.9435
 30
0.0
 10
2274.7461
 20
427.111
 30
0.0
 10
2274.7461
 20
427.111
 30
0.0
 10
2276.6535
 20
426.51
 30
0.0
 10
2276.6535
 20
426.51
 30
0.0
 10
2276.6535
 20
426.51
 30
0.0
 10
2276.5014
 20
426.0274
 30
0.0
 10
2276.5014
 20
426.0274
 30
0.0
 10
2275.1622
 20
425.9556
 30
0.0
 10
2274.2339
 20
425.474
 30
0.0
 10
2273.9947
 20
424.7264
 30
0.0
 10
2273.7953
 20
424.0941
 30
0.0
 10
2274.1066
 20
423.3293
 30
0.0
 10
2274.8599
 20
422.6004
 30
0.0
 10
2275.6132
 20
421.8713
 30
0.0
 10
2276.747
 20
421.2379
 30
0.0
 10
2278.0118
 20
420.8392
 30
0.0
 10
2279.2766
 20
420.4406
 30
0.0
 10
2280.5689
 20
420.3096
 30
0.0
 10
2281.6041
 20
420.475
 30
0.0
 10
2282.6395
 20
420.6402
 30
0.0
 10
2283.3331
 20
421.0885
 30
0.0
 10
2283.5322
 20
421.7209
 30
0.0
 10
2283.7644
 20
422.4705
 30
0.0
 10
2283.28
 20
423.3971
 30
0.0
 10
2282.224
 20
424.2235
 30
0.0
 10
2282.224
 20
424.2235
 30
0.0
 10
2282.3763
 20
424.7066
 30
0.0
 10
2282.3763
 20
424.7066
 30
0.0
 10
2282.3763
 20
424.7066
 30
0.0
 10
2284.2837
 20
424.1055
 30
0.0
 10
2284.2837
 20
424.1055
 30
0.0
 10
2286.9256
 20
423.2729
 30
0.0
 10
2289.723
 20
424.7297
 30
0.0
 10
2290.5555
 20
427.3716
 30
0.0
 10
2290.5555
 20
427.3716
 30
0.0
 10
2291.7577
 20
431.1864
 30
0.0
 10
2291.7577
 20
431.1864
 30
0.0
 10
2292.5902
 20
433.8283
 30
0.0
 10
2291.1334
 20
436.6257
 30
0.0
 10
2288.4915
 20
437.4583
 30
0.0
 10
2288.4915
 20
437.4583
 30
0.0
 10
2302.7981
 20
432.9499
 30
0.0
 10
2302.7981
 20
432.9499
 30
0.0
 10
2301.9655
 20
430.3079
 30
0.0
 10
2303.422
 20
427.5112
 30
0.0
 10
2306.0639
 20
426.6786
 30
0.0
 10
2306.0639
 20
426.6786
 30
0.0
 10
2334.677
 20
417.6619
 30
0.0
 10
2334.677
 20
417.6619
 30
0.0
 10
2337.3189
 20
416.8293
 30
0.0
 10
2340.1157
 20
418.2858
 30
0.0
 10
2340.9482
 20
420.9277
 30
0.0
 10
2340.9482
 20
420.9277
 30
0.0
 10
2346.9595
 20
440.0033
 30
0.0
 10
2346.9595
 20
440.0033
 30
0.0
 10
2347.792
 20
442.6452
 30
0.0
 10
2346.3356
 20
445.442
 30
0.0
 10
2343.6936
 20
446.2745
 30
0.0
 10
2343.6936
 20
446.2745
 30
0.0
 10
2315.0805
 20
455.2913
 30
0.0
 10
2315.0805
 20
455.2913
 30
0.0
 10
2312.4386
 20
456.1238
 30
0.0
 10
2309.6418
 20
454.6674
 30
0.0
 10
2308.8093
 20
452.0254
 30
0.0
 10
2308.8093
 20
452.0254
 30
0.0
 10
2294.5028
 20
456.5338
 30
0.0
 10
2294.5028
 20
456.5338
 30
0.0
 10
2297.1447
 20
455.7013
 30
0.0
 10
2299.9421
 20
457.1581
 30
0.0
 10
2300.7746
 20
459.8
 30
0.0
 10
2300.7746
 20
459.8
 30
0.0
 10
2301.9768
 20
463.6149
 30
0.0
 10
2301.9768
 20
463.6149
 30
0.0
 10
2302.8093
 20
466.2568
 30
0.0
 10
2301.3525
 20
469.0542
 30
0.0
 10
2298.7106
 20
469.8867
 30
0.0
 10
2298.7106
 20
469.8867
 30
0.0
 10
2296.8032
 20
470.4878
 30
0.0
 10
2296.8032
 20
470.4878
 30
0.0
 10
2296.8032
 20
470.4878
 30
0.0
 10
2296.9554
 20
470.9708
 30
0.0
 10
2296.9554
 20
470.9708
 30
0.0
 10
2298.2943
 20
471.0426
 30
0.0
 10
2299.2224
 20
471.5241
 30
0.0
 10
2299.462
 20
472.2712
 30
0.0
 10
2299.6614
 20
472.9036
 30
0.0
 10
2299.3501
 20
473.6685
 30
0.0
 10
2298.5967
 20
474.3975
 30
0.0
 10
2297.8432
 20
475.1266
 30
0.0
 10
2296.7093
 20
475.7601
 30
0.0
 10
2295.4445
 20
476.1586
 30
0.0
 10
2294.1797
 20
476.5571
 30
0.0
 10
2292.8875
 20
476.6882
 30
0.0
 10
2291.8523
 20
476.5227
 30
0.0
 10
2290.8171
 20
476.3573
 30
0.0
 10
2290.1237
 20
475.9091
 30
0.0
 10
2289.9245
 20
475.2768
 30
0.0
 10
2289.692
 20
474.5272
 30
0.0
 10
2290.1764
 20
473.6002
 30
0.0
 10
2291.2325
 20
472.7737
 30
0.0
 10
2291.2325
 20
472.7737
 30
0.0
 10
2291.0804
 20
472.2912
 30
0.0
 10
2291.0804
 20
472.2912
 30
0.0
 10
2291.0804
 20
472.2912
 30
0.0
 10
2289.1731
 20
472.8922
 30
0.0
 10
2289.1731
 20
472.8922
 30
0.0
 10
2286.5311
 20
473.7248
 30
0.0
 10
2283.7337
 20
472.268
 30
0.0
 10
2282.9011
 20
469.6261
 30
0.0
 10
2282.9011
 20
469.6261
 30
0.0
 10
2281.699
 20
465.8113
 30
0.0
 10
2281.699
 20
465.8113
 30
0.0
 10
2280.8664
 20
463.1693
 30
0.0
 10
2282.3233
 20
460.3719
 30
0.0
 10
2284.9652
 20
459.5394
 30
0.0
 10
2284.9652
 20
459.5394
 30
0.0
 10
2256.352
 20
468.5562
 30
0.0
 10
2256.352
 20
468.5562
 30
0.0
 10
2258.9939
 20
467.7236
 30
0.0
 10
2261.7913
 20
469.1804
 30
0.0
 10
2262.6239
 20
471.8223
 30
0.0
 10
2262.6239
 20
471.8223
 30
0.0
 10
2268.0339
 20
488.9901
 30
0.0
 10
2268.0339
 20
488.9901
 30
0.0
 10
2268.8664
 20
491.632
 30
0.0
 10
2267.4097
 20
494.4294
 30
0.0
 10
2264.7677
 20
495.2619
 30
0.0
 10
2264.7677
 20
495.2619
 30
0.0
 10
2262.8603
 20
495.863
 30
0.0
 10
2262.8603
 20
495.863
 30
0.0
 10
2262.8603
 20
495.863
 30
0.0
 10
2263.0125
 20
496.346
 30
0.0
 10
2263.0125
 20
496.346
 30
0.0
 10
2264.3515
 20
496.4177
 30
0.0
 10
2265.2796
 20
496.8992
 30
0.0
 10
2265.5192
 20
497.6464
 30
0.0
 10
2265.7186
 20
498.2789
 30
0.0
 10
2265.4072
 20
499.0437
 30
0.0
 10
2264.6538
 20
499.7727
 30
0.0
 10
2263.9004
 20
500.5017
 30
0.0
 10
2262.7665
 20
501.1352
 30
0.0
 10
2261.5016
 20
501.5338
 30
0.0
 10
2260.2368
 20
501.9324
 30
0.0
 10
2258.9447
 20
502.0633
 30
0.0
 10
2257.9095
 20
501.8979
 30
0.0
 10
2256.8743
 20
501.7326
 30
0.0
 10
2256.1808
 20
501.2844
 30
0.0
 10
2255.9816
 20
500.652
 30
0.0
 10
2255.7492
 20
499.9024
 30
0.0
 10
2256.2335
 20
498.9755
 30
0.0
 10
2257.2897
 20
498.1489
 30
0.0
 10
2257.2897
 20
498.1489
 30
0.0
 10
2257.1376
 20
497.6664
 30
0.0
 10
2257.1376
 20
497.6664
 30
0.0
 10
2257.1376
 20
497.6664
 30
0.0
 10
2255.2302
 20
498.2675
 30
0.0
 10
2255.2302
 20
498.2675
 30
0.0
 10
2252.5883
 20
499.1
 30
0.0
 10
2249.7909
 20
497.6432
 30
0.0
 10
2248.9583
 20
495.0013
 30
0.0
 10
2248.9583
 20
495.0013
 30
0.0
 10
2243.5483
 20
477.8336
 30
0.0
 10
2243.5483
 20
477.8336
 30
0.0
 10
2242.7158
 20
475.1916
 30
0.0
 10
2244.1725
 20
472.3943
 30
0.0
 10
2246.8145
 20
471.5617
 30
0.0
 10
2246.8145
 20
471.5617
 30
0.0
 10
2229.6468
 20
476.9717
 30
0.0
 10
2229.6468
 20
476.9717
 30
0.0
 10
2232.2887
 20
476.1392
 30
0.0
 10
2235.0857
 20
477.5961
 30
0.0
 10
2235.9182
 20
480.238
 30
0.0
 10
2235.9182
 20
480.238
 30
0.0
 10
2244.9348
 20
508.8507
 30
0.0
 10
2244.9348
 20
508.8507
 30
0.0
 10
2245.7674
 20
511.4927
 30
0.0
 10
2244.3111
 20
514.2899
 30
0.0
 10
2241.6692
 20
515.1225
 30
0.0
 10
2241.6692
 20
515.1225
 30
0.0
 10
2239.7617
 20
515.7235
 30
0.0
 10
2239.7617
 20
515.7235
 30
0.0
 10
2239.7617
 20
515.7235
 30
0.0
 10
2239.9139
 20
516.2065
 30
0.0
 10
2239.9139
 20
516.2065
 30
0.0
 10
2241.2529
 20
516.2782
 30
0.0
 10
2242.181
 20
516.7597
 30
0.0
 10
2242.4206
 20
517.507
 30
0.0
 10
2242.62
 20
518.1393
 30
0.0
 10
2242.3087
 20
518.9042
 30
0.0
 10
2241.5552
 20
519.6332
 30
0.0
 10
2240.8017
 20
520.3622
 30
0.0
 10
2239.6678
 20
520.9957
 30
0.0
 10
2238.403
 20
521.3943
 30
0.0
 10
2237.1382
 20
521.7928
 30
0.0
 10
2235.846
 20
521.9238
 30
0.0
 10
2234.8109
 20
521.7585
 30
0.0
 10
2233.7757
 20
521.5931
 30
0.0
 10
2233.0822
 20
521.1449
 30
0.0
 10
2232.883
 20
520.5125
 30
0.0
 10
2232.6506
 20
519.7628
 30
0.0
 10
2233.1349
 20
518.836
 30
0.0
 10
2234.1911
 20
518.0094
 30
0.0
 10
2234.1911
 20
518.0094
 30
0.0
 10
2234.0391
 20
517.5269
 30
0.0
 10
2234.0391
 20
517.5269
 30
0.0
 10
2234.0391
 20
517.5269
 30
0.0
 10
2232.1316
 20
518.128
 30
0.0
 10
2232.1316
 20
518.128
 30
0.0
 10
2229.4897
 20
518.9605
 30
0.0
 10
2226.6923
 20
517.5038
 30
0.0
 10
2225.8598
 20
514.8618
 30
0.0
 10
2225.8598
 20
514.8618
 30
0.0
 10
2216.8431
 20
486.2491
 30
0.0
 10
2216.8431
 20
486.2491
 30
0.0
 10
2216.0106
 20
483.6072
 30
0.0
 10
2217.4673
 20
480.8098
 30
0.0
 10
2220.1093
 20
479.9773
 30
0.0
  0
SPLINE
  5
A2
330
1F
100
AcDbEntity
  8
0
 62
   242
370
     9
100
AcDbSpline
210
0.0
220
0.0
230
1.0
 70
    11
 71
     3
 72
    17
 73
    13
 74
     0
 42
0.0000000001
 43
0.0000000001
 40
0.0
 40
0.0
 40
0.0
 40
0.0
 40
0.25
 40
0.25
 40
0.25
 40
0.5
 40
0.5
 40
0.5
 40
0.75
 40
0.75
 40
0.75
 40
1.0
 40
1.0
 40
1.0
 40
1.0
 10
2091.7035
 20
518.3441
 30
0.0
 10
2091.7035
 20
518.3441
 30
0.0
 10
2086.8946
 20
503.0838
 30
0.0
 10
2086.8946
 20
503.0838
 30
0.0
 10
2086.8946
 20
503.0838
 30
0.0
 10
2084.0333
 20
503.9855
 30
0.0
 10
2084.0333
 20
503.9855
 30
0.0
 10
2084.0333
 20
503.9855
 30
0.0
 10
2088.8422
 20
519.2457
 30
0.0
 10
2088.8422
 20
519.2457
 30
0.0
 10
2088.8422
 20
519.2457
 30
0.0
 10
2091.7035
 20
518.3441
 30
0.0
 10
2091.7035
 20
518.3441
 30
0.0
  0
SPLINE
  5
A3
330
1F
100
AcDbEntity
  8
0
 62
   242
370
     9
100
AcDbSpline
210
0.0
220
0.0
230
1.0
 70
    11
 71
     3
 72
    17
 73
    13
 74
     0
 42
0.0000000001
 43
0.0000000001
 40
0.0
 40
0.0
 40
0.0
 40
0.0
 40
0.25
 40
0.25
 40
0.25
 40
0.5
 40
0.5
 40
0.5
 40
0.75
 40
0.75
 40
0.75
 40
1.0
 40
1.0
 40
1.0
 40
1.0
 10
2084.0734
 20
520.7485
 30
0.0
 10
2084.0734
 20
520.7485
 30
0.0
 10
2079.2645
 20
505.4883
 30
0.0
 10
2079.2645
 20
505.4883
 30
0.0
 10
2079.2645
 20
505.4883
 30
0.0
 10
2076.4032
 20
506.39
 30
0.0
 10
2076.4032
 20
506.39
 30
0.0
 10
2076.4032
 20
506.39
 30
0.0
 10
2081.2121
 20
521.6502
 30
0.0
 10
2081.2121
 20
521.6502
 30
0.0
 10
2081.2121
 20
521.6502
 30
0.0
 10
2084.0734
 20
520.7485
 30
0.0
 10
2084.0734
 20
520.7485
 30
0.0
  0
SPLINE
  5
A4
330
1F
100
AcDbEntity
  8
0
 62
   242
370
     9
100
AcDbSpline
210
0.0
220
0.0
230
1.0
 70
    11
 71
     3
 72
    17
 73
    13
 74
     0
 42
0.0000000001
 43
0.0000000001
 40
0.0
 40
0.0
 40
0.0
 40
0.0
 40
0.25
 40
0.25
 40
0.25
 40
0.5
 40
0.5
 40
0.5
 40
0.75
 40
0.75
 40
0.75
 40
1.0
 40
1.0
 40
1.0
 40
1.0
 10
2076.4433
 20
523.153
 30
0.0
 10
2076.4433
 20
523.153
 30
0.0
 10
2071.6344
 20
507.8928
 30
0.0
 10
2071.6344
 20
507.8928
 30
0.0
 10
2071.6344
 20
507.8928
 30
0.0
 10
2068.7731
 20
508.7944
 30
0.0
 10
2068.7731
 20
508.7944
 30
0.0
 10
2068.7731
 20
508.7944
 30
0.0
 10
2073.582
 20
524.0546
 30
0.0
 10
2073.582
 20
524.0546
 30
0.0
 10
2073.582
 20
524.0546
 30
0.0
 10
2076.4433
 20
523.153
 30
0.0
 10
2076.4433
 20
523.153
 30
0.0
  0
SPLINE
  5
A5
330
1F
100
AcDbEntity
  8
0
 62
   242
370
     9
100
AcDbSpline
210
0.0
220
0.0
230
1.0
 70
    11
 71
     3
 72
    17
 73
    13
 74
     0
 42
0.0000000001
 43
0.0000000001
 40
0.0
 40
0.0
 40
0.0
 40
0.0
 40
0.25
 40
0.25
 40
0.25
 40
0.5
 40
0.5
 40
0.5
 40
0.75
 40
0.75
 40
0.75
 40
1.0
 40
1.0
 40
1.0
 40
1.0
 10
2068.8132
 20
525.5574
 30
0.0
 10
2068.8132
 20
525.5574
 30
0.0
 10
2064.0043
 20
510.2972
 30
0.0
 10
2064.0043
 20
510.2972
 30
0.0
 10
2064.0043
 20
510.2972
 30
0.0
 10
2061.143
 20
511.1989
 30
0.0
 10
2061.143
 20
511.1989
 30
0.0
 10
2061.143
 20
511.1989
 30
0.0
 10
2065.9519
 20
526.4591
 30
0.0
 10
2065.9519
 20
526.4591
 30
0.0
 10
2065.9519
 20
526.4591
 30
0.0
 10
2068.8132
 20
525.5574
 30
0.0
 10
2068.8132
 20
525.5574
 30
0.0
  0
SPLINE
  5
A6
330
1F
100
AcDbEntity
  8
0
 62
   242
370
     9
100
AcDbSpline
210
0.0
220
0.0
230
1.0
 70
    11
 71
     3
 72
    17
 73
    13
 74
     0
 42
0.0000000001
 43
0.0000000001
 40
0.0
 40
0.0
 40
0.0
 40
0.0
 40
0.25
 40
0.25
 40
0.25
 40
0.5
 40
0.5
 40
0.5
 40
0.75
 40
0.75
 40
0.75
 40
1.0
 40
1.0
 40
1.0
 40
1.0
 10
2310.0751
 20
432.7535
 30
0.0
 10
2310.0751
 20
432.7535
 30
0.0
 10
2314.884
 20
448.0137
 30
0.0
 10
2314.884
 20
448.0137
 30
0.0
 10
2314.884
 20
448.0137
 30
0.0
 10
2317.7453
 20
447.1121
 30
0.0
 10
2317.7453
 20
447.1121
 30
0.0
 10
2317.7453
 20
447.1121
 30
0.0
 10
2312.9364
 20
431.8519
 30
0.0
 10
2312.9364
 20
431.8519
 30
0.0
 10
2312.9364
 20
431.8519
 30
0.0
 10
2310.0751
 20
432.7535
 30
0.0
 10
2310.0751
 20
432.7535
 30
0.0
  0
SPLINE
  5
A7
330
1F
100
AcDbEntity
  8
0
 62
   242
370
     9
100
AcDbSpline
210
0.0
220
0.0
230
1.0
 70
    11
 71
     3
 72
    17
 73
    13
 74
     0
 42
0.0000000001
 43
0.0000000001
 40
0.0
 40
0.0
 40
0.0
 40
0.0
 40
0.25
 40
0.25
 40
0.25
 40
0.5
 40
0.5
 40
0.5
 40
0.75
 40
0.75
 40
0.75
 40
1.0
 40
1.0
 40
1.0
 40
1.0
 10
2317.7052
 20
430.3491
 30
0.0
 10
2317.7052
 20
430.3491
 30
0.0
 10
2322.5141
 20
445.6093
 30
0.0
 10
2322.5141
 20
445.6093
 30
0.0
 10
2322.5141
 20
445.6093
 30
0.0
 10
2325.3754
 20
444.7076
 30
0.0
 10
2325.3754
 20
444.7076
 30
0.0
 10
2325.3754
 20
444.7076
 30
0.0
 10
2320.5665
 20
429.4474
 30
0.0
 10
2320.5665
 20
429.4474
 30
0.0
 10
2320.5665
 20
429.4474
 30
0.0
 10
2317.7052
 20
430.3491
 30
0.0
 10
2317.7052
 20
430.3491
 30
0.0
  0
SPLINE
  5
A8
330
1F
100
AcDbEntity
  8
0
 62
   242
370
     9
100
AcDbSpline
210
0.0
220
0.0
230
1.0
 70
    11
 71
     3
 72
    17
 73
    13
 74
     0
 42
0.0000000001
 43
0.0000000001
 40
0.0
 40
0.0
 40
0.0
 40
0.0
 40
0.25
 40
0.25
 40
0.25
 40
0.5
 40
0.5
 40
0.5
 40
0.75
 40
0.75
 40
0.75
 40
1.0
 40
1.0
 40
1.0
 40
1.0
 10
2325.3353
 20
427.9446
 30
0.0
 10
2325.3353
 20
427.9446
 30
0.0
 10
2330.1443
 20
443.2048
 30
0.0
 10
2330.1443
 20
443.2048
 30
0.0
 10
2330.1443
 20
443.2048
 30
0.0
 10
2333.0055
 20
442.3032
 30
0.0
 10
2333.0055
 20
442.3032
 30
0.0
 10
2333.0055
 20
442.3032
 30
0.0
 10
2328.1966
 20
427.0429
 30
0.0
 10
2328.1966
 20
427.0429
 30
0.0
 10
2328.1966
 20
427.0429
 30
0.0
 10
2325.3353
 20
427.9446
 30
0.0
 10
2325.3353
 20
427.9446
 30
0.0
  0
SPLINE
  5
A9
330
1F
100
AcDbEntity
  8
0
 62
   242
370
     9
100
AcDbSpline
210
0.0
220
0.0
230
1.0
 70
    11
 71
     3
 72
    17
 73
    13
 74
     0
 42
0.0000000001
 43
0.0000000001
 40
0.0
 40
0.0
 40
0.0
 40
0.0
 40
0.25
 40
0.25
 40
0.25
 40
0.5
 40
0.5
 40
0.5
 40
0.75
 40
0.75
 40
0.75
 40
1.0
 40
1.0
 40
1.0
 40
1.0
 10
2332.9655
 20
425.5402
 30
0.0
 10
2332.9655
 20
425.5402
 30
0.0
 10
2337.7744
 20
440.8004
 30
0.0
 10
2337.7744
 20
440.8004
 30
0.0
 10
2337.7744
 20
440.8004
 30
0.0
 10
2340.6357
 20
439.8987
 30
0.0
 10
2340.6357
 20
439.8987
 30
0.0
 10
2340.6357
 20
439.8987
 30
0.0
 10
2335.8267
 20
424.6385
 30
0.0
 10
2335.8267
 20
424.6385
 30
0.0
 10
2335.8267
 20
424.6385
 30
0.0
 10
2332.9655
 20
425.5402
 30
0.0
 10
2332.9655
 20
425.5402
 30
0.0
  0
SPLINE
  5
AA
330
1F
100
AcDbEntity
  8
0
 62
   242
370
     9
100
AcDbSpline
210
0.0
220
0.0
230
1.0
 70
    11
 71
     3
 72
   134
 73
   130
 74
     0
 42
0.0000000001
 43
0.0000000001
 40
0.0
 40
0.0
 40
0.0
 40
0.0
 40
0.0232558139534884
 40
0.0232558139534884
 40
0.0232558139534884
 40
0.0465116279069767
 40
0.0465116279069767
 40
0.0465116279069767
 40
0.0697674418604651
 40
0.0697674418604651
 40
0.0697674418604651
 40
0.0930232558139535
 40
0.0930232558139535
 40
0.0930232558139535
 40
0.1162790697674419
 40
0.1162790697674419
 40
0.1162790697674419
 40
0.1395348837209302
 40
0.1395348837209302
 40
0.1395348837209302
 40
0.1627906976744186
 40
0.1627906976744186
 40
0.1627906976744186
 40
0.186046511627907
 40
0.186046511627907
 40
0.186046511627907
 40
0.2093023255813953
 40
0.2093023255813953
 40
0.2093023255813953
 40
0.2325581395348837
 40
0.2325581395348837
 40
0.2325581395348837
 40
0.2558139534883721
 40
0.2558139534883721
 40
0.2558139534883721
 40
0.2790697674418605
 40
0.2790697674418605
 40
0.2790697674418605
 40
0.3023255813953488
 40
0.3023255813953488
 40
0.3023255813953488
 40
0.3255813953488372
 40
0.3255813953488372
 40
0.3255813953488372
 40
0.3488372093023256
 40
0.3488372093023256
 40
0.3488372093023256
 40
0.3720930232558139
 40
0.3720930232558139
 40
0.3720930232558139
 40
0.3953488372093023
 40
0.3953488372093023
 40
0.3953488372093023
 40
0.4186046511627907
 40
0.4186046511627907
 40
0.4186046511627907
 40
0.4418604651162791
 40
0.4418604651162791
 40
0.4418604651162791
 40
0.4651162790697674
 40
0.4651162790697674
 40
0.4651162790697674
 40
0.4883720930232558
 40
0.4883720930232558
 40
0.4883720930232558
 40
0.5116279069767442
 40
0.5116279069767442
 40
0.5116279069767442
 40
0.5348837209302325
 40
0.5348837209302325
 40
0.5348837209302325
 40
0.5581395348837209
 40
0.5581395348837209
 40
0.5581395348837209
 40
0.5813953488372093
 40
0.5813953488372093
 40
0.5813953488372093
 40
0.6046511627906976
 40
0.6046511627906976
 40
0.6046511627906976
 40
0.627906976744186
 40
0.627906976744186
 40
0.627906976744186
 40
0.6511627906976745
 40
0.6511627906976745
 40
0.6511627906976745
 40
0.6744186046511628
 40
0.6744186046511628
 40
0.6744186046511628
 40
0.6976744186046512
 40
0.6976744186046512
 40
0.6976744186046512
 40
0.7209302325581395
 40
0.7209302325581395
 40
0.7209302325581395
 40
0.7441860465116279
 40
0.7441860465116279
 40
0.7441860465116279
 40
0.7674418604651163
 40
0.7674418604651163
 40
0.7674418604651163
 40
0.7906976744186046
 40
0.7906976744186046
 40
0.7906976744186046
 40
0.813953488372093
 40
0.813953488372093
 40
0.813953488372093
 40
0.8372093023255813
 40
0.8372093023255813
 40
0.8372093023255813
 40
0.8604651162790697
 40
0.8604651162790697
 40
0.8604651162790697
 40
0.8837209302325582
 40
0.8837209302325582
 40
0.8837209302325582
 40
0.9069767441860465
 40
0.9069767441860465
 40
0.9069767441860465
 40
0.9302325581395349
 40
0.9302325581395349
 40
0.9302325581395349
 40
0.9534883720930233
 40
0.9534883720930233
 40
0.9534883720930233
 40
0.9767441860465116
 40
0.9767441860465116
 40
0.9767441860465116
 40
1.0
 40
1.0
 40
1.0
 40
1.0
 10
2030.2183
 20
525.2483
 30
0.0
 10
2028.8077
 20
514.5417
 30
0.0
 10
2029.8236
 20
503.6551
 30
0.0
 10
2033.1906
 20
493.3944
 30
0.0
 10
2033.1906
 20
493.3944
 30
0.0
 10
2032.8422
 20
493.2643
 30
0.0
 10
2032.8422
 20
493.2643
 30
0.0
 10
2032.0511
 20
494.1755
 30
0.0
 10
2031.1962
 20
494.5684
 30
0.0
 10
2030.5331
 20
494.3256
 30
0.0
 10
2029.3683
 20
493.8928
 30
0.0
 10
2029.1264
 20
491.6531
 30
0.0
 10
2029.9929
 20
489.3235
 30
0.0
 10
2030.8594
 20
486.9937
 30
0.0
 10
2032.5062
 20
485.4565
 30
0.0
 10
2033.6709
 20
485.89
 30
0.0
 10
2034.3318
 20
486.1393
 30
0.0
 10
2034.7224
 20
486.9957
 30
0.0
 10
2034.7256
 20
488.2027
 30
0.0
 10
2034.7256
 20
488.2027
 30
0.0
 10
2035.1184
 20
488.3492
 30
0.0
 10
2035.1184
 20
488.3492
 30
0.0
 10
2039.2638
 20
478.3832
 30
0.0
 10
2045.5969
 20
469.4766
 30
0.0
 10
2053.6491
 20
462.2885
 30
0.0
 10
2053.6491
 20
462.2885
 30
0.0
 10
2053.3776
 20
461.9603
 30
0.0
 10
2053.3776
 20
461.9603
 30
0.0
 10
2052.2367
 20
462.3539
 30
0.0
 10
2051.2997
 20
462.2665
 30
0.0
 10
2050.847
 20
461.7242
 30
0.0
 10
2050.0549
 20
460.7667
 30
0.0
 10
2050.9653
 20
458.7063
 30
0.0
 10
2052.8806
 20
457.1221
 30
0.0
 10
2054.7958
 20
455.5379
 30
0.0
 10
2056.9905
 20
455.0299
 30
0.0
 10
2057.7824
 20
455.9876
 30
0.0
 10
2058.2295
 20
456.5345
 30
0.0
 10
2058.1402
 20
457.4709
 30
0.0
 10
2057.5394
 20
458.5178
 30
0.0
 10
2057.5394
 20
458.5178
 30
0.0
 10
2057.8296
 20
458.8693
 30
0.0
 10
2057.8296
 20
458.8693
 30
0.0
 10
2057.8296
 20
458.8693
 30
0.0
 10
2057.483
 20
459.156
 30
0.0
 10
2057.483
 20
459.156
 30
0.0
 10
2057.483
 20
459.156
 30
0.0
 10
2057.2752
 20
459.3273
 30
0.0
 10
2057.2752
 20
459.3273
 30
0.0
 10
2065.9585
 20
452.5236
 30
0.0
 10
2076.0891
 20
447.8062
 30
0.0
 10
2086.885
 20
445.5391
 30
0.0
 10
2086.885
 20
445.5391
 30
0.0
 10
2086.8135
 20
445.1171
 30
0.0
 10
2086.8135
 20
445.1171
 30
0.0
 10
2085.6292
 20
444.8876
 30
0.0
 10
2084.8615
 20
444.3438
 30
0.0
 10
2084.7403
 20
443.6482
 30
0.0
 10
2084.5327
 20
442.4229
 30
0.0
 10
2086.3516
 20
441.0936
 30
0.0
 10
2088.8024
 20
440.6793
 30
0.0
 10
2091.2528
 20
440.2649
 30
0.0
 10
2093.4073
 20
440.9222
 30
0.0
 10
2093.6146
 20
442.1473
 30
0.0
 10
2093.7292
 20
442.8443
 30
0.0
 10
2093.1828
 20
443.6107
 30
0.0
 10
2092.1391
 20
444.217
 30
0.0
 10
2092.1391
 20
444.217
 30
0.0
 10
2092.2139
 20
444.6592
 30
0.0
 10
2092.2139
 20
444.6592
 30
0.0
 10
2102.9145
 20
443.2523
 30
0.0
 10
2113.7944
 20
444.2691
 30
0.0
 10
2124.049
 20
447.6342
 30
0.0
 10
2124.049
 20
447.6342
 30
0.0
 10
2124.1922
 20
447.2491
 30
0.0
 10
2124.1922
 20
447.2491
 30
0.0
 10
2123.2812
 20
446.4582
 30
0.0
 10
2122.8884
 20
445.6034
 30
0.0
 10
2123.1311
 20
444.9404
 30
0.0
 10
2123.564
 20
443.7755
 30
0.0
 10
2125.8036
 20
443.5336
 30
0.0
 10
2128.1333
 20
444.4002
 30
0.0
 10
2130.4628
 20
445.2665
 30
0.0
 10
2132.0002
 20
446.9131
 30
0.0
 10
2131.567
 20
448.0779
 30
0.0
 10
2131.3177
 20
448.7388
 30
0.0
 10
2130.4614
 20
449.1293
 30
0.0
 10
2129.2544
 20
449.1325
 30
0.0
 10
2129.2544
 20
449.1325
 30
0.0
 10
2129.1247
 20
449.48
 30
0.0
 10
2129.1247
 20
449.48
 30
0.0
 10
2130.7172
 20
450.1675
 30
0.0
 10
2132.2842
 20
450.9123
 30
0.0
 10
2133.823
 20
451.7129
 30
0.0
 10
2133.823
 20
451.7129
 30
0.0
 10
2131.6254
 20
459.7113
 30
0.0
 10
2131.6254
 20
459.7113
 30
0.0
 10
2131.6254
 20
459.7113
 30
0.0
 10
2105.8152
 20
458.3961
 30
0.0
 10
2105.8152
 20
458.3961
 30
0.0
 10
2105.8152
 20
458.3961
 30
0.0
 10
2044.2055
 20
509.357
 30
0.0
 10
2044.2055
 20
509.357
 30
0.0
 10
2044.2055
 20
509.357
 30
0.0
 10
2040.6576
 20
534.956
 30
0.0
 10
2040.6576
 20
534.956
 30
0.0
 10
2040.6576
 20
534.956
 30
0.0
 10
2032.4163
 20
535.5922
 30
0.0
 10
2032.4163
 20
535.5922
 30
0.0
 10
2031.9175
 20
533.9366
 30
0.0
 10
2031.4786
 20
532.2638
 30
0.0
 10
2031.1003
 20
530.5767
 30
0.0
 10
2031.1003
 20
530.5767
 30
0.0
 10
2030.7106
 20
530.6426
 30
0.0
 10
2030.7106
 20
530.6426
 30
0.0
 10
2030.481
 20
531.8273
 30
0.0
 10
2029.9368
 20
532.595
 30
0.0
 10
2029.241
 20
532.7159
 30
0.0
 10
2028.0158
 20
532.9231
 30
0.0
 10
2026.6867
 20
531.1045
 30
0.0
 10
2026.2723
 20
528.654
 30
0.0
 10
2025.858
 20
526.2032
 30
0.0
 10
2026.5156
 20
524.0487
 30
0.0
 10
2027.741
 20
523.8419
 30
0.0
 10
2028.438
 20
523.7273
 30
0.0
 10
2029.2044
 20
524.2737
 30
0.0
 10
2029.8108
 20
525.3174
 30
0.0
 10
2029.8108
 20
525.3174
 30
0.0
 10
2030.2183
 20
525.2483
 30
0.0
 10
2030.2183
 20
525.2483
 30
0.0
  0
SPLINE
  5
AB
330
1F
100
AcDbEntity
  8
0
 62
   242
370
     9
100
AcDbSpline
210
0.0
220
0.0
230
1.0
 70
    11
 71
     3
 72
   134
 73
   130
 74
     0
 42
0.0000000001
 43
0.0000000001
 40
0.0
 40
0.0
 40
0.0
 40
0.0
 40
0.0232558139534884
 40
0.0232558139534884
 40
0.0232558139534884
 40
0.0465116279069767
 40
0.0465116279069767
 40
0.0465116279069767
 40
0.0697674418604651
 40
0.0697674418604651
 40
0.0697674418604651
 40
0.0930232558139535
 40
0.0930232558139535
 40
0.0930232558139535
 40
0.1162790697674419
 40
0.1162790697674419
 40
0.1162790697674419
 40
0.1395348837209302
 40
0.1395348837209302
 40
0.1395348837209302
 40
0.1627906976744186
 40
0.1627906976744186
 40
0.1627906976744186
 40
0.186046511627907
 40
0.186046511627907
 40
0.186046511627907
 40
0.2093023255813953
 40
0.2093023255813953
 40
0.2093023255813953
 40
0.2325581395348837
 40
0.2325581395348837
 40
0.2325581395348837
 40
0.2558139534883721
 40
0.2558139534883721
 40
0.2558139534883721
 40
0.2790697674418605
 40
0.2790697674418605
 40
0.2790697674418605
 40
0.3023255813953488
 40
0.3023255813953488
 40
0.3023255813953488
 40
0.3255813953488372
 40
0.3255813953488372
 40
0.3255813953488372
 40
0.3488372093023256
 40
0.3488372093023256
 40
0.3488372093023256
 40
0.3720930232558139
 40
0.3720930232558139
 40
0.3720930232558139
 40
0.3953488372093023
 40
0.3953488372093023
 40
0.3953488372093023
 40
0.4186046511627907
 40
0.4186046511627907
 40
0.4186046511627907
 40
0.4418604651162791
 40
0.4418604651162791
 40
0.4418604651162791
 40
0.4651162790697674
 40
0.4651162790697674
 40
0.4651162790697674
 40
0.4883720930232558
 40
0.4883720930232558
 40
0.4883720930232558
 40
0.5116279069767442
 40
0.5116279069767442
 40
0.5116279069767442
 40
0.5348837209302325
 40
0.5348837209302325
 40
0.5348837209302325
 40
0.5581395348837209
 40
0.5581395348837209
 40
0.5581395348837209
 40
0.5813953488372093
 40
0.5813953488372093
 40
0.5813953488372093
 40
0.6046511627906976
 40
0.6046511627906976
 40
0.6046511627906976
 40
0.627906976744186
 40
0.627906976744186
 40
0.627906976744186
 40
0.6511627906976745
 40
0.6511627906976745
 40
0.6511627906976745
 40
0.6744186046511628
 40
0.6744186046511628
 40
0.6744186046511628
 40
0.6976744186046512
 40
0.6976744186046512
 40
0.6976744186046512
 40
0.7209302325581395
 40
0.7209302325581395
 40
0.7209302325581395
 40
0.7441860465116279
 40
0.7441860465116279
 40
0.7441860465116279
 40
0.7674418604651163
 40
0.7674418604651163
 40
0.7674418604651163
 40
0.7906976744186046
 40
0.7906976744186046
 40
0.7906976744186046
 40
0.813953488372093
 40
0.813953488372093
 40
0.813953488372093
 40
0.8372093023255813
 40
0.8372093023255813
 40
0.8372093023255813
 40
0.8604651162790697
 40
0.8604651162790697
 40
0.8604651162790697
 40
0.8837209302325582
 40
0.8837209302325582
 40
0.8837209302325582
 40
0.9069767441860465
 40
0.9069767441860465
 40
0.9069767441860465
 40
0.9302325581395349
 40
0.9302325581395349
 40
0.9302325581395349
 40
0.9534883720930233
 40
0.9534883720930233
 40
0.9534883720930233
 40
0.9767441860465116
 40
0.9767441860465116
 40
0.9767441860465116
 40
1.0
 40
1.0
 40
1.0
 40
1.0
 10
2362.0451
 20
462.3336
 30
0.0
 10
2361.528
 20
473.1204
 30
0.0
 10
2358.5912
 20
483.6525
 30
0.0
 10
2353.452
 20
493.1503
 30
0.0
 10
2353.452
 20
493.1503
 30
0.0
 10
2353.7717
 20
493.3403
 30
0.0
 10
2353.7717
 20
493.3403
 30
0.0
 10
2354.7123
 20
492.5844
 30
0.0
 10
2355.6235
 20
492.3499
 30
0.0
 10
2356.2328
 20
492.7068
 30
0.0
 10
2357.302
 20
493.34
 30
0.0
 10
2357.1415
 20
495.587
 30
0.0
 10
2355.8743
 20
497.7252
 30
0.0
 10
2354.6071
 20
499.8636
 30
0.0
 10
2352.713
 20
501.0833
 30
0.0
 10
2351.644
 20
500.4494
 30
0.0
 10
2351.038
 20
500.0865
 30
0.0
 10
2350.8061
 20
499.1742
 30
0.0
 10
2351.0177
 20
497.9859
 30
0.0
 10
2351.0177
 20
497.9859
 30
0.0
 10
2350.6572
 20
497.7719
 30
0.0
 10
2350.6572
 20
497.7719
 30
0.0
 10
2344.8046
 20
506.8412
 30
0.0
 10
2336.9877
 20
514.4787
 30
0.0
 10
2327.7848
 20
520.1191
 30
0.0
 10
2327.7848
 20
520.1191
 30
0.0
 10
2327.9936
 20
520.4905
 30
0.0
 10
2327.9936
 20
520.4905
 30
0.0
 10
2329.1864
 20
520.3062
 30
0.0
 10
2330.0929
 20
520.559
 30
0.0
 10
2330.4418
 20
521.1731
 30
0.0
 10
2331.0509
 20
522.2562
 30
0.0
 10
2329.7884
 20
524.1218
 30
0.0
 10
2327.6218
 20
525.3399
 30
0.0
 10
2325.4553
 20
526.558
 30
0.0
 10
2323.2052
 20
526.6673
 30
0.0
 10
2322.5964
 20
525.584
 30
0.0
 10
2322.2537
 20
524.9663
 30
0.0
 10
2322.5082
 20
524.0607
 30
0.0
 10
2323.2857
 20
523.1374
 30
0.0
 10
2323.2857
 20
523.1374
 30
0.0
 10
2323.0627
 20
522.7399
 30
0.0
 10
2323.0627
 20
522.7399
 30
0.0
 10
2323.0627
 20
522.7399
 30
0.0
 10
2323.4547
 20
522.5195
 30
0.0
 10
2323.4547
 20
522.5195
 30
0.0
 10
2323.4547
 20
522.5195
 30
0.0
 10
2323.6897
 20
522.3879
 30
0.0
 10
2323.6897
 20
522.3879
 30
0.0
 10
2313.9343
 20
527.5379
 30
0.0
 10
2303.126
 20
530.3773
 30
0.0
 10
2292.099
 20
530.6871
 30
0.0
 10
2292.099
 20
530.6871
 30
0.0
 10
2292.0942
 20
531.115
 30
0.0
 10
2292.0942
 20
531.115
 30
0.0
 10
2293.2188
 20
531.5516
 30
0.0
 10
2293.8774
 20
532.2234
 30
0.0
 10
2293.8729
 20
532.9294
 30
0.0
 10
2293.8591
 20
534.1722
 30
0.0
 10
2291.8327
 20
535.1566
 30
0.0
 10
2289.3473
 20
535.1281
 30
0.0
 10
2286.8623
 20
535.0999
 30
0.0
 10
2284.8592
 20
534.0697
 30
0.0
 10
2284.8732
 20
532.8273
 30
0.0
 10
2284.8844
 20
532.121
 30
0.0
 10
2285.5584
 20
531.4641
 30
0.0
 10
2286.6934
 20
531.0531
 30
0.0
 10
2286.6934
 20
531.0531
 30
0.0
 10
2286.6985
 20
530.6047
 30
0.0
 10
2286.6985
 20
530.6047
 30
0.0
 10
2275.9184
 20
530.0851
 30
0.0
 10
2265.393
 20
527.1484
 30
0.0
 10
2255.9009
 20
522.0122
 30
0.0
 10
2255.9009
 20
522.0122
 30
0.0
 10
2255.6915
 20
522.3657
 30
0.0
 10
2255.6915
 20
522.3657
 30
0.0
 10
2256.4471
 20
523.3062
 30
0.0
 10
2256.6816
 20
524.2172
 30
0.0
 10
2256.3248
 20
524.8264
 30
0.0
 10
2255.6915
 20
525.8957
 30
0.0
 10
2253.4445
 20
525.7352
 30
0.0
 10
2251.3063
 20
524.4679
 30
0.0
 10
2249.1681
 20
523.2009
 30
0.0
 10
2247.9482
 20
521.307
 30
0.0
 10
2248.5818
 20
520.2379
 30
0.0
 10
2248.9447
 20
519.6319
 30
0.0
 10
2249.8569
 20
519.4
 30
0.0
 10
2251.0452
 20
519.6116
 30
0.0
 10
2251.0452
 20
519.6116
 30
0.0
 10
2251.2346
 20
519.2927
 30
0.0
 10
2251.2346
 20
519.2927
 30
0.0
 10
2249.7899
 20
518.3329
 30
0.0
 10
2248.3804
 20
517.3211
 30
0.0
 10
2247.0087
 20
516.2594
 30
0.0
 10
2247.0087
 20
516.2594
 30
0.0
 10
2250.5945
 20
508.7798
 30
0.0
 10
2250.5945
 20
508.7798
 30
0.0
 10
2250.5945
 20
508.7798
 30
0.0
 10
2275.7587
 20
514.6668
 30
0.0
 10
2275.7587
 20
514.6668
 30
0.0
 10
2275.7587
 20
514.6668
 30
0.0
 10
2345.4533
 20
475.4824
 30
0.0
 10
2345.4533
 20
475.4824
 30
0.0
 10
2345.4533
 20
475.4824
 30
0.0
 10
2353.4999
 20
450.9233
 30
0.0
 10
2353.4999
 20
450.9233
 30
0.0
 10
2353.4999
 20
450.9233
 30
0.0
 10
2361.7229
 20
451.7637
 30
0.0
 10
2361.7229
 20
451.7637
 30
0.0
 10
2361.9191
 20
453.4816
 30
0.0
 10
2362.0533
 20
455.2058
 30
0.0
 10
2362.1254
 20
456.9333
 30
0.0
 10
2362.1254
 20
456.9333
 30
0.0
 10
2362.5206
 20
456.9378
 30
0.0
 10
2362.5206
 20
456.9378
 30
0.0
 10
2362.9574
 20
455.8129
 30
0.0
 10
2363.6294
 20
455.1543
 30
0.0
 10
2364.3356
 20
455.1591
 30
0.0
 10
2365.5782
 20
455.1733
 30
0.0
 10
2366.5624
 20
457.1993
 30
0.0
 10
2366.5341
 20
459.6845
 30
0.0
 10
2366.5057
 20
462.1699
 30
0.0
 10
2365.4753
 20
464.173
 30
0.0
 10
2364.2326
 20
464.1585
 30
0.0
 10
2363.5263
 20
464.1471
 30
0.0
 10
2362.8694
 20
463.4731
 30
0.0
 10
2362.4584
 20
462.3382
 30
0.0
 10
2362.4584
 20
462.3382
 30
0.0
 10
2362.0451
 20
462.3336
 30
0.0
 10
2362.0451
 20
462.3336
 30
0.0
  0
ENDSEC
  0
SECTION
  2
OBJECTS
  0
DICTIONARY
  5
C
330
0
100
AcDbDictionary
281
     1
  3
ACAD_DETAILVIEWSTYLE
350
E7
  3
ACAD_GROUP
350
D
  3
ACAD_LAYOUT
350
1A
  3
ACAD_MATERIAL
350
43
  3
ACAD_MLEADERSTYLE
350
6B
  3
ACAD_MLINESTYLE
350
17
  3
ACAD_PLOTSETTINGS
350
19
  3
ACAD_PLOTSTYLENAME
350
E
  3
ACAD_SCALELIST
350
47
  3
ACAD_SECTIONVIEWSTYLE
350
E8
  3
ACAD_TABLESTYLE
350
69
  3
ACAD_VISUALSTYLE
350
2A
  3
ACDB_RECOMPOSE_DATA
350
E4
  3
AcDbVariableDictionary
350
AC
  0
SUN
  5
6D
330
29
100
AcDbSun
 90
        1
290
     0
 63
     7
421
 16777215
 40
1.0
291
     1
 91
  2455826
 92
 54000000
292
     0
 70
     2
 71
   256
280
     1
  0
DICTIONARY
  5
E7
102
{ACAD_REACTORS
330
C
102
}
330
C
100
AcDbDictionary
281
     1
  0
DICTIONARY
  5
D
102
{ACAD_REACTORS
330
C
102
}
330
C
100
AcDbDictionary
281
     1
  0
DICTIONARY
  5
1A
102
{ACAD_REACTORS
330
C
102
}
330
C
100
AcDbDictionary
281
     1
  3
Layout1
350
1E
  3
Layout2
350
26
  3
Model
350
22
  0
DICTIONARY
  5
43
102
{ACAD_REACTORS
330
C
102
}
330
C
100
AcDbDictionary
281
     1
  3
ByBlock
350
45
  3
ByLayer
350
44
  3
Global
350
46
  0
DICTIONARY
  5
6B
102
{ACAD_REACTORS
330
C
102
}
330
C
100
AcDbDictionary
281
     1
  3
Standard
350
6C
  0
DICTIONARY
  5
17
102
{ACAD_REACTORS
330
C
102
}
330
C
100
AcDbDictionary
281
     1
  3
Standard
350
18
  0
DICTIONARY
  5
19
102
{ACAD_REACTORS
330
C
102
}
330
C
100
AcDbDictionary
281
     1
  0
ACDBDICTIONARYWDFLT
  5
E
102
{ACAD_REACTORS
330
C
102
}
330
C
100
AcDbDictionary
281
     1
  3
Normal
350
F
100
AcDbDictionaryWithDefault
340
F
  0
DICTIONARY
  5
47
102
{ACAD_REACTORS
330
C
102
}
330
C
100
AcDbDictionary
281
     1
  3
A0
350
48
  3
A1
350
49
  3
A2
350
4A
  3
A3
350
4B
  3
A4
350
4C
  3
A5
350
4D
  3
A6
350
4E
  3
A7
350
4F
  3
A8
350
50
  3
A9
350
51
  3
B0
350
52
  3
B1
350
53
  3
B2
350
54
  3
B3
350
55
  3
B4
350
56
  3
B5
350
57
  3
B6
350
58
  3
B7
350
59
  3
B8
350
5A
  3
B9
350
5B
  3
C0
350
5C
  3
C1
350
5D
  3
C2
350
5E
  3
C3
350
5F
  3
C4
350
60
  3
C5
350
61
  3
C6
350
62
  3
C7
350
63
  3
C8
350
64
  3
C9
350
65
  3
D0
350
66
  3
D1
350
67
  3
D2
350
68
  0
DICTIONARY
  5
E8
102
{ACAD_REACTORS
330
C
102
}
330
C
100
AcDbDictionary
281
     1
  0
DICTIONARY
  5
69
102
{ACAD_REACTORS
330
C
102
}
330
C
100
AcDbDictionary
281
     1
  3
Standard
350
6A
  0
DICTIONARY
  5
2A
102
{ACAD_REACTORS
330
C
102
}
330
C
100
AcDbDictionary
281
     1
  3
2dWireframe
350
2F
  3
Basic
350
32
  3
Brighten
350
36
  3
ColorChange
350
3A
  3
Conceptual
350
34
  3
Dim
350
35
  3
EdgeColorOff
350
3D
  3
Facepattern
350
39
  3
Flat
350
2B
  3
FlatWithEdges
350
2C
  3
Gouraud
350
2D
  3
GouraudWithEdges
350
2E
  3
Hidden
350
31
  3
JitterOff
350
3B
  3
Linepattern
350
38
  3
OverhangOff
350
3C
  3
Realistic
350
33
  3
Shaded
350
42
  3
Shaded with edges
350
41
  3
Shades of Gray
350
3E
  3
Sketchy
350
3F
  3
Thicken
350
37
  3
Wireframe
350
30
  3
X-Ray
350
40
  0
XRECORD
  5
E4
102
{ACAD_REACTORS
330
C
102
}
330
C
100
AcDbXrecord
280
     1
 90
        1
330
6A
  0
DICTIONARY
  5
AC
102
{ACAD_REACTORS
330
C
102
}
330
C
100
AcDbDictionary
281
     1
  3
CANNOSCALE
350
AD
  3
CMLEADERSTYLE
350
E6
  3
CTABLESTYLE
350
E5
  3
XCLIPFRAME
350
AE
  0
LAYOUT
  5
1E
102
{ACAD_REACTORS
330
1A
102
}
330
1A
100
AcDbPlotSettings
  1

  2
none_device
  4

  6

 40
0.0
 41
0.0
 42
0.0
 43
0.0
 44
0.0
 45
0.0
 46
0.0
 47
0.0
 48
0.0
 49
0.0
140
0.0
141
0.0
142
1.0
143
1.0
 70
   688
 72
     0
 73
     0
 74
     5
  7

 75
    16
 76
     0
 77
     2
 78
   300
147
1.0
148
0.0
149
0.0
100
AcDbLayout
  1
Layout1
 70
     1
 71
     1
 10
0.0
 20
0.0
 11
12.0
 21
9.0
 12
0.0
 22
0.0
 32
0.0
 14
1.000000000000000E+20
 24
1.000000000000000E+20
 34
1.000000000000000E+20
 15
-1.000000000000000E+20
 25
-1.000000000000000E+20
 35
-1.000000000000000E+20
146
0.0
 13
0.0
 23
0.0
 33
0.0
 16
1.0
 26
0.0
 36
0.0
 17
0.0
 27
1.0
 37
0.0
 76
     0
330
1B
  0
LAYOUT
  5
26
102
{ACAD_REACTORS
330
1A
102
}
330
1A
100
AcDbPlotSettings
  1

  2
none_device
  4

  6

 40
0.0
 41
0.0
 42
0.0
 43
0.0
 44
0.0
 45
0.0
 46
0.0
 47
0.0
 48
0.0
 49
0.0
140
0.0
141
0.0
142
1.0
143
1.0
 70
   688
 72
     0
 73
     0
 74
     5
  7

 75
    16
 76
     0
 77
     2
 78
   300
147
1.0
148
0.0
149
0.0
100
AcDbLayout
  1
Layout2
 70
     1
 71
     2
 10
0.0
 20
0.0
 11
0.0
 21
0.0
 12
0.0
 22
0.0
 32
0.0
 14
0.0
 24
0.0
 34
0.0
 15
0.0
 25
0.0
 35
0.0
146
0.0
 13
0.0
 23
0.0
 33
0.0
 16
1.0
 26
0.0
 36
0.0
 17
0.0
 27
1.0
 37
0.0
 76
     0
330
23
  0
LAYOUT
  5
22
102
{ACAD_REACTORS
330
1A
102
}
330
1A
100
AcDbPlotSettings
  1

  2
none_device
  4
Letter_(8.50_x_11.00_Inches)
  6

 40
6.35
 41
6.35
 42
6.35000508
 43
6.35000508
 44
215.9
 45
279.4
 46
0.0
 47
0.0
 48
0.0
 49
0.0
140
0.0
141
0.0
142
1.0
143
1.0
 70
  1712
 72
     0
 73
     0
 74
     0
  7

 75
     0
 76
     0
 77
     2
 78
   300
147
1.0
148
0.0
149
0.0
100
AcDbLayout
  1
Model
 70
     1
 71
     0
 10
0.0
 20
0.0
 11
12.0
 21
9.0
 12
0.0
 22
0.0
 32
0.0
 14
1796.6029
 24
410.2698
 34
0.0
 15
2379.2191
 25
798.6357
 35
0.0
146
0.0
 13
0.0
 23
0.0
 33
0.0
 16
1.0
 26
0.0
 36
0.0
 17
0.0
 27
1.0
 37
0.0
 76
     0
330
1F
331
29
  0
MATERIAL
  5
45
102
{ACAD_REACTORS
330
43
102
}
330
43
100
AcDbMaterial
  1
ByBlock
 72
     1
 94
      127
  0
MATERIAL
  5
44
102
{ACAD_REACTORS
330
43
102
}
330
43
100
AcDbMaterial
  1
ByLayer
 72
     1
 94
      127
  0
MATERIAL
  5
46
102
{ACAD_REACTORS
330
43
102
}
330
43
100
AcDbMaterial
  1
Global
 72
     1
 94
      127
  0
MLEADERSTYLE
  5
6C
102
{ACAD_REACTORS
330
6B
102
}
102
{ACAD_XDICTIONARY
360
E2
102
}
330
6B
100
AcDbMLeaderStyle
170
     2
171
     1
172
     0
 90
        2
 40
0.0
 41
0.0
173
     1
 91
-1056964608
340
14
 92
       -2
290
     1
 42
0.09
291
     1
 43
0.36
  3
Standard
341
0
 44
0.18
300

342
11
174
     1
178
     6
175
     1
176
     0
 93
-1056964608
 45
0.18
292
     0
297
     0
 46
0.18
343
0
 94
-1056964608
 47
1.0
 49
1.0
140
1.0
293
     1
141
0.0
294
     1
177
     0
142
1.0
295
     0
296
     0
143
0.125
1001
ACAD_MLEADERVER
1070
     2
  0
MLINESTYLE
  5
18
102
{ACAD_REACTORS
330
17
102
}
330
17
100
AcDbMlineStyle
  2
Standard
 70
     0
  3

 62
   256
 51
90.0
 52
90.0
 71
     2
 49
0.5
 62
   256
  6
BYLAYER
 49
-0.5
 62
   256
  6
BYLAYER
  0
ACDBPLACEHOLDER
  5
F
102
{ACAD_REACTORS
330
E
102
}
330
E
  0
SCALE
  5
48
102
{ACAD_REACTORS
330
47
102
}
330
47
100
AcDbScale
 70
     0
300
1:1
140
1.0
141
1.0
290
     1
  0
SCALE
  5
49
102
{ACAD_REACTORS
330
47
102
}
330
47
100
AcDbScale
 70
     0
300
1:2
140
1.0
141
2.0
290
     0
  0
SCALE
  5
4A
102
{ACAD_REACTORS
330
47
102
}
330
47
100
AcDbScale
 70
     0
300
1:4
140
1.0
141
4.0
290
     0
  0
SCALE
  5
4B
102
{ACAD_REACTORS
330
47
102
}
330
47
100
AcDbScale
 70
     0
300
1:5
140
1.0
141
5.0
290
     0
  0
SCALE
  5
4C
102
{ACAD_REACTORS
330
47
102
}
330
47
100
AcDbScale
 70
     0
300
1:8
140
1.0
141
8.0
290
     0
  0
SCALE
  5
4D
102
{ACAD_REACTORS
330
47
102
}
330
47
100
AcDbScale
 70
     0
300
1:10
140
1.0
141
10.0
290
     0
  0
SCALE
  5
4E
102
{ACAD_REACTORS
330
47
102
}
330
47
100
AcDbScale
 70
     0
300
1:16
140
1.0
141
16.0
290
     0
  0
SCALE
  5
4F
102
{ACAD_REACTORS
330
47
102
}
330
47
100
AcDbScale
 70
     0
300
1:20
140
1.0
141
20.0
290
     0
  0
SCALE
  5
50
102
{ACAD_REACTORS
330
47
102
}
330
47
100
AcDbScale
 70
     0
300
1:30
140
1.0
141
30.0
290
     0
  0
SCALE
  5
51
102
{ACAD_REACTORS
330
47
102
}
330
47
100
AcDbScale
 70
     0
300
1:40
140
1.0
141
40.0
290
     0
  0
SCALE
  5
52
102
{ACAD_REACTORS
330
47
102
}
330
47
100
AcDbScale
 70
     0
300
1:50
140
1.0
141
50.0
290
     0
  0
SCALE
  5
53
102
{ACAD_REACTORS
330
47
102
}
330
47
100
AcDbScale
 70
     0
300
1:100
140
1.0
141
100.0
290
     0
  0
SCALE
  5
54
102
{ACAD_REACTORS
330
47
102
}
330
47
100
AcDbScale
 70
     0
300
2:1
140
2.0
141
1.0
290
     0
  0
SCALE
  5
55
102
{ACAD_REACTORS
330
47
102
}
330
47
100
AcDbScale
 70
     0
300
4:1
140
4.0
141
1.0
290
     0
  0
SCALE
  5
56
102
{ACAD_REACTORS
330
47
102
}
330
47
100
AcDbScale
 70
     0
300
8:1
140
8.0
141
1.0
290
     0
  0
SCALE
  5
57
102
{ACAD_REACTORS
330
47
102
}
330
47
100
AcDbScale
 70
     0
300
10:1
140
10.0
141
1.0
290
     0
  0
SCALE
  5
58
102
{ACAD_REACTORS
330
47
102
}
330
47
100
AcDbScale
 70
     0
300
100:1
140
100.0
141
1.0
290
     0
  0
SCALE
  5
59
102
{ACAD_REACTORS
330
47
102
}
330
47
100
AcDbScale
 70
     0
300
1/128" = 1'-0"
140
0.0078125
141
12.0
290
     0
  0
SCALE
  5
5A
102
{ACAD_REACTORS
330
47
102
}
330
47
100
AcDbScale
 70
     0
300
1/64" = 1'-0"
140
0.015625
141
12.0
290
     0
  0
SCALE
  5
5B
102
{ACAD_REACTORS
330
47
102
}
330
47
100
AcDbScale
 70
     0
300
1/32" = 1'-0"
140
0.03125
141
12.0
290
     0
  0
SCALE
  5
5C
102
{ACAD_REACTORS
330
47
102
}
330
47
100
AcDbScale
 70
     0
300
1/16" = 1'-0"
140
0.0625
141
12.0
290
     0
  0
SCALE
  5
5D
102
{ACAD_REACTORS
330
47
102
}
330
47
100
AcDbScale
 70
     0
300
3/32" = 1'-0"
140
0.09375
141
12.0
290
     0
  0
SCALE
  5
5E
102
{ACAD_REACTORS
330
47
102
}
330
47
100
AcDbScale
 70
     0
300
1/8" = 1'-0"
140
0.125
141
12.0
290
     0
  0
SCALE
  5
5F
102
{ACAD_REACTORS
330
47
102
}
330
47
100
AcDbScale
 70
     0
300
3/16" = 1'-0"
140
0.1875
141
12.0
290
     0
  0
SCALE
  5
60
102
{ACAD_REACTORS
330
47
102
}
330
47
100
AcDbScale
 70
     0
300
1/4" = 1'-0"
140
0.25
141
12.0
290
     0
  0
SCALE
  5
61
102
{ACAD_REACTORS
330
47
102
}
330
47
100
AcDbScale
 70
     0
300
3/8" = 1'-0"
140
0.375
141
12.0
290
     0
  0
SCALE
  5
62
102
{ACAD_REACTORS
330
47
102
}
330
47
100
AcDbScale
 70
     0
300
1/2" = 1'-0"
140
0.5
141
12.0
290
     0
  0
SCALE
  5
63
102
{ACAD_REACTORS
330
47
102
}
330
47
100
AcDbScale
 70
     0
300
3/4" = 1'-0"
140
0.75
141
12.0
290
     0
  0
SCALE
  5
64
102
{ACAD_REACTORS
330
47
102
}
330
47
100
AcDbScale
 70
     0
300
1" = 1'-0"
140
1.0
141
12.0
290
     0
  0
SCALE
  5
65
102
{ACAD_REACTORS
330
47
102
}
330
47
100
AcDbScale
 70
     0
300
1-1/2" = 1'-0"
140
1.5
141
12.0
290
     0
  0
SCALE
  5
66
102
{ACAD_REACTORS
330
47
102
}
330
47
100
AcDbScale
 70
     0
300
3" = 1'-0"
140
3.0
141
12.0
290
     0
  0
SCALE
  5
67
102
{ACAD_REACTORS
330
47
102
}
330
47
100
AcDbScale
 70
     0
300
6" = 1'-0"
140
6.0
141
12.0
290
     0
  0
SCALE
  5
68
102
{ACAD_REACTORS
330
47
102
}
330
47
100
AcDbScale
 70
     0
300
1'-0" = 1'-0"
140
12.0
141
12.0
290
     0
  0
TABLESTYLE
  5
6A
102
{ACAD_REACTORS
330
69
102
}
102
{ACAD_XDICTIONARY
360
DF
102
}
330
69
100
AcDbTableStyle
  3
Standard
 70
     0
 71
     0
 40
0.06
 41
0.06
280
     0
281
     0
  7
Standard
140
0.18
170
     2
 62
     0
 63
   257
283
     0
 90
        4
 91
        0
  1

274
    -2
284
     1
 64
     0
275
    -2
285
     1
 65
     0
276
    -2
286
     1
 66
     0
277
    -2
287
     1
 67
     0
278
    -2
288
     1
 68
     0
279
    -2
289
     1
 69
     0
  7
Standard
140
0.25
170
     5
 62
     0
 63
   257
283
     0
 90
        4
 91
        0
  1

274
    -2
284
     1
 64
     0
275
    -2
285
     1
 65
     0
276
    -2
286
     1
 66
     0
277
    -2
287
     1
 67
     0
278
    -2
288
     1
 68
     0
279
    -2
289
     1
 69
     0
  7
Standard
140
0.18
170
     5
 62
     0
 63
   257
283
     0
 90
        4
 91
        0
  1

274
    -2
284
     1
 64
     0
275
    -2
285
     1
 65
     0
276
    -2
286
     1
 66
     0
277
    -2
287
     1
 67
     0
278
    -2
288
     1
 68
     0
279
    -2
289
     1
 69
     0
  0
VISUALSTYLE
  5
2F
102
{ACAD_REACTORS
330
2A
102
}
102
{ACAD_XDICTIONARY
360
B7
102
}
330
2A
100
AcDbVisualStyle
  2
2dWireframe
 70
     4
 71
     0
 72
     2
 73
     0
 90
        0
 40
0.6
 41
30.0
 62
     5
 63
     7
421
 16777215
 74
     1
 91
        4
 64
     7
 65
   257
 75
     1
175
     1
 42
1.0
 92
        0
 66
   257
 43
1.0
 76
     1
 77
     6
 78
     2
 67
     7
 79
     5
170
     0
171
     0
290
     0
174
     0
 93
        1
 44
0.0
173
     0
291
     0
 45
0.0
  0
VISUALSTYLE
  5
32
102
{ACAD_REACTORS
330
2A
102
}
102
{ACAD_XDICTIONARY
360
BD
102
}
330
2A
100
AcDbVisualStyle
  2
Basic
 70
     7
 71
     1
 72
     0
 73
     1
 90
        0
 40
0.6
 41
30.0
 62
     5
 63
     7
421
 16777215
 74
     0
 91
        4
 64
     7
 65
   257
 75
     1
175
     1
 42
1.0
 92
        8
 66
     7
 43
1.0
 76
     1
 77
     6
 78
     2
 67
     7
 79
     5
170
     0
171
     0
290
     0
174
     0
 93
        1
 44
0.0
173
     0
291
     1
 45
0.0
  0
VISUALSTYLE
  5
36
102
{ACAD_REACTORS
330
2A
102
}
102
{ACAD_XDICTIONARY
360
C5
102
}
330
2A
100
AcDbVisualStyle
  2
Brighten
 70
    12
 71
     2
 72
     2
 73
     0
 90
        0
 40
0.6
 41
30.0
 62
     5
 63
     7
421
 16777215
 74
     1
 91
        4
 64
     7
 65
   257
 75
     1
175
     1
 42
1.0
 92
        8
 66
     7
 43
1.0
 76
     1
 77
     6
 78
     2
 67
     7
 79
     5
170
     0
171
     0
290
     0
174
     0
 93
        1
 44
50.0
173
     0
291
     1
 45
0.0
  0
VISUALSTYLE
  5
3A
102
{ACAD_REACTORS
330
2A
102
}
102
{ACAD_XDICTIONARY
360
CD
102
}
330
2A
100
AcDbVisualStyle
  2
ColorChange
 70
    16
 71
     2
 72
     2
 73
     3
 90
        0
 40
0.6
 41
30.0
 62
     5
 63
     8
421
  8421504
 74
     1
 91
        4
 64
     7
 65
   257
 75
     1
175
     1
 42
1.0
 92
        8
 66
     8
424
  8421504
 43
1.0
 76
     1
 77
     6
 78
     2
 67
     7
 79
     5
170
     0
171
     0
290
     0
174
     0
 93
        1
 44
0.0
173
     0
291
     1
 45
0.0
  0
VISUALSTYLE
  5
34
102
{ACAD_REACTORS
330
2A
102
}
102
{ACAD_XDICTIONARY
360
C1
102
}
330
2A
100
AcDbVisualStyle
  2
Conceptual
 70
     9
 71
     3
 72
     2
 73
     0
 90
        0
 40
0.6
 41
30.0
 62
     5
 63
     7
421
 16777215
 74
     2
 91
        2
 64
     7
 65
   257
 75
     1
175
     1
 42
179.0
 92
        8
 66
     7
 43
1.0
 76
     1
 77
     6
 78
     2
 67
     7
 79
     3
170
     0
171
     0
290
     0
174
     0
 93
        1
 44
0.0
173
     0
291
     0
 45
0.0
  0
VISUALSTYLE
  5
35
102
{ACAD_REACTORS
330
2A
102
}
102
{ACAD_XDICTIONARY
360
C3
102
}
330
2A
100
AcDbVisualStyle
  2
Dim
 70
    11
 71
     2
 72
     2
 73
     0
 90
        0
 40
0.6
 41
30.0
 62
     5
 63
     7
421
 16777215
 74
     1
 91
        4
 64
     7
 65
   257
 75
     1
175
     1
 42
1.0
 92
        8
 66
     7
 43
1.0
 76
     1
 77
     6
 78
     2
 67
     7
 79
     5
170
     0
171
     0
290
     0
174
     0
 93
        1
 44
-50.0
173
     0
291
     1
 45
0.0
  0
VISUALSTYLE
  5
3D
102
{ACAD_REACTORS
330
2A
102
}
102
{ACAD_XDICTIONARY
360
D3
102
}
330
2A
100
AcDbVisualStyle
  2
EdgeColorOff
 70
    22
 71
     2
 72
     2
 73
     0
 90
        0
 40
0.6
 41
30.0
 62
     5
 63
     7
421
 16777215
 74
     1
 91
        4
 64
     7
 65
   257
 75
     1
175
     1
 42
1.0
 92
        8
 66
     7
 43
1.0
 76
     1
 77
     6
 78
     2
 67
     7
 79
     5
170
     0
171
     0
290
     0
174
     0
 93
        1
 44
0.0
173
     0
291
     1
 45
0.0
  0
VISUALSTYLE
  5
39
102
{ACAD_REACTORS
330
2A
102
}
102
{ACAD_XDICTIONARY
360
CB
102
}
330
2A
100
AcDbVisualStyle
  2
Facepattern
 70
    15
 71
     2
 72
     2
 73
     0
 90
        0
 40
0.6
 41
30.0
 62
     5
 63
     7
421
 16777215
 74
     1
 91
        4
 64
     7
 65
   257
 75
     1
175
     1
 42
1.0
 92
        8
 66
     7
 43
1.0
 76
     1
 77
     6
 78
     2
 67
     7
 79
     5
170
     0
171
     0
290
     0
174
     0
 93
        1
 44
0.0
173
     0
291
     1
 45
0.0
  0
VISUALSTYLE
  5
2B
102
{ACAD_REACTORS
330
2A
102
}
102
{ACAD_XDICTIONARY
360
AF
102
}
330
2A
100
AcDbVisualStyle
  2
Flat
 70
     0
 71
     2
 72
     1
 73
     1
 90
        2
 40
0.6
 41
30.0
 62
     5
 63
     7
421
 16777215
 74
     0
 91
        0
 64
     7
 65
   257
 75
     1
175
     1
 42
1.0
 92
        8
 66
     7
 43
1.0
 76
     1
 77
     6
 78
     2
 67
     7
 79
     5
170
     0
171
     0
290
     0
174
     0
 93
       13
 44
0.0
173
     0
291
     1
 45
0.0
  0
VISUALSTYLE
  5
2C
102
{ACAD_REACTORS
330
2A
102
}
102
{ACAD_XDICTIONARY
360
B1
102
}
330
2A
100
AcDbVisualStyle
  2
FlatWithEdges
 70
     1
 71
     2
 72
     1
 73
     1
 90
        2
 40
0.6
 41
30.0
 62
     5
 63
     7
421
 16777215
 74
     1
 91
        0
 64
     7
 65
   257
 75
     1
175
     1
 42
1.0
 92
        0
 66
   257
 43
1.0
 76
     1
 77
     6
 78
     2
 67
     7
 79
     5
170
     0
171
     0
290
     0
174
     0
 93
       13
 44
0.0
173
     0
291
     1
 45
0.0
  0
VISUALSTYLE
  5
2D
102
{ACAD_REACTORS
330
2A
102
}
102
{ACAD_XDICTIONARY
360
B3
102
}
330
2A
100
AcDbVisualStyle
  2
Gouraud
 70
     2
 71
     2
 72
     2
 73
     1
 90
        2
 40
0.6
 41
30.0
 62
     5
 63
     7
421
 16777215
 74
     0
 91
        0
 64
     7
 65
   257
 75
     1
175
     1
 42
1.0
 92
        0
 66
     7
 43
1.0
 76
     1
 77
     6
 78
     2
 67
     7
 79
     5
170
     0
171
     0
290
     0
174
     0
 93
       13
 44
0.0
173
     0
291
     1
 45
0.0
  0
VISUALSTYLE
  5
2E
102
{ACAD_REACTORS
330
2A
102
}
102
{ACAD_XDICTIONARY
360
B5
102
}
330
2A
100
AcDbVisualStyle
  2
GouraudWithEdges
 70
     3
 71
     2
 72
     2
 73
     1
 90
        2
 40
0.6
 41
30.0
 62
     5
 63
     7
421
 16777215
 74
     1
 91
        0
 64
     7
 65
   257
 75
     1
175
     1
 42
1.0
 92
        0
 66
   257
 43
1.0
 76
     1
 77
     6
 78
     2
 67
     7
 79
     5
170
     0
171
     0
290
     0
174
     0
 93
       13
 44
0.0
173
     0
291
     1
 45
0.0
  0
VISUALSTYLE
  5
31
102
{ACAD_REACTORS
330
2A
102
}
102
{ACAD_XDICTIONARY
360
BB
102
}
330
2A
100
AcDbVisualStyle
  2
Hidden
 70
     6
 71
     1
 72
     2
 73
     2
 90
        0
 40
0.6
 41
30.0
 62
     5
 63
     7
421
 16777215
 74
     2
 91
        2
 64
     7
 65
   257
 75
     2
175
     1
 42
40.0
 92
        0
 66
   257
 43
1.0
 76
     1
 77
     6
 78
     2
 67
     7
 79
     3
170
     0
171
     0
290
     0
174
     0
 93
        1
 44
0.0
173
     0
291
     0
 45
0.0
  0
VISUALSTYLE
  5
3B
102
{ACAD_REACTORS
330
2A
102
}
102
{ACAD_XDICTIONARY
360
CF
102
}
330
2A
100
AcDbVisualStyle
  2
JitterOff
 70
    20
 71
     2
 72
     2
 73
     0
 90
        0
 40
0.6
 41
30.0
 62
     5
 63
     7
421
 16777215
 74
     1
 91
        4
 64
     7
 65
   257
 75
     1
175
     1
 42
1.0
 92
       10
 66
     7
 43
1.0
 76
     1
 77
     6
 78
     2
 67
     7
 79
     5
170
     0
171
     0
290
     0
174
     0
 93
        1
 44
0.0
173
     0
291
     1
 45
0.0
  0
VISUALSTYLE
  5
38
102
{ACAD_REACTORS
330
2A
102
}
102
{ACAD_XDICTIONARY
360
C9
102
}
330
2A
100
AcDbVisualStyle
  2
Linepattern
 70
    14
 71
     2
 72
     2
 73
     0
 90
        0
 40
0.6
 41
30.0
 62
     5
 63
     7
421
 16777215
 74
     1
 91
        4
 64
     7
 65
   257
 75
     7
175
     7
 42
1.0
 92
        8
 66
     7
 43
1.0
 76
     1
 77
     6
 78
     2
 67
     7
 79
     5
170
     0
171
     0
290
     0
174
     0
 93
        1
 44
0.0
173
     0
291
     1
 45
0.0
  0
VISUALSTYLE
  5
3C
102
{ACAD_REACTORS
330
2A
102
}
102
{ACAD_XDICTIONARY
360
D1
102
}
330
2A
100
AcDbVisualStyle
  2
OverhangOff
 70
    21
 71
     2
 72
     2
 73
     0
 90
        0
 40
0.6
 41
30.0
 62
     5
 63
     7
421
 16777215
 74
     1
 91
        4
 64
     7
 65
   257
 75
     1
175
     1
 42
1.0
 92
        9
 66
     7
 43
1.0
 76
     1
 77
     6
 78
     2
 67
     7
 79
     5
170
     0
171
     0
290
     0
174
     0
 93
        1
 44
0.0
173
     0
291
     1
 45
0.0
  0
VISUALSTYLE
  5
33
102
{ACAD_REACTORS
330
2A
102
}
102
{ACAD_XDICTIONARY
360
BF
102
}
330
2A
100
AcDbVisualStyle
  2
Realistic
 70
     8
 71
     2
 72
     3
 73
     0
 90
        2
 40
0.6
 41
30.0
 62
     5
 63
     7
421
 16777215
 74
     0
 91
        0
 64
     7
 65
   257
 75
     1
175
     1
 42
1.0
 92
        8
 66
   257
 43
1.0
 76
     1
 77
     6
 78
     2
 67
     7
 79
     3
170
     0
171
     0
290
     0
174
     0
 93
       13
 44
0.0
173
     0
291
     0
 45
0.0
  0
VISUALSTYLE
  5
42
102
{ACAD_REACTORS
330
2A
102
}
102
{ACAD_XDICTIONARY
360
DD
102
}
330
2A
100
AcDbVisualStyle
  2
Shaded
 70
    27
 71
     2
 72
     2
 73
     1
 90
        2
 40
0.6
 41
30.0
 62
     5
 63
     7
421
 16777215
 74
     0
 91
        4
 64
     7
 65
   257
 75
     1
175
     1
 42
1.0
 92
        8
 66
   257
 43
1.0
 76
     1
 77
     6
 78
     2
 67
     8
425
  7895160
 79
     3
170
     0
171
     0
290
     0
174
     0
 93
        5
 44
0.0
173
     0
291
     0
 45
0.0
  0
VISUALSTYLE
  5
41
102
{ACAD_REACTORS
330
2A
102
}
102
{ACAD_XDICTIONARY
360
DB
102
}
330
2A
100
AcDbVisualStyle
  2
Shaded with edges
 70
    26
 71
     2
 72
     2
 73
     1
 90
        2
 40
0.6
 41
30.0
 62
     5
 63
     7
421
 16777215
 74
     1
 91
       10
 64
     7
 65
   257
 75
     2
175
     1
 42
1.0
 92
        8
 66
   257
 43
1.0
 76
     1
 77
     6
 78
     2
 67
     7
 79
     3
170
     0
171
     0
290
     0
174
     0
 93
        5
 44
0.0
173
     0
291
     0
 45
0.0
  0
VISUALSTYLE
  5
3E
102
{ACAD_REACTORS
330
2A
102
}
102
{ACAD_XDICTIONARY
360
D5
102
}
330
2A
100
AcDbVisualStyle
  2
Shades of Gray
 70
    23
 71
     2
 72
     2
 73
     3
 90
        0
 40
0.6
 41
30.0
 62
     5
 63
     7
421
 16777215
 74
     2
 91
        2
 64
     7
 65
     7
 75
     1
175
     1
 42
40.0
 92
        8
 66
     7
 43
1.0
 76
     1
 77
     6
 78
     2
 67
     7
 79
     3
170
     0
171
     0
290
     0
174
     0
 93
        1
 44
0.0
173
     0
291
     0
 45
0.0
  0
VISUALSTYLE
  5
3F
102
{ACAD_REACTORS
330
2A
102
}
102
{ACAD_XDICTIONARY
360
D7
102
}
330
2A
100
AcDbVisualStyle
  2
Sketchy
 70
    24
 71
     1
 72
     2
 73
     2
 90
        0
 40
0.6
 41
30.0
 62
     5
 63
     7
421
 16777215
 74
     2
 91
        2
 64
     7
 65
     7
 75
     1
175
     1
 42
40.0
 92
       11
 66
     7
 43
1.0
 76
     1
 77
     6
 78
     2
 67
     7
 79
     6
170
     0
171
     0
290
     0
174
     0
 93
        1
 44
0.0
173
     0
291
     0
 45
0.0
  0
VISUALSTYLE
  5
37
102
{ACAD_REACTORS
330
2A
102
}
102
{ACAD_XDICTIONARY
360
C7
102
}
330
2A
100
AcDbVisualStyle
  2
Thicken
 70
    13
 71
     2
 72
     2
 73
     0
 90
        0
 40
0.6
 41
30.0
 62
     5
 63
     7
421
 16777215
 74
     1
 91
        4
 64
     7
 65
   257
 75
     1
175
     1
 42
1.0
 92
       12
 66
     7
 43
1.0
 76
     1
 77
     6
 78
     2
 67
     7
 79
     5
170
     0
171
     0
290
     0
174
     0
 93
        1
 44
0.0
173
     0
291
     1
 45
0.0
  0
VISUALSTYLE
  5
30
102
{ACAD_REACTORS
330
2A
102
}
102
{ACAD_XDICTIONARY
360
B9
102
}
330
2A
100
AcDbVisualStyle
  2
Wireframe
 70
     5
 71
     0
 72
     2
 73
     0
 90
        0
 40
0.6
 41
30.0
 62
     5
 63
     7
421
 16777215
 74
     1
 91
        4
 64
     7
 65
   257
 75
     1
175
     1
 42
1.0
 92
        0
 66
   257
 43
1.0
 76
     1
 77
     6
 78
     2
 67
     7
 79
     3
170
     0
171
     0
290
     0
174
     0
 93
        1
 44
0.0
173
     0
291
     0
 45
0.0
  0
VISUALSTYLE
  5
40
102
{ACAD_REACTORS
330
2A
102
}
102
{ACAD_XDICTIONARY
360
D9
102
}
330
2A
100
AcDbVisualStyle
  2
X-Ray
 70
    25
 71
     2
 72
     2
 73
     1
 90
        1
 40
0.5
 41
30.0
 62
     5
 63
     7
421
 16777215
 74
     1
 91
        0
 64
     7
 65
   257
 75
     1
175
     1
 42
1.0
 92
        8
 66
     7
 43
1.0
 76
     1
 77
     6
 78
     2
 67
     7
 79
     3
170
     0
171
     0
290
     0
174
     0
 93
       13
 44
0.0
173
     0
291
     0
 45
0.0
  0
DICTIONARYVAR
  5
AD
102
{ACAD_REACTORS
330
AC
102
}
330
AC
100
DictionaryVariables
280
     0
  1
1:1
  0
DICTIONARYVAR
  5
E6
102
{ACAD_REACTORS
330
AC
102
}
330
AC
100
DictionaryVariables
280
     0
  1
Standard
  0
DICTIONARYVAR
  5
E5
102
{ACAD_REACTORS
330
AC
102
}
330
AC
100
DictionaryVariables
280
     0
  1
Standard
  0
DICTIONARYVAR
  5
AE
102
{ACAD_REACTORS
330
AC
102
}
330
AC
100
DictionaryVariables
280
     0
  1
2
  0
DICTIONARY
  5
E2
330
6C
100
AcDbDictionary
280
     1
281
     1
  3
ACAD_XREC_ROUNDTRIP
360
E3
  0
DICTIONARY
  5
DF
330
6A
100
AcDbDictionary
280
     1
281
     1
  3
ACAD_ROUNDTRIP_2008_TABLESTYLE_CELLSTYLEMAP
360
E0
  0
DICTIONARY
  5
B7
330
2F
100
AcDbDictionary
280
     1
281
     1
  3
ACAD_XREC_ROUNDTRIP
360
B8
  0
DICTIONARY
  5
BD
330
32
100
AcDbDictionary
280
     1
281
     1
  3
ACAD_XREC_ROUNDTRIP
360
BE
  0
DICTIONARY
  5
C5
330
36
100
AcDbDictionary
280
     1
281
     1
  3
ACAD_XREC_ROUNDTRIP
360
C6
  0
DICTIONARY
  5
CD
330
3A
100
AcDbDictionary
280
     1
281
     1
  3
ACAD_XREC_ROUNDTRIP
360
CE
  0
DICTIONARY
  5
C1
330
34
100
AcDbDictionary
280
     1
281
     1
  3
ACAD_XREC_ROUNDTRIP
360
C2
  0
DICTIONARY
  5
C3
330
35
100
AcDbDictionary
280
     1
281
     1
  3
ACAD_XREC_ROUNDTRIP
360
C4
  0
DICTIONARY
  5
D3
330
3D
100
AcDbDictionary
280
     1
281
     1
  3
ACAD_XREC_ROUNDTRIP
360
D4
  0
DICTIONARY
  5
CB
330
39
100
AcDbDictionary
280
     1
281
     1
  3
ACAD_XREC_ROUNDTRIP
360
CC
  0
DICTIONARY
  5
AF
330
2B
100
AcDbDictionary
280
     1
281
     1
  3
ACAD_XREC_ROUNDTRIP
360
B0
  0
DICTIONARY
  5
B1
330
2C
100
AcDbDictionary
280
     1
281
     1
  3
ACAD_XREC_ROUNDTRIP
360
B2
  0
DICTIONARY
  5
B3
330
2D
100
AcDbDictionary
280
     1
281
     1
  3
ACAD_XREC_ROUNDTRIP
360
B4
  0
DICTIONARY
  5
B5
330
2E
100
AcDbDictionary
280
     1
281
     1
  3
ACAD_XREC_ROUNDTRIP
360
B6
  0
DICTIONARY
  5
BB
330
31
100
AcDbDictionary
280
     1
281
     1
  3
ACAD_XREC_ROUNDTRIP
360
BC
  0
DICTIONARY
  5
CF
330
3B
100
AcDbDictionary
280
     1
281
     1
  3
ACAD_XREC_ROUNDTRIP
360
D0
  0
DICTIONARY
  5
C9
330
38
100
AcDbDictionary
280
     1
281
     1
  3
ACAD_XREC_ROUNDTRIP
360
CA
  0
DICTIONARY
  5
D1
330
3C
100
AcDbDictionary
280
     1
281
     1
  3
ACAD_XREC_ROUNDTRIP
360
D2
  0
DICTIONARY
  5
BF
330
33
100
AcDbDictionary
280
     1
281
     1
  3
ACAD_XREC_ROUNDTRIP
360
C0
  0
DICTIONARY
  5
DD
330
42
100
AcDbDictionary
280
     1
281
     1
  3
ACAD_XREC_ROUNDTRIP
360
DE
  0
DICTIONARY
  5
DB
330
41
100
AcDbDictionary
280
     1
281
     1
  3
ACAD_XREC_ROUNDTRIP
360
DC
  0
DICTIONARY
  5
D5
330
3E
100
AcDbDictionary
280
     1
281
     1
  3
ACAD_XREC_ROUNDTRIP
360
D6
  0
DICTIONARY
  5
D7
330
3F
100
AcDbDictionary
280
     1
281
     1
  3
ACAD_XREC_ROUNDTRIP
360
D8
  0
DICTIONARY
  5
C7
330
37
100
AcDbDictionary
280
     1
281
     1
  3
ACAD_XREC_ROUNDTRIP
360
C8
  0
DICTIONARY
  5
B9
330
30
100
AcDbDictionary
280
     1
281
     1
  3
ACAD_XREC_ROUNDTRIP
360
BA
  0
DICTIONARY
  5
D9
330
40
100
AcDbDictionary
280
     1
281
     1
  3
ACAD_XREC_ROUNDTRIP
360
DA
  0
XRECORD
  5
E3
102
{ACAD_REACTORS
330
E2
102
}
330
E2
100
AcDbXrecord
280
     1
102
ACAD_ROUNDTRIP_2010_MLEADER_STYLE
  0
CELLSTYLEMAP
  5
E0
102
{ACAD_REACTORS
330
DF
102
}
330
DF
100
AcDbCellStyleMap
 90
        3
300
CELLSTYLE
  1
TABLEFORMAT_BEGIN
 90
        5
170
     1
 91
        0
 92
    32768
 62
   257
 93
        1
300
CONTENTFORMAT
  1
CONTENTFORMAT_BEGIN
 90
        0
 91
        0
 92
        4
 93
        0
300

 40
0.0
140
1.0
 94
        5
 62
     0
340
11
144
0.25
309
CONTENTFORMAT_END
171
     1
301
MARGIN
  1
CELLMARGIN_BEGIN
 40
0.06
 40
0.06
 40
0.06
 40
0.06
 40
0.06
 40
0.06
309
CELLMARGIN_END
 94
        6
 95
        1
302
GRIDFORMAT
  1
GRIDFORMAT_BEGIN
 90
        0
 91
        1
 62
     0
 92
       -2
340
14
 93
        0
 40
0.045
309
GRIDFORMAT_END
 95
        2
302
GRIDFORMAT
  1
GRIDFORMAT_BEGIN
 90
        0
 91
        1
 62
     0
 92
       -2
340
14
 93
        0
 40
0.045
309
GRIDFORMAT_END
 95
        4
302
GRIDFORMAT
  1
GRIDFORMAT_BEGIN
 90
        0
 91
        1
 62
     0
 92
       -2
340
14
 93
        0
 40
0.045
309
GRIDFORMAT_END
 95
        8
302
GRIDFORMAT
  1
GRIDFORMAT_BEGIN
 90
        0
 91
        1
 62
     0
 92
       -2
340
14
 93
        0
 40
0.045
309
GRIDFORMAT_END
 95
       16
302
GRIDFORMAT
  1
GRIDFORMAT_BEGIN
 90
        0
 91
        1
 62
     0
 92
       -2
340
14
 93
        0
 40
0.045
309
GRIDFORMAT_END
 95
       32
302
GRIDFORMAT
  1
GRIDFORMAT_BEGIN
 90
        0
 91
        1
 62
     0
 92
       -2
340
14
 93
        0
 40
0.045
309
GRIDFORMAT_END
309
TABLEFORMAT_END
  1
CELLSTYLE_BEGIN
 90
        1
 91
        1
300
_TITLE
309
CELLSTYLE_END
300
CELLSTYLE
  1
TABLEFORMAT_BEGIN
 90
        5
170
     1
 91
        0
 92
        0
 62
   257
 93
        1
300
CONTENTFORMAT
  1
CONTENTFORMAT_BEGIN
 90
        0
 91
        0
 92
        4
 93
        0
300

 40
0.0
140
1.0
 94
        5
 62
     0
340
11
144
0.18
309
CONTENTFORMAT_END
171
     1
301
MARGIN
  1
CELLMARGIN_BEGIN
 40
0.06
 40
0.06
 40
0.06
 40
0.06
 40
0.06
 40
0.06
309
CELLMARGIN_END
 94
        6
 95
        1
302
GRIDFORMAT
  1
GRIDFORMAT_BEGIN
 90
        0
 91
        1
 62
     0
 92
       -2
340
14
 93
        0
 40
0.045
309
GRIDFORMAT_END
 95
        2
302
GRIDFORMAT
  1
GRIDFORMAT_BEGIN
 90
        0
 91
        1
 62
     0
 92
       -2
340
14
 93
        0
 40
0.045
309
GRIDFORMAT_END
 95
        4
302
GRIDFORMAT
  1
GRIDFORMAT_BEGIN
 90
        0
 91
        1
 62
     0
 92
       -2
340
14
 93
        0
 40
0.045
309
GRIDFORMAT_END
 95
        8
302
GRIDFORMAT
  1
GRIDFORMAT_BEGIN
 90
        0
 91
        1
 62
     0
 92
       -2
340
14
 93
        0
 40
0.045
309
GRIDFORMAT_END
 95
       16
302
GRIDFORMAT
  1
GRIDFORMAT_BEGIN
 90
        0
 91
        1
 62
     0
 92
       -2
340
14
 93
        0
 40
0.045
309
GRIDFORMAT_END
 95
       32
302
GRIDFORMAT
  1
GRIDFORMAT_BEGIN
 90
        0
 91
        1
 62
     0
 92
       -2
340
14
 93
        0
 40
0.045
309
GRIDFORMAT_END
309
TABLEFORMAT_END
  1
CELLSTYLE_BEGIN
 90
        2
 91
        1
300
_HEADER
309
CELLSTYLE_END
300
CELLSTYLE
  1
TABLEFORMAT_BEGIN
 90
        5
170
     1
 91
        0
 92
        0
 62
   257
 93
        1
300
CONTENTFORMAT
  1
CONTENTFORMAT_BEGIN
 90
        0
 91
        0
 92
        4
 93
        0
300

 40
0.0
140
1.0
 94
        2
 62
     0
340
11
144
0.18
309
CONTENTFORMAT_END
171
     1
301
MARGIN
  1
CELLMARGIN_BEGIN
 40
0.06
 40
0.06
 40
0.06
 40
0.06
 40
0.06
 40
0.06
309
CELLMARGIN_END
 94
        6
 95
        1
302
GRIDFORMAT
  1
GRIDFORMAT_BEGIN
 90
        0
 91
        1
 62
     0
 92
       -2
340
14
 93
        0
 40
0.045
309
GRIDFORMAT_END
 95
        2
302
GRIDFORMAT
  1
GRIDFORMAT_BEGIN
 90
        0
 91
        1
 62
     0
 92
       -2
340
14
 93
        0
 40
0.045
309
GRIDFORMAT_END
 95
        4
302
GRIDFORMAT
  1
GRIDFORMAT_BEGIN
 90
        0
 91
        1
 62
     0
 92
       -2
340
14
 93
        0
 40
0.045
309
GRIDFORMAT_END
 95
        8
302
GRIDFORMAT
  1
GRIDFORMAT_BEGIN
 90
        0
 91
        1
 62
     0
 92
       -2
340
14
 93
        0
 40
0.045
309
GRIDFORMAT_END
 95
       16
302
GRIDFORMAT
  1
GRIDFORMAT_BEGIN
 90
        0
 91
        1
 62
     0
 92
       -2
340
14
 93
        0
 40
0.045
309
GRIDFORMAT_END
 95
       32
302
GRIDFORMAT
  1
GRIDFORMAT_BEGIN
 90
        0
 91
        1
 62
     0
 92
       -2
340
14
 93
        0
 40
0.045
309
GRIDFORMAT_END
309
TABLEFORMAT_END
  1
CELLSTYLE_BEGIN
 90
        3
 91
        2
300
_DATA
309
CELLSTYLE_END
  0
XRECORD
  5
B8
102
{ACAD_REACTORS
330
B7
102
}
330
B7
100
AcDbXrecord
280
     1
102
RTVSPropertyOp0
 70
     1
102
RTVSPropertyOp1
 70
     1
102
RTVSPropertyOp2
 70
     1
102
RTVSPropertyOp3
 70
     1
102
RTVSPropertyOp4
 70
     1
102
RTVSPropertyOp5
 70
     1
102
RTVSPropertyOp6
 70
     1
102
RTVSPropertyOp7
 70
     1
102
RTVSPropertyOp8
 70
     1
102
RTVSPropertyOp9
 70
     1
102
RTVSPropertyOp10
 70
     1
102
RTVSPropertyOp11
 70
     1
102
RTVSPropertyOp12
 70
     1
102
RTVSPropertyOp13
 70
     1
102
RTVSPropertyOp14
 70
     1
102
RTVSPropertyOp15
 70
     1
102
RTVSPropertyOp16
 70
     1
102
RTVSPropertyOp17
 70
     1
102
RTVSPropertyOp18
 70
     1
102
RTVSPropertyOp19
 70
     1
102
RTVSPropertyOp20
 70
     1
102
RTVSPropertyOp21
 70
     1
102
RTVSPropertyOp22
 70
     1
102
RTVSPropertyOp23
 70
     1
102
RTVSPropertyOp24
 70
     1
102
RTVSPropertyOp25
 70
     1
102
RTVSPropertyOp26
 70
     1
102
RTVSPropertyOp27
 70
     1
102
RTVSPropertyOp28
 70
     1
102
RTVSPropertyOp29
 70
     1
102
RTVSPropertyOp30
 70
     1
102
RTVSPropertyOp31
 70
     1
102
RTVSPropertyOp32
 70
     1
102
RTVSPropertyOp33
 70
     1
102
RTVSPropertyOp34
 70
     1
102
RTVSPropertyOp35
 70
     1
102
RTVSPropertyOp36
 70
     1
102
RTVSPropertyOp37
 70
     1
102
RTVSPropertyOp38
 70
     1
102
RTVSPropertyOp39
 70
     1
102
RTVSPropertyOp40
 70
     1
102
RTVSPropertyOp41
 70
     1
102
RTVSPropertyOp42
 70
     1
102
RTVSPropertyOp43
 70
     1
102
RTVSPropertyOp44
 70
     1
102
RTVSPropertyOp45
 70
     1
102
RTVSPropertyOp46
 70
     1
102
RTVSPropertyOp47
 70
     1
102
RTVSPropertyOp48
 70
     1
102
RTVSPropertyOp49
 70
     1
102
RTVSPropertyOp50
 70
     1
102
RTVSPropertyOp51
 70
     0
102
RTVSPropertyOp52
 70
     0
102
RTVSPropertyOp53
 70
     1
102
RTVSPropertyOp54
 70
     1
102
RTVSPropertyOp55
 70
     1
102
RTVSPropertyOp56
 70
     1
102
RTVSPropertyOp57
 70
     1
102
RTVSPost2010Prop28
280
     1
102
RTVSPost2010PropOp28
 70
     1
102
RTVSPost2010Prop29
280
     1
102
RTVSPost2010PropOp29
 70
     1
102
RTVSPost2010Prop30
280
     0
102
RTVSPost2010PropOp30
 70
     1
102
RTVSPost2010Prop31
280
     0
102
RTVSPost2010PropOp31
 70
     1
102
RTVSPost2010Prop32
280
     0
102
RTVSPost2010PropOp32
 70
     1
102
RTVSPost2010Prop33
280
     0
102
RTVSPost2010PropOp33
 70
     1
102
RTVSPost2010Prop34
280
     0
102
RTVSPost2010PropOp34
 70
     1
102
RTVSPost2010Prop35
280
     0
102
RTVSPost2010PropOp35
 70
     1
102
RTVSPost2010Prop36
280
     0
102
RTVSPost2010PropOp36
 70
     1
102
RTVSPost2010Prop37
 90
       50
102
RTVSPost2010PropOp37
 70
     1
102
RTVSPost2010Prop38
140
0.0
102
RTVSPost2010PropOp38
 70
     1
102
RTVSPost2010Prop39
140
1.0
102
RTVSPost2010PropOp39
 70
     1
102
RTVSPost2010Prop40
 90
        0
102
RTVSPost2010PropOp40
 70
     1
102
RTVSPost2010Prop41ColorIndex
 90
       18
102
RTVSPost2010Prop41ColorRGB
 90
        0
102
RTVSPost2010PropOp41
 70
     1
102
RTVSPost2010Prop42
 90
       50
102
RTVSPost2010PropOp42
 70
     1
102
RTVSPost2010Prop43
 90
        3
102
RTVSPost2010PropOp43
 70
     1
102
RTVSPost2010Prop44ColorIndex
 90
        5
102
RTVSPost2010Prop44ColorRGB
 90
      255
102
RTVSPost2010PropOp44
 70
     1
102
RTVSPost2010Prop45
280
     0
102
RTVSPost2010PropOp45
 70
     1
102
RTVSPost2010Prop46
 90
       50
102
RTVSPost2010PropOp46
 70
     1
102
RTVSPost2010Prop47
 90
       50
102
RTVSPost2010PropOp47
 70
     1
102
RTVSPost2010Prop48
 90
       50
102
RTVSPost2010PropOp48
 70
     1
102
RTVSPost2010Prop49
280
     0
102
RTVSPost2010PropOp49
 70
     1
102
RTVSPost2010Prop50
 90
       50
102
RTVSPost2010PropOp50
 70
     1
102
RTVSPost2010Prop51ColorIndex
 90
      256
102
RTVSPost2010Prop51ColorRGB
 90
-16777216
102
RTVSPost2010PropOp51
 70
     0
102
RTVSPost2010Prop52
140
1.0
102
RTVSPost2010PropOp52
 70
     0
102
RTVSPost2010Prop53
 90
        2
102
RTVSPost2010PropOp53
 70
     1
102
RTVSPost2010Prop54
  1
strokes_ogs.tif
102
RTVSPost2010PropOp54
 70
     1
102
RTVSPost2010Prop55
280
     0
102
RTVSPost2010PropOp55
 70
     1
102
RTVSPost2010Prop56
140
1.0
102
RTVSPost2010PropOp56
 70
     1
102
RTVSPost2010Prop57
140
1.0
102
RTVSPost2010PropOp57
 70
     1
  0
XRECORD
  5
BE
102
{ACAD_REACTORS
330
BD
102
}
330
BD
100
AcDbXrecord
280
     1
102
RTVSPropertyOp0
 70
     1
102
RTVSPropertyOp1
 70
     1
102
RTVSPropertyOp2
 70
     1
102
RTVSPropertyOp3
 70
     1
102
RTVSPropertyOp4
 70
     1
102
RTVSPropertyOp5
 70
     1
102
RTVSPropertyOp6
 70
     1
102
RTVSPropertyOp7
 70
     1
102
RTVSPropertyOp8
 70
     1
102
RTVSPropertyOp9
 70
     1
102
RTVSPropertyOp10
 70
     1
102
RTVSPropertyOp11
 70
     1
102
RTVSPropertyOp12
 70
     1
102
RTVSPropertyOp13
 70
     1
102
RTVSPropertyOp14
 70
     1
102
RTVSPropertyOp15
 70
     1
102
RTVSPropertyOp16
 70
     1
102
RTVSPropertyOp17
 70
     1
102
RTVSPropertyOp18
 70
     1
102
RTVSPropertyOp19
 70
     1
102
RTVSPropertyOp20
 70
     1
102
RTVSPropertyOp21
 70
     1
102
RTVSPropertyOp22
 70
     1
102
RTVSPropertyOp23
 70
     1
102
RTVSPropertyOp24
 70
     1
102
RTVSPropertyOp25
 70
     1
102
RTVSPropertyOp26
 70
     1
102
RTVSPropertyOp27
 70
     1
102
RTVSPropertyOp28
 70
     1
102
RTVSPropertyOp29
 70
     1
102
RTVSPropertyOp30
 70
     1
102
RTVSPropertyOp31
 70
     1
102
RTVSPropertyOp32
 70
     1
102
RTVSPropertyOp33
 70
     1
102
RTVSPropertyOp34
 70
     1
102
RTVSPropertyOp35
 70
     1
102
RTVSPropertyOp36
 70
     1
102
RTVSPropertyOp37
 70
     1
102
RTVSPropertyOp38
 70
     1
102
RTVSPropertyOp39
 70
     1
102
RTVSPropertyOp40
 70
     1
102
RTVSPropertyOp41
 70
     1
102
RTVSPropertyOp42
 70
     1
102
RTVSPropertyOp43
 70
     1
102
RTVSPropertyOp44
 70
     1
102
RTVSPropertyOp45
 70
     1
102
RTVSPropertyOp46
 70
     1
102
RTVSPropertyOp47
 70
     1
102
RTVSPropertyOp48
 70
     1
102
RTVSPropertyOp49
 70
     1
102
RTVSPropertyOp50
 70
     1
102
RTVSPropertyOp51
 70
     0
102
RTVSPropertyOp52
 70
     0
102
RTVSPropertyOp53
 70
     1
102
RTVSPropertyOp54
 70
     1
102
RTVSPropertyOp55
 70
     1
102
RTVSPropertyOp56
 70
     1
102
RTVSPropertyOp57
 70
     1
102
RTVSPost2010Prop28
280
     0
102
RTVSPost2010PropOp28
 70
     1
102
RTVSPost2010Prop29
280
     1
102
RTVSPost2010PropOp29
 70
     1
102
RTVSPost2010Prop30
280
     1
102
RTVSPost2010PropOp30
 70
     1
102
RTVSPost2010Prop31
280
     0
102
RTVSPost2010PropOp31
 70
     1
102
RTVSPost2010Prop32
280
     0
102
RTVSPost2010PropOp32
 70
     1
102
RTVSPost2010Prop33
280
     0
102
RTVSPost2010PropOp33
 70
     1
102
RTVSPost2010Prop34
280
     0
102
RTVSPost2010PropOp34
 70
     1
102
RTVSPost2010Prop35
280
     0
102
RTVSPost2010PropOp35
 70
     1
102
RTVSPost2010Prop36
280
     0
102
RTVSPost2010PropOp36
 70
     1
102
RTVSPost2010Prop37
 90
       50
102
RTVSPost2010PropOp37
 70
     1
102
RTVSPost2010Prop38
140
0.0
102
RTVSPost2010PropOp38
 70
     1
102
RTVSPost2010Prop39
140
1.0
102
RTVSPost2010PropOp39
 70
     1
102
RTVSPost2010Prop40
 90
        0
102
RTVSPost2010PropOp40
 70
     1
102
RTVSPost2010Prop41ColorIndex
 90
       18
102
RTVSPost2010Prop41ColorRGB
 90
        0
102
RTVSPost2010PropOp41
 70
     1
102
RTVSPost2010Prop42
 90
       50
102
RTVSPost2010PropOp42
 70
     1
102
RTVSPost2010Prop43
 90
        3
102
RTVSPost2010PropOp43
 70
     1
102
RTVSPost2010Prop44ColorIndex
 90
        5
102
RTVSPost2010Prop44ColorRGB
 90
      255
102
RTVSPost2010PropOp44
 70
     1
102
RTVSPost2010Prop45
280
     0
102
RTVSPost2010PropOp45
 70
     1
102
RTVSPost2010Prop46
 90
       50
102
RTVSPost2010PropOp46
 70
     1
102
RTVSPost2010Prop47
 90
       50
102
RTVSPost2010PropOp47
 70
     1
102
RTVSPost2010Prop48
 90
       50
102
RTVSPost2010PropOp48
 70
     1
102
RTVSPost2010Prop49
280
     0
102
RTVSPost2010PropOp49
 70
     1
102
RTVSPost2010Prop50
 90
       50
102
RTVSPost2010PropOp50
 70
     1
102
RTVSPost2010Prop51ColorIndex
 90
      256
102
RTVSPost2010Prop51ColorRGB
 90
-16777216
102
RTVSPost2010PropOp51
 70
     0
102
RTVSPost2010Prop52
140
1.0
102
RTVSPost2010PropOp52
 70
     0
102
RTVSPost2010Prop53
 90
        2
102
RTVSPost2010PropOp53
 70
     1
102
RTVSPost2010Prop54
  1
strokes_ogs.tif
102
RTVSPost2010PropOp54
 70
     1
102
RTVSPost2010Prop55
280
     0
102
RTVSPost2010PropOp55
 70
     1
102
RTVSPost2010Prop56
140
1.0
102
RTVSPost2010PropOp56
 70
     1
102
RTVSPost2010Prop57
140
1.0
102
RTVSPost2010PropOp57
 70
     1
  0
XRECORD
  5
C6
102
{ACAD_REACTORS
330
C5
102
}
330
C5
100
AcDbXrecord
280
     1
102
RTVSPropertyOp0
 70
     1
102
RTVSPropertyOp1
 70
     1
102
RTVSPropertyOp2
 70
     1
102
RTVSPropertyOp3
 70
     1
102
RTVSPropertyOp4
 70
     1
102
RTVSPropertyOp5
 70
     1
102
RTVSPropertyOp6
 70
     1
102
RTVSPropertyOp7
 70
     1
102
RTVSPropertyOp8
 70
     1
102
RTVSPropertyOp9
 70
     1
102
RTVSPropertyOp10
 70
     1
102
RTVSPropertyOp11
 70
     1
102
RTVSPropertyOp12
 70
     1
102
RTVSPropertyOp13
 70
     1
102
RTVSPropertyOp14
 70
     1
102
RTVSPropertyOp15
 70
     1
102
RTVSPropertyOp16
 70
     1
102
RTVSPropertyOp17
 70
     1
102
RTVSPropertyOp18
 70
     1
102
RTVSPropertyOp19
 70
     1
102
RTVSPropertyOp20
 70
     1
102
RTVSPropertyOp21
 70
     1
102
RTVSPropertyOp22
 70
     1
102
RTVSPropertyOp23
 70
     1
102
RTVSPropertyOp24
 70
     1
102
RTVSPropertyOp25
 70
     1
102
RTVSPropertyOp26
 70
     1
102
RTVSPropertyOp27
 70
     1
102
RTVSPropertyOp28
 70
     1
102
RTVSPropertyOp29
 70
     1
102
RTVSPropertyOp30
 70
     1
102
RTVSPropertyOp31
 70
     1
102
RTVSPropertyOp32
 70
     1
102
RTVSPropertyOp33
 70
     1
102
RTVSPropertyOp34
 70
     1
102
RTVSPropertyOp35
 70
     1
102
RTVSPropertyOp36
 70
     1
102
RTVSPropertyOp37
 70
     1
102
RTVSPropertyOp38
 70
     1
102
RTVSPropertyOp39
 70
     1
102
RTVSPropertyOp40
 70
     1
102
RTVSPropertyOp41
 70
     1
102
RTVSPropertyOp42
 70
     1
102
RTVSPropertyOp43
 70
     1
102
RTVSPropertyOp44
 70
     1
102
RTVSPropertyOp45
 70
     1
102
RTVSPropertyOp46
 70
     1
102
RTVSPropertyOp47
 70
     1
102
RTVSPropertyOp48
 70
     1
102
RTVSPropertyOp49
 70
     1
102
RTVSPropertyOp50
 70
     1
102
RTVSPropertyOp51
 70
     0
102
RTVSPropertyOp52
 70
     0
102
RTVSPropertyOp53
 70
     1
102
RTVSPropertyOp54
 70
     1
102
RTVSPropertyOp55
 70
     1
102
RTVSPropertyOp56
 70
     1
102
RTVSPropertyOp57
 70
     1
102
RTVSPost2010Prop28
280
     0
102
RTVSPost2010PropOp28
 70
     1
102
RTVSPost2010Prop29
280
     1
102
RTVSPost2010PropOp29
 70
     1
102
RTVSPost2010Prop30
280
     1
102
RTVSPost2010PropOp30
 70
     1
102
RTVSPost2010Prop31
280
     0
102
RTVSPost2010PropOp31
 70
     1
102
RTVSPost2010Prop32
280
     0
102
RTVSPost2010PropOp32
 70
     1
102
RTVSPost2010Prop33
280
     0
102
RTVSPost2010PropOp33
 70
     1
102
RTVSPost2010Prop34
280
     0
102
RTVSPost2010PropOp34
 70
     1
102
RTVSPost2010Prop35
280
     0
102
RTVSPost2010PropOp35
 70
     1
102
RTVSPost2010Prop36
280
     0
102
RTVSPost2010PropOp36
 70
     1
102
RTVSPost2010Prop37
 90
       50
102
RTVSPost2010PropOp37
 70
     1
102
RTVSPost2010Prop38
140
0.0
102
RTVSPost2010PropOp38
 70
     1
102
RTVSPost2010Prop39
140
1.0
102
RTVSPost2010PropOp39
 70
     1
102
RTVSPost2010Prop40
 90
        0
102
RTVSPost2010PropOp40
 70
     1
102
RTVSPost2010Prop41ColorIndex
 90
       18
102
RTVSPost2010Prop41ColorRGB
 90
        0
102
RTVSPost2010PropOp41
 70
     1
102
RTVSPost2010Prop42
 90
       50
102
RTVSPost2010PropOp42
 70
     1
102
RTVSPost2010Prop43
 90
        3
102
RTVSPost2010PropOp43
 70
     1
102
RTVSPost2010Prop44ColorIndex
 90
        5
102
RTVSPost2010Prop44ColorRGB
 90
      255
102
RTVSPost2010PropOp44
 70
     1
102
RTVSPost2010Prop45
280
     0
102
RTVSPost2010PropOp45
 70
     1
102
RTVSPost2010Prop46
 90
       50
102
RTVSPost2010PropOp46
 70
     1
102
RTVSPost2010Prop47
 90
       50
102
RTVSPost2010PropOp47
 70
     1
102
RTVSPost2010Prop48
 90
       50
102
RTVSPost2010PropOp48
 70
     1
102
RTVSPost2010Prop49
280
     0
102
RTVSPost2010PropOp49
 70
     1
102
RTVSPost2010Prop50
 90
       50
102
RTVSPost2010PropOp50
 70
     1
102
RTVSPost2010Prop51ColorIndex
 90
      256
102
RTVSPost2010Prop51ColorRGB
 90
-16777216
102
RTVSPost2010PropOp51
 70
     0
102
RTVSPost2010Prop52
140
1.0
102
RTVSPost2010PropOp52
 70
     0
102
RTVSPost2010Prop53
 90
        2
102
RTVSPost2010PropOp53
 70
     1
102
RTVSPost2010Prop54
  1
strokes_ogs.tif
102
RTVSPost2010PropOp54
 70
     1
102
RTVSPost2010Prop55
280
     0
102
RTVSPost2010PropOp55
 70
     1
102
RTVSPost2010Prop56
140
1.0
102
RTVSPost2010PropOp56
 70
     1
102
RTVSPost2010Prop57
140
1.0
102
RTVSPost2010PropOp57
 70
     1
  0
XRECORD
  5
CE
102
{ACAD_REACTORS
330
CD
102
}
330
CD
100
AcDbXrecord
280
     1
102
RTVSPropertyOp0
 70
     1
102
RTVSPropertyOp1
 70
     1
102
RTVSPropertyOp2
 70
     1
102
RTVSPropertyOp3
 70
     1
102
RTVSPropertyOp4
 70
     1
102
RTVSPropertyOp5
 70
     1
102
RTVSPropertyOp6
 70
     1
102
RTVSPropertyOp7
 70
     1
102
RTVSPropertyOp8
 70
     1
102
RTVSPropertyOp9
 70
     1
102
RTVSPropertyOp10
 70
     1
102
RTVSPropertyOp11
 70
     1
102
RTVSPropertyOp12
 70
     1
102
RTVSPropertyOp13
 70
     1
102
RTVSPropertyOp14
 70
     1
102
RTVSPropertyOp15
 70
     1
102
RTVSPropertyOp16
 70
     1
102
RTVSPropertyOp17
 70
     1
102
RTVSPropertyOp18
 70
     1
102
RTVSPropertyOp19
 70
     1
102
RTVSPropertyOp20
 70
     1
102
RTVSPropertyOp21
 70
     1
102
RTVSPropertyOp22
 70
     1
102
RTVSPropertyOp23
 70
     1
102
RTVSPropertyOp24
 70
     1
102
RTVSPropertyOp25
 70
     1
102
RTVSPropertyOp26
 70
     1
102
RTVSPropertyOp27
 70
     1
102
RTVSPropertyOp28
 70
     1
102
RTVSPropertyOp29
 70
     1
102
RTVSPropertyOp30
 70
     1
102
RTVSPropertyOp31
 70
     1
102
RTVSPropertyOp32
 70
     1
102
RTVSPropertyOp33
 70
     1
102
RTVSPropertyOp34
 70
     1
102
RTVSPropertyOp35
 70
     1
102
RTVSPropertyOp36
 70
     1
102
RTVSPropertyOp37
 70
     1
102
RTVSPropertyOp38
 70
     1
102
RTVSPropertyOp39
 70
     1
102
RTVSPropertyOp40
 70
     1
102
RTVSPropertyOp41
 70
     1
102
RTVSPropertyOp42
 70
     1
102
RTVSPropertyOp43
 70
     1
102
RTVSPropertyOp44
 70
     1
102
RTVSPropertyOp45
 70
     1
102
RTVSPropertyOp46
 70
     1
102
RTVSPropertyOp47
 70
     1
102
RTVSPropertyOp48
 70
     1
102
RTVSPropertyOp49
 70
     1
102
RTVSPropertyOp50
 70
     1
102
RTVSPropertyOp51
 70
     0
102
RTVSPropertyOp52
 70
     0
102
RTVSPropertyOp53
 70
     1
102
RTVSPropertyOp54
 70
     1
102
RTVSPropertyOp55
 70
     1
102
RTVSPropertyOp56
 70
     1
102
RTVSPropertyOp57
 70
     1
102
RTVSPost2010Prop28
280
     0
102
RTVSPost2010PropOp28
 70
     1
102
RTVSPost2010Prop29
280
     1
102
RTVSPost2010PropOp29
 70
     1
102
RTVSPost2010Prop30
280
     1
102
RTVSPost2010PropOp30
 70
     1
102
RTVSPost2010Prop31
280
     0
102
RTVSPost2010PropOp31
 70
     1
102
RTVSPost2010Prop32
280
     0
102
RTVSPost2010PropOp32
 70
     1
102
RTVSPost2010Prop33
280
     0
102
RTVSPost2010PropOp33
 70
     1
102
RTVSPost2010Prop34
280
     0
102
RTVSPost2010PropOp34
 70
     1
102
RTVSPost2010Prop35
280
     0
102
RTVSPost2010PropOp35
 70
     1
102
RTVSPost2010Prop36
280
     0
102
RTVSPost2010PropOp36
 70
     1
102
RTVSPost2010Prop37
 90
       50
102
RTVSPost2010PropOp37
 70
     1
102
RTVSPost2010Prop38
140
0.0
102
RTVSPost2010PropOp38
 70
     1
102
RTVSPost2010Prop39
140
1.0
102
RTVSPost2010PropOp39
 70
     1
102
RTVSPost2010Prop40
 90
        0
102
RTVSPost2010PropOp40
 70
     1
102
RTVSPost2010Prop41ColorIndex
 90
       18
102
RTVSPost2010Prop41ColorRGB
 90
        0
102
RTVSPost2010PropOp41
 70
     1
102
RTVSPost2010Prop42
 90
       50
102
RTVSPost2010PropOp42
 70
     1
102
RTVSPost2010Prop43
 90
        3
102
RTVSPost2010PropOp43
 70
     1
102
RTVSPost2010Prop44ColorIndex
 90
        5
102
RTVSPost2010Prop44ColorRGB
 90
      255
102
RTVSPost2010PropOp44
 70
     1
102
RTVSPost2010Prop45
280
     0
102
RTVSPost2010PropOp45
 70
     1
102
RTVSPost2010Prop46
 90
       50
102
RTVSPost2010PropOp46
 70
     1
102
RTVSPost2010Prop47
 90
       50
102
RTVSPost2010PropOp47
 70
     1
102
RTVSPost2010Prop48
 90
       50
102
RTVSPost2010PropOp48
 70
     1
102
RTVSPost2010Prop49
280
     0
102
RTVSPost2010PropOp49
 70
     1
102
RTVSPost2010Prop50
 90
       50
102
RTVSPost2010PropOp50
 70
     1
102
RTVSPost2010Prop51ColorIndex
 90
      256
102
RTVSPost2010Prop51ColorRGB
 90
-16777216
102
RTVSPost2010PropOp51
 70
     0
102
RTVSPost2010Prop52
140
1.0
102
RTVSPost2010PropOp52
 70
     0
102
RTVSPost2010Prop53
 90
        2
102
RTVSPost2010PropOp53
 70
     1
102
RTVSPost2010Prop54
  1
strokes_ogs.tif
102
RTVSPost2010PropOp54
 70
     1
102
RTVSPost2010Prop55
280
     0
102
RTVSPost2010PropOp55
 70
     1
102
RTVSPost2010Prop56
140
1.0
102
RTVSPost2010PropOp56
 70
     1
102
RTVSPost2010Prop57
140
1.0
102
RTVSPost2010PropOp57
 70
     1
  0
XRECORD
  5
C2
102
{ACAD_REACTORS
330
C1
102
}
330
C1
100
AcDbXrecord
280
     1
102
RTVSPropertyOp0
 70
     1
102
RTVSPropertyOp1
 70
     1
102
RTVSPropertyOp2
 70
     1
102
RTVSPropertyOp3
 70
     1
102
RTVSPropertyOp4
 70
     1
102
RTVSPropertyOp5
 70
     1
102
RTVSPropertyOp6
 70
     1
102
RTVSPropertyOp7
 70
     1
102
RTVSPropertyOp8
 70
     1
102
RTVSPropertyOp9
 70
     1
102
RTVSPropertyOp10
 70
     1
102
RTVSPropertyOp11
 70
     1
102
RTVSPropertyOp12
 70
     1
102
RTVSPropertyOp13
 70
     1
102
RTVSPropertyOp14
 70
     1
102
RTVSPropertyOp15
 70
     1
102
RTVSPropertyOp16
 70
     1
102
RTVSPropertyOp17
 70
     1
102
RTVSPropertyOp18
 70
     1
102
RTVSPropertyOp19
 70
     1
102
RTVSPropertyOp20
 70
     1
102
RTVSPropertyOp21
 70
     1
102
RTVSPropertyOp22
 70
     1
102
RTVSPropertyOp23
 70
     1
102
RTVSPropertyOp24
 70
     1
102
RTVSPropertyOp25
 70
     1
102
RTVSPropertyOp26
 70
     1
102
RTVSPropertyOp27
 70
     1
102
RTVSPropertyOp28
 70
     1
102
RTVSPropertyOp29
 70
     1
102
RTVSPropertyOp30
 70
     1
102
RTVSPropertyOp31
 70
     1
102
RTVSPropertyOp32
 70
     1
102
RTVSPropertyOp33
 70
     1
102
RTVSPropertyOp34
 70
     1
102
RTVSPropertyOp35
 70
     1
102
RTVSPropertyOp36
 70
     1
102
RTVSPropertyOp37
 70
     1
102
RTVSPropertyOp38
 70
     1
102
RTVSPropertyOp39
 70
     1
102
RTVSPropertyOp40
 70
     1
102
RTVSPropertyOp41
 70
     1
102
RTVSPropertyOp42
 70
     1
102
RTVSPropertyOp43
 70
     1
102
RTVSPropertyOp44
 70
     1
102
RTVSPropertyOp45
 70
     1
102
RTVSPropertyOp46
 70
     1
102
RTVSPropertyOp47
 70
     1
102
RTVSPropertyOp48
 70
     1
102
RTVSPropertyOp49
 70
     1
102
RTVSPropertyOp50
 70
     1
102
RTVSPropertyOp51
 70
     0
102
RTVSPropertyOp52
 70
     0
102
RTVSPropertyOp53
 70
     1
102
RTVSPropertyOp54
 70
     1
102
RTVSPropertyOp55
 70
     1
102
RTVSPropertyOp56
 70
     1
102
RTVSPropertyOp57
 70
     1
102
RTVSPost2010Prop28
280
     0
102
RTVSPost2010PropOp28
 70
     1
102
RTVSPost2010Prop29
280
     1
102
RTVSPost2010PropOp29
 70
     1
102
RTVSPost2010Prop30
280
     1
102
RTVSPost2010PropOp30
 70
     1
102
RTVSPost2010Prop31
280
     0
102
RTVSPost2010PropOp31
 70
     1
102
RTVSPost2010Prop32
280
     0
102
RTVSPost2010PropOp32
 70
     1
102
RTVSPost2010Prop33
280
     0
102
RTVSPost2010PropOp33
 70
     1
102
RTVSPost2010Prop34
280
     0
102
RTVSPost2010PropOp34
 70
     1
102
RTVSPost2010Prop35
280
     0
102
RTVSPost2010PropOp35
 70
     1
102
RTVSPost2010Prop36
280
     0
102
RTVSPost2010PropOp36
 70
     1
102
RTVSPost2010Prop37
 90
       50
102
RTVSPost2010PropOp37
 70
     1
102
RTVSPost2010Prop38
140
0.0
102
RTVSPost2010PropOp38
 70
     1
102
RTVSPost2010Prop39
140
1.0
102
RTVSPost2010PropOp39
 70
     1
102
RTVSPost2010Prop40
 90
        0
102
RTVSPost2010PropOp40
 70
     1
102
RTVSPost2010Prop41ColorIndex
 90
       18
102
RTVSPost2010Prop41ColorRGB
 90
        0
102
RTVSPost2010PropOp41
 70
     1
102
RTVSPost2010Prop42
 90
       50
102
RTVSPost2010PropOp42
 70
     1
102
RTVSPost2010Prop43
 90
        3
102
RTVSPost2010PropOp43
 70
     1
102
RTVSPost2010Prop44ColorIndex
 90
        5
102
RTVSPost2010Prop44ColorRGB
 90
      255
102
RTVSPost2010PropOp44
 70
     1
102
RTVSPost2010Prop45
280
     0
102
RTVSPost2010PropOp45
 70
     1
102
RTVSPost2010Prop46
 90
       50
102
RTVSPost2010PropOp46
 70
     1
102
RTVSPost2010Prop47
 90
       50
102
RTVSPost2010PropOp47
 70
     1
102
RTVSPost2010Prop48
 90
       50
102
RTVSPost2010PropOp48
 70
     1
102
RTVSPost2010Prop49
280
     0
102
RTVSPost2010PropOp49
 70
     1
102
RTVSPost2010Prop50
 90
       50
102
RTVSPost2010PropOp50
 70
     1
102
RTVSPost2010Prop51ColorIndex
 90
      256
102
RTVSPost2010Prop51ColorRGB
 90
-16777216
102
RTVSPost2010PropOp51
 70
     0
102
RTVSPost2010Prop52
140
1.0
102
RTVSPost2010PropOp52
 70
     0
102
RTVSPost2010Prop53
 90
        2
102
RTVSPost2010PropOp53
 70
     1
102
RTVSPost2010Prop54
  1
strokes_ogs.tif
102
RTVSPost2010PropOp54
 70
     1
102
RTVSPost2010Prop55
280
     0
102
RTVSPost2010PropOp55
 70
     1
102
RTVSPost2010Prop56
140
1.0
102
RTVSPost2010PropOp56
 70
     1
102
RTVSPost2010Prop57
140
1.0
102
RTVSPost2010PropOp57
 70
     1
  0
XRECORD
  5
C4
102
{ACAD_REACTORS
330
C3
102
}
330
C3
100
AcDbXrecord
280
     1
102
RTVSPropertyOp0
 70
     1
102
RTVSPropertyOp1
 70
     1
102
RTVSPropertyOp2
 70
     1
102
RTVSPropertyOp3
 70
     1
102
RTVSPropertyOp4
 70
     1
102
RTVSPropertyOp5
 70
     1
102
RTVSPropertyOp6
 70
     1
102
RTVSPropertyOp7
 70
     1
102
RTVSPropertyOp8
 70
     1
102
RTVSPropertyOp9
 70
     1
102
RTVSPropertyOp10
 70
     1
102
RTVSPropertyOp11
 70
     1
102
RTVSPropertyOp12
 70
     1
102
RTVSPropertyOp13
 70
     1
102
RTVSPropertyOp14
 70
     1
102
RTVSPropertyOp15
 70
     1
102
RTVSPropertyOp16
 70
     1
102
RTVSPropertyOp17
 70
     1
102
RTVSPropertyOp18
 70
     1
102
RTVSPropertyOp19
 70
     1
102
RTVSPropertyOp20
 70
     1
102
RTVSPropertyOp21
 70
     1
102
RTVSPropertyOp22
 70
     1
102
RTVSPropertyOp23
 70
     1
102
RTVSPropertyOp24
 70
     1
102
RTVSPropertyOp25
 70
     1
102
RTVSPropertyOp26
 70
     1
102
RTVSPropertyOp27
 70
     1
102
RTVSPropertyOp28
 70
     1
102
RTVSPropertyOp29
 70
     1
102
RTVSPropertyOp30
 70
     1
102
RTVSPropertyOp31
 70
     1
102
RTVSPropertyOp32
 70
     1
102
RTVSPropertyOp33
 70
     1
102
RTVSPropertyOp34
 70
     1
102
RTVSPropertyOp35
 70
     1
102
RTVSPropertyOp36
 70
     1
102
RTVSPropertyOp37
 70
     1
102
RTVSPropertyOp38
 70
     1
102
RTVSPropertyOp39
 70
     1
102
RTVSPropertyOp40
 70
     1
102
RTVSPropertyOp41
 70
     1
102
RTVSPropertyOp42
 70
     1
102
RTVSPropertyOp43
 70
     1
102
RTVSPropertyOp44
 70
     1
102
RTVSPropertyOp45
 70
     1
102
RTVSPropertyOp46
 70
     1
102
RTVSPropertyOp47
 70
     1
102
RTVSPropertyOp48
 70
     1
102
RTVSPropertyOp49
 70
     1
102
RTVSPropertyOp50
 70
     1
102
RTVSPropertyOp51
 70
     0
102
RTVSPropertyOp52
 70
     0
102
RTVSPropertyOp53
 70
     1
102
RTVSPropertyOp54
 70
     1
102
RTVSPropertyOp55
 70
     1
102
RTVSPropertyOp56
 70
     1
102
RTVSPropertyOp57
 70
     1
102
RTVSPost2010Prop28
280
     0
102
RTVSPost2010PropOp28
 70
     1
102
RTVSPost2010Prop29
280
     1
102
RTVSPost2010PropOp29
 70
     1
102
RTVSPost2010Prop30
280
     1
102
RTVSPost2010PropOp30
 70
     1
102
RTVSPost2010Prop31
280
     0
102
RTVSPost2010PropOp31
 70
     1
102
RTVSPost2010Prop32
280
     0
102
RTVSPost2010PropOp32
 70
     1
102
RTVSPost2010Prop33
280
     0
102
RTVSPost2010PropOp33
 70
     1
102
RTVSPost2010Prop34
280
     0
102
RTVSPost2010PropOp34
 70
     1
102
RTVSPost2010Prop35
280
     0
102
RTVSPost2010PropOp35
 70
     1
102
RTVSPost2010Prop36
280
     0
102
RTVSPost2010PropOp36
 70
     1
102
RTVSPost2010Prop37
 90
       50
102
RTVSPost2010PropOp37
 70
     1
102
RTVSPost2010Prop38
140
0.0
102
RTVSPost2010PropOp38
 70
     1
102
RTVSPost2010Prop39
140
1.0
102
RTVSPost2010PropOp39
 70
     1
102
RTVSPost2010Prop40
 90
        0
102
RTVSPost2010PropOp40
 70
     1
102
RTVSPost2010Prop41ColorIndex
 90
       18
102
RTVSPost2010Prop41ColorRGB
 90
        0
102
RTVSPost2010PropOp41
 70
     1
102
RTVSPost2010Prop42
 90
       50
102
RTVSPost2010PropOp42
 70
     1
102
RTVSPost2010Prop43
 90
        3
102
RTVSPost2010PropOp43
 70
     1
102
RTVSPost2010Prop44ColorIndex
 90
        5
102
RTVSPost2010Prop44ColorRGB
 90
      255
102
RTVSPost2010PropOp44
 70
     1
102
RTVSPost2010Prop45
280
     0
102
RTVSPost2010PropOp45
 70
     1
102
RTVSPost2010Prop46
 90
       50
102
RTVSPost2010PropOp46
 70
     1
102
RTVSPost2010Prop47
 90
       50
102
RTVSPost2010PropOp47
 70
     1
102
RTVSPost2010Prop48
 90
       50
102
RTVSPost2010PropOp48
 70
     1
102
RTVSPost2010Prop49
280
     0
102
RTVSPost2010PropOp49
 70
     1
102
RTVSPost2010Prop50
 90
       50
102
RTVSPost2010PropOp50
 70
     1
102
RTVSPost2010Prop51ColorIndex
 90
      256
102
RTVSPost2010Prop51ColorRGB
 90
-16777216
102
RTVSPost2010PropOp51
 70
     0
102
RTVSPost2010Prop52
140
1.0
102
RTVSPost2010PropOp52
 70
     0
102
RTVSPost2010Prop53
 90
        2
102
RTVSPost2010PropOp53
 70
     1
102
RTVSPost2010Prop54
  1
strokes_ogs.tif
102
RTVSPost2010PropOp54
 70
     1
102
RTVSPost2010Prop55
280
     0
102
RTVSPost2010PropOp55
 70
     1
102
RTVSPost2010Prop56
140
1.0
102
RTVSPost2010PropOp56
 70
     1
102
RTVSPost2010Prop57
140
1.0
102
RTVSPost2010PropOp57
 70
     1
  0
XRECORD
  5
D4
102
{ACAD_REACTORS
330
D3
102
}
330
D3
100
AcDbXrecord
280
     1
102
RTVSPropertyOp0
 70
     0
102
RTVSPropertyOp1
 70
     0
102
RTVSPropertyOp2
 70
     0
102
RTVSPropertyOp3
 70
     0
102
RTVSPropertyOp4
 70
     0
102
RTVSPropertyOp5
 70
     0
102
RTVSPropertyOp6
 70
     0
102
RTVSPropertyOp7
 70
     0
102
RTVSPropertyOp8
 70
     0
102
RTVSPropertyOp9
 70
     0
102
RTVSPropertyOp10
 70
     0
102
RTVSPropertyOp11
 70
     0
102
RTVSPropertyOp12
 70
     0
102
RTVSPropertyOp13
 70
     0
102
RTVSPropertyOp14
 70
     2
102
RTVSPropertyOp15
 70
     0
102
RTVSPropertyOp16
 70
     0
102
RTVSPropertyOp17
 70
     0
102
RTVSPropertyOp18
 70
     0
102
RTVSPropertyOp19
 70
     0
102
RTVSPropertyOp20
 70
     0
102
RTVSPropertyOp21
 70
     0
102
RTVSPropertyOp22
 70
     0
102
RTVSPropertyOp23
 70
     0
102
RTVSPropertyOp24
 70
     0
102
RTVSPropertyOp25
 70
     0
102
RTVSPropertyOp26
 70
     0
102
RTVSPropertyOp27
 70
     0
102
RTVSPropertyOp28
 70
     0
102
RTVSPropertyOp29
 70
     0
102
RTVSPropertyOp30
 70
     0
102
RTVSPropertyOp31
 70
     0
102
RTVSPropertyOp32
 70
     0
102
RTVSPropertyOp33
 70
     0
102
RTVSPropertyOp34
 70
     0
102
RTVSPropertyOp35
 70
     0
102
RTVSPropertyOp36
 70
     0
102
RTVSPropertyOp37
 70
     0
102
RTVSPropertyOp38
 70
     0
102
RTVSPropertyOp39
 70
     0
102
RTVSPropertyOp40
 70
     0
102
RTVSPropertyOp41
 70
     0
102
RTVSPropertyOp42
 70
     0
102
RTVSPropertyOp43
 70
     0
102
RTVSPropertyOp44
 70
     0
102
RTVSPropertyOp45
 70
     0
102
RTVSPropertyOp46
 70
     0
102
RTVSPropertyOp47
 70
     0
102
RTVSPropertyOp48
 70
     0
102
RTVSPropertyOp49
 70
     0
102
RTVSPropertyOp50
 70
     0
102
RTVSPropertyOp51
 70
     0
102
RTVSPropertyOp52
 70
     0
102
RTVSPropertyOp53
 70
     0
102
RTVSPropertyOp54
 70
     0
102
RTVSPropertyOp55
 70
     0
102
RTVSPropertyOp56
 70
     0
102
RTVSPropertyOp57
 70
     0
102
RTVSPost2010Prop28
280
     0
102
RTVSPost2010PropOp28
 70
     0
102
RTVSPost2010Prop29
280
     1
102
RTVSPost2010PropOp29
 70
     0
102
RTVSPost2010Prop30
280
     1
102
RTVSPost2010PropOp30
 70
     0
102
RTVSPost2010Prop31
280
     0
102
RTVSPost2010PropOp31
 70
     0
102
RTVSPost2010Prop32
280
     0
102
RTVSPost2010PropOp32
 70
     0
102
RTVSPost2010Prop33
280
     0
102
RTVSPost2010PropOp33
 70
     0
102
RTVSPost2010Prop34
280
     0
102
RTVSPost2010PropOp34
 70
     0
102
RTVSPost2010Prop35
280
     0
102
RTVSPost2010PropOp35
 70
     0
102
RTVSPost2010Prop36
280
     0
102
RTVSPost2010PropOp36
 70
     0
102
RTVSPost2010Prop37
 90
       50
102
RTVSPost2010PropOp37
 70
     0
102
RTVSPost2010Prop38
140
0.0
102
RTVSPost2010PropOp38
 70
     0
102
RTVSPost2010Prop39
140
1.0
102
RTVSPost2010PropOp39
 70
     0
102
RTVSPost2010Prop40
 90
        0
102
RTVSPost2010PropOp40
 70
     0
102
RTVSPost2010Prop41ColorIndex
 90
       18
102
RTVSPost2010Prop41ColorRGB
 90
        0
102
RTVSPost2010PropOp41
 70
     0
102
RTVSPost2010Prop42
 90
       50
102
RTVSPost2010PropOp42
 70
     0
102
RTVSPost2010Prop43
 90
        3
102
RTVSPost2010PropOp43
 70
     0
102
RTVSPost2010Prop44ColorIndex
 90
        5
102
RTVSPost2010Prop44ColorRGB
 90
      255
102
RTVSPost2010PropOp44
 70
     0
102
RTVSPost2010Prop45
280
     0
102
RTVSPost2010PropOp45
 70
     0
102
RTVSPost2010Prop46
 90
       50
102
RTVSPost2010PropOp46
 70
     0
102
RTVSPost2010Prop47
 90
       50
102
RTVSPost2010PropOp47
 70
     0
102
RTVSPost2010Prop48
 90
       50
102
RTVSPost2010PropOp48
 70
     0
102
RTVSPost2010Prop49
280
     0
102
RTVSPost2010PropOp49
 70
     0
102
RTVSPost2010Prop50
 90
       50
102
RTVSPost2010PropOp50
 70
     0
102
RTVSPost2010Prop51ColorIndex
 90
      256
102
RTVSPost2010Prop51ColorRGB
 90
-16777216
102
RTVSPost2010PropOp51
 70
     0
102
RTVSPost2010Prop52
140
1.0
102
RTVSPost2010PropOp52
 70
     0
102
RTVSPost2010Prop53
 90
        2
102
RTVSPost2010PropOp53
 70
     0
102
RTVSPost2010Prop54
  1
strokes_ogs.tif
102
RTVSPost2010PropOp54
 70
     0
102
RTVSPost2010Prop55
280
     0
102
RTVSPost2010PropOp55
 70
     0
102
RTVSPost2010Prop56
140
1.0
102
RTVSPost2010PropOp56
 70
     0
102
RTVSPost2010Prop57
140
1.0
102
RTVSPost2010PropOp57
 70
     0
  0
XRECORD
  5
CC
102
{ACAD_REACTORS
330
CB
102
}
330
CB
100
AcDbXrecord
280
     1
102
RTVSPropertyOp0
 70
     1
102
RTVSPropertyOp1
 70
     1
102
RTVSPropertyOp2
 70
     1
102
RTVSPropertyOp3
 70
     1
102
RTVSPropertyOp4
 70
     1
102
RTVSPropertyOp5
 70
     1
102
RTVSPropertyOp6
 70
     1
102
RTVSPropertyOp7
 70
     1
102
RTVSPropertyOp8
 70
     1
102
RTVSPropertyOp9
 70
     1
102
RTVSPropertyOp10
 70
     1
102
RTVSPropertyOp11
 70
     1
102
RTVSPropertyOp12
 70
     1
102
RTVSPropertyOp13
 70
     1
102
RTVSPropertyOp14
 70
     1
102
RTVSPropertyOp15
 70
     1
102
RTVSPropertyOp16
 70
     1
102
RTVSPropertyOp17
 70
     1
102
RTVSPropertyOp18
 70
     1
102
RTVSPropertyOp19
 70
     1
102
RTVSPropertyOp20
 70
     1
102
RTVSPropertyOp21
 70
     1
102
RTVSPropertyOp22
 70
     1
102
RTVSPropertyOp23
 70
     1
102
RTVSPropertyOp24
 70
     1
102
RTVSPropertyOp25
 70
     1
102
RTVSPropertyOp26
 70
     1
102
RTVSPropertyOp27
 70
     1
102
RTVSPropertyOp28
 70
     1
102
RTVSPropertyOp29
 70
     1
102
RTVSPropertyOp30
 70
     1
102
RTVSPropertyOp31
 70
     1
102
RTVSPropertyOp32
 70
     1
102
RTVSPropertyOp33
 70
     1
102
RTVSPropertyOp34
 70
     1
102
RTVSPropertyOp35
 70
     1
102
RTVSPropertyOp36
 70
     1
102
RTVSPropertyOp37
 70
     1
102
RTVSPropertyOp38
 70
     1
102
RTVSPropertyOp39
 70
     1
102
RTVSPropertyOp40
 70
     1
102
RTVSPropertyOp41
 70
     1
102
RTVSPropertyOp42
 70
     1
102
RTVSPropertyOp43
 70
     1
102
RTVSPropertyOp44
 70
     1
102
RTVSPropertyOp45
 70
     1
102
RTVSPropertyOp46
 70
     1
102
RTVSPropertyOp47
 70
     1
102
RTVSPropertyOp48
 70
     1
102
RTVSPropertyOp49
 70
     1
102
RTVSPropertyOp50
 70
     1
102
RTVSPropertyOp51
 70
     0
102
RTVSPropertyOp52
 70
     0
102
RTVSPropertyOp53
 70
     1
102
RTVSPropertyOp54
 70
     1
102
RTVSPropertyOp55
 70
     1
102
RTVSPropertyOp56
 70
     1
102
RTVSPropertyOp57
 70
     1
102
RTVSPost2010Prop28
280
     0
102
RTVSPost2010PropOp28
 70
     1
102
RTVSPost2010Prop29
280
     1
102
RTVSPost2010PropOp29
 70
     1
102
RTVSPost2010Prop30
280
     1
102
RTVSPost2010PropOp30
 70
     1
102
RTVSPost2010Prop31
280
     0
102
RTVSPost2010PropOp31
 70
     1
102
RTVSPost2010Prop32
280
     0
102
RTVSPost2010PropOp32
 70
     1
102
RTVSPost2010Prop33
280
     0
102
RTVSPost2010PropOp33
 70
     1
102
RTVSPost2010Prop34
280
     0
102
RTVSPost2010PropOp34
 70
     1
102
RTVSPost2010Prop35
280
     0
102
RTVSPost2010PropOp35
 70
     1
102
RTVSPost2010Prop36
280
     0
102
RTVSPost2010PropOp36
 70
     1
102
RTVSPost2010Prop37
 90
       50
102
RTVSPost2010PropOp37
 70
     1
102
RTVSPost2010Prop38
140
0.0
102
RTVSPost2010PropOp38
 70
     1
102
RTVSPost2010Prop39
140
1.0
102
RTVSPost2010PropOp39
 70
     1
102
RTVSPost2010Prop40
 90
        0
102
RTVSPost2010PropOp40
 70
     1
102
RTVSPost2010Prop41ColorIndex
 90
       18
102
RTVSPost2010Prop41ColorRGB
 90
        0
102
RTVSPost2010PropOp41
 70
     1
102
RTVSPost2010Prop42
 90
       50
102
RTVSPost2010PropOp42
 70
     1
102
RTVSPost2010Prop43
 90
        3
102
RTVSPost2010PropOp43
 70
     1
102
RTVSPost2010Prop44ColorIndex
 90
        5
102
RTVSPost2010Prop44ColorRGB
 90
      255
102
RTVSPost2010PropOp44
 70
     1
102
RTVSPost2010Prop45
280
     0
102
RTVSPost2010PropOp45
 70
     1
102
RTVSPost2010Prop46
 90
       50
102
RTVSPost2010PropOp46
 70
     1
102
RTVSPost2010Prop47
 90
       50
102
RTVSPost2010PropOp47
 70
     1
102
RTVSPost2010Prop48
 90
       50
102
RTVSPost2010PropOp48
 70
     1
102
RTVSPost2010Prop49
280
     0
102
RTVSPost2010PropOp49
 70
     1
102
RTVSPost2010Prop50
 90
       50
102
RTVSPost2010PropOp50
 70
     1
102
RTVSPost2010Prop51ColorIndex
 90
      256
102
RTVSPost2010Prop51ColorRGB
 90
-16777216
102
RTVSPost2010PropOp51
 70
     0
102
RTVSPost2010Prop52
140
1.0
102
RTVSPost2010PropOp52
 70
     0
102
RTVSPost2010Prop53
 90
        2
102
RTVSPost2010PropOp53
 70
     1
102
RTVSPost2010Prop54
  1
strokes_ogs.tif
102
RTVSPost2010PropOp54
 70
     1
102
RTVSPost2010Prop55
280
     0
102
RTVSPost2010PropOp55
 70
     1
102
RTVSPost2010Prop56
140
1.0
102
RTVSPost2010PropOp56
 70
     1
102
RTVSPost2010Prop57
140
1.0
102
RTVSPost2010PropOp57
 70
     1
  0
XRECORD
  5
B0
102
{ACAD_REACTORS
330
AF
102
}
330
AF
100
AcDbXrecord
280
     1
102
RTVSPropertyOp0
 70
     1
102
RTVSPropertyOp1
 70
     1
102
RTVSPropertyOp2
 70
     1
102
RTVSPropertyOp3
 70
     1
102
RTVSPropertyOp4
 70
     1
102
RTVSPropertyOp5
 70
     1
102
RTVSPropertyOp6
 70
     1
102
RTVSPropertyOp7
 70
     1
102
RTVSPropertyOp8
 70
     1
102
RTVSPropertyOp9
 70
     1
102
RTVSPropertyOp10
 70
     1
102
RTVSPropertyOp11
 70
     1
102
RTVSPropertyOp12
 70
     1
102
RTVSPropertyOp13
 70
     1
102
RTVSPropertyOp14
 70
     1
102
RTVSPropertyOp15
 70
     1
102
RTVSPropertyOp16
 70
     1
102
RTVSPropertyOp17
 70
     1
102
RTVSPropertyOp18
 70
     1
102
RTVSPropertyOp19
 70
     1
102
RTVSPropertyOp20
 70
     1
102
RTVSPropertyOp21
 70
     1
102
RTVSPropertyOp22
 70
     1
102
RTVSPropertyOp23
 70
     1
102
RTVSPropertyOp24
 70
     1
102
RTVSPropertyOp25
 70
     1
102
RTVSPropertyOp26
 70
     1
102
RTVSPropertyOp27
 70
     1
102
RTVSPropertyOp28
 70
     1
102
RTVSPropertyOp29
 70
     1
102
RTVSPropertyOp30
 70
     1
102
RTVSPropertyOp31
 70
     1
102
RTVSPropertyOp32
 70
     1
102
RTVSPropertyOp33
 70
     1
102
RTVSPropertyOp34
 70
     1
102
RTVSPropertyOp35
 70
     1
102
RTVSPropertyOp36
 70
     1
102
RTVSPropertyOp37
 70
     1
102
RTVSPropertyOp38
 70
     1
102
RTVSPropertyOp39
 70
     1
102
RTVSPropertyOp40
 70
     1
102
RTVSPropertyOp41
 70
     1
102
RTVSPropertyOp42
 70
     1
102
RTVSPropertyOp43
 70
     1
102
RTVSPropertyOp44
 70
     1
102
RTVSPropertyOp45
 70
     1
102
RTVSPropertyOp46
 70
     1
102
RTVSPropertyOp47
 70
     1
102
RTVSPropertyOp48
 70
     1
102
RTVSPropertyOp49
 70
     1
102
RTVSPropertyOp50
 70
     1
102
RTVSPropertyOp51
 70
     0
102
RTVSPropertyOp52
 70
     0
102
RTVSPropertyOp53
 70
     1
102
RTVSPropertyOp54
 70
     1
102
RTVSPropertyOp55
 70
     1
102
RTVSPropertyOp56
 70
     1
102
RTVSPropertyOp57
 70
     1
102
RTVSPost2010Prop28
280
     0
102
RTVSPost2010PropOp28
 70
     1
102
RTVSPost2010Prop29
280
     1
102
RTVSPost2010PropOp29
 70
     1
102
RTVSPost2010Prop30
280
     1
102
RTVSPost2010PropOp30
 70
     1
102
RTVSPost2010Prop31
280
     0
102
RTVSPost2010PropOp31
 70
     1
102
RTVSPost2010Prop32
280
     0
102
RTVSPost2010PropOp32
 70
     1
102
RTVSPost2010Prop33
280
     0
102
RTVSPost2010PropOp33
 70
     1
102
RTVSPost2010Prop34
280
     0
102
RTVSPost2010PropOp34
 70
     1
102
RTVSPost2010Prop35
280
     0
102
RTVSPost2010PropOp35
 70
     1
102
RTVSPost2010Prop36
280
     0
102
RTVSPost2010PropOp36
 70
     1
102
RTVSPost2010Prop37
 90
       50
102
RTVSPost2010PropOp37
 70
     1
102
RTVSPost2010Prop38
140
0.0
102
RTVSPost2010PropOp38
 70
     1
102
RTVSPost2010Prop39
140
1.0
102
RTVSPost2010PropOp39
 70
     1
102
RTVSPost2010Prop40
 90
        0
102
RTVSPost2010PropOp40
 70
     1
102
RTVSPost2010Prop41ColorIndex
 90
       18
102
RTVSPost2010Prop41ColorRGB
 90
        0
102
RTVSPost2010PropOp41
 70
     1
102
RTVSPost2010Prop42
 90
       50
102
RTVSPost2010PropOp42
 70
     1
102
RTVSPost2010Prop43
 90
        3
102
RTVSPost2010PropOp43
 70
     1
102
RTVSPost2010Prop44ColorIndex
 90
        5
102
RTVSPost2010Prop44ColorRGB
 90
      255
102
RTVSPost2010PropOp44
 70
     1
102
RTVSPost2010Prop45
280
     0
102
RTVSPost2010PropOp45
 70
     1
102
RTVSPost2010Prop46
 90
       50
102
RTVSPost2010PropOp46
 70
     1
102
RTVSPost2010Prop47
 90
       50
102
RTVSPost2010PropOp47
 70
     1
102
RTVSPost2010Prop48
 90
       50
102
RTVSPost2010PropOp48
 70
     1
102
RTVSPost2010Prop49
280
     0
102
RTVSPost2010PropOp49
 70
     1
102
RTVSPost2010Prop50
 90
       50
102
RTVSPost2010PropOp50
 70
     1
102
RTVSPost2010Prop51ColorIndex
 90
      256
102
RTVSPost2010Prop51ColorRGB
 90
-16777216
102
RTVSPost2010PropOp51
 70
     0
102
RTVSPost2010Prop52
140
1.0
102
RTVSPost2010PropOp52
 70
     0
102
RTVSPost2010Prop53
 90
        2
102
RTVSPost2010PropOp53
 70
     1
102
RTVSPost2010Prop54
  1
strokes_ogs.tif
102
RTVSPost2010PropOp54
 70
     1
102
RTVSPost2010Prop55
280
     0
102
RTVSPost2010PropOp55
 70
     1
102
RTVSPost2010Prop56
140
1.0
102
RTVSPost2010PropOp56
 70
     1
102
RTVSPost2010Prop57
140
1.0
102
RTVSPost2010PropOp57
 70
     1
  0
XRECORD
  5
B2
102
{ACAD_REACTORS
330
B1
102
}
330
B1
100
AcDbXrecord
280
     1
102
RTVSPropertyOp0
 70
     1
102
RTVSPropertyOp1
 70
     1
102
RTVSPropertyOp2
 70
     1
102
RTVSPropertyOp3
 70
     1
102
RTVSPropertyOp4
 70
     1
102
RTVSPropertyOp5
 70
     1
102
RTVSPropertyOp6
 70
     1
102
RTVSPropertyOp7
 70
     1
102
RTVSPropertyOp8
 70
     1
102
RTVSPropertyOp9
 70
     1
102
RTVSPropertyOp10
 70
     1
102
RTVSPropertyOp11
 70
     1
102
RTVSPropertyOp12
 70
     1
102
RTVSPropertyOp13
 70
     1
102
RTVSPropertyOp14
 70
     1
102
RTVSPropertyOp15
 70
     1
102
RTVSPropertyOp16
 70
     1
102
RTVSPropertyOp17
 70
     1
102
RTVSPropertyOp18
 70
     1
102
RTVSPropertyOp19
 70
     1
102
RTVSPropertyOp20
 70
     1
102
RTVSPropertyOp21
 70
     1
102
RTVSPropertyOp22
 70
     1
102
RTVSPropertyOp23
 70
     1
102
RTVSPropertyOp24
 70
     1
102
RTVSPropertyOp25
 70
     1
102
RTVSPropertyOp26
 70
     1
102
RTVSPropertyOp27
 70
     1
102
RTVSPropertyOp28
 70
     1
102
RTVSPropertyOp29
 70
     1
102
RTVSPropertyOp30
 70
     1
102
RTVSPropertyOp31
 70
     1
102
RTVSPropertyOp32
 70
     1
102
RTVSPropertyOp33
 70
     1
102
RTVSPropertyOp34
 70
     1
102
RTVSPropertyOp35
 70
     1
102
RTVSPropertyOp36
 70
     1
102
RTVSPropertyOp37
 70
     1
102
RTVSPropertyOp38
 70
     1
102
RTVSPropertyOp39
 70
     1
102
RTVSPropertyOp40
 70
     1
102
RTVSPropertyOp41
 70
     1
102
RTVSPropertyOp42
 70
     1
102
RTVSPropertyOp43
 70
     1
102
RTVSPropertyOp44
 70
     1
102
RTVSPropertyOp45
 70
     1
102
RTVSPropertyOp46
 70
     1
102
RTVSPropertyOp47
 70
     1
102
RTVSPropertyOp48
 70
     1
102
RTVSPropertyOp49
 70
     1
102
RTVSPropertyOp50
 70
     1
102
RTVSPropertyOp51
 70
     0
102
RTVSPropertyOp52
 70
     0
102
RTVSPropertyOp53
 70
     1
102
RTVSPropertyOp54
 70
     1
102
RTVSPropertyOp55
 70
     1
102
RTVSPropertyOp56
 70
     1
102
RTVSPropertyOp57
 70
     1
102
RTVSPost2010Prop28
280
     0
102
RTVSPost2010PropOp28
 70
     1
102
RTVSPost2010Prop29
280
     1
102
RTVSPost2010PropOp29
 70
     1
102
RTVSPost2010Prop30
280
     1
102
RTVSPost2010PropOp30
 70
     1
102
RTVSPost2010Prop31
280
     0
102
RTVSPost2010PropOp31
 70
     1
102
RTVSPost2010Prop32
280
     0
102
RTVSPost2010PropOp32
 70
     1
102
RTVSPost2010Prop33
280
     0
102
RTVSPost2010PropOp33
 70
     1
102
RTVSPost2010Prop34
280
     0
102
RTVSPost2010PropOp34
 70
     1
102
RTVSPost2010Prop35
280
     0
102
RTVSPost2010PropOp35
 70
     1
102
RTVSPost2010Prop36
280
     0
102
RTVSPost2010PropOp36
 70
     1
102
RTVSPost2010Prop37
 90
       50
102
RTVSPost2010PropOp37
 70
     1
102
RTVSPost2010Prop38
140
0.0
102
RTVSPost2010PropOp38
 70
     1
102
RTVSPost2010Prop39
140
1.0
102
RTVSPost2010PropOp39
 70
     1
102
RTVSPost2010Prop40
 90
        0
102
RTVSPost2010PropOp40
 70
     1
102
RTVSPost2010Prop41ColorIndex
 90
       18
102
RTVSPost2010Prop41ColorRGB
 90
        0
102
RTVSPost2010PropOp41
 70
     1
102
RTVSPost2010Prop42
 90
       50
102
RTVSPost2010PropOp42
 70
     1
102
RTVSPost2010Prop43
 90
        3
102
RTVSPost2010PropOp43
 70
     1
102
RTVSPost2010Prop44ColorIndex
 90
        5
102
RTVSPost2010Prop44ColorRGB
 90
      255
102
RTVSPost2010PropOp44
 70
     1
102
RTVSPost2010Prop45
280
     0
102
RTVSPost2010PropOp45
 70
     1
102
RTVSPost2010Prop46
 90
       50
102
RTVSPost2010PropOp46
 70
     1
102
RTVSPost2010Prop47
 90
       50
102
RTVSPost2010PropOp47
 70
     1
102
RTVSPost2010Prop48
 90
       50
102
RTVSPost2010PropOp48
 70
     1
102
RTVSPost2010Prop49
280
     0
102
RTVSPost2010PropOp49
 70
     1
102
RTVSPost2010Prop50
 90
       50
102
RTVSPost2010PropOp50
 70
     1
102
RTVSPost2010Prop51ColorIndex
 90
      256
102
RTVSPost2010Prop51ColorRGB
 90
-16777216
102
RTVSPost2010PropOp51
 70
     0
102
RTVSPost2010Prop52
140
1.0
102
RTVSPost2010PropOp52
 70
     0
102
RTVSPost2010Prop53
 90
        2
102
RTVSPost2010PropOp53
 70
     1
102
RTVSPost2010Prop54
  1
strokes_ogs.tif
102
RTVSPost2010PropOp54
 70
     1
102
RTVSPost2010Prop55
280
     0
102
RTVSPost2010PropOp55
 70
     1
102
RTVSPost2010Prop56
140
1.0
102
RTVSPost2010PropOp56
 70
     1
102
RTVSPost2010Prop57
140
1.0
102
RTVSPost2010PropOp57
 70
     1
  0
XRECORD
  5
B4
102
{ACAD_REACTORS
330
B3
102
}
330
B3
100
AcDbXrecord
280
     1
102
RTVSPropertyOp0
 70
     1
102
RTVSPropertyOp1
 70
     1
102
RTVSPropertyOp2
 70
     1
102
RTVSPropertyOp3
 70
     1
102
RTVSPropertyOp4
 70
     1
102
RTVSPropertyOp5
 70
     1
102
RTVSPropertyOp6
 70
     1
102
RTVSPropertyOp7
 70
     1
102
RTVSPropertyOp8
 70
     1
102
RTVSPropertyOp9
 70
     1
102
RTVSPropertyOp10
 70
     1
102
RTVSPropertyOp11
 70
     1
102
RTVSPropertyOp12
 70
     1
102
RTVSPropertyOp13
 70
     1
102
RTVSPropertyOp14
 70
     1
102
RTVSPropertyOp15
 70
     1
102
RTVSPropertyOp16
 70
     1
102
RTVSPropertyOp17
 70
     1
102
RTVSPropertyOp18
 70
     1
102
RTVSPropertyOp19
 70
     1
102
RTVSPropertyOp20
 70
     1
102
RTVSPropertyOp21
 70
     1
102
RTVSPropertyOp22
 70
     1
102
RTVSPropertyOp23
 70
     1
102
RTVSPropertyOp24
 70
     1
102
RTVSPropertyOp25
 70
     1
102
RTVSPropertyOp26
 70
     1
102
RTVSPropertyOp27
 70
     1
102
RTVSPropertyOp28
 70
     1
102
RTVSPropertyOp29
 70
     1
102
RTVSPropertyOp30
 70
     1
102
RTVSPropertyOp31
 70
     1
102
RTVSPropertyOp32
 70
     1
102
RTVSPropertyOp33
 70
     1
102
RTVSPropertyOp34
 70
     1
102
RTVSPropertyOp35
 70
     1
102
RTVSPropertyOp36
 70
     1
102
RTVSPropertyOp37
 70
     1
102
RTVSPropertyOp38
 70
     1
102
RTVSPropertyOp39
 70
     1
102
RTVSPropertyOp40
 70
     1
102
RTVSPropertyOp41
 70
     1
102
RTVSPropertyOp42
 70
     1
102
RTVSPropertyOp43
 70
     1
102
RTVSPropertyOp44
 70
     1
102
RTVSPropertyOp45
 70
     1
102
RTVSPropertyOp46
 70
     1
102
RTVSPropertyOp47
 70
     1
102
RTVSPropertyOp48
 70
     1
102
RTVSPropertyOp49
 70
     1
102
RTVSPropertyOp50
 70
     1
102
RTVSPropertyOp51
 70
     0
102
RTVSPropertyOp52
 70
     0
102
RTVSPropertyOp53
 70
     1
102
RTVSPropertyOp54
 70
     1
102
RTVSPropertyOp55
 70
     1
102
RTVSPropertyOp56
 70
     1
102
RTVSPropertyOp57
 70
     1
102
RTVSPost2010Prop28
280
     0
102
RTVSPost2010PropOp28
 70
     1
102
RTVSPost2010Prop29
280
     1
102
RTVSPost2010PropOp29
 70
     1
102
RTVSPost2010Prop30
280
     1
102
RTVSPost2010PropOp30
 70
     1
102
RTVSPost2010Prop31
280
     0
102
RTVSPost2010PropOp31
 70
     1
102
RTVSPost2010Prop32
280
     0
102
RTVSPost2010PropOp32
 70
     1
102
RTVSPost2010Prop33
280
     0
102
RTVSPost2010PropOp33
 70
     1
102
RTVSPost2010Prop34
280
     0
102
RTVSPost2010PropOp34
 70
     1
102
RTVSPost2010Prop35
280
     0
102
RTVSPost2010PropOp35
 70
     1
102
RTVSPost2010Prop36
280
     0
102
RTVSPost2010PropOp36
 70
     1
102
RTVSPost2010Prop37
 90
       50
102
RTVSPost2010PropOp37
 70
     1
102
RTVSPost2010Prop38
140
0.0
102
RTVSPost2010PropOp38
 70
     1
102
RTVSPost2010Prop39
140
1.0
102
RTVSPost2010PropOp39
 70
     1
102
RTVSPost2010Prop40
 90
        0
102
RTVSPost2010PropOp40
 70
     1
102
RTVSPost2010Prop41ColorIndex
 90
       18
102
RTVSPost2010Prop41ColorRGB
 90
        0
102
RTVSPost2010PropOp41
 70
     1
102
RTVSPost2010Prop42
 90
       50
102
RTVSPost2010PropOp42
 70
     1
102
RTVSPost2010Prop43
 90
        3
102
RTVSPost2010PropOp43
 70
     1
102
RTVSPost2010Prop44ColorIndex
 90
        5
102
RTVSPost2010Prop44ColorRGB
 90
      255
102
RTVSPost2010PropOp44
 70
     1
102
RTVSPost2010Prop45
280
     0
102
RTVSPost2010PropOp45
 70
     1
102
RTVSPost2010Prop46
 90
       50
102
RTVSPost2010PropOp46
 70
     1
102
RTVSPost2010Prop47
 90
       50
102
RTVSPost2010PropOp47
 70
     1
102
RTVSPost2010Prop48
 90
       50
102
RTVSPost2010PropOp48
 70
     1
102
RTVSPost2010Prop49
280
     0
102
RTVSPost2010PropOp49
 70
     1
102
RTVSPost2010Prop50
 90
       50
102
RTVSPost2010PropOp50
 70
     1
102
RTVSPost2010Prop51ColorIndex
 90
      256
102
RTVSPost2010Prop51ColorRGB
 90
-16777216
102
RTVSPost2010PropOp51
 70
     0
102
RTVSPost2010Prop52
140
1.0
102
RTVSPost2010PropOp52
 70
     0
102
RTVSPost2010Prop53
 90
        2
102
RTVSPost2010PropOp53
 70
     1
102
RTVSPost2010Prop54
  1
strokes_ogs.tif
102
RTVSPost2010PropOp54
 70
     1
102
RTVSPost2010Prop55
280
     0
102
RTVSPost2010PropOp55
 70
     1
102
RTVSPost2010Prop56
140
1.0
102
RTVSPost2010PropOp56
 70
     1
102
RTVSPost2010Prop57
140
1.0
102
RTVSPost2010PropOp57
 70
     1
  0
XRECORD
  5
B6
102
{ACAD_REACTORS
330
B5
102
}
330
B5
100
AcDbXrecord
280
     1
102
RTVSPropertyOp0
 70
     1
102
RTVSPropertyOp1
 70
     1
102
RTVSPropertyOp2
 70
     1
102
RTVSPropertyOp3
 70
     1
102
RTVSPropertyOp4
 70
     1
102
RTVSPropertyOp5
 70
     1
102
RTVSPropertyOp6
 70
     1
102
RTVSPropertyOp7
 70
     1
102
RTVSPropertyOp8
 70
     1
102
RTVSPropertyOp9
 70
     1
102
RTVSPropertyOp10
 70
     1
102
RTVSPropertyOp11
 70
     1
102
RTVSPropertyOp12
 70
     1
102
RTVSPropertyOp13
 70
     1
102
RTVSPropertyOp14
 70
     1
102
RTVSPropertyOp15
 70
     1
102
RTVSPropertyOp16
 70
     1
102
RTVSPropertyOp17
 70
     1
102
RTVSPropertyOp18
 70
     1
102
RTVSPropertyOp19
 70
     1
102
RTVSPropertyOp20
 70
     1
102
RTVSPropertyOp21
 70
     1
102
RTVSPropertyOp22
 70
     1
102
RTVSPropertyOp23
 70
     1
102
RTVSPropertyOp24
 70
     1
102
RTVSPropertyOp25
 70
     1
102
RTVSPropertyOp26
 70
     1
102
RTVSPropertyOp27
 70
     1
102
RTVSPropertyOp28
 70
     1
102
RTVSPropertyOp29
 70
     1
102
RTVSPropertyOp30
 70
     1
102
RTVSPropertyOp31
 70
     1
102
RTVSPropertyOp32
 70
     1
102
RTVSPropertyOp33
 70
     1
102
RTVSPropertyOp34
 70
     1
102
RTVSPropertyOp35
 70
     1
102
RTVSPropertyOp36
 70
     1
102
RTVSPropertyOp37
 70
     1
102
RTVSPropertyOp38
 70
     1
102
RTVSPropertyOp39
 70
     1
102
RTVSPropertyOp40
 70
     1
102
RTVSPropertyOp41
 70
     1
102
RTVSPropertyOp42
 70
     1
102
RTVSPropertyOp43
 70
     1
102
RTVSPropertyOp44
 70
     1
102
RTVSPropertyOp45
 70
     1
102
RTVSPropertyOp46
 70
     1
102
RTVSPropertyOp47
 70
     1
102
RTVSPropertyOp48
 70
     1
102
RTVSPropertyOp49
 70
     1
102
RTVSPropertyOp50
 70
     1
102
RTVSPropertyOp51
 70
     0
102
RTVSPropertyOp52
 70
     0
102
RTVSPropertyOp53
 70
     1
102
RTVSPropertyOp54
 70
     1
102
RTVSPropertyOp55
 70
     1
102
RTVSPropertyOp56
 70
     1
102
RTVSPropertyOp57
 70
     1
102
RTVSPost2010Prop28
280
     0
102
RTVSPost2010PropOp28
 70
     1
102
RTVSPost2010Prop29
280
     1
102
RTVSPost2010PropOp29
 70
     1
102
RTVSPost2010Prop30
280
     1
102
RTVSPost2010PropOp30
 70
     1
102
RTVSPost2010Prop31
280
     0
102
RTVSPost2010PropOp31
 70
     1
102
RTVSPost2010Prop32
280
     0
102
RTVSPost2010PropOp32
 70
     1
102
RTVSPost2010Prop33
280
     0
102
RTVSPost2010PropOp33
 70
     1
102
RTVSPost2010Prop34
280
     0
102
RTVSPost2010PropOp34
 70
     1
102
RTVSPost2010Prop35
280
     0
102
RTVSPost2010PropOp35
 70
     1
102
RTVSPost2010Prop36
280
     0
102
RTVSPost2010PropOp36
 70
     1
102
RTVSPost2010Prop37
 90
       50
102
RTVSPost2010PropOp37
 70
     1
102
RTVSPost2010Prop38
140
0.0
102
RTVSPost2010PropOp38
 70
     1
102
RTVSPost2010Prop39
140
1.0
102
RTVSPost2010PropOp39
 70
     1
102
RTVSPost2010Prop40
 90
        0
102
RTVSPost2010PropOp40
 70
     1
102
RTVSPost2010Prop41ColorIndex
 90
       18
102
RTVSPost2010Prop41ColorRGB
 90
        0
102
RTVSPost2010PropOp41
 70
     1
102
RTVSPost2010Prop42
 90
       50
102
RTVSPost2010PropOp42
 70
     1
102
RTVSPost2010Prop43
 90
        3
102
RTVSPost2010PropOp43
 70
     1
102
RTVSPost2010Prop44ColorIndex
 90
        5
102
RTVSPost2010Prop44ColorRGB
 90
      255
102
RTVSPost2010PropOp44
 70
     1
102
RTVSPost2010Prop45
280
     0
102
RTVSPost2010PropOp45
 70
     1
102
RTVSPost2010Prop46
 90
       50
102
RTVSPost2010PropOp46
 70
     1
102
RTVSPost2010Prop47
 90
       50
102
RTVSPost2010PropOp47
 70
     1
102
RTVSPost2010Prop48
 90
       50
102
RTVSPost2010PropOp48
 70
     1
102
RTVSPost2010Prop49
280
     0
102
RTVSPost2010PropOp49
 70
     1
102
RTVSPost2010Prop50
 90
       50
102
RTVSPost2010PropOp50
 70
     1
102
RTVSPost2010Prop51ColorIndex
 90
      256
102
RTVSPost2010Prop51ColorRGB
 90
-16777216
102
RTVSPost2010PropOp51
 70
     0
102
RTVSPost2010Prop52
140
1.0
102
RTVSPost2010PropOp52
 70
     0
102
RTVSPost2010Prop53
 90
        2
102
RTVSPost2010PropOp53
 70
     1
102
RTVSPost2010Prop54
  1
strokes_ogs.tif
102
RTVSPost2010PropOp54
 70
     1
102
RTVSPost2010Prop55
280
     0
102
RTVSPost2010PropOp55
 70
     1
102
RTVSPost2010Prop56
140
1.0
102
RTVSPost2010PropOp56
 70
     1
102
RTVSPost2010Prop57
140
1.0
102
RTVSPost2010PropOp57
 70
     1
  0
XRECORD
  5
BC
102
{ACAD_REACTORS
330
BB
102
}
330
BB
100
AcDbXrecord
280
     1
102
RTVSPropertyOp0
 70
     1
102
RTVSPropertyOp1
 70
     1
102
RTVSPropertyOp2
 70
     1
102
RTVSPropertyOp3
 70
     1
102
RTVSPropertyOp4
 70
     1
102
RTVSPropertyOp5
 70
     1
102
RTVSPropertyOp6
 70
     1
102
RTVSPropertyOp7
 70
     1
102
RTVSPropertyOp8
 70
     1
102
RTVSPropertyOp9
 70
     1
102
RTVSPropertyOp10
 70
     1
102
RTVSPropertyOp11
 70
     1
102
RTVSPropertyOp12
 70
     1
102
RTVSPropertyOp13
 70
     1
102
RTVSPropertyOp14
 70
     1
102
RTVSPropertyOp15
 70
     1
102
RTVSPropertyOp16
 70
     1
102
RTVSPropertyOp17
 70
     1
102
RTVSPropertyOp18
 70
     1
102
RTVSPropertyOp19
 70
     1
102
RTVSPropertyOp20
 70
     1
102
RTVSPropertyOp21
 70
     1
102
RTVSPropertyOp22
 70
     1
102
RTVSPropertyOp23
 70
     1
102
RTVSPropertyOp24
 70
     1
102
RTVSPropertyOp25
 70
     1
102
RTVSPropertyOp26
 70
     1
102
RTVSPropertyOp27
 70
     1
102
RTVSPropertyOp28
 70
     1
102
RTVSPropertyOp29
 70
     1
102
RTVSPropertyOp30
 70
     1
102
RTVSPropertyOp31
 70
     1
102
RTVSPropertyOp32
 70
     1
102
RTVSPropertyOp33
 70
     1
102
RTVSPropertyOp34
 70
     1
102
RTVSPropertyOp35
 70
     1
102
RTVSPropertyOp36
 70
     1
102
RTVSPropertyOp37
 70
     1
102
RTVSPropertyOp38
 70
     1
102
RTVSPropertyOp39
 70
     1
102
RTVSPropertyOp40
 70
     1
102
RTVSPropertyOp41
 70
     1
102
RTVSPropertyOp42
 70
     1
102
RTVSPropertyOp43
 70
     1
102
RTVSPropertyOp44
 70
     1
102
RTVSPropertyOp45
 70
     1
102
RTVSPropertyOp46
 70
     1
102
RTVSPropertyOp47
 70
     1
102
RTVSPropertyOp48
 70
     1
102
RTVSPropertyOp49
 70
     1
102
RTVSPropertyOp50
 70
     1
102
RTVSPropertyOp51
 70
     0
102
RTVSPropertyOp52
 70
     0
102
RTVSPropertyOp53
 70
     1
102
RTVSPropertyOp54
 70
     1
102
RTVSPropertyOp55
 70
     1
102
RTVSPropertyOp56
 70
     1
102
RTVSPropertyOp57
 70
     1
102
RTVSPost2010Prop28
280
     0
102
RTVSPost2010PropOp28
 70
     1
102
RTVSPost2010Prop29
280
     1
102
RTVSPost2010PropOp29
 70
     1
102
RTVSPost2010Prop30
280
     1
102
RTVSPost2010PropOp30
 70
     1
102
RTVSPost2010Prop31
280
     0
102
RTVSPost2010PropOp31
 70
     1
102
RTVSPost2010Prop32
280
     0
102
RTVSPost2010PropOp32
 70
     1
102
RTVSPost2010Prop33
280
     0
102
RTVSPost2010PropOp33
 70
     1
102
RTVSPost2010Prop34
280
     0
102
RTVSPost2010PropOp34
 70
     1
102
RTVSPost2010Prop35
280
     0
102
RTVSPost2010PropOp35
 70
     1
102
RTVSPost2010Prop36
280
     0
102
RTVSPost2010PropOp36
 70
     1
102
RTVSPost2010Prop37
 90
       50
102
RTVSPost2010PropOp37
 70
     1
102
RTVSPost2010Prop38
140
0.0
102
RTVSPost2010PropOp38
 70
     1
102
RTVSPost2010Prop39
140
1.0
102
RTVSPost2010PropOp39
 70
     1
102
RTVSPost2010Prop40
 90
        0
102
RTVSPost2010PropOp40
 70
     1
102
RTVSPost2010Prop41ColorIndex
 90
       18
102
RTVSPost2010Prop41ColorRGB
 90
        0
102
RTVSPost2010PropOp41
 70
     1
102
RTVSPost2010Prop42
 90
       50
102
RTVSPost2010PropOp42
 70
     1
102
RTVSPost2010Prop43
 90
        3
102
RTVSPost2010PropOp43
 70
     1
102
RTVSPost2010Prop44ColorIndex
 90
        5
102
RTVSPost2010Prop44ColorRGB
 90
      255
102
RTVSPost2010PropOp44
 70
     1
102
RTVSPost2010Prop45
280
     0
102
RTVSPost2010PropOp45
 70
     1
102
RTVSPost2010Prop46
 90
       50
102
RTVSPost2010PropOp46
 70
     1
102
RTVSPost2010Prop47
 90
       50
102
RTVSPost2010PropOp47
 70
     1
102
RTVSPost2010Prop48
 90
       50
102
RTVSPost2010PropOp48
 70
     1
102
RTVSPost2010Prop49
280
     0
102
RTVSPost2010PropOp49
 70
     1
102
RTVSPost2010Prop50
 90
       50
102
RTVSPost2010PropOp50
 70
     1
102
RTVSPost2010Prop51ColorIndex
 90
      256
102
RTVSPost2010Prop51ColorRGB
 90
-16777216
102
RTVSPost2010PropOp51
 70
     0
102
RTVSPost2010Prop52
140
1.0
102
RTVSPost2010PropOp52
 70
     0
102
RTVSPost2010Prop53
 90
        2
102
RTVSPost2010PropOp53
 70
     1
102
RTVSPost2010Prop54
  1
strokes_ogs.tif
102
RTVSPost2010PropOp54
 70
     1
102
RTVSPost2010Prop55
280
     0
102
RTVSPost2010PropOp55
 70
     1
102
RTVSPost2010Prop56
140
1.0
102
RTVSPost2010PropOp56
 70
     1
102
RTVSPost2010Prop57
140
1.0
102
RTVSPost2010PropOp57
 70
     1
  0
XRECORD
  5
D0
102
{ACAD_REACTORS
330
CF
102
}
330
CF
100
AcDbXrecord
280
     1
102
RTVSPropertyOp0
 70
     0
102
RTVSPropertyOp1
 70
     0
102
RTVSPropertyOp2
 70
     0
102
RTVSPropertyOp3
 70
     0
102
RTVSPropertyOp4
 70
     0
102
RTVSPropertyOp5
 70
     0
102
RTVSPropertyOp6
 70
     0
102
RTVSPropertyOp7
 70
     0
102
RTVSPropertyOp8
 70
     0
102
RTVSPropertyOp9
 70
     0
102
RTVSPropertyOp10
 70
     0
102
RTVSPropertyOp11
 70
     0
102
RTVSPropertyOp12
 70
     0
102
RTVSPropertyOp13
 70
     0
102
RTVSPropertyOp14
 70
     2
102
RTVSPropertyOp15
 70
     0
102
RTVSPropertyOp16
 70
     0
102
RTVSPropertyOp17
 70
     0
102
RTVSPropertyOp18
 70
     0
102
RTVSPropertyOp19
 70
     0
102
RTVSPropertyOp20
 70
     0
102
RTVSPropertyOp21
 70
     0
102
RTVSPropertyOp22
 70
     0
102
RTVSPropertyOp23
 70
     0
102
RTVSPropertyOp24
 70
     0
102
RTVSPropertyOp25
 70
     0
102
RTVSPropertyOp26
 70
     0
102
RTVSPropertyOp27
 70
     0
102
RTVSPropertyOp28
 70
     0
102
RTVSPropertyOp29
 70
     0
102
RTVSPropertyOp30
 70
     0
102
RTVSPropertyOp31
 70
     0
102
RTVSPropertyOp32
 70
     0
102
RTVSPropertyOp33
 70
     0
102
RTVSPropertyOp34
 70
     0
102
RTVSPropertyOp35
 70
     0
102
RTVSPropertyOp36
 70
     0
102
RTVSPropertyOp37
 70
     0
102
RTVSPropertyOp38
 70
     0
102
RTVSPropertyOp39
 70
     0
102
RTVSPropertyOp40
 70
     0
102
RTVSPropertyOp41
 70
     0
102
RTVSPropertyOp42
 70
     0
102
RTVSPropertyOp43
 70
     0
102
RTVSPropertyOp44
 70
     0
102
RTVSPropertyOp45
 70
     0
102
RTVSPropertyOp46
 70
     0
102
RTVSPropertyOp47
 70
     0
102
RTVSPropertyOp48
 70
     0
102
RTVSPropertyOp49
 70
     0
102
RTVSPropertyOp50
 70
     0
102
RTVSPropertyOp51
 70
     0
102
RTVSPropertyOp52
 70
     0
102
RTVSPropertyOp53
 70
     0
102
RTVSPropertyOp54
 70
     0
102
RTVSPropertyOp55
 70
     0
102
RTVSPropertyOp56
 70
     0
102
RTVSPropertyOp57
 70
     0
102
RTVSPost2010Prop28
280
     0
102
RTVSPost2010PropOp28
 70
     0
102
RTVSPost2010Prop29
280
     1
102
RTVSPost2010PropOp29
 70
     0
102
RTVSPost2010Prop30
280
     1
102
RTVSPost2010PropOp30
 70
     0
102
RTVSPost2010Prop31
280
     0
102
RTVSPost2010PropOp31
 70
     0
102
RTVSPost2010Prop32
280
     0
102
RTVSPost2010PropOp32
 70
     0
102
RTVSPost2010Prop33
280
     0
102
RTVSPost2010PropOp33
 70
     0
102
RTVSPost2010Prop34
280
     0
102
RTVSPost2010PropOp34
 70
     0
102
RTVSPost2010Prop35
280
     0
102
RTVSPost2010PropOp35
 70
     0
102
RTVSPost2010Prop36
280
     0
102
RTVSPost2010PropOp36
 70
     0
102
RTVSPost2010Prop37
 90
       50
102
RTVSPost2010PropOp37
 70
     0
102
RTVSPost2010Prop38
140
0.0
102
RTVSPost2010PropOp38
 70
     0
102
RTVSPost2010Prop39
140
1.0
102
RTVSPost2010PropOp39
 70
     0
102
RTVSPost2010Prop40
 90
        0
102
RTVSPost2010PropOp40
 70
     0
102
RTVSPost2010Prop41ColorIndex
 90
       18
102
RTVSPost2010Prop41ColorRGB
 90
        0
102
RTVSPost2010PropOp41
 70
     0
102
RTVSPost2010Prop42
 90
       50
102
RTVSPost2010PropOp42
 70
     0
102
RTVSPost2010Prop43
 90
        3
102
RTVSPost2010PropOp43
 70
     0
102
RTVSPost2010Prop44ColorIndex
 90
        5
102
RTVSPost2010Prop44ColorRGB
 90
      255
102
RTVSPost2010PropOp44
 70
     0
102
RTVSPost2010Prop45
280
     0
102
RTVSPost2010PropOp45
 70
     0
102
RTVSPost2010Prop46
 90
       50
102
RTVSPost2010PropOp46
 70
     0
102
RTVSPost2010Prop47
 90
       50
102
RTVSPost2010PropOp47
 70
     0
102
RTVSPost2010Prop48
 90
       50
102
RTVSPost2010PropOp48
 70
     0
102
RTVSPost2010Prop49
280
     0
102
RTVSPost2010PropOp49
 70
     0
102
RTVSPost2010Prop50
 90
       50
102
RTVSPost2010PropOp50
 70
     0
102
RTVSPost2010Prop51ColorIndex
 90
      256
102
RTVSPost2010Prop51ColorRGB
 90
-16777216
102
RTVSPost2010PropOp51
 70
     0
102
RTVSPost2010Prop52
140
1.0
102
RTVSPost2010PropOp52
 70
     0
102
RTVSPost2010Prop53
 90
        2
102
RTVSPost2010PropOp53
 70
     0
102
RTVSPost2010Prop54
  1
strokes_ogs.tif
102
RTVSPost2010PropOp54
 70
     0
102
RTVSPost2010Prop55
280
     0
102
RTVSPost2010PropOp55
 70
     0
102
RTVSPost2010Prop56
140
1.0
102
RTVSPost2010PropOp56
 70
     0
102
RTVSPost2010Prop57
140
1.0
102
RTVSPost2010PropOp57
 70
     0
  0
XRECORD
  5
CA
102
{ACAD_REACTORS
330
C9
102
}
330
C9
100
AcDbXrecord
280
     1
102
RTVSPropertyOp0
 70
     1
102
RTVSPropertyOp1
 70
     1
102
RTVSPropertyOp2
 70
     1
102
RTVSPropertyOp3
 70
     1
102
RTVSPropertyOp4
 70
     1
102
RTVSPropertyOp5
 70
     1
102
RTVSPropertyOp6
 70
     1
102
RTVSPropertyOp7
 70
     1
102
RTVSPropertyOp8
 70
     1
102
RTVSPropertyOp9
 70
     1
102
RTVSPropertyOp10
 70
     1
102
RTVSPropertyOp11
 70
     1
102
RTVSPropertyOp12
 70
     1
102
RTVSPropertyOp13
 70
     1
102
RTVSPropertyOp14
 70
     1
102
RTVSPropertyOp15
 70
     1
102
RTVSPropertyOp16
 70
     1
102
RTVSPropertyOp17
 70
     1
102
RTVSPropertyOp18
 70
     1
102
RTVSPropertyOp19
 70
     1
102
RTVSPropertyOp20
 70
     1
102
RTVSPropertyOp21
 70
     1
102
RTVSPropertyOp22
 70
     1
102
RTVSPropertyOp23
 70
     1
102
RTVSPropertyOp24
 70
     1
102
RTVSPropertyOp25
 70
     1
102
RTVSPropertyOp26
 70
     1
102
RTVSPropertyOp27
 70
     1
102
RTVSPropertyOp28
 70
     1
102
RTVSPropertyOp29
 70
     1
102
RTVSPropertyOp30
 70
     1
102
RTVSPropertyOp31
 70
     1
102
RTVSPropertyOp32
 70
     1
102
RTVSPropertyOp33
 70
     1
102
RTVSPropertyOp34
 70
     1
102
RTVSPropertyOp35
 70
     1
102
RTVSPropertyOp36
 70
     1
102
RTVSPropertyOp37
 70
     1
102
RTVSPropertyOp38
 70
     1
102
RTVSPropertyOp39
 70
     1
102
RTVSPropertyOp40
 70
     1
102
RTVSPropertyOp41
 70
     1
102
RTVSPropertyOp42
 70
     1
102
RTVSPropertyOp43
 70
     1
102
RTVSPropertyOp44
 70
     1
102
RTVSPropertyOp45
 70
     1
102
RTVSPropertyOp46
 70
     1
102
RTVSPropertyOp47
 70
     1
102
RTVSPropertyOp48
 70
     1
102
RTVSPropertyOp49
 70
     1
102
RTVSPropertyOp50
 70
     1
102
RTVSPropertyOp51
 70
     0
102
RTVSPropertyOp52
 70
     0
102
RTVSPropertyOp53
 70
     1
102
RTVSPropertyOp54
 70
     1
102
RTVSPropertyOp55
 70
     1
102
RTVSPropertyOp56
 70
     1
102
RTVSPropertyOp57
 70
     1
102
RTVSPost2010Prop28
280
     0
102
RTVSPost2010PropOp28
 70
     1
102
RTVSPost2010Prop29
280
     1
102
RTVSPost2010PropOp29
 70
     1
102
RTVSPost2010Prop30
280
     1
102
RTVSPost2010PropOp30
 70
     1
102
RTVSPost2010Prop31
280
     0
102
RTVSPost2010PropOp31
 70
     1
102
RTVSPost2010Prop32
280
     0
102
RTVSPost2010PropOp32
 70
     1
102
RTVSPost2010Prop33
280
     0
102
RTVSPost2010PropOp33
 70
     1
102
RTVSPost2010Prop34
280
     0
102
RTVSPost2010PropOp34
 70
     1
102
RTVSPost2010Prop35
280
     0
102
RTVSPost2010PropOp35
 70
     1
102
RTVSPost2010Prop36
280
     0
102
RTVSPost2010PropOp36
 70
     1
102
RTVSPost2010Prop37
 90
       50
102
RTVSPost2010PropOp37
 70
     1
102
RTVSPost2010Prop38
140
0.0
102
RTVSPost2010PropOp38
 70
     1
102
RTVSPost2010Prop39
140
1.0
102
RTVSPost2010PropOp39
 70
     1
102
RTVSPost2010Prop40
 90
        0
102
RTVSPost2010PropOp40
 70
     1
102
RTVSPost2010Prop41ColorIndex
 90
       18
102
RTVSPost2010Prop41ColorRGB
 90
        0
102
RTVSPost2010PropOp41
 70
     1
102
RTVSPost2010Prop42
 90
       50
102
RTVSPost2010PropOp42
 70
     1
102
RTVSPost2010Prop43
 90
        3
102
RTVSPost2010PropOp43
 70
     1
102
RTVSPost2010Prop44ColorIndex
 90
        5
102
RTVSPost2010Prop44ColorRGB
 90
      255
102
RTVSPost2010PropOp44
 70
     1
102
RTVSPost2010Prop45
280
     0
102
RTVSPost2010PropOp45
 70
     1
102
RTVSPost2010Prop46
 90
       50
102
RTVSPost2010PropOp46
 70
     1
102
RTVSPost2010Prop47
 90
       50
102
RTVSPost2010PropOp47
 70
     1
102
RTVSPost2010Prop48
 90
       50
102
RTVSPost2010PropOp48
 70
     1
102
RTVSPost2010Prop49
280
     0
102
RTVSPost2010PropOp49
 70
     1
102
RTVSPost2010Prop50
 90
       50
102
RTVSPost2010PropOp50
 70
     1
102
RTVSPost2010Prop51ColorIndex
 90
      256
102
RTVSPost2010Prop51ColorRGB
 90
-16777216
102
RTVSPost2010PropOp51
 70
     0
102
RTVSPost2010Prop52
140
1.0
102
RTVSPost2010PropOp52
 70
     0
102
RTVSPost2010Prop53
 90
        2
102
RTVSPost2010PropOp53
 70
     1
102
RTVSPost2010Prop54
  1
strokes_ogs.tif
102
RTVSPost2010PropOp54
 70
     1
102
RTVSPost2010Prop55
280
     0
102
RTVSPost2010PropOp55
 70
     1
102
RTVSPost2010Prop56
140
1.0
102
RTVSPost2010PropOp56
 70
     1
102
RTVSPost2010Prop57
140
1.0
102
RTVSPost2010PropOp57
 70
     1
  0
XRECORD
  5
D2
102
{ACAD_REACTORS
330
D1
102
}
330
D1
100
AcDbXrecord
280
     1
102
RTVSPropertyOp0
 70
     0
102
RTVSPropertyOp1
 70
     0
102
RTVSPropertyOp2
 70
     0
102
RTVSPropertyOp3
 70
     0
102
RTVSPropertyOp4
 70
     0
102
RTVSPropertyOp5
 70
     0
102
RTVSPropertyOp6
 70
     0
102
RTVSPropertyOp7
 70
     0
102
RTVSPropertyOp8
 70
     0
102
RTVSPropertyOp9
 70
     0
102
RTVSPropertyOp10
 70
     0
102
RTVSPropertyOp11
 70
     0
102
RTVSPropertyOp12
 70
     0
102
RTVSPropertyOp13
 70
     0
102
RTVSPropertyOp14
 70
     2
102
RTVSPropertyOp15
 70
     0
102
RTVSPropertyOp16
 70
     0
102
RTVSPropertyOp17
 70
     0
102
RTVSPropertyOp18
 70
     0
102
RTVSPropertyOp19
 70
     0
102
RTVSPropertyOp20
 70
     0
102
RTVSPropertyOp21
 70
     0
102
RTVSPropertyOp22
 70
     0
102
RTVSPropertyOp23
 70
     0
102
RTVSPropertyOp24
 70
     0
102
RTVSPropertyOp25
 70
     0
102
RTVSPropertyOp26
 70
     0
102
RTVSPropertyOp27
 70
     0
102
RTVSPropertyOp28
 70
     0
102
RTVSPropertyOp29
 70
     0
102
RTVSPropertyOp30
 70
     0
102
RTVSPropertyOp31
 70
     0
102
RTVSPropertyOp32
 70
     0
102
RTVSPropertyOp33
 70
     0
102
RTVSPropertyOp34
 70
     0
102
RTVSPropertyOp35
 70
     0
102
RTVSPropertyOp36
 70
     0
102
RTVSPropertyOp37
 70
     0
102
RTVSPropertyOp38
 70
     0
102
RTVSPropertyOp39
 70
     0
102
RTVSPropertyOp40
 70
     0
102
RTVSPropertyOp41
 70
     0
102
RTVSPropertyOp42
 70
     0
102
RTVSPropertyOp43
 70
     0
102
RTVSPropertyOp44
 70
     0
102
RTVSPropertyOp45
 70
     0
102
RTVSPropertyOp46
 70
     0
102
RTVSPropertyOp47
 70
     0
102
RTVSPropertyOp48
 70
     0
102
RTVSPropertyOp49
 70
     0
102
RTVSPropertyOp50
 70
     0
102
RTVSPropertyOp51
 70
     0
102
RTVSPropertyOp52
 70
     0
102
RTVSPropertyOp53
 70
     0
102
RTVSPropertyOp54
 70
     0
102
RTVSPropertyOp55
 70
     0
102
RTVSPropertyOp56
 70
     0
102
RTVSPropertyOp57
 70
     0
102
RTVSPost2010Prop28
280
     0
102
RTVSPost2010PropOp28
 70
     0
102
RTVSPost2010Prop29
280
     1
102
RTVSPost2010PropOp29
 70
     0
102
RTVSPost2010Prop30
280
     1
102
RTVSPost2010PropOp30
 70
     0
102
RTVSPost2010Prop31
280
     0
102
RTVSPost2010PropOp31
 70
     0
102
RTVSPost2010Prop32
280
     0
102
RTVSPost2010PropOp32
 70
     0
102
RTVSPost2010Prop33
280
     0
102
RTVSPost2010PropOp33
 70
     0
102
RTVSPost2010Prop34
280
     0
102
RTVSPost2010PropOp34
 70
     0
102
RTVSPost2010Prop35
280
     0
102
RTVSPost2010PropOp35
 70
     0
102
RTVSPost2010Prop36
280
     0
102
RTVSPost2010PropOp36
 70
     0
102
RTVSPost2010Prop37
 90
       50
102
RTVSPost2010PropOp37
 70
     0
102
RTVSPost2010Prop38
140
0.0
102
RTVSPost2010PropOp38
 70
     0
102
RTVSPost2010Prop39
140
1.0
102
RTVSPost2010PropOp39
 70
     0
102
RTVSPost2010Prop40
 90
        0
102
RTVSPost2010PropOp40
 70
     0
102
RTVSPost2010Prop41ColorIndex
 90
       18
102
RTVSPost2010Prop41ColorRGB
 90
        0
102
RTVSPost2010PropOp41
 70
     0
102
RTVSPost2010Prop42
 90
       50
102
RTVSPost2010PropOp42
 70
     0
102
RTVSPost2010Prop43
 90
        3
102
RTVSPost2010PropOp43
 70
     0
102
RTVSPost2010Prop44ColorIndex
 90
        5
102
RTVSPost2010Prop44ColorRGB
 90
      255
102
RTVSPost2010PropOp44
 70
     0
102
RTVSPost2010Prop45
280
     0
102
RTVSPost2010PropOp45
 70
     0
102
RTVSPost2010Prop46
 90
       50
102
RTVSPost2010PropOp46
 70
     0
102
RTVSPost2010Prop47
 90
       50
102
RTVSPost2010PropOp47
 70
     0
102
RTVSPost2010Prop48
 90
       50
102
RTVSPost2010PropOp48
 70
     0
102
RTVSPost2010Prop49
280
     0
102
RTVSPost2010PropOp49
 70
     0
102
RTVSPost2010Prop50
 90
       50
102
RTVSPost2010PropOp50
 70
     0
102
RTVSPost2010Prop51ColorIndex
 90
      256
102
RTVSPost2010Prop51ColorRGB
 90
-16777216
102
RTVSPost2010PropOp51
 70
     0
102
RTVSPost2010Prop52
140
1.0
102
RTVSPost2010PropOp52
 70
     0
102
RTVSPost2010Prop53
 90
        2
102
RTVSPost2010PropOp53
 70
     0
102
RTVSPost2010Prop54
  1
strokes_ogs.tif
102
RTVSPost2010PropOp54
 70
     0
102
RTVSPost2010Prop55
280
     0
102
RTVSPost2010PropOp55
 70
     0
102
RTVSPost2010Prop56
140
1.0
102
RTVSPost2010PropOp56
 70
     0
102
RTVSPost2010Prop57
140
1.0
102
RTVSPost2010PropOp57
 70
     0
  0
XRECORD
  5
C0
102
{ACAD_REACTORS
330
BF
102
}
330
BF
100
AcDbXrecord
280
     1
102
RTVSPropertyOp0
 70
     1
102
RTVSPropertyOp1
 70
     1
102
RTVSPropertyOp2
 70
     1
102
RTVSPropertyOp3
 70
     1
102
RTVSPropertyOp4
 70
     1
102
RTVSPropertyOp5
 70
     1
102
RTVSPropertyOp6
 70
     1
102
RTVSPropertyOp7
 70
     1
102
RTVSPropertyOp8
 70
     1
102
RTVSPropertyOp9
 70
     1
102
RTVSPropertyOp10
 70
     1
102
RTVSPropertyOp11
 70
     1
102
RTVSPropertyOp12
 70
     1
102
RTVSPropertyOp13
 70
     1
102
RTVSPropertyOp14
 70
     1
102
RTVSPropertyOp15
 70
     1
102
RTVSPropertyOp16
 70
     1
102
RTVSPropertyOp17
 70
     1
102
RTVSPropertyOp18
 70
     1
102
RTVSPropertyOp19
 70
     1
102
RTVSPropertyOp20
 70
     1
102
RTVSPropertyOp21
 70
     1
102
RTVSPropertyOp22
 70
     1
102
RTVSPropertyOp23
 70
     1
102
RTVSPropertyOp24
 70
     1
102
RTVSPropertyOp25
 70
     1
102
RTVSPropertyOp26
 70
     1
102
RTVSPropertyOp27
 70
     1
102
RTVSPropertyOp28
 70
     1
102
RTVSPropertyOp29
 70
     1
102
RTVSPropertyOp30
 70
     1
102
RTVSPropertyOp31
 70
     1
102
RTVSPropertyOp32
 70
     1
102
RTVSPropertyOp33
 70
     1
102
RTVSPropertyOp34
 70
     1
102
RTVSPropertyOp35
 70
     1
102
RTVSPropertyOp36
 70
     1
102
RTVSPropertyOp37
 70
     1
102
RTVSPropertyOp38
 70
     1
102
RTVSPropertyOp39
 70
     1
102
RTVSPropertyOp40
 70
     1
102
RTVSPropertyOp41
 70
     1
102
RTVSPropertyOp42
 70
     1
102
RTVSPropertyOp43
 70
     1
102
RTVSPropertyOp44
 70
     1
102
RTVSPropertyOp45
 70
     1
102
RTVSPropertyOp46
 70
     1
102
RTVSPropertyOp47
 70
     1
102
RTVSPropertyOp48
 70
     1
102
RTVSPropertyOp49
 70
     1
102
RTVSPropertyOp50
 70
     1
102
RTVSPropertyOp51
 70
     0
102
RTVSPropertyOp52
 70
     0
102
RTVSPropertyOp53
 70
     1
102
RTVSPropertyOp54
 70
     1
102
RTVSPropertyOp55
 70
     1
102
RTVSPropertyOp56
 70
     1
102
RTVSPropertyOp57
 70
     1
102
RTVSPost2010Prop28
280
     0
102
RTVSPost2010PropOp28
 70
     1
102
RTVSPost2010Prop29
280
     1
102
RTVSPost2010PropOp29
 70
     1
102
RTVSPost2010Prop30
280
     1
102
RTVSPost2010PropOp30
 70
     1
102
RTVSPost2010Prop31
280
     0
102
RTVSPost2010PropOp31
 70
     1
102
RTVSPost2010Prop32
280
     0
102
RTVSPost2010PropOp32
 70
     1
102
RTVSPost2010Prop33
280
     0
102
RTVSPost2010PropOp33
 70
     1
102
RTVSPost2010Prop34
280
     0
102
RTVSPost2010PropOp34
 70
     1
102
RTVSPost2010Prop35
280
     0
102
RTVSPost2010PropOp35
 70
     1
102
RTVSPost2010Prop36
280
     0
102
RTVSPost2010PropOp36
 70
     1
102
RTVSPost2010Prop37
 90
       50
102
RTVSPost2010PropOp37
 70
     1
102
RTVSPost2010Prop38
140
0.0
102
RTVSPost2010PropOp38
 70
     1
102
RTVSPost2010Prop39
140
1.0
102
RTVSPost2010PropOp39
 70
     1
102
RTVSPost2010Prop40
 90
        0
102
RTVSPost2010PropOp40
 70
     1
102
RTVSPost2010Prop41ColorIndex
 90
       18
102
RTVSPost2010Prop41ColorRGB
 90
        0
102
RTVSPost2010PropOp41
 70
     1
102
RTVSPost2010Prop42
 90
       50
102
RTVSPost2010PropOp42
 70
     1
102
RTVSPost2010Prop43
 90
        3
102
RTVSPost2010PropOp43
 70
     1
102
RTVSPost2010Prop44ColorIndex
 90
        5
102
RTVSPost2010Prop44ColorRGB
 90
      255
102
RTVSPost2010PropOp44
 70
     1
102
RTVSPost2010Prop45
280
     0
102
RTVSPost2010PropOp45
 70
     1
102
RTVSPost2010Prop46
 90
       50
102
RTVSPost2010PropOp46
 70
     1
102
RTVSPost2010Prop47
 90
       50
102
RTVSPost2010PropOp47
 70
     1
102
RTVSPost2010Prop48
 90
       50
102
RTVSPost2010PropOp48
 70
     1
102
RTVSPost2010Prop49
280
     0
102
RTVSPost2010PropOp49
 70
     1
102
RTVSPost2010Prop50
 90
       50
102
RTVSPost2010PropOp50
 70
     1
102
RTVSPost2010Prop51ColorIndex
 90
      256
102
RTVSPost2010Prop51ColorRGB
 90
-16777216
102
RTVSPost2010PropOp51
 70
     0
102
RTVSPost2010Prop52
140
1.0
102
RTVSPost2010PropOp52
 70
     0
102
RTVSPost2010Prop53
 90
        2
102
RTVSPost2010PropOp53
 70
     1
102
RTVSPost2010Prop54
  1
strokes_ogs.tif
102
RTVSPost2010PropOp54
 70
     1
102
RTVSPost2010Prop55
280
     0
102
RTVSPost2010PropOp55
 70
     1
102
RTVSPost2010Prop56
140
1.0
102
RTVSPost2010PropOp56
 70
     1
102
RTVSPost2010Prop57
140
1.0
102
RTVSPost2010PropOp57
 70
     1
  0
XRECORD
  5
DE
102
{ACAD_REACTORS
330
DD
102
}
330
DD
100
AcDbXrecord
280
     1
102
RTVSPropertyOp0
 70
     1
102
RTVSPropertyOp1
 70
     1
102
RTVSPropertyOp2
 70
     1
102
RTVSPropertyOp3
 70
     1
102
RTVSPropertyOp4
 70
     1
102
RTVSPropertyOp5
 70
     1
102
RTVSPropertyOp6
 70
     1
102
RTVSPropertyOp7
 70
     1
102
RTVSPropertyOp8
 70
     1
102
RTVSPropertyOp9
 70
     1
102
RTVSPropertyOp10
 70
     1
102
RTVSPropertyOp11
 70
     1
102
RTVSPropertyOp12
 70
     1
102
RTVSPropertyOp13
 70
     1
102
RTVSPropertyOp14
 70
     1
102
RTVSPropertyOp15
 70
     1
102
RTVSPropertyOp16
 70
     1
102
RTVSPropertyOp17
 70
     1
102
RTVSPropertyOp18
 70
     1
102
RTVSPropertyOp19
 70
     1
102
RTVSPropertyOp20
 70
     1
102
RTVSPropertyOp21
 70
     1
102
RTVSPropertyOp22
 70
     1
102
RTVSPropertyOp23
 70
     1
102
RTVSPropertyOp24
 70
     1
102
RTVSPropertyOp25
 70
     1
102
RTVSPropertyOp26
 70
     1
102
RTVSPropertyOp27
 70
     1
102
RTVSPropertyOp28
 70
     1
102
RTVSPropertyOp29
 70
     1
102
RTVSPropertyOp30
 70
     1
102
RTVSPropertyOp31
 70
     1
102
RTVSPropertyOp32
 70
     1
102
RTVSPropertyOp33
 70
     1
102
RTVSPropertyOp34
 70
     1
102
RTVSPropertyOp35
 70
     1
102
RTVSPropertyOp36
 70
     1
102
RTVSPropertyOp37
 70
     1
102
RTVSPropertyOp38
 70
     1
102
RTVSPropertyOp39
 70
     1
102
RTVSPropertyOp40
 70
     1
102
RTVSPropertyOp41
 70
     1
102
RTVSPropertyOp42
 70
     1
102
RTVSPropertyOp43
 70
     1
102
RTVSPropertyOp44
 70
     1
102
RTVSPropertyOp45
 70
     1
102
RTVSPropertyOp46
 70
     1
102
RTVSPropertyOp47
 70
     1
102
RTVSPropertyOp48
 70
     1
102
RTVSPropertyOp49
 70
     1
102
RTVSPropertyOp50
 70
     1
102
RTVSPropertyOp51
 70
     0
102
RTVSPropertyOp52
 70
     0
102
RTVSPropertyOp53
 70
     1
102
RTVSPropertyOp54
 70
     1
102
RTVSPropertyOp55
 70
     1
102
RTVSPropertyOp56
 70
     1
102
RTVSPropertyOp57
 70
     1
102
RTVSPost2010Prop28
280
     0
102
RTVSPost2010PropOp28
 70
     1
102
RTVSPost2010Prop29
280
     1
102
RTVSPost2010PropOp29
 70
     1
102
RTVSPost2010Prop30
280
     1
102
RTVSPost2010PropOp30
 70
     1
102
RTVSPost2010Prop31
280
     0
102
RTVSPost2010PropOp31
 70
     1
102
RTVSPost2010Prop32
280
     0
102
RTVSPost2010PropOp32
 70
     1
102
RTVSPost2010Prop33
280
     0
102
RTVSPost2010PropOp33
 70
     1
102
RTVSPost2010Prop34
280
     0
102
RTVSPost2010PropOp34
 70
     1
102
RTVSPost2010Prop35
280
     0
102
RTVSPost2010PropOp35
 70
     1
102
RTVSPost2010Prop36
280
     0
102
RTVSPost2010PropOp36
 70
     1
102
RTVSPost2010Prop37
 90
       50
102
RTVSPost2010PropOp37
 70
     1
102
RTVSPost2010Prop38
140
0.0
102
RTVSPost2010PropOp38
 70
     1
102
RTVSPost2010Prop39
140
1.0
102
RTVSPost2010PropOp39
 70
     1
102
RTVSPost2010Prop40
 90
        0
102
RTVSPost2010PropOp40
 70
     1
102
RTVSPost2010Prop41ColorIndex
 90
       18
102
RTVSPost2010Prop41ColorRGB
 90
        0
102
RTVSPost2010PropOp41
 70
     1
102
RTVSPost2010Prop42
 90
       50
102
RTVSPost2010PropOp42
 70
     1
102
RTVSPost2010Prop43
 90
        3
102
RTVSPost2010PropOp43
 70
     1
102
RTVSPost2010Prop44ColorIndex
 90
        5
102
RTVSPost2010Prop44ColorRGB
 90
      255
102
RTVSPost2010PropOp44
 70
     1
102
RTVSPost2010Prop45
280
     0
102
RTVSPost2010PropOp45
 70
     1
102
RTVSPost2010Prop46
 90
       50
102
RTVSPost2010PropOp46
 70
     1
102
RTVSPost2010Prop47
 90
       50
102
RTVSPost2010PropOp47
 70
     1
102
RTVSPost2010Prop48
 90
       50
102
RTVSPost2010PropOp48
 70
     1
102
RTVSPost2010Prop49
280
     0
102
RTVSPost2010PropOp49
 70
     1
102
RTVSPost2010Prop50
 90
       50
102
RTVSPost2010PropOp50
 70
     1
102
RTVSPost2010Prop51ColorIndex
 90
      256
102
RTVSPost2010Prop51ColorRGB
 90
-16777216
102
RTVSPost2010PropOp51
 70
     0
102
RTVSPost2010Prop52
140
1.0
102
RTVSPost2010PropOp52
 70
     0
102
RTVSPost2010Prop53
 90
        2
102
RTVSPost2010PropOp53
 70
     1
102
RTVSPost2010Prop54
  1
strokes_ogs.tif
102
RTVSPost2010PropOp54
 70
     1
102
RTVSPost2010Prop55
280
     0
102
RTVSPost2010PropOp55
 70
     1
102
RTVSPost2010Prop56
140
1.0
102
RTVSPost2010PropOp56
 70
     1
102
RTVSPost2010Prop57
140
1.0
102
RTVSPost2010PropOp57
 70
     1
  0
XRECORD
  5
DC
102
{ACAD_REACTORS
330
DB
102
}
330
DB
100
AcDbXrecord
280
     1
102
RTVSPropertyOp0
 70
     1
102
RTVSPropertyOp1
 70
     1
102
RTVSPropertyOp2
 70
     1
102
RTVSPropertyOp3
 70
     1
102
RTVSPropertyOp4
 70
     1
102
RTVSPropertyOp5
 70
     1
102
RTVSPropertyOp6
 70
     1
102
RTVSPropertyOp7
 70
     1
102
RTVSPropertyOp8
 70
     1
102
RTVSPropertyOp9
 70
     1
102
RTVSPropertyOp10
 70
     1
102
RTVSPropertyOp11
 70
     1
102
RTVSPropertyOp12
 70
     1
102
RTVSPropertyOp13
 70
     1
102
RTVSPropertyOp14
 70
     1
102
RTVSPropertyOp15
 70
     1
102
RTVSPropertyOp16
 70
     1
102
RTVSPropertyOp17
 70
     1
102
RTVSPropertyOp18
 70
     1
102
RTVSPropertyOp19
 70
     1
102
RTVSPropertyOp20
 70
     1
102
RTVSPropertyOp21
 70
     1
102
RTVSPropertyOp22
 70
     1
102
RTVSPropertyOp23
 70
     1
102
RTVSPropertyOp24
 70
     1
102
RTVSPropertyOp25
 70
     1
102
RTVSPropertyOp26
 70
     1
102
RTVSPropertyOp27
 70
     1
102
RTVSPropertyOp28
 70
     1
102
RTVSPropertyOp29
 70
     1
102
RTVSPropertyOp30
 70
     1
102
RTVSPropertyOp31
 70
     1
102
RTVSPropertyOp32
 70
     1
102
RTVSPropertyOp33
 70
     1
102
RTVSPropertyOp34
 70
     1
102
RTVSPropertyOp35
 70
     1
102
RTVSPropertyOp36
 70
     1
102
RTVSPropertyOp37
 70
     1
102
RTVSPropertyOp38
 70
     1
102
RTVSPropertyOp39
 70
     1
102
RTVSPropertyOp40
 70
     1
102
RTVSPropertyOp41
 70
     1
102
RTVSPropertyOp42
 70
     1
102
RTVSPropertyOp43
 70
     1
102
RTVSPropertyOp44
 70
     1
102
RTVSPropertyOp45
 70
     1
102
RTVSPropertyOp46
 70
     1
102
RTVSPropertyOp47
 70
     1
102
RTVSPropertyOp48
 70
     1
102
RTVSPropertyOp49
 70
     1
102
RTVSPropertyOp50
 70
     1
102
RTVSPropertyOp51
 70
     0
102
RTVSPropertyOp52
 70
     0
102
RTVSPropertyOp53
 70
     1
102
RTVSPropertyOp54
 70
     1
102
RTVSPropertyOp55
 70
     1
102
RTVSPropertyOp56
 70
     1
102
RTVSPropertyOp57
 70
     1
102
RTVSPost2010Prop28
280
     0
102
RTVSPost2010PropOp28
 70
     1
102
RTVSPost2010Prop29
280
     1
102
RTVSPost2010PropOp29
 70
     1
102
RTVSPost2010Prop30
280
     1
102
RTVSPost2010PropOp30
 70
     1
102
RTVSPost2010Prop31
280
     0
102
RTVSPost2010PropOp31
 70
     1
102
RTVSPost2010Prop32
280
     0
102
RTVSPost2010PropOp32
 70
     1
102
RTVSPost2010Prop33
280
     0
102
RTVSPost2010PropOp33
 70
     1
102
RTVSPost2010Prop34
280
     0
102
RTVSPost2010PropOp34
 70
     1
102
RTVSPost2010Prop35
280
     0
102
RTVSPost2010PropOp35
 70
     1
102
RTVSPost2010Prop36
280
     0
102
RTVSPost2010PropOp36
 70
     1
102
RTVSPost2010Prop37
 90
       50
102
RTVSPost2010PropOp37
 70
     1
102
RTVSPost2010Prop38
140
0.0
102
RTVSPost2010PropOp38
 70
     1
102
RTVSPost2010Prop39
140
1.0
102
RTVSPost2010PropOp39
 70
     1
102
RTVSPost2010Prop40
 90
        0
102
RTVSPost2010PropOp40
 70
     1
102
RTVSPost2010Prop41ColorIndex
 90
       18
102
RTVSPost2010Prop41ColorRGB
 90
        0
102
RTVSPost2010PropOp41
 70
     1
102
RTVSPost2010Prop42
 90
       50
102
RTVSPost2010PropOp42
 70
     1
102
RTVSPost2010Prop43
 90
        3
102
RTVSPost2010PropOp43
 70
     1
102
RTVSPost2010Prop44ColorIndex
 90
        5
102
RTVSPost2010Prop44ColorRGB
 90
      255
102
RTVSPost2010PropOp44
 70
     1
102
RTVSPost2010Prop45
280
     0
102
RTVSPost2010PropOp45
 70
     1
102
RTVSPost2010Prop46
 90
       50
102
RTVSPost2010PropOp46
 70
     1
102
RTVSPost2010Prop47
 90
       50
102
RTVSPost2010PropOp47
 70
     1
102
RTVSPost2010Prop48
 90
       50
102
RTVSPost2010PropOp48
 70
     1
102
RTVSPost2010Prop49
280
     0
102
RTVSPost2010PropOp49
 70
     1
102
RTVSPost2010Prop50
 90
       50
102
RTVSPost2010PropOp50
 70
     1
102
RTVSPost2010Prop51ColorIndex
 90
      256
102
RTVSPost2010Prop51ColorRGB
 90
-16777216
102
RTVSPost2010PropOp51
 70
     0
102
RTVSPost2010Prop52
140
1.0
102
RTVSPost2010PropOp52
 70
     0
102
RTVSPost2010Prop53
 90
        2
102
RTVSPost2010PropOp53
 70
     1
102
RTVSPost2010Prop54
  1
strokes_ogs.tif
102
RTVSPost2010PropOp54
 70
     1
102
RTVSPost2010Prop55
280
     0
102
RTVSPost2010PropOp55
 70
     1
102
RTVSPost2010Prop56
140
1.0
102
RTVSPost2010PropOp56
 70
     1
102
RTVSPost2010Prop57
140
1.0
102
RTVSPost2010PropOp57
 70
     1
  0
XRECORD
  5
D6
102
{ACAD_REACTORS
330
D5
102
}
330
D5
100
AcDbXrecord
280
     1
102
RTVSPropertyOp0
 70
     1
102
RTVSPropertyOp1
 70
     1
102
RTVSPropertyOp2
 70
     1
102
RTVSPropertyOp3
 70
     1
102
RTVSPropertyOp4
 70
     1
102
RTVSPropertyOp5
 70
     1
102
RTVSPropertyOp6
 70
     1
102
RTVSPropertyOp7
 70
     1
102
RTVSPropertyOp8
 70
     1
102
RTVSPropertyOp9
 70
     1
102
RTVSPropertyOp10
 70
     1
102
RTVSPropertyOp11
 70
     1
102
RTVSPropertyOp12
 70
     1
102
RTVSPropertyOp13
 70
     1
102
RTVSPropertyOp14
 70
     1
102
RTVSPropertyOp15
 70
     1
102
RTVSPropertyOp16
 70
     1
102
RTVSPropertyOp17
 70
     1
102
RTVSPropertyOp18
 70
     1
102
RTVSPropertyOp19
 70
     1
102
RTVSPropertyOp20
 70
     1
102
RTVSPropertyOp21
 70
     1
102
RTVSPropertyOp22
 70
     1
102
RTVSPropertyOp23
 70
     1
102
RTVSPropertyOp24
 70
     1
102
RTVSPropertyOp25
 70
     1
102
RTVSPropertyOp26
 70
     1
102
RTVSPropertyOp27
 70
     1
102
RTVSPropertyOp28
 70
     1
102
RTVSPropertyOp29
 70
     1
102
RTVSPropertyOp30
 70
     1
102
RTVSPropertyOp31
 70
     1
102
RTVSPropertyOp32
 70
     1
102
RTVSPropertyOp33
 70
     1
102
RTVSPropertyOp34
 70
     1
102
RTVSPropertyOp35
 70
     1
102
RTVSPropertyOp36
 70
     1
102
RTVSPropertyOp37
 70
     1
102
RTVSPropertyOp38
 70
     1
102
RTVSPropertyOp39
 70
     1
102
RTVSPropertyOp40
 70
     1
102
RTVSPropertyOp41
 70
     1
102
RTVSPropertyOp42
 70
     1
102
RTVSPropertyOp43
 70
     1
102
RTVSPropertyOp44
 70
     1
102
RTVSPropertyOp45
 70
     1
102
RTVSPropertyOp46
 70
     1
102
RTVSPropertyOp47
 70
     1
102
RTVSPropertyOp48
 70
     1
102
RTVSPropertyOp49
 70
     1
102
RTVSPropertyOp50
 70
     1
102
RTVSPropertyOp51
 70
     0
102
RTVSPropertyOp52
 70
     0
102
RTVSPropertyOp53
 70
     1
102
RTVSPropertyOp54
 70
     1
102
RTVSPropertyOp55
 70
     1
102
RTVSPropertyOp56
 70
     1
102
RTVSPropertyOp57
 70
     1
102
RTVSPost2010Prop28
280
     0
102
RTVSPost2010PropOp28
 70
     1
102
RTVSPost2010Prop29
280
     1
102
RTVSPost2010PropOp29
 70
     1
102
RTVSPost2010Prop30
280
     1
102
RTVSPost2010PropOp30
 70
     1
102
RTVSPost2010Prop31
280
     0
102
RTVSPost2010PropOp31
 70
     1
102
RTVSPost2010Prop32
280
     0
102
RTVSPost2010PropOp32
 70
     1
102
RTVSPost2010Prop33
280
     0
102
RTVSPost2010PropOp33
 70
     1
102
RTVSPost2010Prop34
280
     0
102
RTVSPost2010PropOp34
 70
     1
102
RTVSPost2010Prop35
280
     0
102
RTVSPost2010PropOp35
 70
     1
102
RTVSPost2010Prop36
280
     0
102
RTVSPost2010PropOp36
 70
     1
102
RTVSPost2010Prop37
 90
       50
102
RTVSPost2010PropOp37
 70
     1
102
RTVSPost2010Prop38
140
0.0
102
RTVSPost2010PropOp38
 70
     1
102
RTVSPost2010Prop39
140
1.0
102
RTVSPost2010PropOp39
 70
     1
102
RTVSPost2010Prop40
 90
        0
102
RTVSPost2010PropOp40
 70
     1
102
RTVSPost2010Prop41ColorIndex
 90
       18
102
RTVSPost2010Prop41ColorRGB
 90
        0
102
RTVSPost2010PropOp41
 70
     1
102
RTVSPost2010Prop42
 90
       50
102
RTVSPost2010PropOp42
 70
     1
102
RTVSPost2010Prop43
 90
        3
102
RTVSPost2010PropOp43
 70
     1
102
RTVSPost2010Prop44ColorIndex
 90
        5
102
RTVSPost2010Prop44ColorRGB
 90
      255
102
RTVSPost2010PropOp44
 70
     1
102
RTVSPost2010Prop45
280
     0
102
RTVSPost2010PropOp45
 70
     1
102
RTVSPost2010Prop46
 90
       50
102
RTVSPost2010PropOp46
 70
     1
102
RTVSPost2010Prop47
 90
       50
102
RTVSPost2010PropOp47
 70
     1
102
RTVSPost2010Prop48
 90
       50
102
RTVSPost2010PropOp48
 70
     1
102
RTVSPost2010Prop49
280
     0
102
RTVSPost2010PropOp49
 70
     1
102
RTVSPost2010Prop50
 90
       50
102
RTVSPost2010PropOp50
 70
     1
102
RTVSPost2010Prop51ColorIndex
 90
      256
102
RTVSPost2010Prop51ColorRGB
 90
-16777216
102
RTVSPost2010PropOp51
 70
     0
102
RTVSPost2010Prop52
140
1.0
102
RTVSPost2010PropOp52
 70
     0
102
RTVSPost2010Prop53
 90
        2
102
RTVSPost2010PropOp53
 70
     1
102
RTVSPost2010Prop54
  1
strokes_ogs.tif
102
RTVSPost2010PropOp54
 70
     1
102
RTVSPost2010Prop55
280
     0
102
RTVSPost2010PropOp55
 70
     1
102
RTVSPost2010Prop56
140
1.0
102
RTVSPost2010PropOp56
 70
     1
102
RTVSPost2010Prop57
140
1.0
102
RTVSPost2010PropOp57
 70
     1
  0
XRECORD
  5
D8
102
{ACAD_REACTORS
330
D7
102
}
330
D7
100
AcDbXrecord
280
     1
102
RTVSPropertyOp0
 70
     1
102
RTVSPropertyOp1
 70
     1
102
RTVSPropertyOp2
 70
     1
102
RTVSPropertyOp3
 70
     1
102
RTVSPropertyOp4
 70
     1
102
RTVSPropertyOp5
 70
     1
102
RTVSPropertyOp6
 70
     1
102
RTVSPropertyOp7
 70
     1
102
RTVSPropertyOp8
 70
     1
102
RTVSPropertyOp9
 70
     1
102
RTVSPropertyOp10
 70
     1
102
RTVSPropertyOp11
 70
     1
102
RTVSPropertyOp12
 70
     1
102
RTVSPropertyOp13
 70
     1
102
RTVSPropertyOp14
 70
     1
102
RTVSPropertyOp15
 70
     1
102
RTVSPropertyOp16
 70
     1
102
RTVSPropertyOp17
 70
     1
102
RTVSPropertyOp18
 70
     1
102
RTVSPropertyOp19
 70
     1
102
RTVSPropertyOp20
 70
     1
102
RTVSPropertyOp21
 70
     1
102
RTVSPropertyOp22
 70
     1
102
RTVSPropertyOp23
 70
     1
102
RTVSPropertyOp24
 70
     1
102
RTVSPropertyOp25
 70
     1
102
RTVSPropertyOp26
 70
     1
102
RTVSPropertyOp27
 70
     1
102
RTVSPropertyOp28
 70
     1
102
RTVSPropertyOp29
 70
     1
102
RTVSPropertyOp30
 70
     1
102
RTVSPropertyOp31
 70
     1
102
RTVSPropertyOp32
 70
     1
102
RTVSPropertyOp33
 70
     1
102
RTVSPropertyOp34
 70
     1
102
RTVSPropertyOp35
 70
     1
102
RTVSPropertyOp36
 70
     1
102
RTVSPropertyOp37
 70
     1
102
RTVSPropertyOp38
 70
     1
102
RTVSPropertyOp39
 70
     1
102
RTVSPropertyOp40
 70
     1
102
RTVSPropertyOp41
 70
     1
102
RTVSPropertyOp42
 70
     1
102
RTVSPropertyOp43
 70
     1
102
RTVSPropertyOp44
 70
     1
102
RTVSPropertyOp45
 70
     1
102
RTVSPropertyOp46
 70
     1
102
RTVSPropertyOp47
 70
     1
102
RTVSPropertyOp48
 70
     1
102
RTVSPropertyOp49
 70
     1
102
RTVSPropertyOp50
 70
     1
102
RTVSPropertyOp51
 70
     0
102
RTVSPropertyOp52
 70
     0
102
RTVSPropertyOp53
 70
     1
102
RTVSPropertyOp54
 70
     1
102
RTVSPropertyOp55
 70
     1
102
RTVSPropertyOp56
 70
     1
102
RTVSPropertyOp57
 70
     1
102
RTVSPost2010Prop28
280
     0
102
RTVSPost2010PropOp28
 70
     1
102
RTVSPost2010Prop29
280
     1
102
RTVSPost2010PropOp29
 70
     1
102
RTVSPost2010Prop30
280
     1
102
RTVSPost2010PropOp30
 70
     1
102
RTVSPost2010Prop31
280
     0
102
RTVSPost2010PropOp31
 70
     1
102
RTVSPost2010Prop32
280
     0
102
RTVSPost2010PropOp32
 70
     1
102
RTVSPost2010Prop33
280
     0
102
RTVSPost2010PropOp33
 70
     1
102
RTVSPost2010Prop34
280
     0
102
RTVSPost2010PropOp34
 70
     1
102
RTVSPost2010Prop35
280
     0
102
RTVSPost2010PropOp35
 70
     1
102
RTVSPost2010Prop36
280
     0
102
RTVSPost2010PropOp36
 70
     1
102
RTVSPost2010Prop37
 90
       50
102
RTVSPost2010PropOp37
 70
     1
102
RTVSPost2010Prop38
140
0.0
102
RTVSPost2010PropOp38
 70
     1
102
RTVSPost2010Prop39
140
1.0
102
RTVSPost2010PropOp39
 70
     1
102
RTVSPost2010Prop40
 90
        0
102
RTVSPost2010PropOp40
 70
     1
102
RTVSPost2010Prop41ColorIndex
 90
       18
102
RTVSPost2010Prop41ColorRGB
 90
        0
102
RTVSPost2010PropOp41
 70
     1
102
RTVSPost2010Prop42
 90
       50
102
RTVSPost2010PropOp42
 70
     1
102
RTVSPost2010Prop43
 90
        3
102
RTVSPost2010PropOp43
 70
     1
102
RTVSPost2010Prop44ColorIndex
 90
        5
102
RTVSPost2010Prop44ColorRGB
 90
      255
102
RTVSPost2010PropOp44
 70
     1
102
RTVSPost2010Prop45
280
     0
102
RTVSPost2010PropOp45
 70
     1
102
RTVSPost2010Prop46
 90
       50
102
RTVSPost2010PropOp46
 70
     1
102
RTVSPost2010Prop47
 90
       50
102
RTVSPost2010PropOp47
 70
     1
102
RTVSPost2010Prop48
 90
       50
102
RTVSPost2010PropOp48
 70
     1
102
RTVSPost2010Prop49
280
     0
102
RTVSPost2010PropOp49
 70
     1
102
RTVSPost2010Prop50
 90
       50
102
RTVSPost2010PropOp50
 70
     1
102
RTVSPost2010Prop51ColorIndex
 90
      256
102
RTVSPost2010Prop51ColorRGB
 90
-16777216
102
RTVSPost2010PropOp51
 70
     0
102
RTVSPost2010Prop52
140
1.0
102
RTVSPost2010PropOp52
 70
     0
102
RTVSPost2010Prop53
 90
        2
102
RTVSPost2010PropOp53
 70
     1
102
RTVSPost2010Prop54
  1
strokes_ogs.tif
102
RTVSPost2010PropOp54
 70
     1
102
RTVSPost2010Prop55
280
     0
102
RTVSPost2010PropOp55
 70
     1
102
RTVSPost2010Prop56
140
1.0
102
RTVSPost2010PropOp56
 70
     1
102
RTVSPost2010Prop57
140
1.0
102
RTVSPost2010PropOp57
 70
     1
  0
XRECORD
  5
C8
102
{ACAD_REACTORS
330
C7
102
}
330
C7
100
AcDbXrecord
280
     1
102
RTVSPropertyOp0
 70
     1
102
RTVSPropertyOp1
 70
     1
102
RTVSPropertyOp2
 70
     1
102
RTVSPropertyOp3
 70
     1
102
RTVSPropertyOp4
 70
     1
102
RTVSPropertyOp5
 70
     1
102
RTVSPropertyOp6
 70
     1
102
RTVSPropertyOp7
 70
     1
102
RTVSPropertyOp8
 70
     1
102
RTVSPropertyOp9
 70
     1
102
RTVSPropertyOp10
 70
     1
102
RTVSPropertyOp11
 70
     1
102
RTVSPropertyOp12
 70
     1
102
RTVSPropertyOp13
 70
     1
102
RTVSPropertyOp14
 70
     1
102
RTVSPropertyOp15
 70
     1
102
RTVSPropertyOp16
 70
     1
102
RTVSPropertyOp17
 70
     1
102
RTVSPropertyOp18
 70
     1
102
RTVSPropertyOp19
 70
     1
102
RTVSPropertyOp20
 70
     1
102
RTVSPropertyOp21
 70
     1
102
RTVSPropertyOp22
 70
     1
102
RTVSPropertyOp23
 70
     1
102
RTVSPropertyOp24
 70
     1
102
RTVSPropertyOp25
 70
     1
102
RTVSPropertyOp26
 70
     1
102
RTVSPropertyOp27
 70
     1
102
RTVSPropertyOp28
 70
     1
102
RTVSPropertyOp29
 70
     1
102
RTVSPropertyOp30
 70
     1
102
RTVSPropertyOp31
 70
     1
102
RTVSPropertyOp32
 70
     1
102
RTVSPropertyOp33
 70
     1
102
RTVSPropertyOp34
 70
     1
102
RTVSPropertyOp35
 70
     1
102
RTVSPropertyOp36
 70
     1
102
RTVSPropertyOp37
 70
     1
102
RTVSPropertyOp38
 70
     1
102
RTVSPropertyOp39
 70
     1
102
RTVSPropertyOp40
 70
     1
102
RTVSPropertyOp41
 70
     1
102
RTVSPropertyOp42
 70
     1
102
RTVSPropertyOp43
 70
     1
102
RTVSPropertyOp44
 70
     1
102
RTVSPropertyOp45
 70
     1
102
RTVSPropertyOp46
 70
     1
102
RTVSPropertyOp47
 70
     1
102
RTVSPropertyOp48
 70
     1
102
RTVSPropertyOp49
 70
     1
102
RTVSPropertyOp50
 70
     1
102
RTVSPropertyOp51
 70
     0
102
RTVSPropertyOp52
 70
     0
102
RTVSPropertyOp53
 70
     1
102
RTVSPropertyOp54
 70
     1
102
RTVSPropertyOp55
 70
     1
102
RTVSPropertyOp56
 70
     1
102
RTVSPropertyOp57
 70
     1
102
RTVSPost2010Prop28
280
     0
102
RTVSPost2010PropOp28
 70
     1
102
RTVSPost2010Prop29
280
     1
102
RTVSPost2010PropOp29
 70
     1
102
RTVSPost2010Prop30
280
     1
102
RTVSPost2010PropOp30
 70
     1
102
RTVSPost2010Prop31
280
     0
102
RTVSPost2010PropOp31
 70
     1
102
RTVSPost2010Prop32
280
     0
102
RTVSPost2010PropOp32
 70
     1
102
RTVSPost2010Prop33
280
     0
102
RTVSPost2010PropOp33
 70
     1
102
RTVSPost2010Prop34
280
     0
102
RTVSPost2010PropOp34
 70
     1
102
RTVSPost2010Prop35
280
     0
102
RTVSPost2010PropOp35
 70
     1
102
RTVSPost2010Prop36
280
     0
102
RTVSPost2010PropOp36
 70
     1
102
RTVSPost2010Prop37
 90
       50
102
RTVSPost2010PropOp37
 70
     1
102
RTVSPost2010Prop38
140
0.0
102
RTVSPost2010PropOp38
 70
     1
102
RTVSPost2010Prop39
140
1.0
102
RTVSPost2010PropOp39
 70
     1
102
RTVSPost2010Prop40
 90
        0
102
RTVSPost2010PropOp40
 70
     1
102
RTVSPost2010Prop41ColorIndex
 90
       18
102
RTVSPost2010Prop41ColorRGB
 90
        0
102
RTVSPost2010PropOp41
 70
     1
102
RTVSPost2010Prop42
 90
       50
102
RTVSPost2010PropOp42
 70
     1
102
RTVSPost2010Prop43
 90
        3
102
RTVSPost2010PropOp43
 70
     1
102
RTVSPost2010Prop44ColorIndex
 90
        5
102
RTVSPost2010Prop44ColorRGB
 90
      255
102
RTVSPost2010PropOp44
 70
     1
102
RTVSPost2010Prop45
280
     0
102
RTVSPost2010PropOp45
 70
     1
102
RTVSPost2010Prop46
 90
       50
102
RTVSPost2010PropOp46
 70
     1
102
RTVSPost2010Prop47
 90
       50
102
RTVSPost2010PropOp47
 70
     1
102
RTVSPost2010Prop48
 90
       50
102
RTVSPost2010PropOp48
 70
     1
102
RTVSPost2010Prop49
280
     0
102
RTVSPost2010PropOp49
 70
     1
102
RTVSPost2010Prop50
 90
       50
102
RTVSPost2010PropOp50
 70
     1
102
RTVSPost2010Prop51ColorIndex
 90
      256
102
RTVSPost2010Prop51ColorRGB
 90
-16777216
102
RTVSPost2010PropOp51
 70
     0
102
RTVSPost2010Prop52
140
1.0
102
RTVSPost2010PropOp52
 70
     0
102
RTVSPost2010Prop53
 90
        2
102
RTVSPost2010PropOp53
 70
     1
102
RTVSPost2010Prop54
  1
strokes_ogs.tif
102
RTVSPost2010PropOp54
 70
     1
102
RTVSPost2010Prop55
280
     0
102
RTVSPost2010PropOp55
 70
     1
102
RTVSPost2010Prop56
140
1.0
102
RTVSPost2010PropOp56
 70
     1
102
RTVSPost2010Prop57
140
1.0
102
RTVSPost2010PropOp57
 70
     1
  0
XRECORD
  5
BA
102
{ACAD_REACTORS
330
B9
102
}
330
B9
100
AcDbXrecord
280
     1
102
RTVSPropertyOp0
 70
     1
102
RTVSPropertyOp1
 70
     1
102
RTVSPropertyOp2
 70
     1
102
RTVSPropertyOp3
 70
     1
102
RTVSPropertyOp4
 70
     1
102
RTVSPropertyOp5
 70
     1
102
RTVSPropertyOp6
 70
     1
102
RTVSPropertyOp7
 70
     1
102
RTVSPropertyOp8
 70
     1
102
RTVSPropertyOp9
 70
     1
102
RTVSPropertyOp10
 70
     1
102
RTVSPropertyOp11
 70
     1
102
RTVSPropertyOp12
 70
     1
102
RTVSPropertyOp13
 70
     1
102
RTVSPropertyOp14
 70
     1
102
RTVSPropertyOp15
 70
     1
102
RTVSPropertyOp16
 70
     1
102
RTVSPropertyOp17
 70
     1
102
RTVSPropertyOp18
 70
     1
102
RTVSPropertyOp19
 70
     1
102
RTVSPropertyOp20
 70
     1
102
RTVSPropertyOp21
 70
     1
102
RTVSPropertyOp22
 70
     1
102
RTVSPropertyOp23
 70
     1
102
RTVSPropertyOp24
 70
     1
102
RTVSPropertyOp25
 70
     1
102
RTVSPropertyOp26
 70
     1
102
RTVSPropertyOp27
 70
     1
102
RTVSPropertyOp28
 70
     1
102
RTVSPropertyOp29
 70
     1
102
RTVSPropertyOp30
 70
     1
102
RTVSPropertyOp31
 70
     1
102
RTVSPropertyOp32
 70
     1
102
RTVSPropertyOp33
 70
     1
102
RTVSPropertyOp34
 70
     1
102
RTVSPropertyOp35
 70
     1
102
RTVSPropertyOp36
 70
     1
102
RTVSPropertyOp37
 70
     1
102
RTVSPropertyOp38
 70
     1
102
RTVSPropertyOp39
 70
     1
102
RTVSPropertyOp40
 70
     1
102
RTVSPropertyOp41
 70
     1
102
RTVSPropertyOp42
 70
     1
102
RTVSPropertyOp43
 70
     1
102
RTVSPropertyOp44
 70
     1
102
RTVSPropertyOp45
 70
     1
102
RTVSPropertyOp46
 70
     1
102
RTVSPropertyOp47
 70
     1
102
RTVSPropertyOp48
 70
     1
102
RTVSPropertyOp49
 70
     1
102
RTVSPropertyOp50
 70
     1
102
RTVSPropertyOp51
 70
     0
102
RTVSPropertyOp52
 70
     0
102
RTVSPropertyOp53
 70
     1
102
RTVSPropertyOp54
 70
     1
102
RTVSPropertyOp55
 70
     1
102
RTVSPropertyOp56
 70
     1
102
RTVSPropertyOp57
 70
     1
102
RTVSPost2010Prop28
280
     0
102
RTVSPost2010PropOp28
 70
     1
102
RTVSPost2010Prop29
280
     1
102
RTVSPost2010PropOp29
 70
     1
102
RTVSPost2010Prop30
280
     1
102
RTVSPost2010PropOp30
 70
     1
102
RTVSPost2010Prop31
280
     0
102
RTVSPost2010PropOp31
 70
     1
102
RTVSPost2010Prop32
280
     0
102
RTVSPost2010PropOp32
 70
     1
102
RTVSPost2010Prop33
280
     0
102
RTVSPost2010PropOp33
 70
     1
102
RTVSPost2010Prop34
280
     0
102
RTVSPost2010PropOp34
 70
     1
102
RTVSPost2010Prop35
280
     0
102
RTVSPost2010PropOp35
 70
     1
102
RTVSPost2010Prop36
280
     0
102
RTVSPost2010PropOp36
 70
     1
102
RTVSPost2010Prop37
 90
       50
102
RTVSPost2010PropOp37
 70
     1
102
RTVSPost2010Prop38
140
0.0
102
RTVSPost2010PropOp38
 70
     1
102
RTVSPost2010Prop39
140
1.0
102
RTVSPost2010PropOp39
 70
     1
102
RTVSPost2010Prop40
 90
        0
102
RTVSPost2010PropOp40
 70
     1
102
RTVSPost2010Prop41ColorIndex
 90
       18
102
RTVSPost2010Prop41ColorRGB
 90
        0
102
RTVSPost2010PropOp41
 70
     1
102
RTVSPost2010Prop42
 90
       50
102
RTVSPost2010PropOp42
 70
     1
102
RTVSPost2010Prop43
 90
        3
102
RTVSPost2010PropOp43
 70
     1
102
RTVSPost2010Prop44ColorIndex
 90
        5
102
RTVSPost2010Prop44ColorRGB
 90
      255
102
RTVSPost2010PropOp44
 70
     1
102
RTVSPost2010Prop45
280
     0
102
RTVSPost2010PropOp45
 70
     1
102
RTVSPost2010Prop46
 90
       50
102
RTVSPost2010PropOp46
 70
     1
102
RTVSPost2010Prop47
 90
       50
102
RTVSPost2010PropOp47
 70
     1
102
RTVSPost2010Prop48
 90
       50
102
RTVSPost2010PropOp48
 70
     1
102
RTVSPost2010Prop49
280
     0
102
RTVSPost2010PropOp49
 70
     1
102
RTVSPost2010Prop50
 90
       50
102
RTVSPost2010PropOp50
 70
     1
102
RTVSPost2010Prop51ColorIndex
 90
      256
102
RTVSPost2010Prop51ColorRGB
 90
-16777216
102
RTVSPost2010PropOp51
 70
     0
102
RTVSPost2010Prop52
140
1.0
102
RTVSPost2010PropOp52
 70
     0
102
RTVSPost2010Prop53
 90
        2
102
RTVSPost2010PropOp53
 70
     1
102
RTVSPost2010Prop54
  1
strokes_ogs.tif
102
RTVSPost2010PropOp54
 70
     1
102
RTVSPost2010Prop55
280
     0
102
RTVSPost2010PropOp55
 70
     1
102
RTVSPost2010Prop56
140
1.0
102
RTVSPost2010PropOp56
 70
     1
102
RTVSPost2010Prop57
140
1.0
102
RTVSPost2010PropOp57
 70
     1
  0
XRECORD
  5
DA
102
{ACAD_REACTORS
330
D9
102
}
330
D9
100
AcDbXrecord
280
     1
102
RTVSPropertyOp0
 70
     1
102
RTVSPropertyOp1
 70
     1
102
RTVSPropertyOp2
 70
     1
102
RTVSPropertyOp3
 70
     1
102
RTVSPropertyOp4
 70
     1
102
RTVSPropertyOp5
 70
     1
102
RTVSPropertyOp6
 70
     1
102
RTVSPropertyOp7
 70
     1
102
RTVSPropertyOp8
 70
     1
102
RTVSPropertyOp9
 70
     1
102
RTVSPropertyOp10
 70
     1
102
RTVSPropertyOp11
 70
     1
102
RTVSPropertyOp12
 70
     1
102
RTVSPropertyOp13
 70
     1
102
RTVSPropertyOp14
 70
     1
102
RTVSPropertyOp15
 70
     1
102
RTVSPropertyOp16
 70
     1
102
RTVSPropertyOp17
 70
     1
102
RTVSPropertyOp18
 70
     1
102
RTVSPropertyOp19
 70
     1
102
RTVSPropertyOp20
 70
     1
102
RTVSPropertyOp21
 70
     1
102
RTVSPropertyOp22
 70
     1
102
RTVSPropertyOp23
 70
     1
102
RTVSPropertyOp24
 70
     1
102
RTVSPropertyOp25
 70
     1
102
RTVSPropertyOp26
 70
     1
102
RTVSPropertyOp27
 70
     1
102
RTVSPropertyOp28
 70
     1
102
RTVSPropertyOp29
 70
     1
102
RTVSPropertyOp30
 70
     1
102
RTVSPropertyOp31
 70
     1
102
RTVSPropertyOp32
 70
     1
102
RTVSPropertyOp33
 70
     1
102
RTVSPropertyOp34
 70
     1
102
RTVSPropertyOp35
 70
     1
102
RTVSPropertyOp36
 70
     1
102
RTVSPropertyOp37
 70
     1
102
RTVSPropertyOp38
 70
     1
102
RTVSPropertyOp39
 70
     1
102
RTVSPropertyOp40
 70
     1
102
RTVSPropertyOp41
 70
     1
102
RTVSPropertyOp42
 70
     1
102
RTVSPropertyOp43
 70
     1
102
RTVSPropertyOp44
 70
     1
102
RTVSPropertyOp45
 70
     1
102
RTVSPropertyOp46
 70
     1
102
RTVSPropertyOp47
 70
     1
102
RTVSPropertyOp48
 70
     1
102
RTVSPropertyOp49
 70
     1
102
RTVSPropertyOp50
 70
     1
102
RTVSPropertyOp51
 70
     0
102
RTVSPropertyOp52
 70
     0
102
RTVSPropertyOp53
 70
     1
102
RTVSPropertyOp54
 70
     1
102
RTVSPropertyOp55
 70
     1
102
RTVSPropertyOp56
 70
     1
102
RTVSPropertyOp57
 70
     1
102
RTVSPost2010Prop28
280
     0
102
RTVSPost2010PropOp28
 70
     1
102
RTVSPost2010Prop29
280
     1
102
RTVSPost2010PropOp29
 70
     1
102
RTVSPost2010Prop30
280
     1
102
RTVSPost2010PropOp30
 70
     1
102
RTVSPost2010Prop31
280
     0
102
RTVSPost2010PropOp31
 70
     1
102
RTVSPost2010Prop32
280
     0
102
RTVSPost2010PropOp32
 70
     1
102
RTVSPost2010Prop33
280
     0
102
RTVSPost2010PropOp33
 70
     1
102
RTVSPost2010Prop34
280
     0
102
RTVSPost2010PropOp34
 70
     1
102
RTVSPost2010Prop35
280
     0
102
RTVSPost2010PropOp35
 70
     1
102
RTVSPost2010Prop36
280
     0
102
RTVSPost2010PropOp36
 70
     1
102
RTVSPost2010Prop37
 90
       50
102
RTVSPost2010PropOp37
 70
     1
102
RTVSPost2010Prop38
140
0.0
102
RTVSPost2010PropOp38
 70
     1
102
RTVSPost2010Prop39
140
1.0
102
RTVSPost2010PropOp39
 70
     1
102
RTVSPost2010Prop40
 90
        0
102
RTVSPost2010PropOp40
 70
     1
102
RTVSPost2010Prop41ColorIndex
 90
       18
102
RTVSPost2010Prop41ColorRGB
 90
        0
102
RTVSPost2010PropOp41
 70
     1
102
RTVSPost2010Prop42
 90
       50
102
RTVSPost2010PropOp42
 70
     1
102
RTVSPost2010Prop43
 90
        3
102
RTVSPost2010PropOp43
 70
     1
102
RTVSPost2010Prop44ColorIndex
 90
        5
102
RTVSPost2010Prop44ColorRGB
 90
      255
102
RTVSPost2010PropOp44
 70
     1
102
RTVSPost2010Prop45
280
     0
102
RTVSPost2010PropOp45
 70
     1
102
RTVSPost2010Prop46
 90
       50
102
RTVSPost2010PropOp46
 70
     1
102
RTVSPost2010Prop47
 90
       50
102
RTVSPost2010PropOp47
 70
     1
102
RTVSPost2010Prop48
 90
       50
102
RTVSPost2010PropOp48
 70
     1
102
RTVSPost2010Prop49
280
     0
102
RTVSPost2010PropOp49
 70
     1
102
RTVSPost2010Prop50
 90
       50
102
RTVSPost2010PropOp50
 70
     1
102
RTVSPost2010Prop51ColorIndex
 90
      256
102
RTVSPost2010Prop51ColorRGB
 90
-16777216
102
RTVSPost2010PropOp51
 70
     0
102
RTVSPost2010Prop52
140
1.0
102
RTVSPost2010PropOp52
 70
     0
102
RTVSPost2010Prop53
 90
        2
102
RTVSPost2010PropOp53
 70
     1
102
RTVSPost2010Prop54
  1
strokes_ogs.tif
102
RTVSPost2010PropOp54
 70
     1
102
RTVSPost2010Prop55
280
     0
102
RTVSPost2010PropOp55
 70
     1
102
RTVSPost2010Prop56
140
1.0
102
RTVSPost2010PropOp56
 70
     1
102
RTVSPost2010Prop57
140
1.0
102
RTVSPost2010PropOp57
 70
     1
  0
ENDSEC
  0
EOF
