  0
SECTION
  2
HEADER
  9
$ACADVER
  1
AC1015
  9
$ACADMAINTVER
 70
     6
  9
$DWGCODEPAGE
  3
ANSI_1251
  9
$INSBASE
 10
0.0
 20
0.0
 30
0.0
  9
$EXTMIN
 10
-310.0381
 20
-260.0381
 30
0.0
  9
$EXTMAX
 10
310.0381
 20
260.0381
 30
0.0
  9
$LIMMIN
 10
0.0
 20
0.0
  9
$LIMMAX
 10
12.0
 20
9.0
  9
$ORTHOMODE
 70
     0
  9
$REGENMODE
 70
     1
  9
$FILLMODE
 70
     1
  9
$QTEXTMODE
 70
     0
  9
$MIRRTEXT
 70
     1
  9
$LTSCALE
 40
1.0
  9
$ATTMODE
 70
     1
  9
$TEXTSIZE
 40
0.2
  9
$TRACEWID
 40
0.05
  9
$TEXTSTYLE
  7
Standard
  9
$CLAYER
  8
0
  9
$CELTYPE
  6
ByLayer
  9
$CECOLOR
 62
   256
  9
$CELTSCALE
 40
1.0
  9
$DISPSILH
 70
     0
  9
$DIMSCALE
 40
1.0
  9
$DIMASZ
 40
0.18
  9
$DIMEXO
 40
0.0625
  9
$DIMDLI
 40
0.38
  9
$DIMRND
 40
0.0
  9
$DIMDLE
 40
0.0
  9
$DIMEXE
 40
0.18
  9
$DIMTP
 40
0.0
  9
$DIMTM
 40
0.0
  9
$DIMTXT
 40
0.18
  9
$DIMCEN
 40
0.09
  9
$DIMTSZ
 40
0.0
  9
$DIMTOL
 70
     0
  9
$DIMLIM
 70
     0
  9
$DIMTIH
 70
     1
  9
$DIMTOH
 70
     1
  9
$DIMSE1
 70
     0
  9
$DIMSE2
 70
     0
  9
$DIMTAD
 70
     0
  9
$DIMZIN
 70
     0
  9
$DIMBLK
  1

  9
$DIMASO
 70
     1
  9
$DIMSHO
 70
     1
  9
$DIMPOST
  1

  9
$DIMAPOST
  1

  9
$DIMALT
 70
     0
  9
$DIMALTD
 70
     2
  9
$DIMALTF
 40
25.4
  9
$DIMLFAC
 40
1.0
  9
$DIMTOFL
 70
     0
  9
$DIMTVP
 40
0.0
  9
$DIMTIX
 70
     0
  9
$DIMSOXD
 70
     0
  9
$DIMSAH
 70
     0
  9
$DIMBLK1
  1

  9
$DIMBLK2
  1

  9
$DIMSTYLE
  2
Standard
  9
$DIMCLRD
 70
     0
  9
$DIMCLRE
 70
     0
  9
$DIMCLRT
 70
     0
  9
$DIMTFAC
 40
1.0
  9
$DIMGAP
 40
0.09
  9
$DIMJUST
 70
     0
  9
$DIMSD1
 70
     0
  9
$DIMSD2
 70
     0
  9
$DIMTOLJ
 70
     1
  9
$DIMTZIN
 70
     0
  9
$DIMALTZ
 70
     0
  9
$DIMALTTZ
 70
     0
  9
$DIMUPT
 70
     0
  9
$DIMDEC
 70
     4
  9
$DIMTDEC
 70
     4
  9
$DIMALTU
 70
     2
  9
$DIMALTTD
 70
     2
  9
$DIMTXSTY
  7
Standard
  9
$DIMAUNIT
 70
     0
  9
$DIMADEC
 70
     0
  9
$DIMALTRND
 40
0.0
  9
$DIMAZIN
 70
     0
  9
$DIMDSEP
 70
    46
  9
$DIMATFIT
 70
     3
  9
$DIMFRAC
 70
     0
  9
$DIMLDRBLK
  1

  9
$DIMLUNIT
 70
     2
  9
$DIMLWD
 70
    -2
  9
$DIMLWE
 70
    -2
  9
$DIMTMOVE
 70
     0
  9
$LUNITS
 70
     2
  9
$LUPREC
 70
     4
  9
$SKETCHINC
 40
0.1
  9
$FILLETRAD
 40
0.5
  9
$AUNITS
 70
     0
  9
$AUPREC
 70
     0
  9
$MENU
  1
.
  9
$ELEVATION
 40
0.0
  9
$PELEVATION
 40
0.0
  9
$THICKNESS
 40
0.0
  9
$LIMCHECK
 70
     0
  9
$CHAMFERA
 40
0.0
  9
$CHAMFERB
 40
0.0
  9
$CHAMFERC
 40
0.0
  9
$CHAMFERD
 40
0.0
  9
$SKPOLY
 70
     0
  9
$TDCREATE
 40
2458583.71474978
  9
$TDUCREATE
 40
2458583.548083114
  9
$TDUPDATE
 40
2458583.714749815
  9
$TDUUPDATE
 40
2458583.548083148
  9
$TDINDWG
 40
0.0000000116
  9
$TDUSRTIMER
 40
0.0000000116
  9
$USRTIMER
 70
     1
  9
$ANGBASE
 50
0.0
  9
$ANGDIR
 70
     0
  9
$PDMODE
 70
     0
  9
$PDSIZE
 40
0.0
  9
$PLINEWID
 40
0.0
  9
$SPLFRAME
 70
     0
  9
$SPLINETYPE
 70
     6
  9
$SPLINESEGS
 70
     8
  9
$HANDSEED
  5
E0
  9
$SURFTAB1
 70
     6
  9
$SURFTAB2
 70
     6
  9
$SURFTYPE
 70
     6
  9
$SURFU
 70
     6
  9
$SURFV
 70
     6
  9
$UCSBASE
  2

  9
$UCSNAME
  2

  9
$UCSORG
 10
0.0
 20
0.0
 30
0.0
  9
$UCSXDIR
 10
1.0
 20
0.0
 30
0.0
  9
$UCSYDIR
 10
0.0
 20
1.0
 30
0.0
  9
$UCSORTHOREF
  2

  9
$UCSORTHOVIEW
 70
     0
  9
$UCSORGTOP
 10
0.0
 20
0.0
 30
0.0
  9
$UCSORGBOTTOM
 10
0.0
 20
0.0
 30
0.0
  9
$UCSORGLEFT
 10
0.0
 20
0.0
 30
0.0
  9
$UCSORGRIGHT
 10
0.0
 20
0.0
 30
0.0
  9
$UCSORGFRONT
 10
0.0
 20
0.0
 30
0.0
  9
$UCSORGBACK
 10
0.0
 20
0.0
 30
0.0
  9
$PUCSBASE
  2

  9
$PUCSNAME
  2

  9
$PUCSORG
 10
0.0
 20
0.0
 30
0.0
  9
$PUCSXDIR
 10
1.0
 20
0.0
 30
0.0
  9
$PUCSYDIR
 10
0.0
 20
1.0
 30
0.0
  9
$PUCSORTHOREF
  2

  9
$PUCSORTHOVIEW
 70
     0
  9
$PUCSORGTOP
 10
0.0
 20
0.0
 30
0.0
  9
$PUCSORGBOTTOM
 10
0.0
 20
0.0
 30
0.0
  9
$PUCSORGLEFT
 10
0.0
 20
0.0
 30
0.0
  9
$PUCSORGRIGHT
 10
0.0
 20
0.0
 30
0.0
  9
$PUCSORGFRONT
 10
0.0
 20
0.0
 30
0.0
  9
$PUCSORGBACK
 10
0.0
 20
0.0
 30
0.0
  9
$USERI1
 70
     0
  9
$USERI2
 70
     0
  9
$USERI3
 70
     0
  9
$USERI4
 70
     0
  9
$USERI5
 70
     0
  9
$USERR1
 40
0.0
  9
$USERR2
 40
0.0
  9
$USERR3
 40
0.0
  9
$USERR4
 40
0.0
  9
$USERR5
 40
0.0
  9
$WORLDVIEW
 70
     1
  9
$SHADEDGE
 70
     3
  9
$SHADEDIF
 70
    70
  9
$TILEMODE
 70
     1
  9
$MAXACTVP
 70
    64
  9
$PINSBASE
 10
0.0
 20
0.0
 30
0.0
  9
$PLIMCHECK
 70
     0
  9
$PEXTMIN
 10
1.000000000000000E+20
 20
1.000000000000000E+20
 30
1.000000000000000E+20
  9
$PEXTMAX
 10
-1.000000000000000E+20
 20
-1.000000000000000E+20
 30
-1.000000000000000E+20
  9
$PLIMMIN
 10
0.0
 20
0.0
  9
$PLIMMAX
 10
12.0
 20
9.0
  9
$UNITMODE
 70
     0
  9
$VISRETAIN
 70
     1
  9
$PLINEGEN
 70
     0
  9
$PSLTSCALE
 70
     1
  9
$TREEDEPTH
 70
  3020
  9
$CMLSTYLE
  2
Standard
  9
$CMLJUST
 70
     0
  9
$CMLSCALE
 40
1.0
  9
$PROXYGRAPHICS
 70
     1
  9
$MEASUREMENT
 70
     0
  9
$CELWEIGHT
370
    -1
  9
$ENDCAPS
280
     0
  9
$JOINSTYLE
280
     0
  9
$LWDISPLAY
290
     0
  9
$INSUNITS
 70
     4
  9
$HYPERLINKBASE
  1

  9
$STYLESHEET
  1

  9
$XEDIT
290
     1
  9
$CEPSNTYPE
380
     0
  9
$PSTYLEMODE
290
     1
  9
$FINGERPRINTGUID
  2
{49E85C2F-CDE4-4843-AD1F-7F16316CCBF5}
  9
$VERSIONGUID
  2
{FAEB1C32-E019-11D5-929B-00C0DF256EC4}
  9
$EXTNAMES
290
     1
  9
$PSVPSCALE
 40
0.0
  9
$OLESTARTUP
290
     0
  0
ENDSEC
  0
SECTION
  2
CLASSES
  0
CLASS
  1
ACDBDICTIONARYWDFLT
  2
AcDbDictionaryWithDefault
  3
ObjectDBX Classes
 90
        0
280
     0
281
     0
  0
CLASS
  1
VISUALSTYLE
  2
AcDbVisualStyle
  3
ObjectDBX Classes
 90
     4095
280
     0
281
     0
  0
CLASS
  1
MATERIAL
  2
AcDbMaterial
  3
ObjectDBX Classes
 90
     1153
280
     0
281
     0
  0
CLASS
  1
SCALE
  2
AcDbScale
  3
ObjectDBX Classes
 90
     1153
280
     0
281
     0
  0
CLASS
  1
TABLESTYLE
  2
AcDbTableStyle
  3
ObjectDBX Classes
 90
     4095
280
     0
281
     0
  0
CLASS
  1
MLEADERSTYLE
  2
AcDbMLeaderStyle
  3
ACDB_MLEADERSTYLE_CLASS
 90
     4095
280
     0
281
     0
  0
CLASS
  1
SUN
  2
AcDbSun
  3
SCENEOE
 90
     1153
280
     0
281
     0
  0
CLASS
  1
DICTIONARYVAR
  2
AcDbDictionaryVar
  3
ObjectDBX Classes
 90
        0
280
     0
281
     0
  0
CLASS
  1
ACDBPLACEHOLDER
  2
AcDbPlaceHolder
  3
ObjectDBX Classes
 90
        0
280
     0
281
     0
  0
CLASS
  1
LAYOUT
  2
AcDbLayout
  3
ObjectDBX Classes
 90
        0
280
     0
281
     0
  0
ENDSEC
  0
SECTION
  2
TABLES
  0
TABLE
  2
VPORT
  5
8
102
{ACAD_XDICTIONARY
360
A3
102
}
330
0
100
AcDbSymbolTable
 70
     1
  0
VPORT
  5
29
330
8
100
AcDbSymbolTableRecord
100
AcDbViewportTableRecord
  2
*Active
 70
     0
 10
0.0
 20
0.0
 11
1.0
 21
1.0
 12
10.42990654205607
 22
4.5
 13
0.0
 23
0.0
 14
0.5
 24
0.5
 15
0.5
 25
0.5
 16
0.0
 26
0.0
 36
1.0
 17
0.0
 27
0.0
 37
0.0
 40
9.0
 41
1.972972972850329
 42
50.0
 43
0.0
 44
0.0
 50
0.0
 51
0.0
 71
     0
 72
   100
 73
     1
 74
     3
 75
     0
 76
     0
 77
     0
 78
     0
281
     0
 65
     1
110
0.0
120
0.0
130
0.0
111
1.0
121
0.0
131
0.0
112
0.0
122
1.0
132
0.0
 79
     0
146
0.0
  0
ENDTAB
  0
TABLE
  2
LTYPE
  5
5
330
0
100
AcDbSymbolTable
 70
     1
  0
LTYPE
  5
14
330
5
100
AcDbSymbolTableRecord
100
AcDbLinetypeTableRecord
  2
ByBlock
 70
     0
  3

 72
    65
 73
     0
 40
0.0
  0
LTYPE
  5
15
330
5
100
AcDbSymbolTableRecord
100
AcDbLinetypeTableRecord
  2
ByLayer
 70
     0
  3

 72
    65
 73
     0
 40
0.0
  0
LTYPE
  5
16
330
5
100
AcDbSymbolTableRecord
100
AcDbLinetypeTableRecord
  2
Continuous
 70
     0
  3
Solid line
 72
    65
 73
     0
 40
0.0
  0
ENDTAB
  0
TABLE
  2
LAYER
  5
2
330
0
100
AcDbSymbolTable
 70
     2
  0
LAYER
  5
10
330
2
100
AcDbSymbolTableRecord
100
AcDbLayerTableRecord
  2
0
 70
     0
 62
     7
  6
Continuous
370
    -3
390
F
  0
LAYER
  5
6F
330
2
100
AcDbSymbolTableRecord
100
AcDbLayerTableRecord
  2
layer 1
 70
     0
 62
     7
  6
Continuous
370
    -3
390
F
  0
ENDTAB
  0
TABLE
  2
STYLE
  5
3
330
0
100
AcDbSymbolTable
 70
     1
  0
STYLE
  5
11
330
3
100
AcDbSymbolTableRecord
100
AcDbTextStyleTableRecord
  2
Standard
 70
     0
 40
0.0
 41
1.0
 50
0.0
 71
     0
 42
0.2
  3
txt
  4

  0
ENDTAB
  0
TABLE
  2
VIEW
  5
6
330
0
100
AcDbSymbolTable
 70
     0
  0
ENDTAB
  0
TABLE
  2
UCS
  5
7
330
0
100
AcDbSymbolTable
 70
     0
  0
ENDTAB
  0
TABLE
  2
APPID
  5
9
330
0
100
AcDbSymbolTable
 70
     3
  0
APPID
  5
12
330
9
100
AcDbSymbolTableRecord
100
AcDbRegAppTableRecord
  2
ACAD
 70
     0
  0
APPID
  5
6E
330
9
100
AcDbSymbolTableRecord
100
AcDbRegAppTableRecord
  2
ODA
 70
     0
  0
APPID
  5
DD
330
9
100
AcDbSymbolTableRecord
100
AcDbRegAppTableRecord
  2
ACAD_MLEADERVER
 70
     0
  0
ENDTAB
  0
TABLE
  2
DIMSTYLE
  5
A
330
0
100
AcDbSymbolTable
 70
     1
100
AcDbDimStyleTable
  0
DIMSTYLE
105
27
330
A
100
AcDbSymbolTableRecord
100
AcDbDimStyleTableRecord
  2
Standard
 70
     0
178
     0
340
11
  0
ENDTAB
  0
TABLE
  2
BLOCK_RECORD
  5
1
330
0
100
AcDbSymbolTable
 70
     1
  0
BLOCK_RECORD
  5
1F
330
1
100
AcDbSymbolTableRecord
100
AcDbBlockTableRecord
  2
*Model_Space
340
22
  0
BLOCK_RECORD
  5
1B
330
1
100
AcDbSymbolTableRecord
100
AcDbBlockTableRecord
  2
*Paper_Space
340
1E
  0
BLOCK_RECORD
  5
23
330
1
100
AcDbSymbolTableRecord
100
AcDbBlockTableRecord
  2
*Paper_Space0
340
26
  0
ENDTAB
  0
ENDSEC
  0
SECTION
  2
BLOCKS
  0
BLOCK
  5
20
330
1F
100
AcDbEntity
  8
0
100
AcDbBlockBegin
  2
*Model_Space
 70
     0
 10
0.0
 20
0.0
 30
0.0
  3
*Model_Space
  1

  0
ENDBLK
  5
21
330
1F
100
AcDbEntity
  8
0
100
AcDbBlockEnd
  0
BLOCK
  5
1C
330
1B
100
AcDbEntity
 67
     1
  8
0
100
AcDbBlockBegin
  2
*Paper_Space
 70
     0
 10
0.0
 20
0.0
 30
0.0
  3
*Paper_Space
  1

  0
ENDBLK
  5
1D
330
1B
100
AcDbEntity
 67
     1
  8
0
100
AcDbBlockEnd
  0
BLOCK
  5
24
330
23
100
AcDbEntity
  8
0
100
AcDbBlockBegin
  2
*Paper_Space0
 70
     0
 10
0.0
 20
0.0
 30
0.0
  3
*Paper_Space0
  1

  0
ENDBLK
  5
25
330
23
100
AcDbEntity
  8
0
100
AcDbBlockEnd
  0
ENDSEC
  0
SECTION
  2
ENTITIES
  0
SPLINE
  5
70
330
1F
100
AcDbEntity
  8
layer 1
 62
   250
370
     9
100
AcDbSpline
210
0.0
220
0.0
230
1.0
 70
    11
 71
     3
 72
  1092
 73
  1088
 74
     0
 42
0.000000001
 43
0.0000000001
 40
0.0
 40
0.0
 40
0.0
 40
0.0
 40
0.0036630036630037
 40
0.0036630036630037
 40
0.0036630036630037
 40
0.0036630036630037
 40
0.0073260073260073
 40
0.0073260073260073
 40
0.0073260073260073
 40
0.0073260073260073
 40
0.010989010989011
 40
0.010989010989011
 40
0.010989010989011
 40
0.010989010989011
 40
0.0146520146520147
 40
0.0146520146520147
 40
0.0146520146520147
 40
0.0146520146520147
 40
0.0183150183150183
 40
0.0183150183150183
 40
0.0183150183150183
 40
0.0183150183150183
 40
0.021978021978022
 40
0.021978021978022
 40
0.021978021978022
 40
0.021978021978022
 40
0.0256410256410256
 40
0.0256410256410256
 40
0.0256410256410256
 40
0.0256410256410256
 40
0.0293040293040293
 40
0.0293040293040293
 40
0.0293040293040293
 40
0.0293040293040293
 40
0.032967032967033
 40
0.032967032967033
 40
0.032967032967033
 40
0.032967032967033
 40
0.0366300366300366
 40
0.0366300366300366
 40
0.0366300366300366
 40
0.0366300366300366
 40
0.0402930402930403
 40
0.0402930402930403
 40
0.0402930402930403
 40
0.0402930402930403
 40
0.043956043956044
 40
0.043956043956044
 40
0.043956043956044
 40
0.043956043956044
 40
0.0476190476190476
 40
0.0476190476190476
 40
0.0476190476190476
 40
0.0476190476190476
 40
0.0512820512820513
 40
0.0512820512820513
 40
0.0512820512820513
 40
0.0512820512820513
 40
0.0549450549450549
 40
0.0549450549450549
 40
0.0549450549450549
 40
0.0549450549450549
 40
0.0586080586080586
 40
0.0586080586080586
 40
0.0586080586080586
 40
0.0586080586080586
 40
0.0622710622710623
 40
0.0622710622710623
 40
0.0622710622710623
 40
0.0622710622710623
 40
0.0659340659340659
 40
0.0659340659340659
 40
0.0659340659340659
 40
0.0659340659340659
 40
0.0695970695970696
 40
0.0695970695970696
 40
0.0695970695970696
 40
0.0695970695970696
 40
0.0732600732600733
 40
0.0732600732600733
 40
0.0732600732600733
 40
0.0732600732600733
 40
0.0769230769230769
 40
0.0769230769230769
 40
0.0769230769230769
 40
0.0769230769230769
 40
0.0805860805860806
 40
0.0805860805860806
 40
0.0805860805860806
 40
0.0805860805860806
 40
0.0842490842490843
 40
0.0842490842490843
 40
0.0842490842490843
 40
0.0842490842490843
 40
0.0879120879120879
 40
0.0879120879120879
 40
0.0879120879120879
 40
0.0879120879120879
 40
0.0915750915750916
 40
0.0915750915750916
 40
0.0915750915750916
 40
0.0915750915750916
 40
0.0952380952380952
 40
0.0952380952380952
 40
0.0952380952380952
 40
0.0952380952380952
 40
0.0989010989010989
 40
0.0989010989010989
 40
0.0989010989010989
 40
0.0989010989010989
 40
0.1025641025641026
 40
0.1025641025641026
 40
0.1025641025641026
 40
0.1025641025641026
 40
0.1062271062271062
 40
0.1062271062271062
 40
0.1062271062271062
 40
0.1062271062271062
 40
0.1098901098901099
 40
0.1098901098901099
 40
0.1098901098901099
 40
0.1098901098901099
 40
0.1135531135531136
 40
0.1135531135531136
 40
0.1135531135531136
 40
0.1135531135531136
 40
0.1172161172161172
 40
0.1172161172161172
 40
0.1172161172161172
 40
0.1172161172161172
 40
0.1208791208791209
 40
0.1208791208791209
 40
0.1208791208791209
 40
0.1208791208791209
 40
0.1245421245421245
 40
0.1245421245421245
 40
0.1245421245421245
 40
0.1245421245421245
 40
0.1282051282051282
 40
0.1282051282051282
 40
0.1282051282051282
 40
0.1282051282051282
 40
0.1318681318681319
 40
0.1318681318681319
 40
0.1318681318681319
 40
0.1318681318681319
 40
0.1355311355311355
 40
0.1355311355311355
 40
0.1355311355311355
 40
0.1355311355311355
 40
0.1391941391941392
 40
0.1391941391941392
 40
0.1391941391941392
 40
0.1391941391941392
 40
0.1428571428571428
 40
0.1428571428571428
 40
0.1428571428571428
 40
0.1428571428571428
 40
0.1465201465201465
 40
0.1465201465201465
 40
0.1465201465201465
 40
0.1465201465201465
 40
0.1501831501831502
 40
0.1501831501831502
 40
0.1501831501831502
 40
0.1501831501831502
 40
0.1538461538461539
 40
0.1538461538461539
 40
0.1538461538461539
 40
0.1538461538461539
 40
0.1575091575091575
 40
0.1575091575091575
 40
0.1575091575091575
 40
0.1575091575091575
 40
0.1611721611721612
 40
0.1611721611721612
 40
0.1611721611721612
 40
0.1611721611721612
 40
0.1648351648351648
 40
0.1648351648351648
 40
0.1648351648351648
 40
0.1648351648351648
 40
0.1684981684981685
 40
0.1684981684981685
 40
0.1684981684981685
 40
0.1684981684981685
 40
0.1721611721611722
 40
0.1721611721611722
 40
0.1721611721611722
 40
0.1721611721611722
 40
0.1758241758241758
 40
0.1758241758241758
 40
0.1758241758241758
 40
0.1758241758241758
 40
0.1794871794871795
 40
0.1794871794871795
 40
0.1794871794871795
 40
0.1794871794871795
 40
0.1831501831501831
 40
0.1831501831501831
 40
0.1831501831501831
 40
0.1831501831501831
 40
0.1868131868131868
 40
0.1868131868131868
 40
0.1868131868131868
 40
0.1868131868131868
 40
0.1904761904761905
 40
0.1904761904761905
 40
0.1904761904761905
 40
0.1904761904761905
 40
0.1941391941391941
 40
0.1941391941391941
 40
0.1941391941391941
 40
0.1941391941391941
 40
0.1978021978021978
 40
0.1978021978021978
 40
0.1978021978021978
 40
0.1978021978021978
 40
0.2014652014652015
 40
0.2014652014652015
 40
0.2014652014652015
 40
0.2014652014652015
 40
0.2051282051282051
 40
0.2051282051282051
 40
0.2051282051282051
 40
0.2051282051282051
 40
0.2087912087912088
 40
0.2087912087912088
 40
0.2087912087912088
 40
0.2087912087912088
 40
0.2124542124542124
 40
0.2124542124542124
 40
0.2124542124542124
 40
0.2124542124542124
 40
0.2161172161172161
 40
0.2161172161172161
 40
0.2161172161172161
 40
0.2161172161172161
 40
0.2197802197802198
 40
0.2197802197802198
 40
0.2197802197802198
 40
0.2197802197802198
 40
0.2234432234432235
 40
0.2234432234432235
 40
0.2234432234432235
 40
0.2234432234432235
 40
0.2271062271062271
 40
0.2271062271062271
 40
0.2271062271062271
 40
0.2271062271062271
 40
0.2307692307692308
 40
0.2307692307692308
 40
0.2307692307692308
 40
0.2307692307692308
 40
0.2344322344322344
 40
0.2344322344322344
 40
0.2344322344322344
 40
0.2344322344322344
 40
0.2380952380952381
 40
0.2380952380952381
 40
0.2380952380952381
 40
0.2380952380952381
 40
0.2417582417582418
 40
0.2417582417582418
 40
0.2417582417582418
 40
0.2417582417582418
 40
0.2454212454212454
 40
0.2454212454212454
 40
0.2454212454212454
 40
0.2454212454212454
 40
0.2490842490842491
 40
0.2490842490842491
 40
0.2490842490842491
 40
0.2490842490842491
 40
0.2527472527472527
 40
0.2527472527472527
 40
0.2527472527472527
 40
0.2527472527472527
 40
0.2564102564102564
 40
0.2564102564102564
 40
0.2564102564102564
 40
0.2564102564102564
 40
0.2600732600732601
 40
0.2600732600732601
 40
0.2600732600732601
 40
0.2600732600732601
 40
0.2637362637362637
 40
0.2637362637362637
 40
0.2637362637362637
 40
0.2637362637362637
 40
0.2673992673992674
 40
0.2673992673992674
 40
0.2673992673992674
 40
0.2673992673992674
 40
0.271062271062271
 40
0.271062271062271
 40
0.271062271062271
 40
0.271062271062271
 40
0.2747252747252747
 40
0.2747252747252747
 40
0.2747252747252747
 40
0.2747252747252747
 40
0.2783882783882784
 40
0.2783882783882784
 40
0.2783882783882784
 40
0.2783882783882784
 40
0.282051282051282
 40
0.282051282051282
 40
0.282051282051282
 40
0.282051282051282
 40
0.2857142857142857
 40
0.2857142857142857
 40
0.2857142857142857
 40
0.2857142857142857
 40
0.2893772893772894
 40
0.2893772893772894
 40
0.2893772893772894
 40
0.2893772893772894
 40
0.2930402930402931
 40
0.2930402930402931
 40
0.2930402930402931
 40
0.2930402930402931
 40
0.2967032967032967
 40
0.2967032967032967
 40
0.2967032967032967
 40
0.2967032967032967
 40
0.3003663003663004
 40
0.3003663003663004
 40
0.3003663003663004
 40
0.3003663003663004
 40
0.304029304029304
 40
0.304029304029304
 40
0.304029304029304
 40
0.304029304029304
 40
0.3076923076923077
 40
0.3076923076923077
 40
0.3076923076923077
 40
0.3076923076923077
 40
0.3113553113553114
 40
0.3113553113553114
 40
0.3113553113553114
 40
0.3113553113553114
 40
0.315018315018315
 40
0.315018315018315
 40
0.315018315018315
 40
0.315018315018315
 40
0.3186813186813187
 40
0.3186813186813187
 40
0.3186813186813187
 40
0.3186813186813187
 40
0.3223443223443224
 40
0.3223443223443224
 40
0.3223443223443224
 40
0.3223443223443224
 40
0.326007326007326
 40
0.326007326007326
 40
0.326007326007326
 40
0.326007326007326
 40
0.3296703296703297
 40
0.3296703296703297
 40
0.3296703296703297
 40
0.3296703296703297
 40
0.3333333333333333
 40
0.3333333333333333
 40
0.3333333333333333
 40
0.3333333333333333
 40
0.336996336996337
 40
0.336996336996337
 40
0.336996336996337
 40
0.336996336996337
 40
0.3406593406593407
 40
0.3406593406593407
 40
0.3406593406593407
 40
0.3406593406593407
 40
0.3443223443223443
 40
0.3443223443223443
 40
0.3443223443223443
 40
0.3443223443223443
 40
0.347985347985348
 40
0.347985347985348
 40
0.347985347985348
 40
0.347985347985348
 40
0.3516483516483517
 40
0.3516483516483517
 40
0.3516483516483517
 40
0.3516483516483517
 40
0.3553113553113553
 40
0.3553113553113553
 40
0.3553113553113553
 40
0.3553113553113553
 40
0.358974358974359
 40
0.358974358974359
 40
0.358974358974359
 40
0.358974358974359
 40
0.3626373626373626
 40
0.3626373626373626
 40
0.3626373626373626
 40
0.3626373626373626
 40
0.3663003663003663
 40
0.3663003663003663
 40
0.3663003663003663
 40
0.3663003663003663
 40
0.36996336996337
 40
0.36996336996337
 40
0.36996336996337
 40
0.36996336996337
 40
0.3736263736263736
 40
0.3736263736263736
 40
0.3736263736263736
 40
0.3736263736263736
 40
0.3772893772893773
 40
0.3772893772893773
 40
0.3772893772893773
 40
0.3772893772893773
 40
0.3809523809523809
 40
0.3809523809523809
 40
0.3809523809523809
 40
0.3809523809523809
 40
0.3846153846153846
 40
0.3846153846153846
 40
0.3846153846153846
 40
0.3846153846153846
 40
0.3882783882783883
 40
0.3882783882783883
 40
0.3882783882783883
 40
0.3882783882783883
 40
0.3919413919413919
 40
0.3919413919413919
 40
0.3919413919413919
 40
0.3919413919413919
 40
0.3956043956043956
 40
0.3956043956043956
 40
0.3956043956043956
 40
0.3956043956043956
 40
0.3992673992673993
 40
0.3992673992673993
 40
0.3992673992673993
 40
0.3992673992673993
 40
0.4029304029304029
 40
0.4029304029304029
 40
0.4029304029304029
 40
0.4029304029304029
 40
0.4065934065934066
 40
0.4065934065934066
 40
0.4065934065934066
 40
0.4065934065934066
 40
0.4102564102564102
 40
0.4102564102564102
 40
0.4102564102564102
 40
0.4102564102564102
 40
0.4139194139194139
 40
0.4139194139194139
 40
0.4139194139194139
 40
0.4139194139194139
 40
0.4175824175824176
 40
0.4175824175824176
 40
0.4175824175824176
 40
0.4175824175824176
 40
0.4212454212454212
 40
0.4212454212454212
 40
0.4212454212454212
 40
0.4212454212454212
 40
0.4249084249084249
 40
0.4249084249084249
 40
0.4249084249084249
 40
0.4249084249084249
 40
0.4285714285714285
 40
0.4285714285714285
 40
0.4285714285714285
 40
0.4285714285714285
 40
0.4322344322344323
 40
0.4322344322344323
 40
0.4322344322344323
 40
0.4322344322344323
 40
0.4358974358974359
 40
0.4358974358974359
 40
0.4358974358974359
 40
0.4358974358974359
 40
0.4395604395604396
 40
0.4395604395604396
 40
0.4395604395604396
 40
0.4395604395604396
 40
0.4432234432234432
 40
0.4432234432234432
 40
0.4432234432234432
 40
0.4432234432234432
 40
0.4468864468864469
 40
0.4468864468864469
 40
0.4468864468864469
 40
0.4468864468864469
 40
0.4505494505494506
 40
0.4505494505494506
 40
0.4505494505494506
 40
0.4505494505494506
 40
0.4542124542124542
 40
0.4542124542124542
 40
0.4542124542124542
 40
0.4542124542124542
 40
0.4578754578754579
 40
0.4578754578754579
 40
0.4578754578754579
 40
0.4578754578754579
 40
0.4615384615384616
 40
0.4615384615384616
 40
0.4615384615384616
 40
0.4615384615384616
 40
0.4652014652014652
 40
0.4652014652014652
 40
0.4652014652014652
 40
0.4652014652014652
 40
0.4688644688644689
 40
0.4688644688644689
 40
0.4688644688644689
 40
0.4688644688644689
 40
0.4725274725274725
 40
0.4725274725274725
 40
0.4725274725274725
 40
0.4725274725274725
 40
0.4761904761904762
 40
0.4761904761904762
 40
0.4761904761904762
 40
0.4761904761904762
 40
0.4798534798534799
 40
0.4798534798534799
 40
0.4798534798534799
 40
0.4798534798534799
 40
0.4835164835164835
 40
0.4835164835164835
 40
0.4835164835164835
 40
0.4835164835164835
 40
0.4871794871794872
 40
0.4871794871794872
 40
0.4871794871794872
 40
0.4871794871794872
 40
0.4908424908424908
 40
0.4908424908424908
 40
0.4908424908424908
 40
0.4908424908424908
 40
0.4945054945054945
 40
0.4945054945054945
 40
0.4945054945054945
 40
0.4945054945054945
 40
0.4981684981684982
 40
0.4981684981684982
 40
0.4981684981684982
 40
0.4981684981684982
 40
0.5018315018315018
 40
0.5018315018315018
 40
0.5018315018315018
 40
0.5018315018315018
 40
0.5054945054945055
 40
0.5054945054945055
 40
0.5054945054945055
 40
0.5054945054945055
 40
0.5091575091575091
 40
0.5091575091575091
 40
0.5091575091575091
 40
0.5091575091575091
 40
0.5128205128205128
 40
0.5128205128205128
 40
0.5128205128205128
 40
0.5128205128205128
 40
0.5164835164835165
 40
0.5164835164835165
 40
0.5164835164835165
 40
0.5164835164835165
 40
0.5201465201465202
 40
0.5201465201465202
 40
0.5201465201465202
 40
0.5201465201465202
 40
0.5238095238095238
 40
0.5238095238095238
 40
0.5238095238095238
 40
0.5238095238095238
 40
0.5274725274725275
 40
0.5274725274725275
 40
0.5274725274725275
 40
0.5274725274725275
 40
0.5311355311355311
 40
0.5311355311355311
 40
0.5311355311355311
 40
0.5311355311355311
 40
0.5347985347985348
 40
0.5347985347985348
 40
0.5347985347985348
 40
0.5347985347985348
 40
0.5384615384615384
 40
0.5384615384615384
 40
0.5384615384615384
 40
0.5384615384615384
 40
0.5421245421245421
 40
0.5421245421245421
 40
0.5421245421245421
 40
0.5421245421245421
 40
0.5457875457875457
 40
0.5457875457875457
 40
0.5457875457875457
 40
0.5457875457875457
 40
0.5494505494505495
 40
0.5494505494505495
 40
0.5494505494505495
 40
0.5494505494505495
 40
0.5531135531135531
 40
0.5531135531135531
 40
0.5531135531135531
 40
0.5531135531135531
 40
0.5567765567765568
 40
0.5567765567765568
 40
0.5567765567765568
 40
0.5567765567765568
 40
0.5604395604395604
 40
0.5604395604395604
 40
0.5604395604395604
 40
0.5604395604395604
 40
0.5641025641025641
 40
0.5641025641025641
 40
0.5641025641025641
 40
0.5641025641025641
 40
0.5677655677655677
 40
0.5677655677655677
 40
0.5677655677655677
 40
0.5677655677655677
 40
0.5714285714285714
 40
0.5714285714285714
 40
0.5714285714285714
 40
0.5714285714285714
 40
0.575091575091575
 40
0.575091575091575
 40
0.575091575091575
 40
0.575091575091575
 40
0.5787545787545788
 40
0.5787545787545788
 40
0.5787545787545788
 40
0.5787545787545788
 40
0.5824175824175825
 40
0.5824175824175825
 40
0.5824175824175825
 40
0.5824175824175825
 40
0.5860805860805861
 40
0.5860805860805861
 40
0.5860805860805861
 40
0.5860805860805861
 40
0.5897435897435898
 40
0.5897435897435898
 40
0.5897435897435898
 40
0.5897435897435898
 40
0.5934065934065934
 40
0.5934065934065934
 40
0.5934065934065934
 40
0.5934065934065934
 40
0.5970695970695971
 40
0.5970695970695971
 40
0.5970695970695971
 40
0.5970695970695971
 40
0.6007326007326007
 40
0.6007326007326007
 40
0.6007326007326007
 40
0.6007326007326007
 40
0.6043956043956044
 40
0.6043956043956044
 40
0.6043956043956044
 40
0.6043956043956044
 40
0.608058608058608
 40
0.608058608058608
 40
0.608058608058608
 40
0.608058608058608
 40
0.6117216117216118
 40
0.6117216117216118
 40
0.6117216117216118
 40
0.6117216117216118
 40
0.6153846153846154
 40
0.6153846153846154
 40
0.6153846153846154
 40
0.6153846153846154
 40
0.6190476190476191
 40
0.6190476190476191
 40
0.6190476190476191
 40
0.6190476190476191
 40
0.6227106227106227
 40
0.6227106227106227
 40
0.6227106227106227
 40
0.6227106227106227
 40
0.6263736263736264
 40
0.6263736263736264
 40
0.6263736263736264
 40
0.6263736263736264
 40
0.63003663003663
 40
0.63003663003663
 40
0.63003663003663
 40
0.63003663003663
 40
0.6336996336996337
 40
0.6336996336996337
 40
0.6336996336996337
 40
0.6336996336996337
 40
0.6373626373626373
 40
0.6373626373626373
 40
0.6373626373626373
 40
0.6373626373626373
 40
0.6410256410256411
 40
0.6410256410256411
 40
0.6410256410256411
 40
0.6410256410256411
 40
0.6446886446886447
 40
0.6446886446886447
 40
0.6446886446886447
 40
0.6446886446886447
 40
0.6483516483516484
 40
0.6483516483516484
 40
0.6483516483516484
 40
0.6483516483516484
 40
0.652014652014652
 40
0.652014652014652
 40
0.652014652014652
 40
0.652014652014652
 40
0.6556776556776557
 40
0.6556776556776557
 40
0.6556776556776557
 40
0.6556776556776557
 40
0.6593406593406593
 40
0.6593406593406593
 40
0.6593406593406593
 40
0.6593406593406593
 40
0.663003663003663
 40
0.663003663003663
 40
0.663003663003663
 40
0.663003663003663
 40
0.6666666666666666
 40
0.6666666666666666
 40
0.6666666666666666
 40
0.6666666666666666
 40
0.6703296703296703
 40
0.6703296703296703
 40
0.6703296703296703
 40
0.6703296703296703
 40
0.673992673992674
 40
0.673992673992674
 40
0.673992673992674
 40
0.673992673992674
 40
0.6776556776556777
 40
0.6776556776556777
 40
0.6776556776556777
 40
0.6776556776556777
 40
0.6813186813186813
 40
0.6813186813186813
 40
0.6813186813186813
 40
0.6813186813186813
 40
0.684981684981685
 40
0.684981684981685
 40
0.684981684981685
 40
0.684981684981685
 40
0.6886446886446886
 40
0.6886446886446886
 40
0.6886446886446886
 40
0.6886446886446886
 40
0.6923076923076923
 40
0.6923076923076923
 40
0.6923076923076923
 40
0.6923076923076923
 40
0.6959706959706959
 40
0.6959706959706959
 40
0.6959706959706959
 40
0.6959706959706959
 40
0.6996336996336996
 40
0.6996336996336996
 40
0.6996336996336996
 40
0.6996336996336996
 40
0.7032967032967034
 40
0.7032967032967034
 40
0.7032967032967034
 40
0.7032967032967034
 40
0.706959706959707
 40
0.706959706959707
 40
0.706959706959707
 40
0.706959706959707
 40
0.7106227106227107
 40
0.7106227106227107
 40
0.7106227106227107
 40
0.7106227106227107
 40
0.7142857142857143
 40
0.7142857142857143
 40
0.7142857142857143
 40
0.7142857142857143
 40
0.717948717948718
 40
0.717948717948718
 40
0.717948717948718
 40
0.717948717948718
 40
0.7216117216117216
 40
0.7216117216117216
 40
0.7216117216117216
 40
0.7216117216117216
 40
0.7252747252747253
 40
0.7252747252747253
 40
0.7252747252747253
 40
0.7252747252747253
 40
0.7289377289377289
 40
0.7289377289377289
 40
0.7289377289377289
 40
0.7289377289377289
 40
0.7326007326007326
 40
0.7326007326007326
 40
0.7326007326007326
 40
0.7326007326007326
 40
0.7362637362637363
 40
0.7362637362637363
 40
0.7362637362637363
 40
0.7362637362637363
 40
0.73992673992674
 40
0.73992673992674
 40
0.73992673992674
 40
0.73992673992674
 40
0.7435897435897436
 40
0.7435897435897436
 40
0.7435897435897436
 40
0.7435897435897436
 40
0.7472527472527473
 40
0.7472527472527473
 40
0.7472527472527473
 40
0.7472527472527473
 40
0.7509157509157509
 40
0.7509157509157509
 40
0.7509157509157509
 40
0.7509157509157509
 40
0.7545787545787546
 40
0.7545787545787546
 40
0.7545787545787546
 40
0.7545787545787546
 40
0.7582417582417582
 40
0.7582417582417582
 40
0.7582417582417582
 40
0.7582417582417582
 40
0.7619047619047619
 40
0.7619047619047619
 40
0.7619047619047619
 40
0.7619047619047619
 40
0.7655677655677655
 40
0.7655677655677655
 40
0.7655677655677655
 40
0.7655677655677655
 40
0.7692307692307693
 40
0.7692307692307693
 40
0.7692307692307693
 40
0.7692307692307693
 40
0.7728937728937729
 40
0.7728937728937729
 40
0.7728937728937729
 40
0.7728937728937729
 40
0.7765567765567766
 40
0.7765567765567766
 40
0.7765567765567766
 40
0.7765567765567766
 40
0.7802197802197802
 40
0.7802197802197802
 40
0.7802197802197802
 40
0.7802197802197802
 40
0.7838827838827839
 40
0.7838827838827839
 40
0.7838827838827839
 40
0.7838827838827839
 40
0.7875457875457875
 40
0.7875457875457875
 40
0.7875457875457875
 40
0.7875457875457875
 40
0.7912087912087912
 40
0.7912087912087912
 40
0.7912087912087912
 40
0.7912087912087912
 40
0.7948717948717948
 40
0.7948717948717948
 40
0.7948717948717948
 40
0.7948717948717948
 40
0.7985347985347986
 40
0.7985347985347986
 40
0.7985347985347986
 40
0.7985347985347986
 40
0.8021978021978022
 40
0.8021978021978022
 40
0.8021978021978022
 40
0.8021978021978022
 40
0.8058608058608059
 40
0.8058608058608059
 40
0.8058608058608059
 40
0.8058608058608059
 40
0.8095238095238095
 40
0.8095238095238095
 40
0.8095238095238095
 40
0.8095238095238095
 40
0.8131868131868132
 40
0.8131868131868132
 40
0.8131868131868132
 40
0.8131868131868132
 40
0.8168498168498168
 40
0.8168498168498168
 40
0.8168498168498168
 40
0.8168498168498168
 40
0.8205128205128205
 40
0.8205128205128205
 40
0.8205128205128205
 40
0.8205128205128205
 40
0.8241758241758241
 40
0.8241758241758241
 40
0.8241758241758241
 40
0.8241758241758241
 40
0.8278388278388278
 40
0.8278388278388278
 40
0.8278388278388278
 40
0.8278388278388278
 40
0.8315018315018315
 40
0.8315018315018315
 40
0.8315018315018315
 40
0.8315018315018315
 40
0.8351648351648352
 40
0.8351648351648352
 40
0.8351648351648352
 40
0.8351648351648352
 40
0.8388278388278388
 40
0.8388278388278388
 40
0.8388278388278388
 40
0.8388278388278388
 40
0.8424908424908425
 40
0.8424908424908425
 40
0.8424908424908425
 40
0.8424908424908425
 40
0.8461538461538461
 40
0.8461538461538461
 40
0.8461538461538461
 40
0.8461538461538461
 40
0.8498168498168498
 40
0.8498168498168498
 40
0.8498168498168498
 40
0.8498168498168498
 40
0.8534798534798534
 40
0.8534798534798534
 40
0.8534798534798534
 40
0.8534798534798534
 40
0.8571428571428571
 40
0.8571428571428571
 40
0.8571428571428571
 40
0.8571428571428571
 40
0.8608058608058609
 40
0.8608058608058609
 40
0.8608058608058609
 40
0.8608058608058609
 40
0.8644688644688645
 40
0.8644688644688645
 40
0.8644688644688645
 40
0.8644688644688645
 40
0.8681318681318682
 40
0.8681318681318682
 40
0.8681318681318682
 40
0.8681318681318682
 40
0.8717948717948718
 40
0.8717948717948718
 40
0.8717948717948718
 40
0.8717948717948718
 40
0.8754578754578755
 40
0.8754578754578755
 40
0.8754578754578755
 40
0.8754578754578755
 40
0.8791208791208791
 40
0.8791208791208791
 40
0.8791208791208791
 40
0.8791208791208791
 40
0.8827838827838828
 40
0.8827838827838828
 40
0.8827838827838828
 40
0.8827838827838828
 40
0.8864468864468864
 40
0.8864468864468864
 40
0.8864468864468864
 40
0.8864468864468864
 40
0.8901098901098901
 40
0.8901098901098901
 40
0.8901098901098901
 40
0.8901098901098901
 40
0.8937728937728938
 40
0.8937728937728938
 40
0.8937728937728938
 40
0.8937728937728938
 40
0.8974358974358975
 40
0.8974358974358975
 40
0.8974358974358975
 40
0.8974358974358975
 40
0.9010989010989011
 40
0.9010989010989011
 40
0.9010989010989011
 40
0.9010989010989011
 40
0.9047619047619048
 40
0.9047619047619048
 40
0.9047619047619048
 40
0.9047619047619048
 40
0.9084249084249084
 40
0.9084249084249084
 40
0.9084249084249084
 40
0.9084249084249084
 40
0.9120879120879121
 40
0.9120879120879121
 40
0.9120879120879121
 40
0.9120879120879121
 40
0.9157509157509157
 40
0.9157509157509157
 40
0.9157509157509157
 40
0.9157509157509157
 40
0.9194139194139194
 40
0.9194139194139194
 40
0.9194139194139194
 40
0.9194139194139194
 40
0.9230769230769231
 40
0.9230769230769231
 40
0.9230769230769231
 40
0.9230769230769231
 40
0.9267399267399268
 40
0.9267399267399268
 40
0.9267399267399268
 40
0.9267399267399268
 40
0.9304029304029304
 40
0.9304029304029304
 40
0.9304029304029304
 40
0.9304029304029304
 40
0.9340659340659341
 40
0.9340659340659341
 40
0.9340659340659341
 40
0.9340659340659341
 40
0.9377289377289377
 40
0.9377289377289377
 40
0.9377289377289377
 40
0.9377289377289377
 40
0.9413919413919414
 40
0.9413919413919414
 40
0.9413919413919414
 40
0.9413919413919414
 40
0.945054945054945
 40
0.945054945054945
 40
0.945054945054945
 40
0.945054945054945
 40
0.9487179487179487
 40
0.9487179487179487
 40
0.9487179487179487
 40
0.9487179487179487
 40
0.9523809523809523
 40
0.9523809523809523
 40
0.9523809523809523
 40
0.9523809523809523
 40
0.9560439560439561
 40
0.9560439560439561
 40
0.9560439560439561
 40
0.9560439560439561
 40
0.9597069597069597
 40
0.9597069597069597
 40
0.9597069597069597
 40
0.9597069597069597
 40
0.9633699633699634
 40
0.9633699633699634
 40
0.9633699633699634
 40
0.9633699633699634
 40
0.967032967032967
 40
0.967032967032967
 40
0.967032967032967
 40
0.967032967032967
 40
0.9706959706959707
 40
0.9706959706959707
 40
0.9706959706959707
 40
0.9706959706959707
 40
0.9743589743589743
 40
0.9743589743589743
 40
0.9743589743589743
 40
0.9743589743589743
 40
0.978021978021978
 40
0.978021978021978
 40
0.978021978021978
 40
0.978021978021978
 40
0.9816849816849816
 40
0.9816849816849816
 40
0.9816849816849816
 40
0.9816849816849816
 40
0.9853479853479854
 40
0.9853479853479854
 40
0.9853479853479854
 40
0.9853479853479854
 40
0.989010989010989
 40
0.989010989010989
 40
0.989010989010989
 40
0.989010989010989
 40
0.9926739926739927
 40
0.9926739926739927
 40
0.9926739926739927
 40
0.9926739926739927
 40
1.0
 40
1.0
 40
1.0
 40
1.0
 10
-84.0
 20
260.0
 30
0.0
 10
-84.0
 20
260.0
 30
0.0
 10
-84.0
 20
250.0
 30
0.0
 10
-84.0
 20
250.0
 30
0.0
 10
-84.0
 20
250.0
 30
0.0
 10
-84.0
 20
250.0
 30
0.0
 10
-87.0
 20
250.0
 30
0.0
 10
-87.0
 20
250.0
 30
0.0
 10
-87.0
 20
250.0
 30
0.0
 10
-87.0
 20
250.0
 30
0.0
 10
-87.0
 20
240.0
 30
0.0
 10
-87.0
 20
240.0
 30
0.0
 10
-87.0
 20
240.0
 30
0.0
 10
-87.0
 20
240.0
 30
0.0
 10
-84.0
 20
240.0
 30
0.0
 10
-84.0
 20
240.0
 30
0.0
 10
-84.0
 20
240.0
 30
0.0
 10
-84.0
 20
240.0
 30
0.0
 10
-84.0
 20
230.0
 30
0.0
 10
-84.0
 20
230.0
 30
0.0
 10
-84.0
 20
230.0
 30
0.0
 10
-84.0
 20
230.0
 30
0.0
 10
-87.0
 20
230.0
 30
0.0
 10
-87.0
 20
230.0
 30
0.0
 10
-87.0
 20
230.0
 30
0.0
 10
-87.0
 20
230.0
 30
0.0
 10
-87.0
 20
220.0
 30
0.0
 10
-87.0
 20
220.0
 30
0.0
 10
-87.0
 20
220.0
 30
0.0
 10
-87.0
 20
220.0
 30
0.0
 10
-84.0
 20
220.0
 30
0.0
 10
-84.0
 20
220.0
 30
0.0
 10
-84.0
 20
220.0
 30
0.0
 10
-84.0
 20
220.0
 30
0.0
 10
-84.0
 20
210.0
 30
0.0
 10
-84.0
 20
210.0
 30
0.0
 10
-84.0
 20
210.0
 30
0.0
 10
-84.0
 20
210.0
 30
0.0
 10
-87.0
 20
210.0
 30
0.0
 10
-87.0
 20
210.0
 30
0.0
 10
-87.0
 20
210.0
 30
0.0
 10
-87.0
 20
210.0
 30
0.0
 10
-87.0
 20
200.0
 30
0.0
 10
-87.0
 20
200.0
 30
0.0
 10
-87.0
 20
200.0
 30
0.0
 10
-87.0
 20
200.0
 30
0.0
 10
-84.0
 20
200.0
 30
0.0
 10
-84.0
 20
200.0
 30
0.0
 10
-84.0
 20
200.0
 30
0.0
 10
-84.0
 20
200.0
 30
0.0
 10
-84.0
 20
190.0
 30
0.0
 10
-84.0
 20
190.0
 30
0.0
 10
-84.0
 20
190.0
 30
0.0
 10
-84.0
 20
190.0
 30
0.0
 10
-87.0
 20
190.0
 30
0.0
 10
-87.0
 20
190.0
 30
0.0
 10
-87.0
 20
190.0
 30
0.0
 10
-87.0
 20
190.0
 30
0.0
 10
-87.0
 20
180.0
 30
0.0
 10
-87.0
 20
180.0
 30
0.0
 10
-87.0
 20
180.0
 30
0.0
 10
-87.0
 20
180.0
 30
0.0
 10
-84.0
 20
180.0
 30
0.0
 10
-84.0
 20
180.0
 30
0.0
 10
-84.0
 20
180.0
 30
0.0
 10
-84.0
 20
180.0
 30
0.0
 10
-84.0
 20
170.0
 30
0.0
 10
-84.0
 20
170.0
 30
0.0
 10
-84.0
 20
170.0
 30
0.0
 10
-84.0
 20
170.0
 30
0.0
 10
-87.0
 20
170.0
 30
0.0
 10
-87.0
 20
170.0
 30
0.0
 10
-87.0
 20
170.0
 30
0.0
 10
-87.0
 20
170.0
 30
0.0
 10
-87.0
 20
160.0
 30
0.0
 10
-87.0
 20
160.0
 30
0.0
 10
-87.0
 20
160.0
 30
0.0
 10
-87.0
 20
160.0
 30
0.0
 10
-84.0
 20
160.0
 30
0.0
 10
-84.0
 20
160.0
 30
0.0
 10
-84.0
 20
160.0
 30
0.0
 10
-84.0
 20
160.0
 30
0.0
 10
-84.0
 20
150.0
 30
0.0
 10
-84.0
 20
150.0
 30
0.0
 10
-84.0
 20
150.0
 30
0.0
 10
-84.0
 20
150.0
 30
0.0
 10
-87.0
 20
150.0
 30
0.0
 10
-87.0
 20
150.0
 30
0.0
 10
-87.0
 20
150.0
 30
0.0
 10
-87.0
 20
150.0
 30
0.0
 10
-87.0
 20
140.0
 30
0.0
 10
-87.0
 20
140.0
 30
0.0
 10
-87.0
 20
140.0
 30
0.0
 10
-87.0
 20
140.0
 30
0.0
 10
-84.0
 20
140.0
 30
0.0
 10
-84.0
 20
140.0
 30
0.0
 10
-84.0
 20
140.0
 30
0.0
 10
-84.0
 20
140.0
 30
0.0
 10
-84.0
 20
130.0
 30
0.0
 10
-84.0
 20
130.0
 30
0.0
 10
-84.0
 20
130.0
 30
0.0
 10
-84.0
 20
130.0
 30
0.0
 10
-87.0
 20
130.0
 30
0.0
 10
-87.0
 20
130.0
 30
0.0
 10
-87.0
 20
130.0
 30
0.0
 10
-87.0
 20
130.0
 30
0.0
 10
-87.0
 20
120.0
 30
0.0
 10
-87.0
 20
120.0
 30
0.0
 10
-87.0
 20
120.0
 30
0.0
 10
-87.0
 20
120.0
 30
0.0
 10
-84.0
 20
120.0
 30
0.0
 10
-84.0
 20
120.0
 30
0.0
 10
-84.0
 20
120.0
 30
0.0
 10
-84.0
 20
120.0
 30
0.0
 10
-84.0
 20
110.0
 30
0.0
 10
-84.0
 20
110.0
 30
0.0
 10
-84.0
 20
110.0
 30
0.0
 10
-84.0
 20
110.0
 30
0.0
 10
-87.0
 20
110.0
 30
0.0
 10
-87.0
 20
110.0
 30
0.0
 10
-87.0
 20
110.0
 30
0.0
 10
-87.0
 20
110.0
 30
0.0
 10
-87.0
 20
100.0
 30
0.0
 10
-87.0
 20
100.0
 30
0.0
 10
-87.0
 20
100.0
 30
0.0
 10
-87.0
 20
100.0
 30
0.0
 10
-84.0
 20
100.0
 30
0.0
 10
-84.0
 20
100.0
 30
0.0
 10
-84.0
 20
100.0
 30
0.0
 10
-84.0
 20
100.0
 30
0.0
 10
-84.0
 20
90.0
 30
0.0
 10
-84.0
 20
90.0
 30
0.0
 10
-84.0
 20
90.0
 30
0.0
 10
-84.0
 20
90.0
 30
0.0
 10
-87.0
 20
90.0
 30
0.0
 10
-87.0
 20
90.0
 30
0.0
 10
-87.0
 20
90.0
 30
0.0
 10
-87.0
 20
90.0
 30
0.0
 10
-87.0
 20
80.0
 30
0.0
 10
-87.0
 20
80.0
 30
0.0
 10
-87.0
 20
80.0
 30
0.0
 10
-87.0
 20
80.0
 30
0.0
 10
-84.0
 20
80.0
 30
0.0
 10
-84.0
 20
80.0
 30
0.0
 10
-84.0
 20
80.0
 30
0.0
 10
-84.0
 20
80.0
 30
0.0
 10
-84.0
 20
70.0
 30
0.0
 10
-84.0
 20
70.0
 30
0.0
 10
-84.0
 20
70.0
 30
0.0
 10
-84.0
 20
70.0
 30
0.0
 10
-87.0
 20
70.0
 30
0.0
 10
-87.0
 20
70.0
 30
0.0
 10
-87.0
 20
70.0
 30
0.0
 10
-87.0
 20
70.0
 30
0.0
 10
-87.0
 20
60.0
 30
0.0
 10
-87.0
 20
60.0
 30
0.0
 10
-87.0
 20
60.0
 30
0.0
 10
-87.0
 20
60.0
 30
0.0
 10
-87.0
 20
50.0
 30
0.0
 10
-87.0
 20
50.0
 30
0.0
 10
-87.0
 20
50.0
 30
0.0
 10
-87.0
 20
50.0
 30
0.0
 10
-84.0
 20
50.0
 30
0.0
 10
-84.0
 20
50.0
 30
0.0
 10
-84.0
 20
50.0
 30
0.0
 10
-84.0
 20
50.0
 30
0.0
 10
-84.0
 20
40.0
 30
0.0
 10
-84.0
 20
40.0
 30
0.0
 10
-84.0
 20
40.0
 30
0.0
 10
-84.0
 20
40.0
 30
0.0
 10
-87.0
 20
40.0
 30
0.0
 10
-87.0
 20
40.0
 30
0.0
 10
-87.0
 20
40.0
 30
0.0
 10
-87.0
 20
40.0
 30
0.0
 10
-87.0
 20
30.0
 30
0.0
 10
-87.0
 20
30.0
 30
0.0
 10
-87.0
 20
30.0
 30
0.0
 10
-87.0
 20
30.0
 30
0.0
 10
-84.0
 20
30.0
 30
0.0
 10
-84.0
 20
30.0
 30
0.0
 10
-84.0
 20
30.0
 30
0.0
 10
-84.0
 20
30.0
 30
0.0
 10
-84.0
 20
20.0
 30
0.0
 10
-84.0
 20
20.0
 30
0.0
 10
-84.0
 20
20.0
 30
0.0
 10
-84.0
 20
20.0
 30
0.0
 10
-87.0
 20
20.0
 30
0.0
 10
-87.0
 20
20.0
 30
0.0
 10
-87.0
 20
20.0
 30
0.0
 10
-87.0
 20
20.0
 30
0.0
 10
-87.0
 20
10.0
 30
0.0
 10
-87.0
 20
10.0
 30
0.0
 10
-87.0
 20
10.0
 30
0.0
 10
-87.0
 20
10.0
 30
0.0
 10
-84.0
 20
10.0
 30
0.0
 10
-84.0
 20
10.0
 30
0.0
 10
-84.0
 20
10.0
 30
0.0
 10
-84.0
 20
10.0
 30
0.0
 10
-84.0
 20
0.0
 30
0.0
 10
-84.0
 20
0.0
 30
0.0
 10
-84.0
 20
0.0
 30
0.0
 10
-84.0
 20
0.0
 30
0.0
 10
-87.0
 20
0.0
 30
0.0
 10
-87.0
 20
0.0
 30
0.0
 10
-87.0
 20
0.0
 30
0.0
 10
-87.0
 20
0.0
 30
0.0
 10
-87.0
 20
-10.0
 30
0.0
 10
-87.0
 20
-10.0
 30
0.0
 10
-87.0
 20
-10.0
 30
0.0
 10
-87.0
 20
-10.0
 30
0.0
 10
-84.0
 20
-10.0
 30
0.0
 10
-84.0
 20
-10.0
 30
0.0
 10
-84.0
 20
-10.0
 30
0.0
 10
-84.0
 20
-10.0
 30
0.0
 10
-84.0
 20
-20.0
 30
0.0
 10
-84.0
 20
-20.0
 30
0.0
 10
-84.0
 20
-20.0
 30
0.0
 10
-84.0
 20
-20.0
 30
0.0
 10
-87.0
 20
-20.0
 30
0.0
 10
-87.0
 20
-20.0
 30
0.0
 10
-87.0
 20
-20.0
 30
0.0
 10
-87.0
 20
-20.0
 30
0.0
 10
-87.0
 20
-30.0
 30
0.0
 10
-87.0
 20
-30.0
 30
0.0
 10
-87.0
 20
-30.0
 30
0.0
 10
-87.0
 20
-30.0
 30
0.0
 10
-84.0
 20
-30.0
 30
0.0
 10
-84.0
 20
-30.0
 30
0.0
 10
-84.0
 20
-30.0
 30
0.0
 10
-84.0
 20
-30.0
 30
0.0
 10
-84.0
 20
-40.0
 30
0.0
 10
-84.0
 20
-40.0
 30
0.0
 10
-84.0
 20
-40.0
 30
0.0
 10
-84.0
 20
-40.0
 30
0.0
 10
-76.4736
 20
-40.0
 30
0.0
 10
-76.4736
 20
-40.0
 30
0.0
 10
-76.4736
 20
-40.0
 30
0.0
 10
-76.4736
 20
-40.0
 30
0.0
 10
-76.4736
 20
-37.0
 30
0.0
 10
-76.4736
 20
-37.0
 30
0.0
 10
-76.4736
 20
-37.0
 30
0.0
 10
-76.4736
 20
-37.0
 30
0.0
 10
-65.9473
 20
-37.0
 30
0.0
 10
-65.9473
 20
-37.0
 30
0.0
 10
-65.9473
 20
-37.0
 30
0.0
 10
-65.9473
 20
-37.0
 30
0.0
 10
-65.9473
 20
-40.0
 30
0.0
 10
-65.9473
 20
-40.0
 30
0.0
 10
-65.9473
 20
-40.0
 30
0.0
 10
-65.9473
 20
-40.0
 30
0.0
 10
-55.421
 20
-40.0
 30
0.0
 10
-55.421
 20
-40.0
 30
0.0
 10
-55.421
 20
-40.0
 30
0.0
 10
-55.421
 20
-40.0
 30
0.0
 10
-55.421
 20
-37.0
 30
0.0
 10
-55.421
 20
-37.0
 30
0.0
 10
-55.421
 20
-37.0
 30
0.0
 10
-55.421
 20
-37.0
 30
0.0
 10
-44.8947
 20
-37.0
 30
0.0
 10
-44.8947
 20
-37.0
 30
0.0
 10
-44.8947
 20
-37.0
 30
0.0
 10
-44.8947
 20
-37.0
 30
0.0
 10
-44.8947
 20
-40.0
 30
0.0
 10
-44.8947
 20
-40.0
 30
0.0
 10
-44.8947
 20
-40.0
 30
0.0
 10
-44.8947
 20
-40.0
 30
0.0
 10
-34.3684
 20
-40.0
 30
0.0
 10
-34.3684
 20
-40.0
 30
0.0
 10
-34.3684
 20
-40.0
 30
0.0
 10
-34.3684
 20
-40.0
 30
0.0
 10
-34.3684
 20
-37.0
 30
0.0
 10
-34.3684
 20
-37.0
 30
0.0
 10
-34.3684
 20
-37.0
 30
0.0
 10
-34.3684
 20
-37.0
 30
0.0
 10
-23.8421
 20
-37.0
 30
0.0
 10
-23.8421
 20
-37.0
 30
0.0
 10
-23.8421
 20
-37.0
 30
0.0
 10
-23.8421
 20
-37.0
 30
0.0
 10
-23.8421
 20
-40.0
 30
0.0
 10
-23.8421
 20
-40.0
 30
0.0
 10
-23.8421
 20
-40.0
 30
0.0
 10
-23.8421
 20
-40.0
 30
0.0
 10
-13.3157
 20
-40.0
 30
0.0
 10
-13.3157
 20
-40.0
 30
0.0
 10
-13.3157
 20
-40.0
 30
0.0
 10
-13.3157
 20
-40.0
 30
0.0
 10
-13.3157
 20
-37.0
 30
0.0
 10
-13.3157
 20
-37.0
 30
0.0
 10
-13.3157
 20
-37.0
 30
0.0
 10
-13.3157
 20
-37.0
 30
0.0
 10
-2.7894
 20
-37.0
 30
0.0
 10
-2.7894
 20
-37.0
 30
0.0
 10
-2.7894
 20
-37.0
 30
0.0
 10
-2.7894
 20
-37.0
 30
0.0
 10
-2.7894
 20
-40.0
 30
0.0
 10
-2.7894
 20
-40.0
 30
0.0
 10
-2.7894
 20
-40.0
 30
0.0
 10
-2.7894
 20
-40.0
 30
0.0
 10
7.7369
 20
-40.0
 30
0.0
 10
7.7369
 20
-40.0
 30
0.0
 10
7.7369
 20
-40.0
 30
0.0
 10
7.7369
 20
-40.0
 30
0.0
 10
7.7369
 20
-37.0
 30
0.0
 10
7.7369
 20
-37.0
 30
0.0
 10
7.7369
 20
-37.0
 30
0.0
 10
7.7369
 20
-37.0
 30
0.0
 10
11.5
 20
-37.0
 30
0.0
 10
11.5
 20
-37.0
 30
0.0
 10
11.5
 20
-37.0
 30
0.0
 10
11.5
 20
-37.0
 30
0.0
 10
11.5
 20
-30.0
 30
0.0
 10
11.5
 20
-30.0
 30
0.0
 10
11.5
 20
-30.0
 30
0.0
 10
11.5
 20
-30.0
 30
0.0
 10
14.5
 20
-30.0
 30
0.0
 10
14.5
 20
-30.0
 30
0.0
 10
14.5
 20
-30.0
 30
0.0
 10
14.5
 20
-30.0
 30
0.0
 10
14.5
 20
-37.0
 30
0.0
 10
14.5
 20
-37.0
 30
0.0
 10
14.5
 20
-37.0
 30
0.0
 10
14.5
 20
-37.0
 30
0.0
 10
18.2632
 20
-37.0
 30
0.0
 10
18.2632
 20
-37.0
 30
0.0
 10
18.2632
 20
-37.0
 30
0.0
 10
18.2632
 20
-37.0
 30
0.0
 10
18.2632
 20
-40.0
 30
0.0
 10
18.2632
 20
-40.0
 30
0.0
 10
18.2632
 20
-40.0
 30
0.0
 10
18.2632
 20
-40.0
 30
0.0
 10
28.7895
 20
-40.0
 30
0.0
 10
28.7895
 20
-40.0
 30
0.0
 10
28.7895
 20
-40.0
 30
0.0
 10
28.7895
 20
-40.0
 30
0.0
 10
28.7895
 20
-37.0
 30
0.0
 10
28.7895
 20
-37.0
 30
0.0
 10
28.7895
 20
-37.0
 30
0.0
 10
28.7895
 20
-37.0
 30
0.0
 10
39.3158
 20
-37.0
 30
0.0
 10
39.3158
 20
-37.0
 30
0.0
 10
39.3158
 20
-37.0
 30
0.0
 10
39.3158
 20
-37.0
 30
0.0
 10
39.3158
 20
-40.0
 30
0.0
 10
39.3158
 20
-40.0
 30
0.0
 10
39.3158
 20
-40.0
 30
0.0
 10
39.3158
 20
-40.0
 30
0.0
 10
49.8422
 20
-40.0
 30
0.0
 10
49.8422
 20
-40.0
 30
0.0
 10
49.8422
 20
-40.0
 30
0.0
 10
49.8422
 20
-40.0
 30
0.0
 10
49.8422
 20
-37.0
 30
0.0
 10
49.8422
 20
-37.0
 30
0.0
 10
49.8422
 20
-37.0
 30
0.0
 10
49.8422
 20
-37.0
 30
0.0
 10
60.3685
 20
-37.0
 30
0.0
 10
60.3685
 20
-37.0
 30
0.0
 10
60.3685
 20
-37.0
 30
0.0
 10
60.3685
 20
-37.0
 30
0.0
 10
60.3685
 20
-40.0
 30
0.0
 10
60.3685
 20
-40.0
 30
0.0
 10
60.3685
 20
-40.0
 30
0.0
 10
60.3685
 20
-40.0
 30
0.0
 10
70.8948
 20
-40.0
 30
0.0
 10
70.8948
 20
-40.0
 30
0.0
 10
70.8948
 20
-40.0
 30
0.0
 10
70.8948
 20
-40.0
 30
0.0
 10
70.8948
 20
-37.0
 30
0.0
 10
70.8948
 20
-37.0
 30
0.0
 10
70.8948
 20
-37.0
 30
0.0
 10
70.8948
 20
-37.0
 30
0.0
 10
81.4211
 20
-37.0
 30
0.0
 10
81.4211
 20
-37.0
 30
0.0
 10
81.4211
 20
-37.0
 30
0.0
 10
81.4211
 20
-37.0
 30
0.0
 10
81.4211
 20
-40.0
 30
0.0
 10
81.4211
 20
-40.0
 30
0.0
 10
81.4211
 20
-40.0
 30
0.0
 10
81.4211
 20
-40.0
 30
0.0
 10
91.9474
 20
-40.0
 30
0.0
 10
91.9474
 20
-40.0
 30
0.0
 10
91.9474
 20
-40.0
 30
0.0
 10
91.9474
 20
-40.0
 30
0.0
 10
91.9474
 20
-37.0
 30
0.0
 10
91.9474
 20
-37.0
 30
0.0
 10
91.9474
 20
-37.0
 30
0.0
 10
91.9474
 20
-37.0
 30
0.0
 10
102.4737
 20
-37.0
 30
0.0
 10
102.4737
 20
-37.0
 30
0.0
 10
102.4737
 20
-37.0
 30
0.0
 10
102.4737
 20
-37.0
 30
0.0
 10
102.4737
 20
-40.0
 30
0.0
 10
102.4737
 20
-40.0
 30
0.0
 10
102.4737
 20
-40.0
 30
0.0
 10
102.4737
 20
-40.0
 30
0.0
 10
110.0
 20
-40.0
 30
0.0
 10
110.0
 20
-40.0
 30
0.0
 10
110.0
 20
-40.0
 30
0.0
 10
110.0
 20
-40.0
 30
0.0
 10
120.5263
 20
-40.0
 30
0.0
 10
120.5263
 20
-40.0
 30
0.0
 10
120.5263
 20
-40.0
 30
0.0
 10
120.5263
 20
-40.0
 30
0.0
 10
120.5263
 20
-37.0
 30
0.0
 10
120.5263
 20
-37.0
 30
0.0
 10
120.5263
 20
-37.0
 30
0.0
 10
120.5263
 20
-37.0
 30
0.0
 10
131.0526
 20
-37.0
 30
0.0
 10
131.0526
 20
-37.0
 30
0.0
 10
131.0526
 20
-37.0
 30
0.0
 10
131.0526
 20
-37.0
 30
0.0
 10
131.0526
 20
-40.0
 30
0.0
 10
131.0526
 20
-40.0
 30
0.0
 10
131.0526
 20
-40.0
 30
0.0
 10
131.0526
 20
-40.0
 30
0.0
 10
141.579
 20
-40.0
 30
0.0
 10
141.579
 20
-40.0
 30
0.0
 10
141.579
 20
-40.0
 30
0.0
 10
141.579
 20
-40.0
 30
0.0
 10
141.579
 20
-37.0
 30
0.0
 10
141.579
 20
-37.0
 30
0.0
 10
141.579
 20
-37.0
 30
0.0
 10
141.579
 20
-37.0
 30
0.0
 10
152.1053
 20
-37.0
 30
0.0
 10
152.1053
 20
-37.0
 30
0.0
 10
152.1053
 20
-37.0
 30
0.0
 10
152.1053
 20
-37.0
 30
0.0
 10
152.1053
 20
-40.0
 30
0.0
 10
152.1053
 20
-40.0
 30
0.0
 10
152.1053
 20
-40.0
 30
0.0
 10
152.1053
 20
-40.0
 30
0.0
 10
162.6316
 20
-40.0
 30
0.0
 10
162.6316
 20
-40.0
 30
0.0
 10
162.6316
 20
-40.0
 30
0.0
 10
162.6316
 20
-40.0
 30
0.0
 10
162.6316
 20
-37.0
 30
0.0
 10
162.6316
 20
-37.0
 30
0.0
 10
162.6316
 20
-37.0
 30
0.0
 10
162.6316
 20
-37.0
 30
0.0
 10
173.1579
 20
-37.0
 30
0.0
 10
173.1579
 20
-37.0
 30
0.0
 10
173.1579
 20
-37.0
 30
0.0
 10
173.1579
 20
-37.0
 30
0.0
 10
173.1579
 20
-40.0
 30
0.0
 10
173.1579
 20
-40.0
 30
0.0
 10
173.1579
 20
-40.0
 30
0.0
 10
173.1579
 20
-40.0
 30
0.0
 10
183.6842
 20
-40.0
 30
0.0
 10
183.6842
 20
-40.0
 30
0.0
 10
183.6842
 20
-40.0
 30
0.0
 10
183.6842
 20
-40.0
 30
0.0
 10
183.6842
 20
-37.0
 30
0.0
 10
183.6842
 20
-37.0
 30
0.0
 10
183.6842
 20
-37.0
 30
0.0
 10
183.6842
 20
-37.0
 30
0.0
 10
194.2105
 20
-37.0
 30
0.0
 10
194.2105
 20
-37.0
 30
0.0
 10
194.2105
 20
-37.0
 30
0.0
 10
194.2105
 20
-37.0
 30
0.0
 10
194.2105
 20
-40.0
 30
0.0
 10
194.2105
 20
-40.0
 30
0.0
 10
194.2105
 20
-40.0
 30
0.0
 10
194.2105
 20
-40.0
 30
0.0
 10
204.7369
 20
-40.0
 30
0.0
 10
204.7369
 20
-40.0
 30
0.0
 10
204.7369
 20
-40.0
 30
0.0
 10
204.7369
 20
-40.0
 30
0.0
 10
204.7369
 20
-37.0
 30
0.0
 10
204.7369
 20
-37.0
 30
0.0
 10
204.7369
 20
-37.0
 30
0.0
 10
204.7369
 20
-37.0
 30
0.0
 10
215.2632
 20
-37.0
 30
0.0
 10
215.2632
 20
-37.0
 30
0.0
 10
215.2632
 20
-37.0
 30
0.0
 10
215.2632
 20
-37.0
 30
0.0
 10
215.2632
 20
-40.0
 30
0.0
 10
215.2632
 20
-40.0
 30
0.0
 10
215.2632
 20
-40.0
 30
0.0
 10
215.2632
 20
-40.0
 30
0.0
 10
225.7895
 20
-40.0
 30
0.0
 10
225.7895
 20
-40.0
 30
0.0
 10
225.7895
 20
-40.0
 30
0.0
 10
225.7895
 20
-40.0
 30
0.0
 10
225.7895
 20
-37.0
 30
0.0
 10
225.7895
 20
-37.0
 30
0.0
 10
225.7895
 20
-37.0
 30
0.0
 10
225.7895
 20
-37.0
 30
0.0
 10
236.3158
 20
-37.0
 30
0.0
 10
236.3158
 20
-37.0
 30
0.0
 10
236.3158
 20
-37.0
 30
0.0
 10
236.3158
 20
-37.0
 30
0.0
 10
236.3158
 20
-40.0
 30
0.0
 10
236.3158
 20
-40.0
 30
0.0
 10
236.3158
 20
-40.0
 30
0.0
 10
236.3158
 20
-40.0
 30
0.0
 10
246.8421
 20
-40.0
 30
0.0
 10
246.8421
 20
-40.0
 30
0.0
 10
246.8421
 20
-40.0
 30
0.0
 10
246.8421
 20
-40.0
 30
0.0
 10
246.8421
 20
-37.0
 30
0.0
 10
246.8421
 20
-37.0
 30
0.0
 10
246.8421
 20
-37.0
 30
0.0
 10
246.8421
 20
-37.0
 30
0.0
 10
257.3684
 20
-37.0
 30
0.0
 10
257.3684
 20
-37.0
 30
0.0
 10
257.3684
 20
-37.0
 30
0.0
 10
257.3684
 20
-37.0
 30
0.0
 10
257.3684
 20
-40.0
 30
0.0
 10
257.3684
 20
-40.0
 30
0.0
 10
257.3684
 20
-40.0
 30
0.0
 10
257.3684
 20
-40.0
 30
0.0
 10
267.8947
 20
-40.0
 30
0.0
 10
267.8947
 20
-40.0
 30
0.0
 10
267.8947
 20
-40.0
 30
0.0
 10
267.8947
 20
-40.0
 30
0.0
 10
267.8947
 20
-37.0
 30
0.0
 10
267.8947
 20
-37.0
 30
0.0
 10
267.8947
 20
-37.0
 30
0.0
 10
267.8947
 20
-37.0
 30
0.0
 10
278.4211
 20
-37.0
 30
0.0
 10
278.4211
 20
-37.0
 30
0.0
 10
278.4211
 20
-37.0
 30
0.0
 10
278.4211
 20
-37.0
 30
0.0
 10
278.4211
 20
-40.0
 30
0.0
 10
278.4211
 20
-40.0
 30
0.0
 10
278.4211
 20
-40.0
 30
0.0
 10
278.4211
 20
-40.0
 30
0.0
 10
288.9474
 20
-40.0
 30
0.0
 10
288.9474
 20
-40.0
 30
0.0
 10
288.9474
 20
-40.0
 30
0.0
 10
288.9474
 20
-40.0
 30
0.0
 10
288.9474
 20
-37.0
 30
0.0
 10
288.9474
 20
-37.0
 30
0.0
 10
288.9474
 20
-37.0
 30
0.0
 10
288.9474
 20
-37.0
 30
0.0
 10
299.4737
 20
-37.0
 30
0.0
 10
299.4737
 20
-37.0
 30
0.0
 10
299.4737
 20
-37.0
 30
0.0
 10
299.4737
 20
-37.0
 30
0.0
 10
299.4737
 20
-40.0
 30
0.0
 10
299.4737
 20
-40.0
 30
0.0
 10
299.4737
 20
-40.0
 30
0.0
 10
299.4737
 20
-40.0
 30
0.0
 10
310.0
 20
-40.0
 30
0.0
 10
310.0
 20
-40.0
 30
0.0
 10
310.0
 20
-40.0
 30
0.0
 10
310.0
 20
-40.0
 30
0.0
 10
310.0
 20
-30.0
 30
0.0
 10
310.0
 20
-30.0
 30
0.0
 10
310.0
 20
-30.0
 30
0.0
 10
310.0
 20
-30.0
 30
0.0
 10
307.0
 20
-30.0
 30
0.0
 10
307.0
 20
-30.0
 30
0.0
 10
307.0
 20
-30.0
 30
0.0
 10
307.0
 20
-30.0
 30
0.0
 10
307.0
 20
-20.0
 30
0.0
 10
307.0
 20
-20.0
 30
0.0
 10
307.0
 20
-20.0
 30
0.0
 10
307.0
 20
-20.0
 30
0.0
 10
310.0
 20
-20.0
 30
0.0
 10
310.0
 20
-20.0
 30
0.0
 10
310.0
 20
-20.0
 30
0.0
 10
310.0
 20
-20.0
 30
0.0
 10
310.0
 20
-10.0
 30
0.0
 10
310.0
 20
-10.0
 30
0.0
 10
310.0
 20
-10.0
 30
0.0
 10
310.0
 20
-10.0
 30
0.0
 10
307.0
 20
-10.0
 30
0.0
 10
307.0
 20
-10.0
 30
0.0
 10
307.0
 20
-10.0
 30
0.0
 10
307.0
 20
-10.0
 30
0.0
 10
307.0
 20
0.0
 30
0.0
 10
307.0
 20
0.0
 30
0.0
 10
307.0
 20
0.0
 30
0.0
 10
307.0
 20
0.0
 30
0.0
 10
310.0
 20
0.0
 30
0.0
 10
310.0
 20
0.0
 30
0.0
 10
310.0
 20
0.0
 30
0.0
 10
310.0
 20
0.0
 30
0.0
 10
310.0
 20
10.0
 30
0.0
 10
310.0
 20
10.0
 30
0.0
 10
310.0
 20
10.0
 30
0.0
 10
310.0
 20
10.0
 30
0.0
 10
307.0
 20
10.0
 30
0.0
 10
307.0
 20
10.0
 30
0.0
 10
307.0
 20
10.0
 30
0.0
 10
307.0
 20
10.0
 30
0.0
 10
307.0
 20
20.0
 30
0.0
 10
307.0
 20
20.0
 30
0.0
 10
307.0
 20
20.0
 30
0.0
 10
307.0
 20
20.0
 30
0.0
 10
310.0
 20
20.0
 30
0.0
 10
310.0
 20
20.0
 30
0.0
 10
310.0
 20
20.0
 30
0.0
 10
310.0
 20
20.0
 30
0.0
 10
310.0
 20
30.0
 30
0.0
 10
310.0
 20
30.0
 30
0.0
 10
310.0
 20
30.0
 30
0.0
 10
310.0
 20
30.0
 30
0.0
 10
307.0
 20
30.0
 30
0.0
 10
307.0
 20
30.0
 30
0.0
 10
307.0
 20
30.0
 30
0.0
 10
307.0
 20
30.0
 30
0.0
 10
307.0
 20
40.0
 30
0.0
 10
307.0
 20
40.0
 30
0.0
 10
307.0
 20
40.0
 30
0.0
 10
307.0
 20
40.0
 30
0.0
 10
310.0
 20
40.0
 30
0.0
 10
310.0
 20
40.0
 30
0.0
 10
310.0
 20
40.0
 30
0.0
 10
310.0
 20
40.0
 30
0.0
 10
310.0
 20
50.0
 30
0.0
 10
310.0
 20
50.0
 30
0.0
 10
310.0
 20
50.0
 30
0.0
 10
310.0
 20
50.0
 30
0.0
 10
307.0
 20
50.0
 30
0.0
 10
307.0
 20
50.0
 30
0.0
 10
307.0
 20
50.0
 30
0.0
 10
307.0
 20
50.0
 30
0.0
 10
307.0
 20
60.0
 30
0.0
 10
307.0
 20
60.0
 30
0.0
 10
307.0
 20
60.0
 30
0.0
 10
307.0
 20
60.0
 30
0.0
 10
307.0
 20
70.0
 30
0.0
 10
307.0
 20
70.0
 30
0.0
 10
307.0
 20
70.0
 30
0.0
 10
307.0
 20
70.0
 30
0.0
 10
310.0
 20
70.0
 30
0.0
 10
310.0
 20
70.0
 30
0.0
 10
310.0
 20
70.0
 30
0.0
 10
310.0
 20
70.0
 30
0.0
 10
310.0
 20
80.0
 30
0.0
 10
310.0
 20
80.0
 30
0.0
 10
310.0
 20
80.0
 30
0.0
 10
310.0
 20
80.0
 30
0.0
 10
307.0
 20
80.0
 30
0.0
 10
307.0
 20
80.0
 30
0.0
 10
307.0
 20
80.0
 30
0.0
 10
307.0
 20
80.0
 30
0.0
 10
307.0
 20
90.0
 30
0.0
 10
307.0
 20
90.0
 30
0.0
 10
307.0
 20
90.0
 30
0.0
 10
307.0
 20
90.0
 30
0.0
 10
310.0
 20
90.0
 30
0.0
 10
310.0
 20
90.0
 30
0.0
 10
310.0
 20
90.0
 30
0.0
 10
310.0
 20
90.0
 30
0.0
 10
310.0
 20
100.0
 30
0.0
 10
310.0
 20
100.0
 30
0.0
 10
310.0
 20
100.0
 30
0.0
 10
310.0
 20
100.0
 30
0.0
 10
307.0
 20
100.0
 30
0.0
 10
307.0
 20
100.0
 30
0.0
 10
307.0
 20
100.0
 30
0.0
 10
307.0
 20
100.0
 30
0.0
 10
307.0
 20
110.0
 30
0.0
 10
307.0
 20
110.0
 30
0.0
 10
307.0
 20
110.0
 30
0.0
 10
307.0
 20
110.0
 30
0.0
 10
310.0
 20
110.0
 30
0.0
 10
310.0
 20
110.0
 30
0.0
 10
310.0
 20
110.0
 30
0.0
 10
310.0
 20
110.0
 30
0.0
 10
310.0
 20
120.0
 30
0.0
 10
310.0
 20
120.0
 30
0.0
 10
310.0
 20
120.0
 30
0.0
 10
310.0
 20
120.0
 30
0.0
 10
307.0
 20
120.0
 30
0.0
 10
307.0
 20
120.0
 30
0.0
 10
307.0
 20
120.0
 30
0.0
 10
307.0
 20
120.0
 30
0.0
 10
307.0
 20
130.0
 30
0.0
 10
307.0
 20
130.0
 30
0.0
 10
307.0
 20
130.0
 30
0.0
 10
307.0
 20
130.0
 30
0.0
 10
310.0
 20
130.0
 30
0.0
 10
310.0
 20
130.0
 30
0.0
 10
310.0
 20
130.0
 30
0.0
 10
310.0
 20
130.0
 30
0.0
 10
310.0
 20
140.0
 30
0.0
 10
310.0
 20
140.0
 30
0.0
 10
310.0
 20
140.0
 30
0.0
 10
310.0
 20
140.0
 30
0.0
 10
307.0
 20
140.0
 30
0.0
 10
307.0
 20
140.0
 30
0.0
 10
307.0
 20
140.0
 30
0.0
 10
307.0
 20
140.0
 30
0.0
 10
307.0
 20
150.0
 30
0.0
 10
307.0
 20
150.0
 30
0.0
 10
307.0
 20
150.0
 30
0.0
 10
307.0
 20
150.0
 30
0.0
 10
310.0
 20
150.0
 30
0.0
 10
310.0
 20
150.0
 30
0.0
 10
310.0
 20
150.0
 30
0.0
 10
310.0
 20
150.0
 30
0.0
 10
310.0
 20
160.0
 30
0.0
 10
310.0
 20
160.0
 30
0.0
 10
310.0
 20
160.0
 30
0.0
 10
310.0
 20
160.0
 30
0.0
 10
307.0
 20
160.0
 30
0.0
 10
307.0
 20
160.0
 30
0.0
 10
307.0
 20
160.0
 30
0.0
 10
307.0
 20
160.0
 30
0.0
 10
307.0
 20
170.0
 30
0.0
 10
307.0
 20
170.0
 30
0.0
 10
307.0
 20
170.0
 30
0.0
 10
307.0
 20
170.0
 30
0.0
 10
310.0
 20
170.0
 30
0.0
 10
310.0
 20
170.0
 30
0.0
 10
310.0
 20
170.0
 30
0.0
 10
310.0
 20
170.0
 30
0.0
 10
310.0
 20
180.0
 30
0.0
 10
310.0
 20
180.0
 30
0.0
 10
310.0
 20
180.0
 30
0.0
 10
310.0
 20
180.0
 30
0.0
 10
307.0
 20
180.0
 30
0.0
 10
307.0
 20
180.0
 30
0.0
 10
307.0
 20
180.0
 30
0.0
 10
307.0
 20
180.0
 30
0.0
 10
307.0
 20
190.0
 30
0.0
 10
307.0
 20
190.0
 30
0.0
 10
307.0
 20
190.0
 30
0.0
 10
307.0
 20
190.0
 30
0.0
 10
310.0
 20
190.0
 30
0.0
 10
310.0
 20
190.0
 30
0.0
 10
310.0
 20
190.0
 30
0.0
 10
310.0
 20
190.0
 30
0.0
 10
310.0
 20
200.0
 30
0.0
 10
310.0
 20
200.0
 30
0.0
 10
310.0
 20
200.0
 30
0.0
 10
310.0
 20
200.0
 30
0.0
 10
307.0
 20
200.0
 30
0.0
 10
307.0
 20
200.0
 30
0.0
 10
307.0
 20
200.0
 30
0.0
 10
307.0
 20
200.0
 30
0.0
 10
307.0
 20
210.0
 30
0.0
 10
307.0
 20
210.0
 30
0.0
 10
307.0
 20
210.0
 30
0.0
 10
307.0
 20
210.0
 30
0.0
 10
310.0
 20
210.0
 30
0.0
 10
310.0
 20
210.0
 30
0.0
 10
310.0
 20
210.0
 30
0.0
 10
310.0
 20
210.0
 30
0.0
 10
310.0
 20
220.0
 30
0.0
 10
310.0
 20
220.0
 30
0.0
 10
310.0
 20
220.0
 30
0.0
 10
310.0
 20
220.0
 30
0.0
 10
307.0
 20
220.0
 30
0.0
 10
307.0
 20
220.0
 30
0.0
 10
307.0
 20
220.0
 30
0.0
 10
307.0
 20
220.0
 30
0.0
 10
307.0
 20
230.0
 30
0.0
 10
307.0
 20
230.0
 30
0.0
 10
307.0
 20
230.0
 30
0.0
 10
307.0
 20
230.0
 30
0.0
 10
310.0
 20
230.0
 30
0.0
 10
310.0
 20
230.0
 30
0.0
 10
310.0
 20
230.0
 30
0.0
 10
310.0
 20
230.0
 30
0.0
 10
310.0
 20
240.0
 30
0.0
 10
310.0
 20
240.0
 30
0.0
 10
310.0
 20
240.0
 30
0.0
 10
310.0
 20
240.0
 30
0.0
 10
307.0
 20
240.0
 30
0.0
 10
307.0
 20
240.0
 30
0.0
 10
307.0
 20
240.0
 30
0.0
 10
307.0
 20
240.0
 30
0.0
 10
307.0
 20
250.0
 30
0.0
 10
307.0
 20
250.0
 30
0.0
 10
307.0
 20
250.0
 30
0.0
 10
307.0
 20
250.0
 30
0.0
 10
310.0
 20
250.0
 30
0.0
 10
310.0
 20
250.0
 30
0.0
 10
310.0
 20
250.0
 30
0.0
 10
310.0
 20
250.0
 30
0.0
 10
310.0
 20
260.0
 30
0.0
 10
310.0
 20
260.0
 30
0.0
 10
310.0
 20
260.0
 30
0.0
 10
310.0
 20
260.0
 30
0.0
 10
299.4737
 20
260.0
 30
0.0
 10
299.4737
 20
260.0
 30
0.0
 10
299.4737
 20
260.0
 30
0.0
 10
299.4737
 20
260.0
 30
0.0
 10
299.4737
 20
257.0
 30
0.0
 10
299.4737
 20
257.0
 30
0.0
 10
299.4737
 20
257.0
 30
0.0
 10
299.4737
 20
257.0
 30
0.0
 10
288.9474
 20
257.0
 30
0.0
 10
288.9474
 20
257.0
 30
0.0
 10
288.9474
 20
257.0
 30
0.0
 10
288.9474
 20
257.0
 30
0.0
 10
288.9474
 20
260.0
 30
0.0
 10
288.9474
 20
260.0
 30
0.0
 10
288.9474
 20
260.0
 30
0.0
 10
288.9474
 20
260.0
 30
0.0
 10
278.4211
 20
260.0
 30
0.0
 10
278.4211
 20
260.0
 30
0.0
 10
278.4211
 20
260.0
 30
0.0
 10
278.4211
 20
260.0
 30
0.0
 10
278.4211
 20
257.0
 30
0.0
 10
278.4211
 20
257.0
 30
0.0
 10
278.4211
 20
257.0
 30
0.0
 10
278.4211
 20
257.0
 30
0.0
 10
267.8948
 20
257.0
 30
0.0
 10
267.8948
 20
257.0
 30
0.0
 10
267.8948
 20
257.0
 30
0.0
 10
267.8948
 20
257.0
 30
0.0
 10
267.8948
 20
260.0
 30
0.0
 10
267.8948
 20
260.0
 30
0.0
 10
267.8948
 20
260.0
 30
0.0
 10
267.8948
 20
260.0
 30
0.0
 10
257.3685
 20
260.0
 30
0.0
 10
257.3685
 20
260.0
 30
0.0
 10
257.3685
 20
260.0
 30
0.0
 10
257.3685
 20
260.0
 30
0.0
 10
257.3685
 20
257.0
 30
0.0
 10
257.3685
 20
257.0
 30
0.0
 10
257.3685
 20
257.0
 30
0.0
 10
257.3685
 20
257.0
 30
0.0
 10
246.8421
 20
257.0
 30
0.0
 10
246.8421
 20
257.0
 30
0.0
 10
246.8421
 20
257.0
 30
0.0
 10
246.8421
 20
257.0
 30
0.0
 10
246.8421
 20
260.0
 30
0.0
 10
246.8421
 20
260.0
 30
0.0
 10
246.8421
 20
260.0
 30
0.0
 10
246.8421
 20
260.0
 30
0.0
 10
236.3158
 20
260.0
 30
0.0
 10
236.3158
 20
260.0
 30
0.0
 10
236.3158
 20
260.0
 30
0.0
 10
236.3158
 20
260.0
 30
0.0
 10
236.3158
 20
257.0
 30
0.0
 10
236.3158
 20
257.0
 30
0.0
 10
236.3158
 20
257.0
 30
0.0
 10
236.3158
 20
257.0
 30
0.0
 10
225.7895
 20
257.0
 30
0.0
 10
225.7895
 20
257.0
 30
0.0
 10
225.7895
 20
257.0
 30
0.0
 10
225.7895
 20
257.0
 30
0.0
 10
225.7895
 20
260.0
 30
0.0
 10
225.7895
 20
260.0
 30
0.0
 10
225.7895
 20
260.0
 30
0.0
 10
225.7895
 20
260.0
 30
0.0
 10
215.2632
 20
260.0
 30
0.0
 10
215.2632
 20
260.0
 30
0.0
 10
215.2632
 20
260.0
 30
0.0
 10
215.2632
 20
260.0
 30
0.0
 10
215.2632
 20
257.0
 30
0.0
 10
215.2632
 20
257.0
 30
0.0
 10
215.2632
 20
257.0
 30
0.0
 10
215.2632
 20
257.0
 30
0.0
 10
204.7369
 20
257.0
 30
0.0
 10
204.7369
 20
257.0
 30
0.0
 10
204.7369
 20
257.0
 30
0.0
 10
204.7369
 20
257.0
 30
0.0
 10
204.7369
 20
260.0
 30
0.0
 10
204.7369
 20
260.0
 30
0.0
 10
204.7369
 20
260.0
 30
0.0
 10
204.7369
 20
260.0
 30
0.0
 10
194.2106
 20
260.0
 30
0.0
 10
194.2106
 20
260.0
 30
0.0
 10
194.2106
 20
260.0
 30
0.0
 10
194.2106
 20
260.0
 30
0.0
 10
194.2106
 20
257.0
 30
0.0
 10
194.2106
 20
257.0
 30
0.0
 10
194.2106
 20
257.0
 30
0.0
 10
194.2106
 20
257.0
 30
0.0
 10
183.6842
 20
257.0
 30
0.0
 10
183.6842
 20
257.0
 30
0.0
 10
183.6842
 20
257.0
 30
0.0
 10
183.6842
 20
257.0
 30
0.0
 10
183.6842
 20
260.0
 30
0.0
 10
183.6842
 20
260.0
 30
0.0
 10
183.6842
 20
260.0
 30
0.0
 10
183.6842
 20
260.0
 30
0.0
 10
173.1579
 20
260.0
 30
0.0
 10
173.1579
 20
260.0
 30
0.0
 10
173.1579
 20
260.0
 30
0.0
 10
173.1579
 20
260.0
 30
0.0
 10
173.1579
 20
257.0
 30
0.0
 10
173.1579
 20
257.0
 30
0.0
 10
173.1579
 20
257.0
 30
0.0
 10
173.1579
 20
257.0
 30
0.0
 10
162.6316
 20
257.0
 30
0.0
 10
162.6316
 20
257.0
 30
0.0
 10
162.6316
 20
257.0
 30
0.0
 10
162.6316
 20
257.0
 30
0.0
 10
162.6316
 20
260.0
 30
0.0
 10
162.6316
 20
260.0
 30
0.0
 10
162.6316
 20
260.0
 30
0.0
 10
162.6316
 20
260.0
 30
0.0
 10
152.1053
 20
260.0
 30
0.0
 10
152.1053
 20
260.0
 30
0.0
 10
152.1053
 20
260.0
 30
0.0
 10
152.1053
 20
260.0
 30
0.0
 10
152.1053
 20
257.0
 30
0.0
 10
152.1053
 20
257.0
 30
0.0
 10
152.1053
 20
257.0
 30
0.0
 10
152.1053
 20
257.0
 30
0.0
 10
141.579
 20
257.0
 30
0.0
 10
141.579
 20
257.0
 30
0.0
 10
141.579
 20
257.0
 30
0.0
 10
141.579
 20
257.0
 30
0.0
 10
141.579
 20
260.0
 30
0.0
 10
141.579
 20
260.0
 30
0.0
 10
141.579
 20
260.0
 30
0.0
 10
141.579
 20
260.0
 30
0.0
 10
131.0527
 20
260.0
 30
0.0
 10
131.0527
 20
260.0
 30
0.0
 10
131.0527
 20
260.0
 30
0.0
 10
131.0527
 20
260.0
 30
0.0
 10
131.0527
 20
257.0
 30
0.0
 10
131.0527
 20
257.0
 30
0.0
 10
131.0527
 20
257.0
 30
0.0
 10
131.0527
 20
257.0
 30
0.0
 10
120.5264
 20
257.0
 30
0.0
 10
120.5264
 20
257.0
 30
0.0
 10
120.5264
 20
257.0
 30
0.0
 10
120.5264
 20
257.0
 30
0.0
 10
120.5264
 20
260.0
 30
0.0
 10
120.5264
 20
260.0
 30
0.0
 10
120.5264
 20
260.0
 30
0.0
 10
120.5264
 20
260.0
 30
0.0
 10
110.0
 20
260.0
 30
0.0
 10
110.0
 20
260.0
 30
0.0
 10
110.0
 20
260.0
 30
0.0
 10
110.0
 20
260.0
 30
0.0
 10
102.4737
 20
260.0
 30
0.0
 10
102.4737
 20
260.0
 30
0.0
 10
102.4737
 20
260.0
 30
0.0
 10
102.4737
 20
260.0
 30
0.0
 10
102.4737
 20
257.0
 30
0.0
 10
102.4737
 20
257.0
 30
0.0
 10
102.4737
 20
257.0
 30
0.0
 10
102.4737
 20
257.0
 30
0.0
 10
91.9474
 20
257.0
 30
0.0
 10
91.9474
 20
257.0
 30
0.0
 10
91.9474
 20
257.0
 30
0.0
 10
91.9474
 20
257.0
 30
0.0
 10
91.9474
 20
260.0
 30
0.0
 10
91.9474
 20
260.0
 30
0.0
 10
91.9474
 20
260.0
 30
0.0
 10
91.9474
 20
260.0
 30
0.0
 10
81.4211
 20
260.0
 30
0.0
 10
81.4211
 20
260.0
 30
0.0
 10
81.4211
 20
260.0
 30
0.0
 10
81.4211
 20
260.0
 30
0.0
 10
81.4211
 20
257.0
 30
0.0
 10
81.4211
 20
257.0
 30
0.0
 10
81.4211
 20
257.0
 30
0.0
 10
81.4211
 20
257.0
 30
0.0
 10
70.8948
 20
257.0
 30
0.0
 10
70.8948
 20
257.0
 30
0.0
 10
70.8948
 20
257.0
 30
0.0
 10
70.8948
 20
257.0
 30
0.0
 10
70.8948
 20
260.0
 30
0.0
 10
70.8948
 20
260.0
 30
0.0
 10
70.8948
 20
260.0
 30
0.0
 10
70.8948
 20
260.0
 30
0.0
 10
60.3685
 20
260.0
 30
0.0
 10
60.3685
 20
260.0
 30
0.0
 10
60.3685
 20
260.0
 30
0.0
 10
60.3685
 20
260.0
 30
0.0
 10
60.3685
 20
257.0
 30
0.0
 10
60.3685
 20
257.0
 30
0.0
 10
60.3685
 20
257.0
 30
0.0
 10
60.3685
 20
257.0
 30
0.0
 10
49.8422
 20
257.0
 30
0.0
 10
49.8422
 20
257.0
 30
0.0
 10
49.8422
 20
257.0
 30
0.0
 10
49.8422
 20
257.0
 30
0.0
 10
49.8422
 20
260.0
 30
0.0
 10
49.8422
 20
260.0
 30
0.0
 10
49.8422
 20
260.0
 30
0.0
 10
49.8422
 20
260.0
 30
0.0
 10
39.3158
 20
260.0
 30
0.0
 10
39.3158
 20
260.0
 30
0.0
 10
39.3158
 20
260.0
 30
0.0
 10
39.3158
 20
260.0
 30
0.0
 10
39.3158
 20
257.0
 30
0.0
 10
39.3158
 20
257.0
 30
0.0
 10
39.3158
 20
257.0
 30
0.0
 10
39.3158
 20
257.0
 30
0.0
 10
28.7895
 20
257.0
 30
0.0
 10
28.7895
 20
257.0
 30
0.0
 10
28.7895
 20
257.0
 30
0.0
 10
28.7895
 20
257.0
 30
0.0
 10
28.7895
 20
260.0
 30
0.0
 10
28.7895
 20
260.0
 30
0.0
 10
28.7895
 20
260.0
 30
0.0
 10
28.7895
 20
260.0
 30
0.0
 10
18.2632
 20
260.0
 30
0.0
 10
18.2632
 20
260.0
 30
0.0
 10
18.2632
 20
260.0
 30
0.0
 10
18.2632
 20
260.0
 30
0.0
 10
18.2632
 20
257.0
 30
0.0
 10
18.2632
 20
257.0
 30
0.0
 10
18.2632
 20
257.0
 30
0.0
 10
18.2632
 20
257.0
 30
0.0
 10
14.5
 20
257.0
 30
0.0
 10
14.5
 20
257.0
 30
0.0
 10
14.5
 20
257.0
 30
0.0
 10
14.5
 20
257.0
 30
0.0
 10
14.5
 20
250.0
 30
0.0
 10
14.5
 20
250.0
 30
0.0
 10
14.5
 20
250.0
 30
0.0
 10
14.5
 20
250.0
 30
0.0
 10
11.5
 20
250.0
 30
0.0
 10
11.5
 20
250.0
 30
0.0
 10
11.5
 20
250.0
 30
0.0
 10
11.5
 20
250.0
 30
0.0
 10
11.5
 20
257.0
 30
0.0
 10
11.5
 20
257.0
 30
0.0
 10
11.5
 20
257.0
 30
0.0
 10
11.5
 20
257.0
 30
0.0
 10
7.7369
 20
257.0
 30
0.0
 10
7.7369
 20
257.0
 30
0.0
 10
7.7369
 20
257.0
 30
0.0
 10
7.7369
 20
257.0
 30
0.0
 10
7.7369
 20
260.0
 30
0.0
 10
7.7369
 20
260.0
 30
0.0
 10
7.7369
 20
260.0
 30
0.0
 10
7.7369
 20
260.0
 30
0.0
 10
-2.7894
 20
260.0
 30
0.0
 10
-2.7894
 20
260.0
 30
0.0
 10
-2.7894
 20
260.0
 30
0.0
 10
-2.7894
 20
260.0
 30
0.0
 10
-2.7894
 20
257.0
 30
0.0
 10
-2.7894
 20
257.0
 30
0.0
 10
-2.7894
 20
257.0
 30
0.0
 10
-2.7894
 20
257.0
 30
0.0
 10
-13.3157
 20
257.0
 30
0.0
 10
-13.3157
 20
257.0
 30
0.0
 10
-13.3157
 20
257.0
 30
0.0
 10
-13.3157
 20
257.0
 30
0.0
 10
-13.3157
 20
260.0
 30
0.0
 10
-13.3157
 20
260.0
 30
0.0
 10
-13.3157
 20
260.0
 30
0.0
 10
-13.3157
 20
260.0
 30
0.0
 10
-23.8421
 20
260.0
 30
0.0
 10
-23.8421
 20
260.0
 30
0.0
 10
-23.8421
 20
260.0
 30
0.0
 10
-23.8421
 20
260.0
 30
0.0
 10
-23.8421
 20
257.0
 30
0.0
 10
-23.8421
 20
257.0
 30
0.0
 10
-23.8421
 20
257.0
 30
0.0
 10
-23.8421
 20
257.0
 30
0.0
 10
-34.3684
 20
257.0
 30
0.0
 10
-34.3684
 20
257.0
 30
0.0
 10
-34.3684
 20
257.0
 30
0.0
 10
-34.3684
 20
257.0
 30
0.0
 10
-34.3684
 20
260.0
 30
0.0
 10
-34.3684
 20
260.0
 30
0.0
 10
-34.3684
 20
260.0
 30
0.0
 10
-34.3684
 20
260.0
 30
0.0
 10
-44.8947
 20
260.0
 30
0.0
 10
-44.8947
 20
260.0
 30
0.0
 10
-44.8947
 20
260.0
 30
0.0
 10
-44.8947
 20
260.0
 30
0.0
 10
-44.8947
 20
257.0
 30
0.0
 10
-44.8947
 20
257.0
 30
0.0
 10
-44.8947
 20
257.0
 30
0.0
 10
-44.8947
 20
257.0
 30
0.0
 10
-55.421
 20
257.0
 30
0.0
 10
-55.421
 20
257.0
 30
0.0
 10
-55.421
 20
257.0
 30
0.0
 10
-55.421
 20
257.0
 30
0.0
 10
-55.421
 20
260.0
 30
0.0
 10
-55.421
 20
260.0
 30
0.0
 10
-55.421
 20
260.0
 30
0.0
 10
-55.421
 20
260.0
 30
0.0
 10
-65.9473
 20
260.0
 30
0.0
 10
-65.9473
 20
260.0
 30
0.0
 10
-65.9473
 20
260.0
 30
0.0
 10
-65.9473
 20
260.0
 30
0.0
 10
-65.9473
 20
257.0
 30
0.0
 10
-65.9473
 20
257.0
 30
0.0
 10
-65.9473
 20
257.0
 30
0.0
 10
-65.9473
 20
257.0
 30
0.0
 10
-76.4736
 20
257.0
 30
0.0
 10
-76.4736
 20
257.0
 30
0.0
 10
-76.4736
 20
257.0
 30
0.0
 10
-76.4736
 20
257.0
 30
0.0
 10
-76.4736
 20
260.0
 30
0.0
 10
-76.4736
 20
260.0
 30
0.0
 10
-76.4736
 20
260.0
 30
0.0
 10
-76.4736
 20
260.0
 30
0.0
 10
-84.0
 20
260.0
 30
0.0
 10
-84.0
 20
260.0
 30
0.0
  0
SPLINE
  5
71
330
1F
100
AcDbEntity
  8
layer 1
 62
   242
370
     9
100
AcDbSpline
210
0.0
220
0.0
230
1.0
 70
     8
 71
     3
 72
    92
 73
    88
 74
     0
 42
0.000000001
 43
0.0000000001
 40
0.0
 40
0.0
 40
0.0
 40
0.0
 40
0.0434782608695652
 40
0.0434782608695652
 40
0.0434782608695652
 40
0.0434782608695652
 40
0.0869565217391304
 40
0.0869565217391304
 40
0.0869565217391304
 40
0.0869565217391304
 40
0.1304347826086956
 40
0.1304347826086956
 40
0.1304347826086956
 40
0.1304347826086956
 40
0.1739130434782609
 40
0.1739130434782609
 40
0.1739130434782609
 40
0.1739130434782609
 40
0.2173913043478261
 40
0.2173913043478261
 40
0.2173913043478261
 40
0.2173913043478261
 40
0.2608695652173913
 40
0.2608695652173913
 40
0.2608695652173913
 40
0.2608695652173913
 40
0.3043478260869565
 40
0.3043478260869565
 40
0.3043478260869565
 40
0.3043478260869565
 40
0.3478260869565217
 40
0.3478260869565217
 40
0.3478260869565217
 40
0.3478260869565217
 40
0.391304347826087
 40
0.391304347826087
 40
0.391304347826087
 40
0.391304347826087
 40
0.4347826086956522
 40
0.4347826086956522
 40
0.4347826086956522
 40
0.4347826086956522
 40
0.4782608695652174
 40
0.4782608695652174
 40
0.4782608695652174
 40
0.4782608695652174
 40
0.5217391304347826
 40
0.5217391304347826
 40
0.5217391304347826
 40
0.5217391304347826
 40
0.5652173913043478
 40
0.5652173913043478
 40
0.5652173913043478
 40
0.5652173913043478
 40
0.6086956521739131
 40
0.6086956521739131
 40
0.6086956521739131
 40
0.6086956521739131
 40
0.6521739130434783
 40
0.6521739130434783
 40
0.6521739130434783
 40
0.6521739130434783
 40
0.6956521739130435
 40
0.6956521739130435
 40
0.6956521739130435
 40
0.6956521739130435
 40
0.7391304347826086
 40
0.7391304347826086
 40
0.7391304347826086
 40
0.7391304347826086
 40
0.782608695652174
 40
0.782608695652174
 40
0.782608695652174
 40
0.782608695652174
 40
0.8260869565217391
 40
0.8260869565217391
 40
0.8260869565217391
 40
0.8260869565217391
 40
0.8695652173913043
 40
0.8695652173913043
 40
0.8695652173913043
 40
0.8695652173913043
 40
0.9130434782608695
 40
0.9130434782608695
 40
0.9130434782608695
 40
0.9130434782608695
 40
1.0
 40
1.0
 40
1.0
 40
1.0
 10
-87.0
 20
60.0
 30
0.0
 10
-87.0
 20
60.0
 30
0.0
 10
14.5
 20
60.0
 30
0.0
 10
14.5
 20
60.0
 30
0.0
 10
14.5
 20
60.0
 30
0.0
 10
14.5
 20
60.0
 30
0.0
 10
14.5
 20
70.0
 30
0.0
 10
14.5
 20
70.0
 30
0.0
 10
14.5
 20
70.0
 30
0.0
 10
14.5
 20
70.0
 30
0.0
 10
11.5
 20
70.0
 30
0.0
 10
11.5
 20
70.0
 30
0.0
 10
11.5
 20
70.0
 30
0.0
 10
11.5
 20
70.0
 30
0.0
 10
11.5
 20
80.0
 30
0.0
 10
11.5
 20
80.0
 30
0.0
 10
11.5
 20
80.0
 30
0.0
 10
11.5
 20
80.0
 30
0.0
 10
14.5
 20
80.0
 30
0.0
 10
14.5
 20
80.0
 30
0.0
 10
14.5
 20
80.0
 30
0.0
 10
14.5
 20
80.0
 30
0.0
 10
14.5
 20
90.0
 30
0.0
 10
14.5
 20
90.0
 30
0.0
 10
14.5
 20
90.0
 30
0.0
 10
14.5
 20
90.0
 30
0.0
 10
11.5
 20
90.0
 30
0.0
 10
11.5
 20
90.0
 30
0.0
 10
11.5
 20
90.0
 30
0.0
 10
11.5
 20
90.0
 30
0.0
 10
11.5
 20
100.0
 30
0.0
 10
11.5
 20
100.0
 30
0.0
 10
11.5
 20
100.0
 30
0.0
 10
11.5
 20
100.0
 30
0.0
 10
14.5
 20
100.0
 30
0.0
 10
14.5
 20
100.0
 30
0.0
 10
14.5
 20
100.0
 30
0.0
 10
14.5
 20
100.0
 30
0.0
 10
14.5
 20
110.0
 30
0.0
 10
14.5
 20
110.0
 30
0.0
 10
14.5
 20
110.0
 30
0.0
 10
14.5
 20
110.0
 30
0.0
 10
110.0
 20
110.0
 30
0.0
 10
110.0
 20
110.0
 30
0.0
 10
110.0
 20
110.0
 30
0.0
 10
110.0
 20
110.0
 30
0.0
 10
211.5
 20
110.0
 30
0.0
 10
211.5
 20
110.0
 30
0.0
 10
211.5
 20
110.0
 30
0.0
 10
211.5
 20
110.0
 30
0.0
 10
211.5
 20
100.0
 30
0.0
 10
211.5
 20
100.0
 30
0.0
 10
211.5
 20
100.0
 30
0.0
 10
211.5
 20
100.0
 30
0.0
 10
208.5
 20
100.0
 30
0.0
 10
208.5
 20
100.0
 30
0.0
 10
208.5
 20
100.0
 30
0.0
 10
208.5
 20
100.0
 30
0.0
 10
208.5
 20
90.0
 30
0.0
 10
208.5
 20
90.0
 30
0.0
 10
208.5
 20
90.0
 30
0.0
 10
208.5
 20
90.0
 30
0.0
 10
211.5
 20
90.0
 30
0.0
 10
211.5
 20
90.0
 30
0.0
 10
211.5
 20
90.0
 30
0.0
 10
211.5
 20
90.0
 30
0.0
 10
211.5
 20
80.0
 30
0.0
 10
211.5
 20
80.0
 30
0.0
 10
211.5
 20
80.0
 30
0.0
 10
211.5
 20
80.0
 30
0.0
 10
208.5
 20
80.0
 30
0.0
 10
208.5
 20
80.0
 30
0.0
 10
208.5
 20
80.0
 30
0.0
 10
208.5
 20
80.0
 30
0.0
 10
208.5
 20
70.0
 30
0.0
 10
208.5
 20
70.0
 30
0.0
 10
208.5
 20
70.0
 30
0.0
 10
208.5
 20
70.0
 30
0.0
 10
211.5
 20
70.0
 30
0.0
 10
211.5
 20
70.0
 30
0.0
 10
211.5
 20
70.0
 30
0.0
 10
211.5
 20
70.0
 30
0.0
 10
211.5
 20
60.0
 30
0.0
 10
211.5
 20
60.0
 30
0.0
 10
211.5
 20
60.0
 30
0.0
 10
211.5
 20
60.0
 30
0.0
 10
307.0
 20
60.0
 30
0.0
 10
307.0
 20
60.0
 30
0.0
  0
SPLINE
  5
72
330
1F
100
AcDbEntity
  8
layer 1
 62
   242
370
     9
100
AcDbSpline
210
0.0
220
0.0
230
1.0
 70
     8
 71
     3
 72
   236
 73
   232
 74
     0
 42
0.000000001
 43
0.0000000001
 40
0.0
 40
0.0
 40
0.0
 40
0.0
 40
0.0169491525423729
 40
0.0169491525423729
 40
0.0169491525423729
 40
0.0169491525423729
 40
0.0338983050847458
 40
0.0338983050847458
 40
0.0338983050847458
 40
0.0338983050847458
 40
0.0508474576271186
 40
0.0508474576271186
 40
0.0508474576271186
 40
0.0508474576271186
 40
0.0677966101694915
 40
0.0677966101694915
 40
0.0677966101694915
 40
0.0677966101694915
 40
0.0847457627118644
 40
0.0847457627118644
 40
0.0847457627118644
 40
0.0847457627118644
 40
0.1016949152542373
 40
0.1016949152542373
 40
0.1016949152542373
 40
0.1016949152542373
 40
0.1186440677966102
 40
0.1186440677966102
 40
0.1186440677966102
 40
0.1186440677966102
 40
0.1355932203389831
 40
0.1355932203389831
 40
0.1355932203389831
 40
0.1355932203389831
 40
0.1525423728813559
 40
0.1525423728813559
 40
0.1525423728813559
 40
0.1525423728813559
 40
0.1694915254237288
 40
0.1694915254237288
 40
0.1694915254237288
 40
0.1694915254237288
 40
0.1864406779661017
 40
0.1864406779661017
 40
0.1864406779661017
 40
0.1864406779661017
 40
0.2033898305084746
 40
0.2033898305084746
 40
0.2033898305084746
 40
0.2033898305084746
 40
0.2203389830508475
 40
0.2203389830508475
 40
0.2203389830508475
 40
0.2203389830508475
 40
0.2372881355932203
 40
0.2372881355932203
 40
0.2372881355932203
 40
0.2372881355932203
 40
0.2542372881355932
 40
0.2542372881355932
 40
0.2542372881355932
 40
0.2542372881355932
 40
0.2711864406779661
 40
0.2711864406779661
 40
0.2711864406779661
 40
0.2711864406779661
 40
0.288135593220339
 40
0.288135593220339
 40
0.288135593220339
 40
0.288135593220339
 40
0.3050847457627119
 40
0.3050847457627119
 40
0.3050847457627119
 40
0.3050847457627119
 40
0.3220338983050847
 40
0.3220338983050847
 40
0.3220338983050847
 40
0.3220338983050847
 40
0.3389830508474576
 40
0.3389830508474576
 40
0.3389830508474576
 40
0.3389830508474576
 40
0.3559322033898305
 40
0.3559322033898305
 40
0.3559322033898305
 40
0.3559322033898305
 40
0.3728813559322034
 40
0.3728813559322034
 40
0.3728813559322034
 40
0.3728813559322034
 40
0.3898305084745763
 40
0.3898305084745763
 40
0.3898305084745763
 40
0.3898305084745763
 40
0.4067796610169492
 40
0.4067796610169492
 40
0.4067796610169492
 40
0.4067796610169492
 40
0.423728813559322
 40
0.423728813559322
 40
0.423728813559322
 40
0.423728813559322
 40
0.4406779661016949
 40
0.4406779661016949
 40
0.4406779661016949
 40
0.4406779661016949
 40
0.4576271186440678
 40
0.4576271186440678
 40
0.4576271186440678
 40
0.4576271186440678
 40
0.4745762711864407
 40
0.4745762711864407
 40
0.4745762711864407
 40
0.4745762711864407
 40
0.4915254237288136
 40
0.4915254237288136
 40
0.4915254237288136
 40
0.4915254237288136
 40
0.5084745762711864
 40
0.5084745762711864
 40
0.5084745762711864
 40
0.5084745762711864
 40
0.5254237288135594
 40
0.5254237288135594
 40
0.5254237288135594
 40
0.5254237288135594
 40
0.5423728813559322
 40
0.5423728813559322
 40
0.5423728813559322
 40
0.5423728813559322
 40
0.559322033898305
 40
0.559322033898305
 40
0.559322033898305
 40
0.559322033898305
 40
0.576271186440678
 40
0.576271186440678
 40
0.576271186440678
 40
0.576271186440678
 40
0.5932203389830508
 40
0.5932203389830508
 40
0.5932203389830508
 40
0.5932203389830508
 40
0.6101694915254238
 40
0.6101694915254238
 40
0.6101694915254238
 40
0.6101694915254238
 40
0.6271186440677966
 40
0.6271186440677966
 40
0.6271186440677966
 40
0.6271186440677966
 40
0.6440677966101694
 40
0.6440677966101694
 40
0.6440677966101694
 40
0.6440677966101694
 40
0.6610169491525424
 40
0.6610169491525424
 40
0.6610169491525424
 40
0.6610169491525424
 40
0.6779661016949152
 40
0.6779661016949152
 40
0.6779661016949152
 40
0.6779661016949152
 40
0.6949152542372882
 40
0.6949152542372882
 40
0.6949152542372882
 40
0.6949152542372882
 40
0.711864406779661
 40
0.711864406779661
 40
0.711864406779661
 40
0.711864406779661
 40
0.7288135593220338
 40
0.7288135593220338
 40
0.7288135593220338
 40
0.7288135593220338
 40
0.7457627118644068
 40
0.7457627118644068
 40
0.7457627118644068
 40
0.7457627118644068
 40
0.7627118644067796
 40
0.7627118644067796
 40
0.7627118644067796
 40
0.7627118644067796
 40
0.7796610169491526
 40
0.7796610169491526
 40
0.7796610169491526
 40
0.7796610169491526
 40
0.7966101694915254
 40
0.7966101694915254
 40
0.7966101694915254
 40
0.7966101694915254
 40
0.8135593220338984
 40
0.8135593220338984
 40
0.8135593220338984
 40
0.8135593220338984
 40
0.8305084745762712
 40
0.8305084745762712
 40
0.8305084745762712
 40
0.8305084745762712
 40
0.847457627118644
 40
0.847457627118644
 40
0.847457627118644
 40
0.847457627118644
 40
0.864406779661017
 40
0.864406779661017
 40
0.864406779661017
 40
0.864406779661017
 40
0.8813559322033898
 40
0.8813559322033898
 40
0.8813559322033898
 40
0.8813559322033898
 40
0.8983050847457628
 40
0.8983050847457628
 40
0.8983050847457628
 40
0.8983050847457628
 40
0.9152542372881356
 40
0.9152542372881356
 40
0.9152542372881356
 40
0.9152542372881356
 40
0.9322033898305084
 40
0.9322033898305084
 40
0.9322033898305084
 40
0.9322033898305084
 40
0.9491525423728814
 40
0.9491525423728814
 40
0.9491525423728814
 40
0.9491525423728814
 40
0.9661016949152542
 40
0.9661016949152542
 40
0.9661016949152542
 40
0.9661016949152542
 40
1.0
 40
1.0
 40
1.0
 40
1.0
 10
110.0
 20
-40.0
 30
0.0
 10
110.0
 20
-40.0
 30
0.0
 10
110.0
 20
-30.0
 30
0.0
 10
110.0
 20
-30.0
 30
0.0
 10
110.0
 20
-30.0
 30
0.0
 10
110.0
 20
-30.0
 30
0.0
 10
113.0
 20
-30.0
 30
0.0
 10
113.0
 20
-30.0
 30
0.0
 10
113.0
 20
-30.0
 30
0.0
 10
113.0
 20
-30.0
 30
0.0
 10
113.0
 20
-20.0
 30
0.0
 10
113.0
 20
-20.0
 30
0.0
 10
113.0
 20
-20.0
 30
0.0
 10
113.0
 20
-20.0
 30
0.0
 10
110.0
 20
-20.0
 30
0.0
 10
110.0
 20
-20.0
 30
0.0
 10
110.0
 20
-20.0
 30
0.0
 10
110.0
 20
-20.0
 30
0.0
 10
110.0
 20
-10.0
 30
0.0
 10
110.0
 20
-10.0
 30
0.0
 10
110.0
 20
-10.0
 30
0.0
 10
110.0
 20
-10.0
 30
0.0
 10
113.0
 20
-10.0
 30
0.0
 10
113.0
 20
-10.0
 30
0.0
 10
113.0
 20
-10.0
 30
0.0
 10
113.0
 20
-10.0
 30
0.0
 10
113.0
 20
0.0
 30
0.0
 10
113.0
 20
0.0
 30
0.0
 10
113.0
 20
0.0
 30
0.0
 10
113.0
 20
0.0
 30
0.0
 10
110.0
 20
0.0
 30
0.0
 10
110.0
 20
0.0
 30
0.0
 10
110.0
 20
0.0
 30
0.0
 10
110.0
 20
0.0
 30
0.0
 10
110.0
 20
10.0
 30
0.0
 10
110.0
 20
10.0
 30
0.0
 10
110.0
 20
10.0
 30
0.0
 10
110.0
 20
10.0
 30
0.0
 10
113.0
 20
10.0
 30
0.0
 10
113.0
 20
10.0
 30
0.0
 10
113.0
 20
10.0
 30
0.0
 10
113.0
 20
10.0
 30
0.0
 10
113.0
 20
20.0
 30
0.0
 10
113.0
 20
20.0
 30
0.0
 10
113.0
 20
20.0
 30
0.0
 10
113.0
 20
20.0
 30
0.0
 10
110.0
 20
20.0
 30
0.0
 10
110.0
 20
20.0
 30
0.0
 10
110.0
 20
20.0
 30
0.0
 10
110.0
 20
20.0
 30
0.0
 10
110.0
 20
30.0
 30
0.0
 10
110.0
 20
30.0
 30
0.0
 10
110.0
 20
30.0
 30
0.0
 10
110.0
 20
30.0
 30
0.0
 10
113.0
 20
30.0
 30
0.0
 10
113.0
 20
30.0
 30
0.0
 10
113.0
 20
30.0
 30
0.0
 10
113.0
 20
30.0
 30
0.0
 10
113.0
 20
40.0
 30
0.0
 10
113.0
 20
40.0
 30
0.0
 10
113.0
 20
40.0
 30
0.0
 10
113.0
 20
40.0
 30
0.0
 10
110.0
 20
40.0
 30
0.0
 10
110.0
 20
40.0
 30
0.0
 10
110.0
 20
40.0
 30
0.0
 10
110.0
 20
40.0
 30
0.0
 10
110.0
 20
50.0
 30
0.0
 10
110.0
 20
50.0
 30
0.0
 10
110.0
 20
50.0
 30
0.0
 10
110.0
 20
50.0
 30
0.0
 10
113.0
 20
50.0
 30
0.0
 10
113.0
 20
50.0
 30
0.0
 10
113.0
 20
50.0
 30
0.0
 10
113.0
 20
50.0
 30
0.0
 10
113.0
 20
60.0
 30
0.0
 10
113.0
 20
60.0
 30
0.0
 10
113.0
 20
60.0
 30
0.0
 10
113.0
 20
60.0
 30
0.0
 10
110.0
 20
60.0
 30
0.0
 10
110.0
 20
60.0
 30
0.0
 10
110.0
 20
60.0
 30
0.0
 10
110.0
 20
60.0
 30
0.0
 10
110.0
 20
70.0
 30
0.0
 10
110.0
 20
70.0
 30
0.0
 10
110.0
 20
70.0
 30
0.0
 10
110.0
 20
70.0
 30
0.0
 10
113.0
 20
70.0
 30
0.0
 10
113.0
 20
70.0
 30
0.0
 10
113.0
 20
70.0
 30
0.0
 10
113.0
 20
70.0
 30
0.0
 10
113.0
 20
80.0
 30
0.0
 10
113.0
 20
80.0
 30
0.0
 10
113.0
 20
80.0
 30
0.0
 10
113.0
 20
80.0
 30
0.0
 10
110.0
 20
80.0
 30
0.0
 10
110.0
 20
80.0
 30
0.0
 10
110.0
 20
80.0
 30
0.0
 10
110.0
 20
80.0
 30
0.0
 10
110.0
 20
90.0
 30
0.0
 10
110.0
 20
90.0
 30
0.0
 10
110.0
 20
90.0
 30
0.0
 10
110.0
 20
90.0
 30
0.0
 10
113.0
 20
90.0
 30
0.0
 10
113.0
 20
90.0
 30
0.0
 10
113.0
 20
90.0
 30
0.0
 10
113.0
 20
90.0
 30
0.0
 10
113.0
 20
100.0
 30
0.0
 10
113.0
 20
100.0
 30
0.0
 10
113.0
 20
100.0
 30
0.0
 10
113.0
 20
100.0
 30
0.0
 10
110.0
 20
100.0
 30
0.0
 10
110.0
 20
100.0
 30
0.0
 10
110.0
 20
100.0
 30
0.0
 10
110.0
 20
100.0
 30
0.0
 10
110.0
 20
110.0
 30
0.0
 10
110.0
 20
110.0
 30
0.0
 10
110.0
 20
110.0
 30
0.0
 10
110.0
 20
110.0
 30
0.0
 10
110.0
 20
120.0
 30
0.0
 10
110.0
 20
120.0
 30
0.0
 10
110.0
 20
120.0
 30
0.0
 10
110.0
 20
120.0
 30
0.0
 10
113.0
 20
120.0
 30
0.0
 10
113.0
 20
120.0
 30
0.0
 10
113.0
 20
120.0
 30
0.0
 10
113.0
 20
120.0
 30
0.0
 10
113.0
 20
130.0
 30
0.0
 10
113.0
 20
130.0
 30
0.0
 10
113.0
 20
130.0
 30
0.0
 10
113.0
 20
130.0
 30
0.0
 10
110.0
 20
130.0
 30
0.0
 10
110.0
 20
130.0
 30
0.0
 10
110.0
 20
130.0
 30
0.0
 10
110.0
 20
130.0
 30
0.0
 10
110.0
 20
140.0
 30
0.0
 10
110.0
 20
140.0
 30
0.0
 10
110.0
 20
140.0
 30
0.0
 10
110.0
 20
140.0
 30
0.0
 10
113.0
 20
140.0
 30
0.0
 10
113.0
 20
140.0
 30
0.0
 10
113.0
 20
140.0
 30
0.0
 10
113.0
 20
140.0
 30
0.0
 10
113.0
 20
150.0
 30
0.0
 10
113.0
 20
150.0
 30
0.0
 10
113.0
 20
150.0
 30
0.0
 10
113.0
 20
150.0
 30
0.0
 10
110.0
 20
150.0
 30
0.0
 10
110.0
 20
150.0
 30
0.0
 10
110.0
 20
150.0
 30
0.0
 10
110.0
 20
150.0
 30
0.0
 10
110.0
 20
160.0
 30
0.0
 10
110.0
 20
160.0
 30
0.0
 10
110.0
 20
160.0
 30
0.0
 10
110.0
 20
160.0
 30
0.0
 10
113.0
 20
160.0
 30
0.0
 10
113.0
 20
160.0
 30
0.0
 10
113.0
 20
160.0
 30
0.0
 10
113.0
 20
160.0
 30
0.0
 10
113.0
 20
170.0
 30
0.0
 10
113.0
 20
170.0
 30
0.0
 10
113.0
 20
170.0
 30
0.0
 10
113.0
 20
170.0
 30
0.0
 10
110.0
 20
170.0
 30
0.0
 10
110.0
 20
170.0
 30
0.0
 10
110.0
 20
170.0
 30
0.0
 10
110.0
 20
170.0
 30
0.0
 10
110.0
 20
180.0
 30
0.0
 10
110.0
 20
180.0
 30
0.0
 10
110.0
 20
180.0
 30
0.0
 10
110.0
 20
180.0
 30
0.0
 10
113.0
 20
180.0
 30
0.0
 10
113.0
 20
180.0
 30
0.0
 10
113.0
 20
180.0
 30
0.0
 10
113.0
 20
180.0
 30
0.0
 10
113.0
 20
190.0
 30
0.0
 10
113.0
 20
190.0
 30
0.0
 10
113.0
 20
190.0
 30
0.0
 10
113.0
 20
190.0
 30
0.0
 10
110.0
 20
190.0
 30
0.0
 10
110.0
 20
190.0
 30
0.0
 10
110.0
 20
190.0
 30
0.0
 10
110.0
 20
190.0
 30
0.0
 10
110.0
 20
200.0
 30
0.0
 10
110.0
 20
200.0
 30
0.0
 10
110.0
 20
200.0
 30
0.0
 10
110.0
 20
200.0
 30
0.0
 10
113.0
 20
200.0
 30
0.0
 10
113.0
 20
200.0
 30
0.0
 10
113.0
 20
200.0
 30
0.0
 10
113.0
 20
200.0
 30
0.0
 10
113.0
 20
210.0
 30
0.0
 10
113.0
 20
210.0
 30
0.0
 10
113.0
 20
210.0
 30
0.0
 10
113.0
 20
210.0
 30
0.0
 10
110.0
 20
210.0
 30
0.0
 10
110.0
 20
210.0
 30
0.0
 10
110.0
 20
210.0
 30
0.0
 10
110.0
 20
210.0
 30
0.0
 10
110.0
 20
220.0
 30
0.0
 10
110.0
 20
220.0
 30
0.0
 10
110.0
 20
220.0
 30
0.0
 10
110.0
 20
220.0
 30
0.0
 10
113.0
 20
220.0
 30
0.0
 10
113.0
 20
220.0
 30
0.0
 10
113.0
 20
220.0
 30
0.0
 10
113.0
 20
220.0
 30
0.0
 10
113.0
 20
230.0
 30
0.0
 10
113.0
 20
230.0
 30
0.0
 10
113.0
 20
230.0
 30
0.0
 10
113.0
 20
230.0
 30
0.0
 10
110.0
 20
230.0
 30
0.0
 10
110.0
 20
230.0
 30
0.0
 10
110.0
 20
230.0
 30
0.0
 10
110.0
 20
230.0
 30
0.0
 10
110.0
 20
240.0
 30
0.0
 10
110.0
 20
240.0
 30
0.0
 10
110.0
 20
240.0
 30
0.0
 10
110.0
 20
240.0
 30
0.0
 10
113.0
 20
240.0
 30
0.0
 10
113.0
 20
240.0
 30
0.0
 10
113.0
 20
240.0
 30
0.0
 10
113.0
 20
240.0
 30
0.0
 10
113.0
 20
250.0
 30
0.0
 10
113.0
 20
250.0
 30
0.0
 10
113.0
 20
250.0
 30
0.0
 10
113.0
 20
250.0
 30
0.0
 10
110.0
 20
250.0
 30
0.0
 10
110.0
 20
250.0
 30
0.0
 10
110.0
 20
250.0
 30
0.0
 10
110.0
 20
250.0
 30
0.0
 10
110.0
 20
260.0
 30
0.0
 10
110.0
 20
260.0
 30
0.0
  0
SPLINE
  5
73
330
1F
100
AcDbEntity
  8
layer 1
 62
   242
370
     9
100
AcDbSpline
210
0.0
220
0.0
230
1.0
 70
    11
 71
     3
 72
    20
 73
    16
 74
     0
 42
0.000000001
 43
0.0000000001
 40
0.0
 40
0.0
 40
0.0
 40
0.0
 40
0.2
 40
0.2
 40
0.2
 40
0.2
 40
0.4
 40
0.4
 40
0.4
 40
0.4
 40
0.6
 40
0.6
 40
0.6
 40
0.6
 40
1.0
 40
1.0
 40
1.0
 40
1.0
 10
208.5
 20
40.0
 30
0.0
 10
208.5
 20
40.0
 30
0.0
 10
208.5
 20
30.0
 30
0.0
 10
208.5
 20
30.0
 30
0.0
 10
208.5
 20
30.0
 30
0.0
 10
208.5
 20
30.0
 30
0.0
 10
211.5
 20
30.0
 30
0.0
 10
211.5
 20
30.0
 30
0.0
 10
211.5
 20
30.0
 30
0.0
 10
211.5
 20
30.0
 30
0.0
 10
211.5
 20
40.0
 30
0.0
 10
211.5
 20
40.0
 30
0.0
 10
211.5
 20
40.0
 30
0.0
 10
211.5
 20
40.0
 30
0.0
 10
208.5
 20
40.0
 30
0.0
 10
208.5
 20
40.0
 30
0.0
  0
SPLINE
  5
74
330
1F
100
AcDbEntity
  8
layer 1
 62
   242
370
     9
100
AcDbSpline
210
0.0
220
0.0
230
1.0
 70
    11
 71
     3
 72
    20
 73
    16
 74
     0
 42
0.000000001
 43
0.0000000001
 40
0.0
 40
0.0
 40
0.0
 40
0.0
 40
0.2
 40
0.2
 40
0.2
 40
0.2
 40
0.4
 40
0.4
 40
0.4
 40
0.4
 40
0.6
 40
0.6
 40
0.6
 40
0.6
 40
1.0
 40
1.0
 40
1.0
 40
1.0
 10
211.5
 20
-10.0
 30
0.0
 10
211.5
 20
-10.0
 30
0.0
 10
211.5
 20
0.0
 30
0.0
 10
211.5
 20
0.0
 30
0.0
 10
211.5
 20
0.0
 30
0.0
 10
211.5
 20
0.0
 30
0.0
 10
208.5
 20
0.0
 30
0.0
 10
208.5
 20
0.0
 30
0.0
 10
208.5
 20
0.0
 30
0.0
 10
208.5
 20
0.0
 30
0.0
 10
208.5
 20
-10.0
 30
0.0
 10
208.5
 20
-10.0
 30
0.0
 10
208.5
 20
-10.0
 30
0.0
 10
208.5
 20
-10.0
 30
0.0
 10
211.5
 20
-10.0
 30
0.0
 10
211.5
 20
-10.0
 30
0.0
  0
SPLINE
  5
75
330
1F
100
AcDbEntity
  8
layer 1
 62
   242
370
     9
100
AcDbSpline
210
0.0
220
0.0
230
1.0
 70
    11
 71
     3
 72
    20
 73
    16
 74
     0
 42
0.000000001
 43
0.0000000001
 40
0.0
 40
0.0
 40
0.0
 40
0.0
 40
0.2
 40
0.2
 40
0.2
 40
0.2
 40
0.4
 40
0.4
 40
0.4
 40
0.4
 40
0.6
 40
0.6
 40
0.6
 40
0.6
 40
1.0
 40
1.0
 40
1.0
 40
1.0
 10
208.5
 20
10.0
 30
0.0
 10
208.5
 20
10.0
 30
0.0
 10
211.5
 20
10.0
 30
0.0
 10
211.5
 20
10.0
 30
0.0
 10
211.5
 20
10.0
 30
0.0
 10
211.5
 20
10.0
 30
0.0
 10
211.5
 20
20.0
 30
0.0
 10
211.5
 20
20.0
 30
0.0
 10
211.5
 20
20.0
 30
0.0
 10
211.5
 20
20.0
 30
0.0
 10
208.5
 20
20.0
 30
0.0
 10
208.5
 20
20.0
 30
0.0
 10
208.5
 20
20.0
 30
0.0
 10
208.5
 20
20.0
 30
0.0
 10
208.5
 20
10.0
 30
0.0
 10
208.5
 20
10.0
 30
0.0
  0
SPLINE
  5
76
330
1F
100
AcDbEntity
  8
layer 1
 62
   242
370
     9
100
AcDbSpline
210
0.0
220
0.0
230
1.0
 70
    11
 71
     3
 72
    20
 73
    16
 74
     0
 42
0.000000001
 43
0.0000000001
 40
0.0
 40
0.0
 40
0.0
 40
0.0
 40
0.2
 40
0.2
 40
0.2
 40
0.2
 40
0.4
 40
0.4
 40
0.4
 40
0.4
 40
0.6
 40
0.6
 40
0.6
 40
0.6
 40
1.0
 40
1.0
 40
1.0
 40
1.0
 10
208.5
 20
-30.0
 30
0.0
 10
208.5
 20
-30.0
 30
0.0
 10
211.5
 20
-30.0
 30
0.0
 10
211.5
 20
-30.0
 30
0.0
 10
211.5
 20
-30.0
 30
0.0
 10
211.5
 20
-30.0
 30
0.0
 10
211.5
 20
-20.0
 30
0.0
 10
211.5
 20
-20.0
 30
0.0
 10
211.5
 20
-20.0
 30
0.0
 10
211.5
 20
-20.0
 30
0.0
 10
208.5
 20
-20.0
 30
0.0
 10
208.5
 20
-20.0
 30
0.0
 10
208.5
 20
-20.0
 30
0.0
 10
208.5
 20
-20.0
 30
0.0
 10
208.5
 20
-30.0
 30
0.0
 10
208.5
 20
-30.0
 30
0.0
  0
SPLINE
  5
77
330
1F
100
AcDbEntity
  8
layer 1
 62
   242
370
     9
100
AcDbSpline
210
0.0
220
0.0
230
1.0
 70
    11
 71
     3
 72
    20
 73
    16
 74
     0
 42
0.000000001
 43
0.0000000001
 40
0.0
 40
0.0
 40
0.0
 40
0.0
 40
0.2
 40
0.2
 40
0.2
 40
0.2
 40
0.4
 40
0.4
 40
0.4
 40
0.4
 40
0.6
 40
0.6
 40
0.6
 40
0.6
 40
1.0
 40
1.0
 40
1.0
 40
1.0
 10
211.5
 20
60.0
 30
0.0
 10
211.5
 20
60.0
 30
0.0
 10
208.5
 20
60.0
 30
0.0
 10
208.5
 20
60.0
 30
0.0
 10
208.5
 20
60.0
 30
0.0
 10
208.5
 20
60.0
 30
0.0
 10
208.5
 20
50.0
 30
0.0
 10
208.5
 20
50.0
 30
0.0
 10
208.5
 20
50.0
 30
0.0
 10
208.5
 20
50.0
 30
0.0
 10
211.5
 20
50.0
 30
0.0
 10
211.5
 20
50.0
 30
0.0
 10
211.5
 20
50.0
 30
0.0
 10
211.5
 20
50.0
 30
0.0
 10
211.5
 20
60.0
 30
0.0
 10
211.5
 20
60.0
 30
0.0
  0
SPLINE
  5
78
330
1F
100
AcDbEntity
  8
layer 1
 62
   242
370
     9
100
AcDbSpline
210
0.0
220
0.0
230
1.0
 70
    11
 71
     3
 72
    20
 73
    16
 74
     0
 42
0.000000001
 43
0.0000000001
 40
0.0
 40
0.0
 40
0.0
 40
0.0
 40
0.2
 40
0.2
 40
0.2
 40
0.2
 40
0.4
 40
0.4
 40
0.4
 40
0.4
 40
0.6
 40
0.6
 40
0.6
 40
0.6
 40
1.0
 40
1.0
 40
1.0
 40
1.0
 10
14.5
 20
120.0
 30
0.0
 10
14.5
 20
120.0
 30
0.0
 10
14.5
 20
110.0
 30
0.0
 10
14.5
 20
110.0
 30
0.0
 10
14.5
 20
110.0
 30
0.0
 10
14.5
 20
110.0
 30
0.0
 10
11.5
 20
110.0
 30
0.0
 10
11.5
 20
110.0
 30
0.0
 10
11.5
 20
110.0
 30
0.0
 10
11.5
 20
110.0
 30
0.0
 10
11.5
 20
120.0
 30
0.0
 10
11.5
 20
120.0
 30
0.0
 10
11.5
 20
120.0
 30
0.0
 10
11.5
 20
120.0
 30
0.0
 10
14.5
 20
120.0
 30
0.0
 10
14.5
 20
120.0
 30
0.0
  0
SPLINE
  5
79
330
1F
100
AcDbEntity
  8
layer 1
 62
   242
370
     9
100
AcDbSpline
210
0.0
220
0.0
230
1.0
 70
    11
 71
     3
 72
    20
 73
    16
 74
     0
 42
0.000000001
 43
0.0000000001
 40
0.0
 40
0.0
 40
0.0
 40
0.0
 40
0.2
 40
0.2
 40
0.2
 40
0.2
 40
0.4
 40
0.4
 40
0.4
 40
0.4
 40
0.6
 40
0.6
 40
0.6
 40
0.6
 40
1.0
 40
1.0
 40
1.0
 40
1.0
 10
14.5
 20
140.0
 30
0.0
 10
14.5
 20
140.0
 30
0.0
 10
14.5
 20
130.0
 30
0.0
 10
14.5
 20
130.0
 30
0.0
 10
14.5
 20
130.0
 30
0.0
 10
14.5
 20
130.0
 30
0.0
 10
11.5
 20
130.0
 30
0.0
 10
11.5
 20
130.0
 30
0.0
 10
11.5
 20
130.0
 30
0.0
 10
11.5
 20
130.0
 30
0.0
 10
11.5
 20
140.0
 30
0.0
 10
11.5
 20
140.0
 30
0.0
 10
11.5
 20
140.0
 30
0.0
 10
11.5
 20
140.0
 30
0.0
 10
14.5
 20
140.0
 30
0.0
 10
14.5
 20
140.0
 30
0.0
  0
SPLINE
  5
7A
330
1F
100
AcDbEntity
  8
layer 1
 62
   242
370
     9
100
AcDbSpline
210
0.0
220
0.0
230
1.0
 70
    11
 71
     3
 72
    20
 73
    16
 74
     0
 42
0.000000001
 43
0.0000000001
 40
0.0
 40
0.0
 40
0.0
 40
0.0
 40
0.2
 40
0.2
 40
0.2
 40
0.2
 40
0.4
 40
0.4
 40
0.4
 40
0.4
 40
0.6
 40
0.6
 40
0.6
 40
0.6
 40
1.0
 40
1.0
 40
1.0
 40
1.0
 10
14.5
 20
160.0
 30
0.0
 10
14.5
 20
160.0
 30
0.0
 10
14.5
 20
150.0
 30
0.0
 10
14.5
 20
150.0
 30
0.0
 10
14.5
 20
150.0
 30
0.0
 10
14.5
 20
150.0
 30
0.0
 10
11.5
 20
150.0
 30
0.0
 10
11.5
 20
150.0
 30
0.0
 10
11.5
 20
150.0
 30
0.0
 10
11.5
 20
150.0
 30
0.0
 10
11.5
 20
160.0
 30
0.0
 10
11.5
 20
160.0
 30
0.0
 10
11.5
 20
160.0
 30
0.0
 10
11.5
 20
160.0
 30
0.0
 10
14.5
 20
160.0
 30
0.0
 10
14.5
 20
160.0
 30
0.0
  0
SPLINE
  5
7B
330
1F
100
AcDbEntity
  8
layer 1
 62
   242
370
     9
100
AcDbSpline
210
0.0
220
0.0
230
1.0
 70
    11
 71
     3
 72
    20
 73
    16
 74
     0
 42
0.000000001
 43
0.0000000001
 40
0.0
 40
0.0
 40
0.0
 40
0.0
 40
0.2
 40
0.2
 40
0.2
 40
0.2
 40
0.4
 40
0.4
 40
0.4
 40
0.4
 40
0.6
 40
0.6
 40
0.6
 40
0.6
 40
1.0
 40
1.0
 40
1.0
 40
1.0
 10
14.5
 20
180.0
 30
0.0
 10
14.5
 20
180.0
 30
0.0
 10
14.5
 20
170.0
 30
0.0
 10
14.5
 20
170.0
 30
0.0
 10
14.5
 20
170.0
 30
0.0
 10
14.5
 20
170.0
 30
0.0
 10
11.5
 20
170.0
 30
0.0
 10
11.5
 20
170.0
 30
0.0
 10
11.5
 20
170.0
 30
0.0
 10
11.5
 20
170.0
 30
0.0
 10
11.5
 20
180.0
 30
0.0
 10
11.5
 20
180.0
 30
0.0
 10
11.5
 20
180.0
 30
0.0
 10
11.5
 20
180.0
 30
0.0
 10
14.5
 20
180.0
 30
0.0
 10
14.5
 20
180.0
 30
0.0
  0
SPLINE
  5
7C
330
1F
100
AcDbEntity
  8
layer 1
 62
   242
370
     9
100
AcDbSpline
210
0.0
220
0.0
230
1.0
 70
    11
 71
     3
 72
    20
 73
    16
 74
     0
 42
0.000000001
 43
0.0000000001
 40
0.0
 40
0.0
 40
0.0
 40
0.0
 40
0.2
 40
0.2
 40
0.2
 40
0.2
 40
0.4
 40
0.4
 40
0.4
 40
0.4
 40
0.6
 40
0.6
 40
0.6
 40
0.6
 40
1.0
 40
1.0
 40
1.0
 40
1.0
 10
14.5
 20
200.0
 30
0.0
 10
14.5
 20
200.0
 30
0.0
 10
14.5
 20
190.0
 30
0.0
 10
14.5
 20
190.0
 30
0.0
 10
14.5
 20
190.0
 30
0.0
 10
14.5
 20
190.0
 30
0.0
 10
11.5
 20
190.0
 30
0.0
 10
11.5
 20
190.0
 30
0.0
 10
11.5
 20
190.0
 30
0.0
 10
11.5
 20
190.0
 30
0.0
 10
11.5
 20
200.0
 30
0.0
 10
11.5
 20
200.0
 30
0.0
 10
11.5
 20
200.0
 30
0.0
 10
11.5
 20
200.0
 30
0.0
 10
14.5
 20
200.0
 30
0.0
 10
14.5
 20
200.0
 30
0.0
  0
SPLINE
  5
7D
330
1F
100
AcDbEntity
  8
layer 1
 62
   242
370
     9
100
AcDbSpline
210
0.0
220
0.0
230
1.0
 70
    11
 71
     3
 72
    20
 73
    16
 74
     0
 42
0.000000001
 43
0.0000000001
 40
0.0
 40
0.0
 40
0.0
 40
0.0
 40
0.2
 40
0.2
 40
0.2
 40
0.2
 40
0.4
 40
0.4
 40
0.4
 40
0.4
 40
0.6
 40
0.6
 40
0.6
 40
0.6
 40
1.0
 40
1.0
 40
1.0
 40
1.0
 10
14.5
 20
220.0
 30
0.0
 10
14.5
 20
220.0
 30
0.0
 10
14.5
 20
210.0
 30
0.0
 10
14.5
 20
210.0
 30
0.0
 10
14.5
 20
210.0
 30
0.0
 10
14.5
 20
210.0
 30
0.0
 10
11.5
 20
210.0
 30
0.0
 10
11.5
 20
210.0
 30
0.0
 10
11.5
 20
210.0
 30
0.0
 10
11.5
 20
210.0
 30
0.0
 10
11.5
 20
220.0
 30
0.0
 10
11.5
 20
220.0
 30
0.0
 10
11.5
 20
220.0
 30
0.0
 10
11.5
 20
220.0
 30
0.0
 10
14.5
 20
220.0
 30
0.0
 10
14.5
 20
220.0
 30
0.0
  0
SPLINE
  5
7E
330
1F
100
AcDbEntity
  8
layer 1
 62
   242
370
     9
100
AcDbSpline
210
0.0
220
0.0
230
1.0
 70
    11
 71
     3
 72
    20
 73
    16
 74
     0
 42
0.000000001
 43
0.0000000001
 40
0.0
 40
0.0
 40
0.0
 40
0.0
 40
0.2
 40
0.2
 40
0.2
 40
0.2
 40
0.4
 40
0.4
 40
0.4
 40
0.4
 40
0.6
 40
0.6
 40
0.6
 40
0.6
 40
1.0
 40
1.0
 40
1.0
 40
1.0
 10
14.5
 20
240.0
 30
0.0
 10
14.5
 20
240.0
 30
0.0
 10
14.5
 20
230.0
 30
0.0
 10
14.5
 20
230.0
 30
0.0
 10
14.5
 20
230.0
 30
0.0
 10
14.5
 20
230.0
 30
0.0
 10
11.5
 20
230.0
 30
0.0
 10
11.5
 20
230.0
 30
0.0
 10
11.5
 20
230.0
 30
0.0
 10
11.5
 20
230.0
 30
0.0
 10
11.5
 20
240.0
 30
0.0
 10
11.5
 20
240.0
 30
0.0
 10
11.5
 20
240.0
 30
0.0
 10
11.5
 20
240.0
 30
0.0
 10
14.5
 20
240.0
 30
0.0
 10
14.5
 20
240.0
 30
0.0
  0
SPLINE
  5
7F
330
1F
100
AcDbEntity
  8
layer 1
 62
   242
370
     9
100
AcDbSpline
210
0.0
220
0.0
230
1.0
 70
    11
 71
     3
 72
    20
 73
    16
 74
     0
 42
0.000000001
 43
0.0000000001
 40
0.0
 40
0.0
 40
0.0
 40
0.0
 40
0.2
 40
0.2
 40
0.2
 40
0.2
 40
0.4
 40
0.4
 40
0.4
 40
0.4
 40
0.6
 40
0.6
 40
0.6
 40
0.6
 40
1.0
 40
1.0
 40
1.0
 40
1.0
 10
211.5
 20
250.0
 30
0.0
 10
211.5
 20
250.0
 30
0.0
 10
211.5
 20
240.0
 30
0.0
 10
211.5
 20
240.0
 30
0.0
 10
211.5
 20
240.0
 30
0.0
 10
211.5
 20
240.0
 30
0.0
 10
208.5
 20
240.0
 30
0.0
 10
208.5
 20
240.0
 30
0.0
 10
208.5
 20
240.0
 30
0.0
 10
208.5
 20
240.0
 30
0.0
 10
208.5
 20
250.0
 30
0.0
 10
208.5
 20
250.0
 30
0.0
 10
208.5
 20
250.0
 30
0.0
 10
208.5
 20
250.0
 30
0.0
 10
211.5
 20
250.0
 30
0.0
 10
211.5
 20
250.0
 30
0.0
  0
SPLINE
  5
80
330
1F
100
AcDbEntity
  8
layer 1
 62
   242
370
     9
100
AcDbSpline
210
0.0
220
0.0
230
1.0
 70
    11
 71
     3
 72
    20
 73
    16
 74
     0
 42
0.000000001
 43
0.0000000001
 40
0.0
 40
0.0
 40
0.0
 40
0.0
 40
0.2
 40
0.2
 40
0.2
 40
0.2
 40
0.4
 40
0.4
 40
0.4
 40
0.4
 40
0.6
 40
0.6
 40
0.6
 40
0.6
 40
1.0
 40
1.0
 40
1.0
 40
1.0
 10
211.5
 20
230.0
 30
0.0
 10
211.5
 20
230.0
 30
0.0
 10
211.5
 20
220.0
 30
0.0
 10
211.5
 20
220.0
 30
0.0
 10
211.5
 20
220.0
 30
0.0
 10
211.5
 20
220.0
 30
0.0
 10
208.5
 20
220.0
 30
0.0
 10
208.5
 20
220.0
 30
0.0
 10
208.5
 20
220.0
 30
0.0
 10
208.5
 20
220.0
 30
0.0
 10
208.5
 20
230.0
 30
0.0
 10
208.5
 20
230.0
 30
0.0
 10
208.5
 20
230.0
 30
0.0
 10
208.5
 20
230.0
 30
0.0
 10
211.5
 20
230.0
 30
0.0
 10
211.5
 20
230.0
 30
0.0
  0
SPLINE
  5
81
330
1F
100
AcDbEntity
  8
layer 1
 62
   242
370
     9
100
AcDbSpline
210
0.0
220
0.0
230
1.0
 70
    11
 71
     3
 72
    20
 73
    16
 74
     0
 42
0.000000001
 43
0.0000000001
 40
0.0
 40
0.0
 40
0.0
 40
0.0
 40
0.2
 40
0.2
 40
0.2
 40
0.2
 40
0.4
 40
0.4
 40
0.4
 40
0.4
 40
0.6
 40
0.6
 40
0.6
 40
0.6
 40
1.0
 40
1.0
 40
1.0
 40
1.0
 10
211.5
 20
210.0
 30
0.0
 10
211.5
 20
210.0
 30
0.0
 10
211.5
 20
200.0
 30
0.0
 10
211.5
 20
200.0
 30
0.0
 10
211.5
 20
200.0
 30
0.0
 10
211.5
 20
200.0
 30
0.0
 10
208.5
 20
200.0
 30
0.0
 10
208.5
 20
200.0
 30
0.0
 10
208.5
 20
200.0
 30
0.0
 10
208.5
 20
200.0
 30
0.0
 10
208.5
 20
210.0
 30
0.0
 10
208.5
 20
210.0
 30
0.0
 10
208.5
 20
210.0
 30
0.0
 10
208.5
 20
210.0
 30
0.0
 10
211.5
 20
210.0
 30
0.0
 10
211.5
 20
210.0
 30
0.0
  0
SPLINE
  5
82
330
1F
100
AcDbEntity
  8
layer 1
 62
   242
370
     9
100
AcDbSpline
210
0.0
220
0.0
230
1.0
 70
    11
 71
     3
 72
    20
 73
    16
 74
     0
 42
0.000000001
 43
0.0000000001
 40
0.0
 40
0.0
 40
0.0
 40
0.0
 40
0.2
 40
0.2
 40
0.2
 40
0.2
 40
0.4
 40
0.4
 40
0.4
 40
0.4
 40
0.6
 40
0.6
 40
0.6
 40
0.6
 40
1.0
 40
1.0
 40
1.0
 40
1.0
 10
211.5
 20
190.0
 30
0.0
 10
211.5
 20
190.0
 30
0.0
 10
211.5
 20
180.0
 30
0.0
 10
211.5
 20
180.0
 30
0.0
 10
211.5
 20
180.0
 30
0.0
 10
211.5
 20
180.0
 30
0.0
 10
208.5
 20
180.0
 30
0.0
 10
208.5
 20
180.0
 30
0.0
 10
208.5
 20
180.0
 30
0.0
 10
208.5
 20
180.0
 30
0.0
 10
208.5
 20
190.0
 30
0.0
 10
208.5
 20
190.0
 30
0.0
 10
208.5
 20
190.0
 30
0.0
 10
208.5
 20
190.0
 30
0.0
 10
211.5
 20
190.0
 30
0.0
 10
211.5
 20
190.0
 30
0.0
  0
SPLINE
  5
83
330
1F
100
AcDbEntity
  8
layer 1
 62
   242
370
     9
100
AcDbSpline
210
0.0
220
0.0
230
1.0
 70
    11
 71
     3
 72
    20
 73
    16
 74
     0
 42
0.000000001
 43
0.0000000001
 40
0.0
 40
0.0
 40
0.0
 40
0.0
 40
0.2
 40
0.2
 40
0.2
 40
0.2
 40
0.4
 40
0.4
 40
0.4
 40
0.4
 40
0.6
 40
0.6
 40
0.6
 40
0.6
 40
1.0
 40
1.0
 40
1.0
 40
1.0
 10
211.5
 20
170.0
 30
0.0
 10
211.5
 20
170.0
 30
0.0
 10
211.5
 20
160.0
 30
0.0
 10
211.5
 20
160.0
 30
0.0
 10
211.5
 20
160.0
 30
0.0
 10
211.5
 20
160.0
 30
0.0
 10
208.5
 20
160.0
 30
0.0
 10
208.5
 20
160.0
 30
0.0
 10
208.5
 20
160.0
 30
0.0
 10
208.5
 20
160.0
 30
0.0
 10
208.5
 20
170.0
 30
0.0
 10
208.5
 20
170.0
 30
0.0
 10
208.5
 20
170.0
 30
0.0
 10
208.5
 20
170.0
 30
0.0
 10
211.5
 20
170.0
 30
0.0
 10
211.5
 20
170.0
 30
0.0
  0
SPLINE
  5
84
330
1F
100
AcDbEntity
  8
layer 1
 62
   242
370
     9
100
AcDbSpline
210
0.0
220
0.0
230
1.0
 70
    11
 71
     3
 72
    20
 73
    16
 74
     0
 42
0.000000001
 43
0.0000000001
 40
0.0
 40
0.0
 40
0.0
 40
0.0
 40
0.2
 40
0.2
 40
0.2
 40
0.2
 40
0.4
 40
0.4
 40
0.4
 40
0.4
 40
0.6
 40
0.6
 40
0.6
 40
0.6
 40
1.0
 40
1.0
 40
1.0
 40
1.0
 10
211.5
 20
150.0
 30
0.0
 10
211.5
 20
150.0
 30
0.0
 10
211.5
 20
140.0
 30
0.0
 10
211.5
 20
140.0
 30
0.0
 10
211.5
 20
140.0
 30
0.0
 10
211.5
 20
140.0
 30
0.0
 10
208.5
 20
140.0
 30
0.0
 10
208.5
 20
140.0
 30
0.0
 10
208.5
 20
140.0
 30
0.0
 10
208.5
 20
140.0
 30
0.0
 10
208.5
 20
150.0
 30
0.0
 10
208.5
 20
150.0
 30
0.0
 10
208.5
 20
150.0
 30
0.0
 10
208.5
 20
150.0
 30
0.0
 10
211.5
 20
150.0
 30
0.0
 10
211.5
 20
150.0
 30
0.0
  0
SPLINE
  5
85
330
1F
100
AcDbEntity
  8
layer 1
 62
   242
370
     9
100
AcDbSpline
210
0.0
220
0.0
230
1.0
 70
    11
 71
     3
 72
    20
 73
    16
 74
     0
 42
0.000000001
 43
0.0000000001
 40
0.0
 40
0.0
 40
0.0
 40
0.0
 40
0.2
 40
0.2
 40
0.2
 40
0.2
 40
0.4
 40
0.4
 40
0.4
 40
0.4
 40
0.6
 40
0.6
 40
0.6
 40
0.6
 40
1.0
 40
1.0
 40
1.0
 40
1.0
 10
211.5
 20
130.0
 30
0.0
 10
211.5
 20
130.0
 30
0.0
 10
211.5
 20
120.0
 30
0.0
 10
211.5
 20
120.0
 30
0.0
 10
211.5
 20
120.0
 30
0.0
 10
211.5
 20
120.0
 30
0.0
 10
208.5
 20
120.0
 30
0.0
 10
208.5
 20
120.0
 30
0.0
 10
208.5
 20
120.0
 30
0.0
 10
208.5
 20
120.0
 30
0.0
 10
208.5
 20
130.0
 30
0.0
 10
208.5
 20
130.0
 30
0.0
 10
208.5
 20
130.0
 30
0.0
 10
208.5
 20
130.0
 30
0.0
 10
211.5
 20
130.0
 30
0.0
 10
211.5
 20
130.0
 30
0.0
  0
SPLINE
  5
86
330
1F
100
AcDbEntity
  8
layer 1
 62
   242
370
     9
100
AcDbSpline
210
0.0
220
0.0
230
1.0
 70
    11
 71
     3
 72
    20
 73
    16
 74
     0
 42
0.000000001
 43
0.0000000001
 40
0.0
 40
0.0
 40
0.0
 40
0.0
 40
0.2
 40
0.2
 40
0.2
 40
0.2
 40
0.4
 40
0.4
 40
0.4
 40
0.4
 40
0.6
 40
0.6
 40
0.6
 40
0.6
 40
1.0
 40
1.0
 40
1.0
 40
1.0
 10
14.5
 20
-20.0
 30
0.0
 10
14.5
 20
-20.0
 30
0.0
 10
14.5
 20
-10.0
 30
0.0
 10
14.5
 20
-10.0
 30
0.0
 10
14.5
 20
-10.0
 30
0.0
 10
14.5
 20
-10.0
 30
0.0
 10
11.5
 20
-10.0
 30
0.0
 10
11.5
 20
-10.0
 30
0.0
 10
11.5
 20
-10.0
 30
0.0
 10
11.5
 20
-10.0
 30
0.0
 10
11.5
 20
-20.0
 30
0.0
 10
11.5
 20
-20.0
 30
0.0
 10
11.5
 20
-20.0
 30
0.0
 10
11.5
 20
-20.0
 30
0.0
 10
14.5
 20
-20.0
 30
0.0
 10
14.5
 20
-20.0
 30
0.0
  0
SPLINE
  5
87
330
1F
100
AcDbEntity
  8
layer 1
 62
   242
370
     9
100
AcDbSpline
210
0.0
220
0.0
230
1.0
 70
    11
 71
     3
 72
    20
 73
    16
 74
     0
 42
0.000000001
 43
0.0000000001
 40
0.0
 40
0.0
 40
0.0
 40
0.0
 40
0.2
 40
0.2
 40
0.2
 40
0.2
 40
0.4
 40
0.4
 40
0.4
 40
0.4
 40
0.6
 40
0.6
 40
0.6
 40
0.6
 40
1.0
 40
1.0
 40
1.0
 40
1.0
 10
14.5
 20
0.0
 30
0.0
 10
14.5
 20
0.0
 30
0.0
 10
14.5
 20
10.0
 30
0.0
 10
14.5
 20
10.0
 30
0.0
 10
14.5
 20
10.0
 30
0.0
 10
14.5
 20
10.0
 30
0.0
 10
11.5
 20
10.0
 30
0.0
 10
11.5
 20
10.0
 30
0.0
 10
11.5
 20
10.0
 30
0.0
 10
11.5
 20
10.0
 30
0.0
 10
11.5
 20
0.0
 30
0.0
 10
11.5
 20
0.0
 30
0.0
 10
11.5
 20
0.0
 30
0.0
 10
11.5
 20
0.0
 30
0.0
 10
14.5
 20
0.0
 30
0.0
 10
14.5
 20
0.0
 30
0.0
  0
SPLINE
  5
88
330
1F
100
AcDbEntity
  8
layer 1
 62
   242
370
     9
100
AcDbSpline
210
0.0
220
0.0
230
1.0
 70
    11
 71
     3
 72
    20
 73
    16
 74
     0
 42
0.000000001
 43
0.0000000001
 40
0.0
 40
0.0
 40
0.0
 40
0.0
 40
0.2
 40
0.2
 40
0.2
 40
0.2
 40
0.4
 40
0.4
 40
0.4
 40
0.4
 40
0.6
 40
0.6
 40
0.6
 40
0.6
 40
1.0
 40
1.0
 40
1.0
 40
1.0
 10
14.5
 20
20.0
 30
0.0
 10
14.5
 20
20.0
 30
0.0
 10
14.5
 20
30.0
 30
0.0
 10
14.5
 20
30.0
 30
0.0
 10
14.5
 20
30.0
 30
0.0
 10
14.5
 20
30.0
 30
0.0
 10
11.5
 20
30.0
 30
0.0
 10
11.5
 20
30.0
 30
0.0
 10
11.5
 20
30.0
 30
0.0
 10
11.5
 20
30.0
 30
0.0
 10
11.5
 20
20.0
 30
0.0
 10
11.5
 20
20.0
 30
0.0
 10
11.5
 20
20.0
 30
0.0
 10
11.5
 20
20.0
 30
0.0
 10
14.5
 20
20.0
 30
0.0
 10
14.5
 20
20.0
 30
0.0
  0
SPLINE
  5
89
330
1F
100
AcDbEntity
  8
layer 1
 62
   242
370
     9
100
AcDbSpline
210
0.0
220
0.0
230
1.0
 70
    11
 71
     3
 72
    20
 73
    16
 74
     0
 42
0.000000001
 43
0.0000000001
 40
0.0
 40
0.0
 40
0.0
 40
0.0
 40
0.2
 40
0.2
 40
0.2
 40
0.2
 40
0.4
 40
0.4
 40
0.4
 40
0.4
 40
0.6
 40
0.6
 40
0.6
 40
0.6
 40
1.0
 40
1.0
 40
1.0
 40
1.0
 10
14.5
 20
40.0
 30
0.0
 10
14.5
 20
40.0
 30
0.0
 10
14.5
 20
50.0
 30
0.0
 10
14.5
 20
50.0
 30
0.0
 10
14.5
 20
50.0
 30
0.0
 10
14.5
 20
50.0
 30
0.0
 10
11.5
 20
50.0
 30
0.0
 10
11.5
 20
50.0
 30
0.0
 10
11.5
 20
50.0
 30
0.0
 10
11.5
 20
50.0
 30
0.0
 10
11.5
 20
40.0
 30
0.0
 10
11.5
 20
40.0
 30
0.0
 10
11.5
 20
40.0
 30
0.0
 10
11.5
 20
40.0
 30
0.0
 10
14.5
 20
40.0
 30
0.0
 10
14.5
 20
40.0
 30
0.0
  0
SPLINE
  5
8A
330
1F
100
AcDbEntity
  8
layer 1
370
     9
100
AcDbSpline
210
0.0
220
0.0
230
1.0
 70
    11
 71
     3
 72
   572
 73
   568
 74
     0
 42
0.000000001
 43
0.0000000001
 40
0.0
 40
0.0
 40
0.0
 40
0.0
 40
0.006993006993007
 40
0.006993006993007
 40
0.006993006993007
 40
0.006993006993007
 40
0.013986013986014
 40
0.013986013986014
 40
0.013986013986014
 40
0.013986013986014
 40
0.020979020979021
 40
0.020979020979021
 40
0.020979020979021
 40
0.020979020979021
 40
0.027972027972028
 40
0.027972027972028
 40
0.027972027972028
 40
0.027972027972028
 40
0.034965034965035
 40
0.034965034965035
 40
0.034965034965035
 40
0.034965034965035
 40
0.041958041958042
 40
0.041958041958042
 40
0.041958041958042
 40
0.041958041958042
 40
0.048951048951049
 40
0.048951048951049
 40
0.048951048951049
 40
0.048951048951049
 40
0.0559440559440559
 40
0.0559440559440559
 40
0.0559440559440559
 40
0.0559440559440559
 40
0.0629370629370629
 40
0.0629370629370629
 40
0.0629370629370629
 40
0.0629370629370629
 40
0.0699300699300699
 40
0.0699300699300699
 40
0.0699300699300699
 40
0.0699300699300699
 40
0.0769230769230769
 40
0.0769230769230769
 40
0.0769230769230769
 40
0.0769230769230769
 40
0.0839160839160839
 40
0.0839160839160839
 40
0.0839160839160839
 40
0.0839160839160839
 40
0.0909090909090909
 40
0.0909090909090909
 40
0.0909090909090909
 40
0.0909090909090909
 40
0.0979020979020979
 40
0.0979020979020979
 40
0.0979020979020979
 40
0.0979020979020979
 40
0.1048951048951049
 40
0.1048951048951049
 40
0.1048951048951049
 40
0.1048951048951049
 40
0.1118881118881119
 40
0.1118881118881119
 40
0.1118881118881119
 40
0.1118881118881119
 40
0.1188811188811189
 40
0.1188811188811189
 40
0.1188811188811189
 40
0.1188811188811189
 40
0.1258741258741259
 40
0.1258741258741259
 40
0.1258741258741259
 40
0.1258741258741259
 40
0.1328671328671329
 40
0.1328671328671329
 40
0.1328671328671329
 40
0.1328671328671329
 40
0.1398601398601399
 40
0.1398601398601399
 40
0.1398601398601399
 40
0.1398601398601399
 40
0.1468531468531468
 40
0.1468531468531468
 40
0.1468531468531468
 40
0.1468531468531468
 40
0.1538461538461539
 40
0.1538461538461539
 40
0.1538461538461539
 40
0.1538461538461539
 40
0.1608391608391608
 40
0.1608391608391608
 40
0.1608391608391608
 40
0.1608391608391608
 40
0.1678321678321678
 40
0.1678321678321678
 40
0.1678321678321678
 40
0.1678321678321678
 40
0.1748251748251748
 40
0.1748251748251748
 40
0.1748251748251748
 40
0.1748251748251748
 40
0.1818181818181818
 40
0.1818181818181818
 40
0.1818181818181818
 40
0.1818181818181818
 40
0.1888111888111888
 40
0.1888111888111888
 40
0.1888111888111888
 40
0.1888111888111888
 40
0.1958041958041958
 40
0.1958041958041958
 40
0.1958041958041958
 40
0.1958041958041958
 40
0.2027972027972028
 40
0.2027972027972028
 40
0.2027972027972028
 40
0.2027972027972028
 40
0.2097902097902098
 40
0.2097902097902098
 40
0.2097902097902098
 40
0.2097902097902098
 40
0.2167832167832168
 40
0.2167832167832168
 40
0.2167832167832168
 40
0.2167832167832168
 40
0.2237762237762238
 40
0.2237762237762238
 40
0.2237762237762238
 40
0.2237762237762238
 40
0.2307692307692308
 40
0.2307692307692308
 40
0.2307692307692308
 40
0.2307692307692308
 40
0.2377622377622378
 40
0.2377622377622378
 40
0.2377622377622378
 40
0.2377622377622378
 40
0.2447552447552448
 40
0.2447552447552448
 40
0.2447552447552448
 40
0.2447552447552448
 40
0.2517482517482518
 40
0.2517482517482518
 40
0.2517482517482518
 40
0.2517482517482518
 40
0.2587412587412588
 40
0.2587412587412588
 40
0.2587412587412588
 40
0.2587412587412588
 40
0.2657342657342657
 40
0.2657342657342657
 40
0.2657342657342657
 40
0.2657342657342657
 40
0.2727272727272727
 40
0.2727272727272727
 40
0.2727272727272727
 40
0.2727272727272727
 40
0.2797202797202797
 40
0.2797202797202797
 40
0.2797202797202797
 40
0.2797202797202797
 40
0.2867132867132867
 40
0.2867132867132867
 40
0.2867132867132867
 40
0.2867132867132867
 40
0.2937062937062937
 40
0.2937062937062937
 40
0.2937062937062937
 40
0.2937062937062937
 40
0.3006993006993007
 40
0.3006993006993007
 40
0.3006993006993007
 40
0.3006993006993007
 40
0.3076923076923077
 40
0.3076923076923077
 40
0.3076923076923077
 40
0.3076923076923077
 40
0.3146853146853147
 40
0.3146853146853147
 40
0.3146853146853147
 40
0.3146853146853147
 40
0.3216783216783217
 40
0.3216783216783217
 40
0.3216783216783217
 40
0.3216783216783217
 40
0.3286713286713286
 40
0.3286713286713286
 40
0.3286713286713286
 40
0.3286713286713286
 40
0.3356643356643357
 40
0.3356643356643357
 40
0.3356643356643357
 40
0.3356643356643357
 40
0.3426573426573427
 40
0.3426573426573427
 40
0.3426573426573427
 40
0.3426573426573427
 40
0.3496503496503496
 40
0.3496503496503496
 40
0.3496503496503496
 40
0.3496503496503496
 40
0.3566433566433567
 40
0.3566433566433567
 40
0.3566433566433567
 40
0.3566433566433567
 40
0.3636363636363636
 40
0.3636363636363636
 40
0.3636363636363636
 40
0.3636363636363636
 40
0.3706293706293706
 40
0.3706293706293706
 40
0.3706293706293706
 40
0.3706293706293706
 40
0.3776223776223776
 40
0.3776223776223776
 40
0.3776223776223776
 40
0.3776223776223776
 40
0.3846153846153846
 40
0.3846153846153846
 40
0.3846153846153846
 40
0.3846153846153846
 40
0.3916083916083916
 40
0.3916083916083916
 40
0.3916083916083916
 40
0.3916083916083916
 40
0.3986013986013986
 40
0.3986013986013986
 40
0.3986013986013986
 40
0.3986013986013986
 40
0.4055944055944056
 40
0.4055944055944056
 40
0.4055944055944056
 40
0.4055944055944056
 40
0.4125874125874126
 40
0.4125874125874126
 40
0.4125874125874126
 40
0.4125874125874126
 40
0.4195804195804196
 40
0.4195804195804196
 40
0.4195804195804196
 40
0.4195804195804196
 40
0.4265734265734266
 40
0.4265734265734266
 40
0.4265734265734266
 40
0.4265734265734266
 40
0.4335664335664335
 40
0.4335664335664335
 40
0.4335664335664335
 40
0.4335664335664335
 40
0.4405594405594406
 40
0.4405594405594406
 40
0.4405594405594406
 40
0.4405594405594406
 40
0.4475524475524476
 40
0.4475524475524476
 40
0.4475524475524476
 40
0.4475524475524476
 40
0.4545454545454545
 40
0.4545454545454545
 40
0.4545454545454545
 40
0.4545454545454545
 40
0.4615384615384616
 40
0.4615384615384616
 40
0.4615384615384616
 40
0.4615384615384616
 40
0.4685314685314685
 40
0.4685314685314685
 40
0.4685314685314685
 40
0.4685314685314685
 40
0.4755244755244755
 40
0.4755244755244755
 40
0.4755244755244755
 40
0.4755244755244755
 40
0.4825174825174825
 40
0.4825174825174825
 40
0.4825174825174825
 40
0.4825174825174825
 40
0.4895104895104895
 40
0.4895104895104895
 40
0.4895104895104895
 40
0.4895104895104895
 40
0.4965034965034965
 40
0.4965034965034965
 40
0.4965034965034965
 40
0.4965034965034965
 40
0.5034965034965035
 40
0.5034965034965035
 40
0.5034965034965035
 40
0.5034965034965035
 40
0.5104895104895105
 40
0.5104895104895105
 40
0.5104895104895105
 40
0.5104895104895105
 40
0.5174825174825175
 40
0.5174825174825175
 40
0.5174825174825175
 40
0.5174825174825175
 40
0.5244755244755245
 40
0.5244755244755245
 40
0.5244755244755245
 40
0.5244755244755245
 40
0.5314685314685315
 40
0.5314685314685315
 40
0.5314685314685315
 40
0.5314685314685315
 40
0.5384615384615384
 40
0.5384615384615384
 40
0.5384615384615384
 40
0.5384615384615384
 40
0.5454545454545454
 40
0.5454545454545454
 40
0.5454545454545454
 40
0.5454545454545454
 40
0.5524475524475524
 40
0.5524475524475524
 40
0.5524475524475524
 40
0.5524475524475524
 40
0.5594405594405595
 40
0.5594405594405595
 40
0.5594405594405595
 40
0.5594405594405595
 40
0.5664335664335665
 40
0.5664335664335665
 40
0.5664335664335665
 40
0.5664335664335665
 40
0.5734265734265734
 40
0.5734265734265734
 40
0.5734265734265734
 40
0.5734265734265734
 40
0.5804195804195804
 40
0.5804195804195804
 40
0.5804195804195804
 40
0.5804195804195804
 40
0.5874125874125874
 40
0.5874125874125874
 40
0.5874125874125874
 40
0.5874125874125874
 40
0.5944055944055944
 40
0.5944055944055944
 40
0.5944055944055944
 40
0.5944055944055944
 40
0.6013986013986014
 40
0.6013986013986014
 40
0.6013986013986014
 40
0.6013986013986014
 40
0.6083916083916084
 40
0.6083916083916084
 40
0.6083916083916084
 40
0.6083916083916084
 40
0.6153846153846154
 40
0.6153846153846154
 40
0.6153846153846154
 40
0.6153846153846154
 40
0.6223776223776224
 40
0.6223776223776224
 40
0.6223776223776224
 40
0.6223776223776224
 40
0.6293706293706294
 40
0.6293706293706294
 40
0.6293706293706294
 40
0.6293706293706294
 40
0.6363636363636364
 40
0.6363636363636364
 40
0.6363636363636364
 40
0.6363636363636364
 40
0.6433566433566433
 40
0.6433566433566433
 40
0.6433566433566433
 40
0.6433566433566433
 40
0.6503496503496503
 40
0.6503496503496503
 40
0.6503496503496503
 40
0.6503496503496503
 40
0.6573426573426573
 40
0.6573426573426573
 40
0.6573426573426573
 40
0.6573426573426573
 40
0.6643356643356644
 40
0.6643356643356644
 40
0.6643356643356644
 40
0.6643356643356644
 40
0.6713286713286714
 40
0.6713286713286714
 40
0.6713286713286714
 40
0.6713286713286714
 40
0.6783216783216783
 40
0.6783216783216783
 40
0.6783216783216783
 40
0.6783216783216783
 40
0.6853146853146853
 40
0.6853146853146853
 40
0.6853146853146853
 40
0.6853146853146853
 40
0.6923076923076923
 40
0.6923076923076923
 40
0.6923076923076923
 40
0.6923076923076923
 40
0.6993006993006993
 40
0.6993006993006993
 40
0.6993006993006993
 40
0.6993006993006993
 40
0.7062937062937062
 40
0.7062937062937062
 40
0.7062937062937062
 40
0.7062937062937062
 40
0.7132867132867133
 40
0.7132867132867133
 40
0.7132867132867133
 40
0.7132867132867133
 40
0.7202797202797203
 40
0.7202797202797203
 40
0.7202797202797203
 40
0.7202797202797203
 40
0.7272727272727273
 40
0.7272727272727273
 40
0.7272727272727273
 40
0.7272727272727273
 40
0.7342657342657343
 40
0.7342657342657343
 40
0.7342657342657343
 40
0.7342657342657343
 40
0.7412587412587412
 40
0.7412587412587412
 40
0.7412587412587412
 40
0.7412587412587412
 40
0.7482517482517482
 40
0.7482517482517482
 40
0.7482517482517482
 40
0.7482517482517482
 40
0.7552447552447552
 40
0.7552447552447552
 40
0.7552447552447552
 40
0.7552447552447552
 40
0.7622377622377622
 40
0.7622377622377622
 40
0.7622377622377622
 40
0.7622377622377622
 40
0.7692307692307693
 40
0.7692307692307693
 40
0.7692307692307693
 40
0.7692307692307693
 40
0.7762237762237763
 40
0.7762237762237763
 40
0.7762237762237763
 40
0.7762237762237763
 40
0.7832167832167832
 40
0.7832167832167832
 40
0.7832167832167832
 40
0.7832167832167832
 40
0.7902097902097902
 40
0.7902097902097902
 40
0.7902097902097902
 40
0.7902097902097902
 40
0.7972027972027972
 40
0.7972027972027972
 40
0.7972027972027972
 40
0.7972027972027972
 40
0.8041958041958042
 40
0.8041958041958042
 40
0.8041958041958042
 40
0.8041958041958042
 40
0.8111888111888111
 40
0.8111888111888111
 40
0.8111888111888111
 40
0.8111888111888111
 40
0.8181818181818182
 40
0.8181818181818182
 40
0.8181818181818182
 40
0.8181818181818182
 40
0.8251748251748252
 40
0.8251748251748252
 40
0.8251748251748252
 40
0.8251748251748252
 40
0.8321678321678322
 40
0.8321678321678322
 40
0.8321678321678322
 40
0.8321678321678322
 40
0.8391608391608392
 40
0.8391608391608392
 40
0.8391608391608392
 40
0.8391608391608392
 40
0.8461538461538461
 40
0.8461538461538461
 40
0.8461538461538461
 40
0.8461538461538461
 40
0.8531468531468531
 40
0.8531468531468531
 40
0.8531468531468531
 40
0.8531468531468531
 40
0.8601398601398601
 40
0.8601398601398601
 40
0.8601398601398601
 40
0.8601398601398601
 40
0.8671328671328671
 40
0.8671328671328671
 40
0.8671328671328671
 40
0.8671328671328671
 40
0.8741258741258742
 40
0.8741258741258742
 40
0.8741258741258742
 40
0.8741258741258742
 40
0.8811188811188811
 40
0.8811188811188811
 40
0.8811188811188811
 40
0.8811188811188811
 40
0.8881118881118881
 40
0.8881118881118881
 40
0.8881118881118881
 40
0.8881118881118881
 40
0.8951048951048951
 40
0.8951048951048951
 40
0.8951048951048951
 40
0.8951048951048951
 40
0.9020979020979021
 40
0.9020979020979021
 40
0.9020979020979021
 40
0.9020979020979021
 40
0.9090909090909091
 40
0.9090909090909091
 40
0.9090909090909091
 40
0.9090909090909091
 40
0.916083916083916
 40
0.916083916083916
 40
0.916083916083916
 40
0.916083916083916
 40
0.9230769230769231
 40
0.9230769230769231
 40
0.9230769230769231
 40
0.9230769230769231
 40
0.9300699300699301
 40
0.9300699300699301
 40
0.9300699300699301
 40
0.9300699300699301
 40
0.9370629370629371
 40
0.9370629370629371
 40
0.9370629370629371
 40
0.9370629370629371
 40
0.9440559440559441
 40
0.9440559440559441
 40
0.9440559440559441
 40
0.9440559440559441
 40
0.951048951048951
 40
0.951048951048951
 40
0.951048951048951
 40
0.951048951048951
 40
0.958041958041958
 40
0.958041958041958
 40
0.958041958041958
 40
0.958041958041958
 40
0.965034965034965
 40
0.965034965034965
 40
0.965034965034965
 40
0.965034965034965
 40
0.972027972027972
 40
0.972027972027972
 40
0.972027972027972
 40
0.972027972027972
 40
0.9790209790209791
 40
0.9790209790209791
 40
0.9790209790209791
 40
0.9790209790209791
 40
0.986013986013986
 40
0.986013986013986
 40
0.986013986013986
 40
0.986013986013986
 40
1.0
 40
1.0
 40
1.0
 40
1.0
 10
113.0
 20
-63.0
 30
0.0
 10
113.0
 20
-63.0
 30
0.0
 10
103.0
 20
-63.0003
 30
0.0
 10
103.0
 20
-63.0003
 30
0.0
 10
103.0
 20
-63.0003
 30
0.0
 10
103.0
 20
-63.0003
 30
0.0
 10
103.0
 20
-60.0003
 30
0.0
 10
103.0
 20
-60.0003
 30
0.0
 10
103.0
 20
-60.0003
 30
0.0
 10
103.0
 20
-60.0003
 30
0.0
 10
93.0
 20
-60.0003
 30
0.0
 10
93.0
 20
-60.0003
 30
0.0
 10
93.0
 20
-60.0003
 30
0.0
 10
93.0
 20
-60.0003
 30
0.0
 10
93.0
 20
-63.0003
 30
0.0
 10
93.0
 20
-63.0003
 30
0.0
 10
93.0
 20
-63.0003
 30
0.0
 10
93.0
 20
-63.0003
 30
0.0
 10
83.0
 20
-63.0003
 30
0.0
 10
83.0
 20
-63.0003
 30
0.0
 10
83.0
 20
-63.0003
 30
0.0
 10
83.0
 20
-63.0003
 30
0.0
 10
83.0
 20
-60.0003
 30
0.0
 10
83.0
 20
-60.0003
 30
0.0
 10
83.0
 20
-60.0003
 30
0.0
 10
83.0
 20
-60.0003
 30
0.0
 10
73.0
 20
-60.0003
 30
0.0
 10
73.0
 20
-60.0003
 30
0.0
 10
73.0
 20
-60.0003
 30
0.0
 10
73.0
 20
-60.0003
 30
0.0
 10
73.0
 20
-63.0003
 30
0.0
 10
73.0
 20
-63.0003
 30
0.0
 10
73.0
 20
-63.0003
 30
0.0
 10
73.0
 20
-63.0003
 30
0.0
 10
63.0
 20
-63.0003
 30
0.0
 10
63.0
 20
-63.0003
 30
0.0
 10
63.0
 20
-63.0003
 30
0.0
 10
63.0
 20
-63.0003
 30
0.0
 10
63.0
 20
-60.0003
 30
0.0
 10
63.0
 20
-60.0003
 30
0.0
 10
63.0
 20
-60.0003
 30
0.0
 10
63.0
 20
-60.0003
 30
0.0
 10
53.0
 20
-60.0003
 30
0.0
 10
53.0
 20
-60.0003
 30
0.0
 10
53.0
 20
-60.0003
 30
0.0
 10
53.0
 20
-60.0003
 30
0.0
 10
53.0
 20
-63.0003
 30
0.0
 10
53.0
 20
-63.0003
 30
0.0
 10
53.0
 20
-63.0003
 30
0.0
 10
53.0
 20
-63.0003
 30
0.0
 10
43.0
 20
-63.0003
 30
0.0
 10
43.0
 20
-63.0003
 30
0.0
 10
43.0
 20
-63.0003
 30
0.0
 10
43.0
 20
-63.0003
 30
0.0
 10
43.0
 20
-60.0003
 30
0.0
 10
43.0
 20
-60.0003
 30
0.0
 10
43.0
 20
-60.0003
 30
0.0
 10
43.0
 20
-60.0003
 30
0.0
 10
33.0
 20
-60.0003
 30
0.0
 10
33.0
 20
-60.0003
 30
0.0
 10
33.0
 20
-60.0003
 30
0.0
 10
33.0
 20
-60.0003
 30
0.0
 10
33.0
 20
-63.0003
 30
0.0
 10
33.0
 20
-63.0003
 30
0.0
 10
33.0
 20
-63.0003
 30
0.0
 10
33.0
 20
-63.0003
 30
0.0
 10
23.0
 20
-63.0003
 30
0.0
 10
23.0
 20
-63.0003
 30
0.0
 10
23.0
 20
-63.0003
 30
0.0
 10
23.0
 20
-63.0003
 30
0.0
 10
23.0
 20
-60.0003
 30
0.0
 10
23.0
 20
-60.0003
 30
0.0
 10
23.0
 20
-60.0003
 30
0.0
 10
23.0
 20
-60.0003
 30
0.0
 10
13.0
 20
-60.0003
 30
0.0
 10
13.0
 20
-60.0003
 30
0.0
 10
13.0
 20
-60.0003
 30
0.0
 10
13.0
 20
-60.0003
 30
0.0
 10
13.0
 20
-63.0003
 30
0.0
 10
13.0
 20
-63.0003
 30
0.0
 10
13.0
 20
-63.0003
 30
0.0
 10
13.0
 20
-63.0003
 30
0.0
 10
3.0
 20
-63.0003
 30
0.0
 10
3.0
 20
-63.0003
 30
0.0
 10
3.0
 20
-63.0003
 30
0.0
 10
3.0
 20
-63.0003
 30
0.0
 10
3.0
 20
-60.0003
 30
0.0
 10
3.0
 20
-60.0003
 30
0.0
 10
3.0
 20
-60.0003
 30
0.0
 10
3.0
 20
-60.0003
 30
0.0
 10
-7.0
 20
-60.0003
 30
0.0
 10
-7.0
 20
-60.0003
 30
0.0
 10
-7.0
 20
-60.0003
 30
0.0
 10
-7.0
 20
-60.0003
 30
0.0
 10
-7.0
 20
-63.0003
 30
0.0
 10
-7.0
 20
-63.0003
 30
0.0
 10
-7.0
 20
-63.0003
 30
0.0
 10
-7.0
 20
-63.0003
 30
0.0
 10
-17.0
 20
-63.0003
 30
0.0
 10
-17.0
 20
-63.0003
 30
0.0
 10
-17.0
 20
-63.0003
 30
0.0
 10
-17.0
 20
-63.0003
 30
0.0
 10
-17.0
 20
-60.0003
 30
0.0
 10
-17.0
 20
-60.0003
 30
0.0
 10
-17.0
 20
-60.0003
 30
0.0
 10
-17.0
 20
-60.0003
 30
0.0
 10
-27.0
 20
-60.0003
 30
0.0
 10
-27.0
 20
-60.0003
 30
0.0
 10
-27.0
 20
-60.0003
 30
0.0
 10
-27.0
 20
-60.0003
 30
0.0
 10
-27.0
 20
-63.0003
 30
0.0
 10
-27.0
 20
-63.0003
 30
0.0
 10
-27.0
 20
-63.0003
 30
0.0
 10
-27.0
 20
-63.0003
 30
0.0
 10
-34.0
 20
-63.0003
 30
0.0
 10
-34.0
 20
-63.0003
 30
0.0
 10
-34.0
 20
-63.0003
 30
0.0
 10
-34.0
 20
-63.0003
 30
0.0
 10
-34.0
 20
-158.5003
 30
0.0
 10
-34.0
 20
-158.5003
 30
0.0
 10
-34.0
 20
-158.5003
 30
0.0
 10
-34.0
 20
-158.5003
 30
0.0
 10
-27.0
 20
-158.5003
 30
0.0
 10
-27.0
 20
-158.5003
 30
0.0
 10
-27.0
 20
-158.5003
 30
0.0
 10
-27.0
 20
-158.5003
 30
0.0
 10
-27.0
 20
-161.5003
 30
0.0
 10
-27.0
 20
-161.5003
 30
0.0
 10
-27.0
 20
-161.5003
 30
0.0
 10
-27.0
 20
-161.5003
 30
0.0
 10
-34.0
 20
-161.5
 30
0.0
 10
-34.0
 20
-161.5
 30
0.0
 10
-34.0
 20
-161.5
 30
0.0
 10
-34.0
 20
-161.5
 30
0.0
 10
-34.0
 20
-257.0
 30
0.0
 10
-34.0
 20
-257.0
 30
0.0
 10
-34.0
 20
-257.0
 30
0.0
 10
-34.0
 20
-257.0
 30
0.0
 10
-27.0
 20
-257.0
 30
0.0
 10
-27.0
 20
-257.0
 30
0.0
 10
-27.0
 20
-257.0
 30
0.0
 10
-27.0
 20
-257.0
 30
0.0
 10
-27.0
 20
-260.0
 30
0.0
 10
-27.0
 20
-260.0
 30
0.0
 10
-27.0
 20
-260.0
 30
0.0
 10
-27.0
 20
-260.0
 30
0.0
 10
-17.0
 20
-260.0
 30
0.0
 10
-17.0
 20
-260.0
 30
0.0
 10
-17.0
 20
-260.0
 30
0.0
 10
-17.0
 20
-260.0
 30
0.0
 10
-17.0
 20
-257.0
 30
0.0
 10
-17.0
 20
-257.0
 30
0.0
 10
-17.0
 20
-257.0
 30
0.0
 10
-17.0
 20
-257.0
 30
0.0
 10
-7.0
 20
-257.0
 30
0.0
 10
-7.0
 20
-257.0
 30
0.0
 10
-7.0
 20
-257.0
 30
0.0
 10
-7.0
 20
-257.0
 30
0.0
 10
-7.0
 20
-260.0
 30
0.0
 10
-7.0
 20
-260.0
 30
0.0
 10
-7.0
 20
-260.0
 30
0.0
 10
-7.0
 20
-260.0
 30
0.0
 10
3.0
 20
-260.0
 30
0.0
 10
3.0
 20
-260.0
 30
0.0
 10
3.0
 20
-260.0
 30
0.0
 10
3.0
 20
-260.0
 30
0.0
 10
3.0
 20
-257.0
 30
0.0
 10
3.0
 20
-257.0
 30
0.0
 10
3.0
 20
-257.0
 30
0.0
 10
3.0
 20
-257.0
 30
0.0
 10
13.0
 20
-257.0
 30
0.0
 10
13.0
 20
-257.0
 30
0.0
 10
13.0
 20
-257.0
 30
0.0
 10
13.0
 20
-257.0
 30
0.0
 10
13.0
 20
-260.0
 30
0.0
 10
13.0
 20
-260.0
 30
0.0
 10
13.0
 20
-260.0
 30
0.0
 10
13.0
 20
-260.0
 30
0.0
 10
23.0
 20
-260.0
 30
0.0
 10
23.0
 20
-260.0
 30
0.0
 10
23.0
 20
-260.0
 30
0.0
 10
23.0
 20
-260.0
 30
0.0
 10
23.0
 20
-257.0
 30
0.0
 10
23.0
 20
-257.0
 30
0.0
 10
23.0
 20
-257.0
 30
0.0
 10
23.0
 20
-257.0
 30
0.0
 10
33.0
 20
-257.0
 30
0.0
 10
33.0
 20
-257.0
 30
0.0
 10
33.0
 20
-257.0
 30
0.0
 10
33.0
 20
-257.0
 30
0.0
 10
33.0
 20
-260.0
 30
0.0
 10
33.0
 20
-260.0
 30
0.0
 10
33.0
 20
-260.0
 30
0.0
 10
33.0
 20
-260.0
 30
0.0
 10
43.0
 20
-260.0
 30
0.0
 10
43.0
 20
-260.0
 30
0.0
 10
43.0
 20
-260.0
 30
0.0
 10
43.0
 20
-260.0
 30
0.0
 10
43.0
 20
-257.0
 30
0.0
 10
43.0
 20
-257.0
 30
0.0
 10
43.0
 20
-257.0
 30
0.0
 10
43.0
 20
-257.0
 30
0.0
 10
53.0
 20
-257.0
 30
0.0
 10
53.0
 20
-257.0
 30
0.0
 10
53.0
 20
-257.0
 30
0.0
 10
53.0
 20
-257.0
 30
0.0
 10
53.0
 20
-260.0
 30
0.0
 10
53.0
 20
-260.0
 30
0.0
 10
53.0
 20
-260.0
 30
0.0
 10
53.0
 20
-260.0
 30
0.0
 10
63.0
 20
-260.0
 30
0.0
 10
63.0
 20
-260.0
 30
0.0
 10
63.0
 20
-260.0
 30
0.0
 10
63.0
 20
-260.0
 30
0.0
 10
63.0
 20
-257.0
 30
0.0
 10
63.0
 20
-257.0
 30
0.0
 10
63.0
 20
-257.0
 30
0.0
 10
63.0
 20
-257.0
 30
0.0
 10
73.0
 20
-257.0
 30
0.0
 10
73.0
 20
-257.0
 30
0.0
 10
73.0
 20
-257.0
 30
0.0
 10
73.0
 20
-257.0
 30
0.0
 10
73.0
 20
-260.0
 30
0.0
 10
73.0
 20
-260.0
 30
0.0
 10
73.0
 20
-260.0
 30
0.0
 10
73.0
 20
-260.0
 30
0.0
 10
83.0
 20
-260.0
 30
0.0
 10
83.0
 20
-260.0
 30
0.0
 10
83.0
 20
-260.0
 30
0.0
 10
83.0
 20
-260.0
 30
0.0
 10
83.0
 20
-257.0
 30
0.0
 10
83.0
 20
-257.0
 30
0.0
 10
83.0
 20
-257.0
 30
0.0
 10
83.0
 20
-257.0
 30
0.0
 10
93.0
 20
-257.0
 30
0.0
 10
93.0
 20
-257.0
 30
0.0
 10
93.0
 20
-257.0
 30
0.0
 10
93.0
 20
-257.0
 30
0.0
 10
93.0
 20
-260.0
 30
0.0
 10
93.0
 20
-260.0
 30
0.0
 10
93.0
 20
-260.0
 30
0.0
 10
93.0
 20
-260.0
 30
0.0
 10
103.0
 20
-260.0
 30
0.0
 10
103.0
 20
-260.0
 30
0.0
 10
103.0
 20
-260.0
 30
0.0
 10
103.0
 20
-260.0
 30
0.0
 10
103.0
 20
-257.0
 30
0.0
 10
103.0
 20
-257.0
 30
0.0
 10
103.0
 20
-257.0
 30
0.0
 10
103.0
 20
-257.0
 30
0.0
 10
113.0
 20
-257.0
 30
0.0
 10
113.0
 20
-257.0
 30
0.0
 10
113.0
 20
-257.0
 30
0.0
 10
113.0
 20
-257.0
 30
0.0
 10
113.0
 20
-260.0
 30
0.0
 10
113.0
 20
-260.0
 30
0.0
 10
113.0
 20
-260.0
 30
0.0
 10
113.0
 20
-260.0
 30
0.0
 10
123.0
 20
-260.0
 30
0.0
 10
123.0
 20
-260.0
 30
0.0
 10
123.0
 20
-260.0
 30
0.0
 10
123.0
 20
-260.0
 30
0.0
 10
123.0
 20
-257.0
 30
0.0
 10
123.0
 20
-257.0
 30
0.0
 10
123.0
 20
-257.0
 30
0.0
 10
123.0
 20
-257.0
 30
0.0
 10
133.0
 20
-257.0
 30
0.0
 10
133.0
 20
-257.0
 30
0.0
 10
133.0
 20
-257.0
 30
0.0
 10
133.0
 20
-257.0
 30
0.0
 10
133.0
 20
-260.0
 30
0.0
 10
133.0
 20
-260.0
 30
0.0
 10
133.0
 20
-260.0
 30
0.0
 10
133.0
 20
-260.0
 30
0.0
 10
143.0
 20
-260.0
 30
0.0
 10
143.0
 20
-260.0
 30
0.0
 10
143.0
 20
-260.0
 30
0.0
 10
143.0
 20
-260.0
 30
0.0
 10
143.0
 20
-257.0
 30
0.0
 10
143.0
 20
-257.0
 30
0.0
 10
143.0
 20
-257.0
 30
0.0
 10
143.0
 20
-257.0
 30
0.0
 10
153.0
 20
-257.0
 30
0.0
 10
153.0
 20
-257.0
 30
0.0
 10
153.0
 20
-257.0
 30
0.0
 10
153.0
 20
-257.0
 30
0.0
 10
153.0
 20
-260.0
 30
0.0
 10
153.0
 20
-260.0
 30
0.0
 10
153.0
 20
-260.0
 30
0.0
 10
153.0
 20
-260.0
 30
0.0
 10
163.0
 20
-260.0
 30
0.0
 10
163.0
 20
-260.0
 30
0.0
 10
163.0
 20
-260.0
 30
0.0
 10
163.0
 20
-260.0
 30
0.0
 10
173.0
 20
-260.0
 30
0.0
 10
173.0
 20
-260.0
 30
0.0
 10
173.0
 20
-260.0
 30
0.0
 10
173.0
 20
-260.0
 30
0.0
 10
173.0
 20
-257.0
 30
0.0
 10
173.0
 20
-257.0
 30
0.0
 10
173.0
 20
-257.0
 30
0.0
 10
173.0
 20
-257.0
 30
0.0
 10
183.0
 20
-257.0
 30
0.0
 10
183.0
 20
-257.0
 30
0.0
 10
183.0
 20
-257.0
 30
0.0
 10
183.0
 20
-257.0
 30
0.0
 10
183.0
 20
-260.0
 30
0.0
 10
183.0
 20
-260.0
 30
0.0
 10
183.0
 20
-260.0
 30
0.0
 10
183.0
 20
-260.0
 30
0.0
 10
193.0
 20
-260.0
 30
0.0
 10
193.0
 20
-260.0
 30
0.0
 10
193.0
 20
-260.0
 30
0.0
 10
193.0
 20
-260.0
 30
0.0
 10
193.0
 20
-257.0
 30
0.0
 10
193.0
 20
-257.0
 30
0.0
 10
193.0
 20
-257.0
 30
0.0
 10
193.0
 20
-257.0
 30
0.0
 10
203.0
 20
-257.0
 30
0.0
 10
203.0
 20
-257.0
 30
0.0
 10
203.0
 20
-257.0
 30
0.0
 10
203.0
 20
-257.0
 30
0.0
 10
203.0
 20
-260.0
 30
0.0
 10
203.0
 20
-260.0
 30
0.0
 10
203.0
 20
-260.0
 30
0.0
 10
203.0
 20
-260.0
 30
0.0
 10
213.0
 20
-260.0
 30
0.0
 10
213.0
 20
-260.0
 30
0.0
 10
213.0
 20
-260.0
 30
0.0
 10
213.0
 20
-260.0
 30
0.0
 10
213.0
 20
-257.0
 30
0.0
 10
213.0
 20
-257.0
 30
0.0
 10
213.0
 20
-257.0
 30
0.0
 10
213.0
 20
-257.0
 30
0.0
 10
223.0
 20
-257.0
 30
0.0
 10
223.0
 20
-257.0
 30
0.0
 10
223.0
 20
-257.0
 30
0.0
 10
223.0
 20
-257.0
 30
0.0
 10
223.0
 20
-260.0
 30
0.0
 10
223.0
 20
-260.0
 30
0.0
 10
223.0
 20
-260.0
 30
0.0
 10
223.0
 20
-260.0
 30
0.0
 10
233.0
 20
-260.0
 30
0.0
 10
233.0
 20
-260.0
 30
0.0
 10
233.0
 20
-260.0
 30
0.0
 10
233.0
 20
-260.0
 30
0.0
 10
233.0
 20
-257.0
 30
0.0
 10
233.0
 20
-257.0
 30
0.0
 10
233.0
 20
-257.0
 30
0.0
 10
233.0
 20
-257.0
 30
0.0
 10
243.0
 20
-257.0
 30
0.0
 10
243.0
 20
-257.0
 30
0.0
 10
243.0
 20
-257.0
 30
0.0
 10
243.0
 20
-257.0
 30
0.0
 10
243.0
 20
-260.0
 30
0.0
 10
243.0
 20
-260.0
 30
0.0
 10
243.0
 20
-260.0
 30
0.0
 10
243.0
 20
-260.0
 30
0.0
 10
253.0
 20
-260.0
 30
0.0
 10
253.0
 20
-260.0
 30
0.0
 10
253.0
 20
-260.0
 30
0.0
 10
253.0
 20
-260.0
 30
0.0
 10
253.0
 20
-257.0
 30
0.0
 10
253.0
 20
-257.0
 30
0.0
 10
253.0
 20
-257.0
 30
0.0
 10
253.0
 20
-257.0
 30
0.0
 10
263.0
 20
-257.0
 30
0.0
 10
263.0
 20
-257.0
 30
0.0
 10
263.0
 20
-257.0
 30
0.0
 10
263.0
 20
-257.0
 30
0.0
 10
263.0
 20
-260.0
 30
0.0
 10
263.0
 20
-260.0
 30
0.0
 10
263.0
 20
-260.0
 30
0.0
 10
263.0
 20
-260.0
 30
0.0
 10
273.0
 20
-260.0
 30
0.0
 10
273.0
 20
-260.0
 30
0.0
 10
273.0
 20
-260.0
 30
0.0
 10
273.0
 20
-260.0
 30
0.0
 10
273.0
 20
-257.0
 30
0.0
 10
273.0
 20
-257.0
 30
0.0
 10
273.0
 20
-257.0
 30
0.0
 10
273.0
 20
-257.0
 30
0.0
 10
283.0
 20
-257.0
 30
0.0
 10
283.0
 20
-257.0
 30
0.0
 10
283.0
 20
-257.0
 30
0.0
 10
283.0
 20
-257.0
 30
0.0
 10
283.0
 20
-260.0
 30
0.0
 10
283.0
 20
-260.0
 30
0.0
 10
283.0
 20
-260.0
 30
0.0
 10
283.0
 20
-260.0
 30
0.0
 10
293.0
 20
-260.0
 30
0.0
 10
293.0
 20
-260.0
 30
0.0
 10
293.0
 20
-260.0
 30
0.0
 10
293.0
 20
-260.0
 30
0.0
 10
293.0
 20
-257.0
 30
0.0
 10
293.0
 20
-257.0
 30
0.0
 10
293.0
 20
-257.0
 30
0.0
 10
293.0
 20
-257.0
 30
0.0
 10
303.0
 20
-257.0
 30
0.0
 10
303.0
 20
-257.0
 30
0.0
 10
303.0
 20
-257.0
 30
0.0
 10
303.0
 20
-257.0
 30
0.0
 10
303.0
 20
-260.0
 30
0.0
 10
303.0
 20
-260.0
 30
0.0
 10
303.0
 20
-260.0
 30
0.0
 10
303.0
 20
-260.0
 30
0.0
 10
310.0
 20
-260.0
 30
0.0
 10
310.0
 20
-260.0
 30
0.0
 10
310.0
 20
-260.0
 30
0.0
 10
310.0
 20
-260.0
 30
0.0
 10
310.0
 20
-60.0
 30
0.0
 10
310.0
 20
-60.0
 30
0.0
 10
310.0
 20
-60.0
 30
0.0
 10
310.0
 20
-60.0
 30
0.0
 10
303.0
 20
-60.0
 30
0.0
 10
303.0
 20
-60.0
 30
0.0
 10
303.0
 20
-60.0
 30
0.0
 10
303.0
 20
-60.0
 30
0.0
 10
303.0
 20
-63.0
 30
0.0
 10
303.0
 20
-63.0
 30
0.0
 10
303.0
 20
-63.0
 30
0.0
 10
303.0
 20
-63.0
 30
0.0
 10
293.0
 20
-63.0
 30
0.0
 10
293.0
 20
-63.0
 30
0.0
 10
293.0
 20
-63.0
 30
0.0
 10
293.0
 20
-63.0
 30
0.0
 10
293.0
 20
-60.0
 30
0.0
 10
293.0
 20
-60.0
 30
0.0
 10
293.0
 20
-60.0
 30
0.0
 10
293.0
 20
-60.0
 30
0.0
 10
283.0
 20
-60.0
 30
0.0
 10
283.0
 20
-60.0
 30
0.0
 10
283.0
 20
-60.0
 30
0.0
 10
283.0
 20
-60.0
 30
0.0
 10
283.0
 20
-63.0
 30
0.0
 10
283.0
 20
-63.0
 30
0.0
 10
283.0
 20
-63.0
 30
0.0
 10
283.0
 20
-63.0
 30
0.0
 10
273.0
 20
-63.0
 30
0.0
 10
273.0
 20
-63.0
 30
0.0
 10
273.0
 20
-63.0
 30
0.0
 10
273.0
 20
-63.0
 30
0.0
 10
273.0
 20
-60.0
 30
0.0
 10
273.0
 20
-60.0
 30
0.0
 10
273.0
 20
-60.0
 30
0.0
 10
273.0
 20
-60.0
 30
0.0
 10
263.0
 20
-60.0
 30
0.0
 10
263.0
 20
-60.0
 30
0.0
 10
263.0
 20
-60.0
 30
0.0
 10
263.0
 20
-60.0
 30
0.0
 10
263.0
 20
-63.0
 30
0.0
 10
263.0
 20
-63.0
 30
0.0
 10
263.0
 20
-63.0
 30
0.0
 10
263.0
 20
-63.0
 30
0.0
 10
253.0
 20
-63.0
 30
0.0
 10
253.0
 20
-63.0
 30
0.0
 10
253.0
 20
-63.0
 30
0.0
 10
253.0
 20
-63.0
 30
0.0
 10
253.0
 20
-60.0
 30
0.0
 10
253.0
 20
-60.0
 30
0.0
 10
253.0
 20
-60.0
 30
0.0
 10
253.0
 20
-60.0
 30
0.0
 10
243.0
 20
-60.0
 30
0.0
 10
243.0
 20
-60.0
 30
0.0
 10
243.0
 20
-60.0
 30
0.0
 10
243.0
 20
-60.0
 30
0.0
 10
243.0
 20
-63.0
 30
0.0
 10
243.0
 20
-63.0
 30
0.0
 10
243.0
 20
-63.0
 30
0.0
 10
243.0
 20
-63.0
 30
0.0
 10
233.0
 20
-63.0
 30
0.0
 10
233.0
 20
-63.0
 30
0.0
 10
233.0
 20
-63.0
 30
0.0
 10
233.0
 20
-63.0
 30
0.0
 10
233.0
 20
-60.0
 30
0.0
 10
233.0
 20
-60.0
 30
0.0
 10
233.0
 20
-60.0
 30
0.0
 10
233.0
 20
-60.0
 30
0.0
 10
223.0
 20
-60.0
 30
0.0
 10
223.0
 20
-60.0
 30
0.0
 10
223.0
 20
-60.0
 30
0.0
 10
223.0
 20
-60.0
 30
0.0
 10
223.0
 20
-63.0
 30
0.0
 10
223.0
 20
-63.0
 30
0.0
 10
223.0
 20
-63.0
 30
0.0
 10
223.0
 20
-63.0
 30
0.0
 10
213.0
 20
-63.0
 30
0.0
 10
213.0
 20
-63.0
 30
0.0
 10
213.0
 20
-63.0
 30
0.0
 10
213.0
 20
-63.0
 30
0.0
 10
213.0
 20
-60.0
 30
0.0
 10
213.0
 20
-60.0
 30
0.0
 10
213.0
 20
-60.0
 30
0.0
 10
213.0
 20
-60.0
 30
0.0
 10
203.0
 20
-60.0
 30
0.0
 10
203.0
 20
-60.0
 30
0.0
 10
203.0
 20
-60.0
 30
0.0
 10
203.0
 20
-60.0
 30
0.0
 10
203.0
 20
-63.0
 30
0.0
 10
203.0
 20
-63.0
 30
0.0
 10
203.0
 20
-63.0
 30
0.0
 10
203.0
 20
-63.0
 30
0.0
 10
193.0
 20
-63.0
 30
0.0
 10
193.0
 20
-63.0
 30
0.0
 10
193.0
 20
-63.0
 30
0.0
 10
193.0
 20
-63.0
 30
0.0
 10
193.0
 20
-60.0
 30
0.0
 10
193.0
 20
-60.0
 30
0.0
 10
193.0
 20
-60.0
 30
0.0
 10
193.0
 20
-60.0
 30
0.0
 10
183.0
 20
-60.0
 30
0.0
 10
183.0
 20
-60.0
 30
0.0
 10
183.0
 20
-60.0
 30
0.0
 10
183.0
 20
-60.0
 30
0.0
 10
183.0
 20
-63.0
 30
0.0
 10
183.0
 20
-63.0
 30
0.0
 10
183.0
 20
-63.0
 30
0.0
 10
183.0
 20
-63.0
 30
0.0
 10
173.0
 20
-63.0
 30
0.0
 10
173.0
 20
-63.0
 30
0.0
 10
173.0
 20
-63.0
 30
0.0
 10
173.0
 20
-63.0
 30
0.0
 10
173.0
 20
-60.0
 30
0.0
 10
173.0
 20
-60.0
 30
0.0
 10
173.0
 20
-60.0
 30
0.0
 10
173.0
 20
-60.0
 30
0.0
 10
163.0
 20
-60.0
 30
0.0
 10
163.0
 20
-60.0
 30
0.0
 10
163.0
 20
-60.0
 30
0.0
 10
163.0
 20
-60.0
 30
0.0
 10
163.0
 20
-63.0
 30
0.0
 10
163.0
 20
-63.0
 30
0.0
 10
163.0
 20
-63.0
 30
0.0
 10
163.0
 20
-63.0
 30
0.0
 10
153.0
 20
-63.0
 30
0.0
 10
153.0
 20
-63.0
 30
0.0
 10
153.0
 20
-63.0
 30
0.0
 10
153.0
 20
-63.0
 30
0.0
 10
153.0
 20
-60.0
 30
0.0
 10
153.0
 20
-60.0
 30
0.0
 10
153.0
 20
-60.0
 30
0.0
 10
153.0
 20
-60.0
 30
0.0
 10
143.0
 20
-60.0
 30
0.0
 10
143.0
 20
-60.0
 30
0.0
 10
143.0
 20
-60.0
 30
0.0
 10
143.0
 20
-60.0
 30
0.0
 10
143.0
 20
-63.0
 30
0.0
 10
143.0
 20
-63.0
 30
0.0
 10
143.0
 20
-63.0
 30
0.0
 10
143.0
 20
-63.0
 30
0.0
 10
133.0
 20
-63.0
 30
0.0
 10
133.0
 20
-63.0
 30
0.0
 10
133.0
 20
-63.0
 30
0.0
 10
133.0
 20
-63.0
 30
0.0
 10
133.0
 20
-60.0
 30
0.0
 10
133.0
 20
-60.0
 30
0.0
 10
133.0
 20
-60.0
 30
0.0
 10
133.0
 20
-60.0
 30
0.0
 10
123.0
 20
-60.0
 30
0.0
 10
123.0
 20
-60.0
 30
0.0
 10
123.0
 20
-60.0
 30
0.0
 10
123.0
 20
-60.0
 30
0.0
 10
123.0
 20
-63.0
 30
0.0
 10
123.0
 20
-63.0
 30
0.0
 10
123.0
 20
-63.0
 30
0.0
 10
123.0
 20
-63.0
 30
0.0
 10
113.0
 20
-63.0
 30
0.0
 10
113.0
 20
-63.0
 30
0.0
  0
SPLINE
  5
8B
330
1F
100
AcDbEntity
  8
layer 1
 62
   242
370
     9
100
AcDbSpline
210
0.0
220
0.0
230
1.0
 70
     8
 71
     3
 72
    12
 73
     8
 74
     0
 42
0.000000001
 43
0.0000000001
 40
0.0
 40
0.0
 40
0.0
 40
0.0
 40
0.3333333333333333
 40
0.3333333333333333
 40
0.3333333333333333
 40
0.3333333333333333
 40
1.0
 40
1.0
 40
1.0
 40
1.0
 10
113.0
 20
-158.5003
 30
0.0
 10
113.0
 20
-158.5003
 30
0.0
 10
103.0
 20
-158.5003
 30
0.0
 10
103.0
 20
-158.5003
 30
0.0
 10
103.0
 20
-158.5003
 30
0.0
 10
103.0
 20
-158.5003
 30
0.0
 10
103.0
 20
-161.5003
 30
0.0
 10
103.0
 20
-161.5003
 30
0.0
  0
SPLINE
  5
8C
330
1F
100
AcDbEntity
  8
layer 1
 62
   242
370
     9
100
AcDbSpline
210
0.0
220
0.0
230
1.0
 70
     8
 71
     3
 72
    16
 73
    12
 74
     0
 42
0.000000001
 43
0.0000000001
 40
0.0
 40
0.0
 40
0.0
 40
0.0
 40
0.25
 40
0.25
 40
0.25
 40
0.25
 40
0.5
 40
0.5
 40
0.5
 40
0.5
 40
1.0
 40
1.0
 40
1.0
 40
1.0
 10
93.0
 20
-161.5003
 30
0.0
 10
93.0
 20
-161.5003
 30
0.0
 10
93.0
 20
-158.5003
 30
0.0
 10
93.0
 20
-158.5003
 30
0.0
 10
93.0
 20
-158.5003
 30
0.0
 10
93.0
 20
-158.5003
 30
0.0
 10
63.0
 20
-158.5003
 30
0.0
 10
63.0
 20
-158.5003
 30
0.0
 10
63.0
 20
-158.5003
 30
0.0
 10
63.0
 20
-158.5003
 30
0.0
 10
63.0
 20
-161.5003
 30
0.0
 10
63.0
 20
-161.5003
 30
0.0
  0
SPLINE
  5
8D
330
1F
100
AcDbEntity
  8
layer 1
 62
   242
370
     9
100
AcDbSpline
210
0.0
220
0.0
230
1.0
 70
     8
 71
     3
 72
    16
 73
    12
 74
     0
 42
0.000000001
 43
0.0000000001
 40
0.0
 40
0.0
 40
0.0
 40
0.0
 40
0.25
 40
0.25
 40
0.25
 40
0.25
 40
0.5
 40
0.5
 40
0.5
 40
0.5
 40
1.0
 40
1.0
 40
1.0
 40
1.0
 10
53.0
 20
-161.5003
 30
0.0
 10
53.0
 20
-161.5003
 30
0.0
 10
53.0
 20
-158.5003
 30
0.0
 10
53.0
 20
-158.5003
 30
0.0
 10
53.0
 20
-158.5003
 30
0.0
 10
53.0
 20
-158.5003
 30
0.0
 10
23.0
 20
-158.5003
 30
0.0
 10
23.0
 20
-158.5003
 30
0.0
 10
23.0
 20
-158.5003
 30
0.0
 10
23.0
 20
-158.5003
 30
0.0
 10
23.0
 20
-161.5003
 30
0.0
 10
23.0
 20
-161.5003
 30
0.0
  0
SPLINE
  5
8E
330
1F
100
AcDbEntity
  8
layer 1
 62
   242
370
     9
100
AcDbSpline
210
0.0
220
0.0
230
1.0
 70
     8
 71
     3
 72
    16
 73
    12
 74
     0
 42
0.000000001
 43
0.0000000001
 40
0.0
 40
0.0
 40
0.0
 40
0.0
 40
0.25
 40
0.25
 40
0.25
 40
0.25
 40
0.5
 40
0.5
 40
0.5
 40
0.5
 40
1.0
 40
1.0
 40
1.0
 40
1.0
 10
13.0
 20
-161.5003
 30
0.0
 10
13.0
 20
-161.5003
 30
0.0
 10
13.0
 20
-158.5003
 30
0.0
 10
13.0
 20
-158.5003
 30
0.0
 10
13.0
 20
-158.5003
 30
0.0
 10
13.0
 20
-158.5003
 30
0.0
 10
-17.0
 20
-158.5003
 30
0.0
 10
-17.0
 20
-158.5003
 30
0.0
 10
-17.0
 20
-158.5003
 30
0.0
 10
-17.0
 20
-158.5003
 30
0.0
 10
-17.0
 20
-161.5003
 30
0.0
 10
-17.0
 20
-161.5003
 30
0.0
  0
SPLINE
  5
8F
330
1F
100
AcDbEntity
  8
layer 1
 62
   242
370
     9
100
AcDbSpline
210
0.0
220
0.0
230
1.0
 70
     8
 71
     3
 72
    16
 73
    12
 74
     0
 42
0.000000001
 43
0.0000000001
 40
0.0
 40
0.0
 40
0.0
 40
0.0
 40
0.25
 40
0.25
 40
0.25
 40
0.25
 40
0.5
 40
0.5
 40
0.5
 40
0.5
 40
1.0
 40
1.0
 40
1.0
 40
1.0
 10
113.0
 20
-158.5
 30
0.0
 10
113.0
 20
-158.5
 30
0.0
 10
113.0
 20
-161.5
 30
0.0
 10
113.0
 20
-161.5
 30
0.0
 10
113.0
 20
-161.5
 30
0.0
 10
113.0
 20
-161.5
 30
0.0
 10
83.0
 20
-161.5
 30
0.0
 10
83.0
 20
-161.5
 30
0.0
 10
83.0
 20
-161.5
 30
0.0
 10
83.0
 20
-161.5
 30
0.0
 10
83.0
 20
-158.5
 30
0.0
 10
83.0
 20
-158.5
 30
0.0
  0
SPLINE
  5
90
330
1F
100
AcDbEntity
  8
layer 1
 62
   242
370
     9
100
AcDbSpline
210
0.0
220
0.0
230
1.0
 70
     8
 71
     3
 72
    16
 73
    12
 74
     0
 42
0.000000001
 43
0.0000000001
 40
0.0
 40
0.0
 40
0.0
 40
0.0
 40
0.25
 40
0.25
 40
0.25
 40
0.25
 40
0.5
 40
0.5
 40
0.5
 40
0.5
 40
1.0
 40
1.0
 40
1.0
 40
1.0
 10
73.0
 20
-158.5
 30
0.0
 10
73.0
 20
-158.5
 30
0.0
 10
73.0
 20
-161.5
 30
0.0
 10
73.0
 20
-161.5
 30
0.0
 10
73.0
 20
-161.5
 30
0.0
 10
73.0
 20
-161.5
 30
0.0
 10
43.0
 20
-161.5
 30
0.0
 10
43.0
 20
-161.5
 30
0.0
 10
43.0
 20
-161.5
 30
0.0
 10
43.0
 20
-161.5
 30
0.0
 10
43.0
 20
-158.5
 30
0.0
 10
43.0
 20
-158.5
 30
0.0
  0
SPLINE
  5
91
330
1F
100
AcDbEntity
  8
layer 1
 62
   242
370
     9
100
AcDbSpline
210
0.0
220
0.0
230
1.0
 70
     8
 71
     3
 72
    16
 73
    12
 74
     0
 42
0.000000001
 43
0.0000000001
 40
0.0
 40
0.0
 40
0.0
 40
0.0
 40
0.25
 40
0.25
 40
0.25
 40
0.25
 40
0.5
 40
0.5
 40
0.5
 40
0.5
 40
1.0
 40
1.0
 40
1.0
 40
1.0
 10
33.0
 20
-158.5
 30
0.0
 10
33.0
 20
-158.5
 30
0.0
 10
33.0
 20
-161.5
 30
0.0
 10
33.0
 20
-161.5
 30
0.0
 10
33.0
 20
-161.5
 30
0.0
 10
33.0
 20
-161.5
 30
0.0
 10
3.0
 20
-161.5
 30
0.0
 10
3.0
 20
-161.5
 30
0.0
 10
3.0
 20
-161.5
 30
0.0
 10
3.0
 20
-161.5
 30
0.0
 10
3.0
 20
-158.5
 30
0.0
 10
3.0
 20
-158.5
 30
0.0
  0
SPLINE
  5
92
330
1F
100
AcDbEntity
  8
layer 1
 62
   242
370
     9
100
AcDbSpline
210
0.0
220
0.0
230
1.0
 70
     8
 71
     3
 72
    12
 73
     8
 74
     0
 42
0.000000001
 43
0.0000000001
 40
0.0
 40
0.0
 40
0.0
 40
0.0
 40
0.3333333333333333
 40
0.3333333333333333
 40
0.3333333333333333
 40
0.3333333333333333
 40
1.0
 40
1.0
 40
1.0
 40
1.0
 10
-7.0
 20
-158.5
 30
0.0
 10
-7.0
 20
-158.5
 30
0.0
 10
-7.0
 20
-161.5
 30
0.0
 10
-7.0
 20
-161.5
 30
0.0
 10
-7.0
 20
-161.5
 30
0.0
 10
-7.0
 20
-161.5
 30
0.0
 10
-27.0
 20
-161.5003
 30
0.0
 10
-27.0
 20
-161.5003
 30
0.0
  0
SPLINE
  5
93
330
1F
100
AcDbEntity
  8
layer 1
 62
   242
370
     9
100
AcDbSpline
210
0.0
220
0.0
230
1.0
 70
     8
 71
     3
 72
    48
 73
    44
 74
     0
 42
0.000000001
 43
0.0000000001
 40
0.0
 40
0.0
 40
0.0
 40
0.0
 40
0.0833333333333333
 40
0.0833333333333333
 40
0.0833333333333333
 40
0.0833333333333333
 40
0.1666666666666667
 40
0.1666666666666667
 40
0.1666666666666667
 40
0.1666666666666667
 40
0.25
 40
0.25
 40
0.25
 40
0.25
 40
0.3333333333333333
 40
0.3333333333333333
 40
0.3333333333333333
 40
0.3333333333333333
 40
0.4166666666666667
 40
0.4166666666666667
 40
0.4166666666666667
 40
0.4166666666666667
 40
0.5
 40
0.5
 40
0.5
 40
0.5
 40
0.5833333333333334
 40
0.5833333333333334
 40
0.5833333333333334
 40
0.5833333333333334
 40
0.6666666666666666
 40
0.6666666666666666
 40
0.6666666666666666
 40
0.6666666666666666
 40
0.75
 40
0.75
 40
0.75
 40
0.75
 40
0.8333333333333334
 40
0.8333333333333334
 40
0.8333333333333334
 40
0.8333333333333334
 40
1.0
 40
1.0
 40
1.0
 40
1.0
 10
113.0
 20
-63.0
 30
0.0
 10
113.0
 20
-63.0
 30
0.0
 10
113.0
 20
-158.5
 30
0.0
 10
113.0
 20
-158.5
 30
0.0
 10
113.0
 20
-158.5
 30
0.0
 10
113.0
 20
-158.5
 30
0.0
 10
123.0
 20
-158.5
 30
0.0
 10
123.0
 20
-158.5
 30
0.0
 10
123.0
 20
-158.5
 30
0.0
 10
123.0
 20
-158.5
 30
0.0
 10
123.0
 20
-161.5
 30
0.0
 10
123.0
 20
-161.5
 30
0.0
 10
123.0
 20
-161.5
 30
0.0
 10
123.0
 20
-161.5
 30
0.0
 10
133.0
 20
-161.5
 30
0.0
 10
133.0
 20
-161.5
 30
0.0
 10
133.0
 20
-161.5
 30
0.0
 10
133.0
 20
-161.5
 30
0.0
 10
133.0
 20
-158.5
 30
0.0
 10
133.0
 20
-158.5
 30
0.0
 10
133.0
 20
-158.5
 30
0.0
 10
133.0
 20
-158.5
 30
0.0
 10
143.0
 20
-158.5
 30
0.0
 10
143.0
 20
-158.5
 30
0.0
 10
143.0
 20
-158.5
 30
0.0
 10
143.0
 20
-158.5
 30
0.0
 10
143.0
 20
-161.5
 30
0.0
 10
143.0
 20
-161.5
 30
0.0
 10
143.0
 20
-161.5
 30
0.0
 10
143.0
 20
-161.5
 30
0.0
 10
153.0
 20
-161.5
 30
0.0
 10
153.0
 20
-161.5
 30
0.0
 10
153.0
 20
-161.5
 30
0.0
 10
153.0
 20
-161.5
 30
0.0
 10
153.0
 20
-158.5
 30
0.0
 10
153.0
 20
-158.5
 30
0.0
 10
153.0
 20
-158.5
 30
0.0
 10
153.0
 20
-158.5
 30
0.0
 10
163.0
 20
-158.5
 30
0.0
 10
163.0
 20
-158.5
 30
0.0
 10
163.0
 20
-158.5
 30
0.0
 10
163.0
 20
-158.5
 30
0.0
 10
163.0
 20
-260.0
 30
0.0
 10
163.0
 20
-260.0
 30
0.0
  0
SPLINE
  5
94
330
1F
100
AcDbEntity
  8
layer 1
 62
   242
370
     9
100
AcDbSpline
210
0.0
220
0.0
230
1.0
 70
    11
 71
     3
 72
    20
 73
    16
 74
     0
 42
0.000000001
 43
0.0000000001
 40
0.0
 40
0.0
 40
0.0
 40
0.0
 40
0.2
 40
0.2
 40
0.2
 40
0.2
 40
0.4
 40
0.4
 40
0.4
 40
0.4
 40
0.6
 40
0.6
 40
0.6
 40
0.6
 40
1.0
 40
1.0
 40
1.0
 40
1.0
 10
303.0
 20
-158.5
 30
0.0
 10
303.0
 20
-158.5
 30
0.0
 10
293.0
 20
-158.5
 30
0.0
 10
293.0
 20
-158.5
 30
0.0
 10
293.0
 20
-158.5
 30
0.0
 10
293.0
 20
-158.5
 30
0.0
 10
293.0
 20
-161.5
 30
0.0
 10
293.0
 20
-161.5
 30
0.0
 10
293.0
 20
-161.5
 30
0.0
 10
293.0
 20
-161.5
 30
0.0
 10
303.0
 20
-161.5
 30
0.0
 10
303.0
 20
-161.5
 30
0.0
 10
303.0
 20
-161.5
 30
0.0
 10
303.0
 20
-161.5
 30
0.0
 10
303.0
 20
-158.5
 30
0.0
 10
303.0
 20
-158.5
 30
0.0
  0
SPLINE
  5
95
330
1F
100
AcDbEntity
  8
layer 1
 62
   242
370
     9
100
AcDbSpline
210
0.0
220
0.0
230
1.0
 70
    11
 71
     3
 72
    20
 73
    16
 74
     0
 42
0.000000001
 43
0.0000000001
 40
0.0
 40
0.0
 40
0.0
 40
0.0
 40
0.2
 40
0.2
 40
0.2
 40
0.2
 40
0.4
 40
0.4
 40
0.4
 40
0.4
 40
0.6
 40
0.6
 40
0.6
 40
0.6
 40
1.0
 40
1.0
 40
1.0
 40
1.0
 10
253.0
 20
-158.5
 30
0.0
 10
253.0
 20
-158.5
 30
0.0
 10
253.0
 20
-161.5
 30
0.0
 10
253.0
 20
-161.5
 30
0.0
 10
253.0
 20
-161.5
 30
0.0
 10
253.0
 20
-161.5
 30
0.0
 10
263.0
 20
-161.5
 30
0.0
 10
263.0
 20
-161.5
 30
0.0
 10
263.0
 20
-161.5
 30
0.0
 10
263.0
 20
-161.5
 30
0.0
 10
263.0
 20
-158.5
 30
0.0
 10
263.0
 20
-158.5
 30
0.0
 10
263.0
 20
-158.5
 30
0.0
 10
263.0
 20
-158.5
 30
0.0
 10
253.0
 20
-158.5
 30
0.0
 10
253.0
 20
-158.5
 30
0.0
  0
SPLINE
  5
96
330
1F
100
AcDbEntity
  8
layer 1
 62
   242
370
     9
100
AcDbSpline
210
0.0
220
0.0
230
1.0
 70
    11
 71
     3
 72
    20
 73
    16
 74
     0
 42
0.000000001
 43
0.0000000001
 40
0.0
 40
0.0
 40
0.0
 40
0.0
 40
0.2
 40
0.2
 40
0.2
 40
0.2
 40
0.4
 40
0.4
 40
0.4
 40
0.4
 40
0.6
 40
0.6
 40
0.6
 40
0.6
 40
1.0
 40
1.0
 40
1.0
 40
1.0
 10
213.0
 20
-158.5
 30
0.0
 10
213.0
 20
-158.5
 30
0.0
 10
213.0
 20
-161.5
 30
0.0
 10
213.0
 20
-161.5
 30
0.0
 10
213.0
 20
-161.5
 30
0.0
 10
213.0
 20
-161.5
 30
0.0
 10
223.0
 20
-161.5
 30
0.0
 10
223.0
 20
-161.5
 30
0.0
 10
223.0
 20
-161.5
 30
0.0
 10
223.0
 20
-161.5
 30
0.0
 10
223.0
 20
-158.5
 30
0.0
 10
223.0
 20
-158.5
 30
0.0
 10
223.0
 20
-158.5
 30
0.0
 10
223.0
 20
-158.5
 30
0.0
 10
213.0
 20
-158.5
 30
0.0
 10
213.0
 20
-158.5
 30
0.0
  0
SPLINE
  5
97
330
1F
100
AcDbEntity
  8
layer 1
 62
   242
370
     9
100
AcDbSpline
210
0.0
220
0.0
230
1.0
 70
    11
 71
     3
 72
    20
 73
    16
 74
     0
 42
0.000000001
 43
0.0000000001
 40
0.0
 40
0.0
 40
0.0
 40
0.0
 40
0.2
 40
0.2
 40
0.2
 40
0.2
 40
0.4
 40
0.4
 40
0.4
 40
0.4
 40
0.6
 40
0.6
 40
0.6
 40
0.6
 40
1.0
 40
1.0
 40
1.0
 40
1.0
 10
173.0
 20
-161.5
 30
0.0
 10
173.0
 20
-161.5
 30
0.0
 10
183.0
 20
-161.5
 30
0.0
 10
183.0
 20
-161.5
 30
0.0
 10
183.0
 20
-161.5
 30
0.0
 10
183.0
 20
-161.5
 30
0.0
 10
183.0
 20
-158.5
 30
0.0
 10
183.0
 20
-158.5
 30
0.0
 10
183.0
 20
-158.5
 30
0.0
 10
183.0
 20
-158.5
 30
0.0
 10
173.0
 20
-158.5
 30
0.0
 10
173.0
 20
-158.5
 30
0.0
 10
173.0
 20
-158.5
 30
0.0
 10
173.0
 20
-158.5
 30
0.0
 10
173.0
 20
-161.5
 30
0.0
 10
173.0
 20
-161.5
 30
0.0
  0
SPLINE
  5
98
330
1F
100
AcDbEntity
  8
layer 1
 62
   242
370
     9
100
AcDbSpline
210
0.0
220
0.0
230
1.0
 70
    11
 71
     3
 72
    20
 73
    16
 74
     0
 42
0.000000001
 43
0.0000000001
 40
0.0
 40
0.0
 40
0.0
 40
0.0
 40
0.2
 40
0.2
 40
0.2
 40
0.2
 40
0.4
 40
0.4
 40
0.4
 40
0.4
 40
0.6
 40
0.6
 40
0.6
 40
0.6
 40
1.0
 40
1.0
 40
1.0
 40
1.0
 10
283.0
 20
-161.5
 30
0.0
 10
283.0
 20
-161.5
 30
0.0
 10
273.0
 20
-161.5
 30
0.0
 10
273.0
 20
-161.5
 30
0.0
 10
273.0
 20
-161.5
 30
0.0
 10
273.0
 20
-161.5
 30
0.0
 10
273.0
 20
-158.5
 30
0.0
 10
273.0
 20
-158.5
 30
0.0
 10
273.0
 20
-158.5
 30
0.0
 10
273.0
 20
-158.5
 30
0.0
 10
283.0
 20
-158.5
 30
0.0
 10
283.0
 20
-158.5
 30
0.0
 10
283.0
 20
-158.5
 30
0.0
 10
283.0
 20
-158.5
 30
0.0
 10
283.0
 20
-161.5
 30
0.0
 10
283.0
 20
-161.5
 30
0.0
  0
SPLINE
  5
99
330
1F
100
AcDbEntity
  8
layer 1
 62
   242
370
     9
100
AcDbSpline
210
0.0
220
0.0
230
1.0
 70
    11
 71
     3
 72
    20
 73
    16
 74
     0
 42
0.000000001
 43
0.0000000001
 40
0.0
 40
0.0
 40
0.0
 40
0.0
 40
0.2
 40
0.2
 40
0.2
 40
0.2
 40
0.4
 40
0.4
 40
0.4
 40
0.4
 40
0.6
 40
0.6
 40
0.6
 40
0.6
 40
1.0
 40
1.0
 40
1.0
 40
1.0
 10
243.0
 20
-161.5
 30
0.0
 10
243.0
 20
-161.5
 30
0.0
 10
233.0
 20
-161.5
 30
0.0
 10
233.0
 20
-161.5
 30
0.0
 10
233.0
 20
-161.5
 30
0.0
 10
233.0
 20
-161.5
 30
0.0
 10
233.0
 20
-158.5
 30
0.0
 10
233.0
 20
-158.5
 30
0.0
 10
233.0
 20
-158.5
 30
0.0
 10
233.0
 20
-158.5
 30
0.0
 10
243.0
 20
-158.5
 30
0.0
 10
243.0
 20
-158.5
 30
0.0
 10
243.0
 20
-158.5
 30
0.0
 10
243.0
 20
-158.5
 30
0.0
 10
243.0
 20
-161.5
 30
0.0
 10
243.0
 20
-161.5
 30
0.0
  0
SPLINE
  5
9A
330
1F
100
AcDbEntity
  8
layer 1
 62
   242
370
     9
100
AcDbSpline
210
0.0
220
0.0
230
1.0
 70
    11
 71
     3
 72
    20
 73
    16
 74
     0
 42
0.000000001
 43
0.0000000001
 40
0.0
 40
0.0
 40
0.0
 40
0.0
 40
0.2
 40
0.2
 40
0.2
 40
0.2
 40
0.4
 40
0.4
 40
0.4
 40
0.4
 40
0.6
 40
0.6
 40
0.6
 40
0.6
 40
1.0
 40
1.0
 40
1.0
 40
1.0
 10
203.0
 20
-161.5
 30
0.0
 10
203.0
 20
-161.5
 30
0.0
 10
193.0
 20
-161.5
 30
0.0
 10
193.0
 20
-161.5
 30
0.0
 10
193.0
 20
-161.5
 30
0.0
 10
193.0
 20
-161.5
 30
0.0
 10
193.0
 20
-158.5
 30
0.0
 10
193.0
 20
-158.5
 30
0.0
 10
193.0
 20
-158.5
 30
0.0
 10
193.0
 20
-158.5
 30
0.0
 10
203.0
 20
-158.5
 30
0.0
 10
203.0
 20
-158.5
 30
0.0
 10
203.0
 20
-158.5
 30
0.0
 10
203.0
 20
-158.5
 30
0.0
 10
203.0
 20
-161.5
 30
0.0
 10
203.0
 20
-161.5
 30
0.0
  0
SPLINE
  5
9B
330
1F
100
AcDbEntity
  8
layer 1
370
     9
100
AcDbSpline
210
0.0
220
0.0
230
1.0
 70
    11
 71
     3
 72
   596
 73
   592
 74
     0
 42
0.000000001
 43
0.0000000001
 40
0.0
 40
0.0
 40
0.0
 40
0.0
 40
0.0067114093959732
 40
0.0067114093959732
 40
0.0067114093959732
 40
0.0067114093959732
 40
0.0134228187919463
 40
0.0134228187919463
 40
0.0134228187919463
 40
0.0134228187919463
 40
0.0201342281879195
 40
0.0201342281879195
 40
0.0201342281879195
 40
0.0201342281879195
 40
0.0268456375838926
 40
0.0268456375838926
 40
0.0268456375838926
 40
0.0268456375838926
 40
0.0335570469798658
 40
0.0335570469798658
 40
0.0335570469798658
 40
0.0335570469798658
 40
0.0402684563758389
 40
0.0402684563758389
 40
0.0402684563758389
 40
0.0402684563758389
 40
0.0469798657718121
 40
0.0469798657718121
 40
0.0469798657718121
 40
0.0469798657718121
 40
0.0536912751677852
 40
0.0536912751677852
 40
0.0536912751677852
 40
0.0536912751677852
 40
0.0604026845637584
 40
0.0604026845637584
 40
0.0604026845637584
 40
0.0604026845637584
 40
0.0671140939597315
 40
0.0671140939597315
 40
0.0671140939597315
 40
0.0671140939597315
 40
0.0738255033557047
 40
0.0738255033557047
 40
0.0738255033557047
 40
0.0738255033557047
 40
0.0805369127516778
 40
0.0805369127516778
 40
0.0805369127516778
 40
0.0805369127516778
 40
0.087248322147651
 40
0.087248322147651
 40
0.087248322147651
 40
0.087248322147651
 40
0.0939597315436242
 40
0.0939597315436242
 40
0.0939597315436242
 40
0.0939597315436242
 40
0.1006711409395973
 40
0.1006711409395973
 40
0.1006711409395973
 40
0.1006711409395973
 40
0.1073825503355705
 40
0.1073825503355705
 40
0.1073825503355705
 40
0.1073825503355705
 40
0.1140939597315436
 40
0.1140939597315436
 40
0.1140939597315436
 40
0.1140939597315436
 40
0.1208053691275168
 40
0.1208053691275168
 40
0.1208053691275168
 40
0.1208053691275168
 40
0.1275167785234899
 40
0.1275167785234899
 40
0.1275167785234899
 40
0.1275167785234899
 40
0.1342281879194631
 40
0.1342281879194631
 40
0.1342281879194631
 40
0.1342281879194631
 40
0.1409395973154362
 40
0.1409395973154362
 40
0.1409395973154362
 40
0.1409395973154362
 40
0.1476510067114094
 40
0.1476510067114094
 40
0.1476510067114094
 40
0.1476510067114094
 40
0.1543624161073825
 40
0.1543624161073825
 40
0.1543624161073825
 40
0.1543624161073825
 40
0.1610738255033557
 40
0.1610738255033557
 40
0.1610738255033557
 40
0.1610738255033557
 40
0.1677852348993289
 40
0.1677852348993289
 40
0.1677852348993289
 40
0.1677852348993289
 40
0.174496644295302
 40
0.174496644295302
 40
0.174496644295302
 40
0.174496644295302
 40
0.1812080536912752
 40
0.1812080536912752
 40
0.1812080536912752
 40
0.1812080536912752
 40
0.1879194630872483
 40
0.1879194630872483
 40
0.1879194630872483
 40
0.1879194630872483
 40
0.1946308724832215
 40
0.1946308724832215
 40
0.1946308724832215
 40
0.1946308724832215
 40
0.2013422818791946
 40
0.2013422818791946
 40
0.2013422818791946
 40
0.2013422818791946
 40
0.2080536912751678
 40
0.2080536912751678
 40
0.2080536912751678
 40
0.2080536912751678
 40
0.2147651006711409
 40
0.2147651006711409
 40
0.2147651006711409
 40
0.2147651006711409
 40
0.2214765100671141
 40
0.2214765100671141
 40
0.2214765100671141
 40
0.2214765100671141
 40
0.2281879194630873
 40
0.2281879194630873
 40
0.2281879194630873
 40
0.2281879194630873
 40
0.2348993288590604
 40
0.2348993288590604
 40
0.2348993288590604
 40
0.2348993288590604
 40
0.2416107382550336
 40
0.2416107382550336
 40
0.2416107382550336
 40
0.2416107382550336
 40
0.2483221476510067
 40
0.2483221476510067
 40
0.2483221476510067
 40
0.2483221476510067
 40
0.2550335570469799
 40
0.2550335570469799
 40
0.2550335570469799
 40
0.2550335570469799
 40
0.261744966442953
 40
0.261744966442953
 40
0.261744966442953
 40
0.261744966442953
 40
0.2684563758389262
 40
0.2684563758389262
 40
0.2684563758389262
 40
0.2684563758389262
 40
0.2751677852348993
 40
0.2751677852348993
 40
0.2751677852348993
 40
0.2751677852348993
 40
0.2818791946308725
 40
0.2818791946308725
 40
0.2818791946308725
 40
0.2818791946308725
 40
0.2885906040268457
 40
0.2885906040268457
 40
0.2885906040268457
 40
0.2885906040268457
 40
0.2953020134228188
 40
0.2953020134228188
 40
0.2953020134228188
 40
0.2953020134228188
 40
0.302013422818792
 40
0.302013422818792
 40
0.302013422818792
 40
0.302013422818792
 40
0.3087248322147651
 40
0.3087248322147651
 40
0.3087248322147651
 40
0.3087248322147651
 40
0.3154362416107382
 40
0.3154362416107382
 40
0.3154362416107382
 40
0.3154362416107382
 40
0.3221476510067114
 40
0.3221476510067114
 40
0.3221476510067114
 40
0.3221476510067114
 40
0.3288590604026846
 40
0.3288590604026846
 40
0.3288590604026846
 40
0.3288590604026846
 40
0.3355704697986577
 40
0.3355704697986577
 40
0.3355704697986577
 40
0.3355704697986577
 40
0.3422818791946309
 40
0.3422818791946309
 40
0.3422818791946309
 40
0.3422818791946309
 40
0.348993288590604
 40
0.348993288590604
 40
0.348993288590604
 40
0.348993288590604
 40
0.3557046979865772
 40
0.3557046979865772
 40
0.3557046979865772
 40
0.3557046979865772
 40
0.3624161073825503
 40
0.3624161073825503
 40
0.3624161073825503
 40
0.3624161073825503
 40
0.3691275167785235
 40
0.3691275167785235
 40
0.3691275167785235
 40
0.3691275167785235
 40
0.3758389261744967
 40
0.3758389261744967
 40
0.3758389261744967
 40
0.3758389261744967
 40
0.3825503355704698
 40
0.3825503355704698
 40
0.3825503355704698
 40
0.3825503355704698
 40
0.3892617449664429
 40
0.3892617449664429
 40
0.3892617449664429
 40
0.3892617449664429
 40
0.3959731543624161
 40
0.3959731543624161
 40
0.3959731543624161
 40
0.3959731543624161
 40
0.4026845637583892
 40
0.4026845637583892
 40
0.4026845637583892
 40
0.4026845637583892
 40
0.4093959731543624
 40
0.4093959731543624
 40
0.4093959731543624
 40
0.4093959731543624
 40
0.4161073825503356
 40
0.4161073825503356
 40
0.4161073825503356
 40
0.4161073825503356
 40
0.4228187919463087
 40
0.4228187919463087
 40
0.4228187919463087
 40
0.4228187919463087
 40
0.4295302013422819
 40
0.4295302013422819
 40
0.4295302013422819
 40
0.4295302013422819
 40
0.436241610738255
 40
0.436241610738255
 40
0.436241610738255
 40
0.436241610738255
 40
0.4429530201342282
 40
0.4429530201342282
 40
0.4429530201342282
 40
0.4429530201342282
 40
0.4496644295302014
 40
0.4496644295302014
 40
0.4496644295302014
 40
0.4496644295302014
 40
0.4563758389261745
 40
0.4563758389261745
 40
0.4563758389261745
 40
0.4563758389261745
 40
0.4630872483221476
 40
0.4630872483221476
 40
0.4630872483221476
 40
0.4630872483221476
 40
0.4697986577181208
 40
0.4697986577181208
 40
0.4697986577181208
 40
0.4697986577181208
 40
0.4765100671140939
 40
0.4765100671140939
 40
0.4765100671140939
 40
0.4765100671140939
 40
0.4832214765100671
 40
0.4832214765100671
 40
0.4832214765100671
 40
0.4832214765100671
 40
0.4899328859060403
 40
0.4899328859060403
 40
0.4899328859060403
 40
0.4899328859060403
 40
0.4966442953020134
 40
0.4966442953020134
 40
0.4966442953020134
 40
0.4966442953020134
 40
0.5033557046979866
 40
0.5033557046979866
 40
0.5033557046979866
 40
0.5033557046979866
 40
0.5100671140939598
 40
0.5100671140939598
 40
0.5100671140939598
 40
0.5100671140939598
 40
0.5167785234899329
 40
0.5167785234899329
 40
0.5167785234899329
 40
0.5167785234899329
 40
0.5234899328859061
 40
0.5234899328859061
 40
0.5234899328859061
 40
0.5234899328859061
 40
0.5302013422818792
 40
0.5302013422818792
 40
0.5302013422818792
 40
0.5302013422818792
 40
0.5369127516778524
 40
0.5369127516778524
 40
0.5369127516778524
 40
0.5369127516778524
 40
0.5436241610738255
 40
0.5436241610738255
 40
0.5436241610738255
 40
0.5436241610738255
 40
0.5503355704697986
 40
0.5503355704697986
 40
0.5503355704697986
 40
0.5503355704697986
 40
0.5570469798657718
 40
0.5570469798657718
 40
0.5570469798657718
 40
0.5570469798657718
 40
0.5637583892617449
 40
0.5637583892617449
 40
0.5637583892617449
 40
0.5637583892617449
 40
0.5704697986577181
 40
0.5704697986577181
 40
0.5704697986577181
 40
0.5704697986577181
 40
0.5771812080536913
 40
0.5771812080536913
 40
0.5771812080536913
 40
0.5771812080536913
 40
0.5838926174496645
 40
0.5838926174496645
 40
0.5838926174496645
 40
0.5838926174496645
 40
0.5906040268456376
 40
0.5906040268456376
 40
0.5906040268456376
 40
0.5906040268456376
 40
0.5973154362416108
 40
0.5973154362416108
 40
0.5973154362416108
 40
0.5973154362416108
 40
0.6040268456375839
 40
0.6040268456375839
 40
0.6040268456375839
 40
0.6040268456375839
 40
0.610738255033557
 40
0.610738255033557
 40
0.610738255033557
 40
0.610738255033557
 40
0.6174496644295302
 40
0.6174496644295302
 40
0.6174496644295302
 40
0.6174496644295302
 40
0.6241610738255033
 40
0.6241610738255033
 40
0.6241610738255033
 40
0.6241610738255033
 40
0.6308724832214765
 40
0.6308724832214765
 40
0.6308724832214765
 40
0.6308724832214765
 40
0.6375838926174496
 40
0.6375838926174496
 40
0.6375838926174496
 40
0.6375838926174496
 40
0.6442953020134228
 40
0.6442953020134228
 40
0.6442953020134228
 40
0.6442953020134228
 40
0.6510067114093959
 40
0.6510067114093959
 40
0.6510067114093959
 40
0.6510067114093959
 40
0.6577181208053692
 40
0.6577181208053692
 40
0.6577181208053692
 40
0.6577181208053692
 40
0.6644295302013423
 40
0.6644295302013423
 40
0.6644295302013423
 40
0.6644295302013423
 40
0.6711409395973155
 40
0.6711409395973155
 40
0.6711409395973155
 40
0.6711409395973155
 40
0.6778523489932886
 40
0.6778523489932886
 40
0.6778523489932886
 40
0.6778523489932886
 40
0.6845637583892618
 40
0.6845637583892618
 40
0.6845637583892618
 40
0.6845637583892618
 40
0.6912751677852349
 40
0.6912751677852349
 40
0.6912751677852349
 40
0.6912751677852349
 40
0.697986577181208
 40
0.697986577181208
 40
0.697986577181208
 40
0.697986577181208
 40
0.7046979865771812
 40
0.7046979865771812
 40
0.7046979865771812
 40
0.7046979865771812
 40
0.7114093959731543
 40
0.7114093959731543
 40
0.7114093959731543
 40
0.7114093959731543
 40
0.7181208053691275
 40
0.7181208053691275
 40
0.7181208053691275
 40
0.7181208053691275
 40
0.7248322147651006
 40
0.7248322147651006
 40
0.7248322147651006
 40
0.7248322147651006
 40
0.7315436241610739
 40
0.7315436241610739
 40
0.7315436241610739
 40
0.7315436241610739
 40
0.738255033557047
 40
0.738255033557047
 40
0.738255033557047
 40
0.738255033557047
 40
0.7449664429530202
 40
0.7449664429530202
 40
0.7449664429530202
 40
0.7449664429530202
 40
0.7516778523489933
 40
0.7516778523489933
 40
0.7516778523489933
 40
0.7516778523489933
 40
0.7583892617449665
 40
0.7583892617449665
 40
0.7583892617449665
 40
0.7583892617449665
 40
0.7651006711409396
 40
0.7651006711409396
 40
0.7651006711409396
 40
0.7651006711409396
 40
0.7718120805369127
 40
0.7718120805369127
 40
0.7718120805369127
 40
0.7718120805369127
 40
0.7785234899328859
 40
0.7785234899328859
 40
0.7785234899328859
 40
0.7785234899328859
 40
0.785234899328859
 40
0.785234899328859
 40
0.785234899328859
 40
0.785234899328859
 40
0.7919463087248322
 40
0.7919463087248322
 40
0.7919463087248322
 40
0.7919463087248322
 40
0.7986577181208053
 40
0.7986577181208053
 40
0.7986577181208053
 40
0.7986577181208053
 40
0.8053691275167785
 40
0.8053691275167785
 40
0.8053691275167785
 40
0.8053691275167785
 40
0.8120805369127517
 40
0.8120805369127517
 40
0.8120805369127517
 40
0.8120805369127517
 40
0.8187919463087249
 40
0.8187919463087249
 40
0.8187919463087249
 40
0.8187919463087249
 40
0.825503355704698
 40
0.825503355704698
 40
0.825503355704698
 40
0.825503355704698
 40
0.8322147651006712
 40
0.8322147651006712
 40
0.8322147651006712
 40
0.8322147651006712
 40
0.8389261744966443
 40
0.8389261744966443
 40
0.8389261744966443
 40
0.8389261744966443
 40
0.8456375838926175
 40
0.8456375838926175
 40
0.8456375838926175
 40
0.8456375838926175
 40
0.8523489932885906
 40
0.8523489932885906
 40
0.8523489932885906
 40
0.8523489932885906
 40
0.8590604026845637
 40
0.8590604026845637
 40
0.8590604026845637
 40
0.8590604026845637
 40
0.8657718120805369
 40
0.8657718120805369
 40
0.8657718120805369
 40
0.8657718120805369
 40
0.87248322147651
 40
0.87248322147651
 40
0.87248322147651
 40
0.87248322147651
 40
0.8791946308724832
 40
0.8791946308724832
 40
0.8791946308724832
 40
0.8791946308724832
 40
0.8859060402684564
 40
0.8859060402684564
 40
0.8859060402684564
 40
0.8859060402684564
 40
0.8926174496644296
 40
0.8926174496644296
 40
0.8926174496644296
 40
0.8926174496644296
 40
0.8993288590604027
 40
0.8993288590604027
 40
0.8993288590604027
 40
0.8993288590604027
 40
0.9060402684563759
 40
0.9060402684563759
 40
0.9060402684563759
 40
0.9060402684563759
 40
0.912751677852349
 40
0.912751677852349
 40
0.912751677852349
 40
0.912751677852349
 40
0.9194630872483222
 40
0.9194630872483222
 40
0.9194630872483222
 40
0.9194630872483222
 40
0.9261744966442953
 40
0.9261744966442953
 40
0.9261744966442953
 40
0.9261744966442953
 40
0.9328859060402684
 40
0.9328859060402684
 40
0.9328859060402684
 40
0.9328859060402684
 40
0.9395973154362416
 40
0.9395973154362416
 40
0.9395973154362416
 40
0.9395973154362416
 40
0.9463087248322147
 40
0.9463087248322147
 40
0.9463087248322147
 40
0.9463087248322147
 40
0.9530201342281879
 40
0.9530201342281879
 40
0.9530201342281879
 40
0.9530201342281879
 40
0.959731543624161
 40
0.959731543624161
 40
0.959731543624161
 40
0.959731543624161
 40
0.9664429530201343
 40
0.9664429530201343
 40
0.9664429530201343
 40
0.9664429530201343
 40
0.9731543624161074
 40
0.9731543624161074
 40
0.9731543624161074
 40
0.9731543624161074
 40
0.9798657718120806
 40
0.9798657718120806
 40
0.9798657718120806
 40
0.9798657718120806
 40
0.9865771812080537
 40
0.9865771812080537
 40
0.9865771812080537
 40
0.9865771812080537
 40
1.0
 40
1.0
 40
1.0
 40
1.0
 10
-120.5263
 20
260.0
 30
0.0
 10
-120.5263
 20
260.0
 30
0.0
 10
-131.0526
 20
260.0
 30
0.0
 10
-131.0526
 20
260.0
 30
0.0
 10
-131.0526
 20
260.0
 30
0.0
 10
-131.0526
 20
260.0
 30
0.0
 10
-131.0526
 20
257.0
 30
0.0
 10
-131.0526
 20
257.0
 30
0.0
 10
-131.0526
 20
257.0
 30
0.0
 10
-131.0526
 20
257.0
 30
0.0
 10
-141.5789
 20
257.0
 30
0.0
 10
-141.5789
 20
257.0
 30
0.0
 10
-141.5789
 20
257.0
 30
0.0
 10
-141.5789
 20
257.0
 30
0.0
 10
-141.5789
 20
260.0
 30
0.0
 10
-141.5789
 20
260.0
 30
0.0
 10
-141.5789
 20
260.0
 30
0.0
 10
-141.5789
 20
260.0
 30
0.0
 10
-152.1052
 20
260.0
 30
0.0
 10
-152.1052
 20
260.0
 30
0.0
 10
-152.1052
 20
260.0
 30
0.0
 10
-152.1052
 20
260.0
 30
0.0
 10
-152.1052
 20
257.0
 30
0.0
 10
-152.1052
 20
257.0
 30
0.0
 10
-152.1052
 20
257.0
 30
0.0
 10
-152.1052
 20
257.0
 30
0.0
 10
-162.6315
 20
257.0
 30
0.0
 10
-162.6315
 20
257.0
 30
0.0
 10
-162.6315
 20
257.0
 30
0.0
 10
-162.6315
 20
257.0
 30
0.0
 10
-162.6315
 20
260.0
 30
0.0
 10
-162.6315
 20
260.0
 30
0.0
 10
-162.6315
 20
260.0
 30
0.0
 10
-162.6315
 20
260.0
 30
0.0
 10
-173.1578
 20
260.0
 30
0.0
 10
-173.1578
 20
260.0
 30
0.0
 10
-173.1578
 20
260.0
 30
0.0
 10
-173.1578
 20
260.0
 30
0.0
 10
-173.1578
 20
257.0
 30
0.0
 10
-173.1578
 20
257.0
 30
0.0
 10
-173.1578
 20
257.0
 30
0.0
 10
-173.1578
 20
257.0
 30
0.0
 10
-183.6842
 20
257.0
 30
0.0
 10
-183.6842
 20
257.0
 30
0.0
 10
-183.6842
 20
257.0
 30
0.0
 10
-183.6842
 20
257.0
 30
0.0
 10
-183.6842
 20
260.0
 30
0.0
 10
-183.6842
 20
260.0
 30
0.0
 10
-183.6842
 20
260.0
 30
0.0
 10
-183.6842
 20
260.0
 30
0.0
 10
-194.2105
 20
260.0
 30
0.0
 10
-194.2105
 20
260.0
 30
0.0
 10
-194.2105
 20
260.0
 30
0.0
 10
-194.2105
 20
260.0
 30
0.0
 10
-194.2105
 20
257.0
 30
0.0
 10
-194.2105
 20
257.0
 30
0.0
 10
-194.2105
 20
257.0
 30
0.0
 10
-194.2105
 20
257.0
 30
0.0
 10
-204.7368
 20
257.0
 30
0.0
 10
-204.7368
 20
257.0
 30
0.0
 10
-204.7368
 20
257.0
 30
0.0
 10
-204.7368
 20
257.0
 30
0.0
 10
-204.7368
 20
260.0
 30
0.0
 10
-204.7368
 20
260.0
 30
0.0
 10
-204.7368
 20
260.0
 30
0.0
 10
-204.7368
 20
260.0
 30
0.0
 10
-215.2631
 20
260.0
 30
0.0
 10
-215.2631
 20
260.0
 30
0.0
 10
-215.2631
 20
260.0
 30
0.0
 10
-215.2631
 20
260.0
 30
0.0
 10
-215.2631
 20
257.0
 30
0.0
 10
-215.2631
 20
257.0
 30
0.0
 10
-215.2631
 20
257.0
 30
0.0
 10
-215.2631
 20
257.0
 30
0.0
 10
-225.7894
 20
257.0
 30
0.0
 10
-225.7894
 20
257.0
 30
0.0
 10
-225.7894
 20
257.0
 30
0.0
 10
-225.7894
 20
257.0
 30
0.0
 10
-225.7894
 20
260.0
 30
0.0
 10
-225.7894
 20
260.0
 30
0.0
 10
-225.7894
 20
260.0
 30
0.0
 10
-225.7894
 20
260.0
 30
0.0
 10
-236.3157
 20
260.0
 30
0.0
 10
-236.3157
 20
260.0
 30
0.0
 10
-236.3157
 20
260.0
 30
0.0
 10
-236.3157
 20
260.0
 30
0.0
 10
-236.3157
 20
257.0
 30
0.0
 10
-236.3157
 20
257.0
 30
0.0
 10
-236.3157
 20
257.0
 30
0.0
 10
-236.3157
 20
257.0
 30
0.0
 10
-246.8421
 20
257.0
 30
0.0
 10
-246.8421
 20
257.0
 30
0.0
 10
-246.8421
 20
257.0
 30
0.0
 10
-246.8421
 20
257.0
 30
0.0
 10
-246.8421
 20
260.0
 30
0.0
 10
-246.8421
 20
260.0
 30
0.0
 10
-246.8421
 20
260.0
 30
0.0
 10
-246.8421
 20
260.0
 30
0.0
 10
-257.3684
 20
260.0
 30
0.0
 10
-257.3684
 20
260.0
 30
0.0
 10
-257.3684
 20
260.0
 30
0.0
 10
-257.3684
 20
260.0
 30
0.0
 10
-257.3684
 20
257.0
 30
0.0
 10
-257.3684
 20
257.0
 30
0.0
 10
-257.3684
 20
257.0
 30
0.0
 10
-257.3684
 20
257.0
 30
0.0
 10
-267.8947
 20
257.0
 30
0.0
 10
-267.8947
 20
257.0
 30
0.0
 10
-267.8947
 20
257.0
 30
0.0
 10
-267.8947
 20
257.0
 30
0.0
 10
-267.8947
 20
260.0
 30
0.0
 10
-267.8947
 20
260.0
 30
0.0
 10
-267.8947
 20
260.0
 30
0.0
 10
-267.8947
 20
260.0
 30
0.0
 10
-278.421
 20
260.0
 30
0.0
 10
-278.421
 20
260.0
 30
0.0
 10
-278.421
 20
260.0
 30
0.0
 10
-278.421
 20
260.0
 30
0.0
 10
-278.421
 20
257.0
 30
0.0
 10
-278.421
 20
257.0
 30
0.0
 10
-278.421
 20
257.0
 30
0.0
 10
-278.421
 20
257.0
 30
0.0
 10
-288.9473
 20
257.0
 30
0.0
 10
-288.9473
 20
257.0
 30
0.0
 10
-288.9473
 20
257.0
 30
0.0
 10
-288.9473
 20
257.0
 30
0.0
 10
-288.9473
 20
260.0
 30
0.0
 10
-288.9473
 20
260.0
 30
0.0
 10
-288.9473
 20
260.0
 30
0.0
 10
-288.9473
 20
260.0
 30
0.0
 10
-299.4736
 20
260.0
 30
0.0
 10
-299.4736
 20
260.0
 30
0.0
 10
-299.4736
 20
260.0
 30
0.0
 10
-299.4736
 20
260.0
 30
0.0
 10
-299.4736
 20
257.0
 30
0.0
 10
-299.4736
 20
257.0
 30
0.0
 10
-299.4736
 20
257.0
 30
0.0
 10
-299.4736
 20
257.0
 30
0.0
 10
-307.0
 20
257.0
 30
0.0
 10
-307.0
 20
257.0
 30
0.0
 10
-307.0
 20
257.0
 30
0.0
 10
-307.0
 20
257.0
 30
0.0
 10
-307.0
 20
249.4737
 30
0.0
 10
-307.0
 20
249.4737
 30
0.0
 10
-307.0
 20
249.4737
 30
0.0
 10
-307.0
 20
249.4737
 30
0.0
 10
-310.0
 20
249.4737
 30
0.0
 10
-310.0
 20
249.4737
 30
0.0
 10
-310.0
 20
249.4737
 30
0.0
 10
-310.0
 20
249.4737
 30
0.0
 10
-310.0
 20
238.9473
 30
0.0
 10
-310.0
 20
238.9473
 30
0.0
 10
-310.0
 20
238.9473
 30
0.0
 10
-310.0
 20
238.9473
 30
0.0
 10
-307.0
 20
238.9473
 30
0.0
 10
-307.0
 20
238.9473
 30
0.0
 10
-307.0
 20
238.9473
 30
0.0
 10
-307.0
 20
238.9473
 30
0.0
 10
-307.0
 20
228.421
 30
0.0
 10
-307.0
 20
228.421
 30
0.0
 10
-307.0
 20
228.421
 30
0.0
 10
-307.0
 20
228.421
 30
0.0
 10
-310.0
 20
228.421
 30
0.0
 10
-310.0
 20
228.421
 30
0.0
 10
-310.0
 20
228.421
 30
0.0
 10
-310.0
 20
228.421
 30
0.0
 10
-310.0
 20
217.8947
 30
0.0
 10
-310.0
 20
217.8947
 30
0.0
 10
-310.0
 20
217.8947
 30
0.0
 10
-310.0
 20
217.8947
 30
0.0
 10
-307.0
 20
217.8947
 30
0.0
 10
-307.0
 20
217.8947
 30
0.0
 10
-307.0
 20
217.8947
 30
0.0
 10
-307.0
 20
217.8947
 30
0.0
 10
-307.0
 20
207.3684
 30
0.0
 10
-307.0
 20
207.3684
 30
0.0
 10
-307.0
 20
207.3684
 30
0.0
 10
-307.0
 20
207.3684
 30
0.0
 10
-310.0
 20
207.3684
 30
0.0
 10
-310.0
 20
207.3684
 30
0.0
 10
-310.0
 20
207.3684
 30
0.0
 10
-310.0
 20
207.3684
 30
0.0
 10
-310.0
 20
196.8421
 30
0.0
 10
-310.0
 20
196.8421
 30
0.0
 10
-310.0
 20
196.8421
 30
0.0
 10
-310.0
 20
196.8421
 30
0.0
 10
-307.0
 20
196.8421
 30
0.0
 10
-307.0
 20
196.8421
 30
0.0
 10
-307.0
 20
196.8421
 30
0.0
 10
-307.0
 20
196.8421
 30
0.0
 10
-307.0
 20
186.3158
 30
0.0
 10
-307.0
 20
186.3158
 30
0.0
 10
-307.0
 20
186.3158
 30
0.0
 10
-307.0
 20
186.3158
 30
0.0
 10
-310.0
 20
186.3158
 30
0.0
 10
-310.0
 20
186.3158
 30
0.0
 10
-310.0
 20
186.3158
 30
0.0
 10
-310.0
 20
186.3158
 30
0.0
 10
-310.0
 20
175.7894
 30
0.0
 10
-310.0
 20
175.7894
 30
0.0
 10
-310.0
 20
175.7894
 30
0.0
 10
-310.0
 20
175.7894
 30
0.0
 10
-307.0
 20
175.7894
 30
0.0
 10
-307.0
 20
175.7894
 30
0.0
 10
-307.0
 20
175.7894
 30
0.0
 10
-307.0
 20
175.7894
 30
0.0
 10
-307.0
 20
165.2631
 30
0.0
 10
-307.0
 20
165.2631
 30
0.0
 10
-307.0
 20
165.2631
 30
0.0
 10
-307.0
 20
165.2631
 30
0.0
 10
-310.0
 20
165.2631
 30
0.0
 10
-310.0
 20
165.2631
 30
0.0
 10
-310.0
 20
165.2631
 30
0.0
 10
-310.0
 20
165.2631
 30
0.0
 10
-310.0
 20
154.7368
 30
0.0
 10
-310.0
 20
154.7368
 30
0.0
 10
-310.0
 20
154.7368
 30
0.0
 10
-310.0
 20
154.7368
 30
0.0
 10
-307.0
 20
154.7368
 30
0.0
 10
-307.0
 20
154.7368
 30
0.0
 10
-307.0
 20
154.7368
 30
0.0
 10
-307.0
 20
154.7368
 30
0.0
 10
-307.0
 20
144.2105
 30
0.0
 10
-307.0
 20
144.2105
 30
0.0
 10
-307.0
 20
144.2105
 30
0.0
 10
-307.0
 20
144.2105
 30
0.0
 10
-310.0
 20
144.2105
 30
0.0
 10
-310.0
 20
144.2105
 30
0.0
 10
-310.0
 20
144.2105
 30
0.0
 10
-310.0
 20
144.2105
 30
0.0
 10
-310.0
 20
133.6842
 30
0.0
 10
-310.0
 20
133.6842
 30
0.0
 10
-310.0
 20
133.6842
 30
0.0
 10
-310.0
 20
133.6842
 30
0.0
 10
-307.0
 20
133.6842
 30
0.0
 10
-307.0
 20
133.6842
 30
0.0
 10
-307.0
 20
133.6842
 30
0.0
 10
-307.0
 20
133.6842
 30
0.0
 10
-307.0
 20
123.1579
 30
0.0
 10
-307.0
 20
123.1579
 30
0.0
 10
-307.0
 20
123.1579
 30
0.0
 10
-307.0
 20
123.1579
 30
0.0
 10
-310.0
 20
123.1579
 30
0.0
 10
-310.0
 20
123.1579
 30
0.0
 10
-310.0
 20
123.1579
 30
0.0
 10
-310.0
 20
123.1579
 30
0.0
 10
-310.0
 20
112.6316
 30
0.0
 10
-310.0
 20
112.6316
 30
0.0
 10
-310.0
 20
112.6316
 30
0.0
 10
-310.0
 20
112.6316
 30
0.0
 10
-307.0
 20
112.6316
 30
0.0
 10
-307.0
 20
112.6316
 30
0.0
 10
-307.0
 20
112.6316
 30
0.0
 10
-307.0
 20
112.6316
 30
0.0
 10
-307.0
 20
102.1052
 30
0.0
 10
-307.0
 20
102.1052
 30
0.0
 10
-307.0
 20
102.1052
 30
0.0
 10
-307.0
 20
102.1052
 30
0.0
 10
-310.0
 20
102.1052
 30
0.0
 10
-310.0
 20
102.1052
 30
0.0
 10
-310.0
 20
102.1052
 30
0.0
 10
-310.0
 20
102.1052
 30
0.0
 10
-310.0
 20
91.5789
 30
0.0
 10
-310.0
 20
91.5789
 30
0.0
 10
-310.0
 20
91.5789
 30
0.0
 10
-310.0
 20
91.5789
 30
0.0
 10
-307.0
 20
91.5789
 30
0.0
 10
-307.0
 20
91.5789
 30
0.0
 10
-307.0
 20
91.5789
 30
0.0
 10
-307.0
 20
91.5789
 30
0.0
 10
-307.0
 20
81.0526
 30
0.0
 10
-307.0
 20
81.0526
 30
0.0
 10
-307.0
 20
81.0526
 30
0.0
 10
-307.0
 20
81.0526
 30
0.0
 10
-310.0
 20
81.0526
 30
0.0
 10
-310.0
 20
81.0526
 30
0.0
 10
-310.0
 20
81.0526
 30
0.0
 10
-310.0
 20
81.0526
 30
0.0
 10
-310.0
 20
70.5263
 30
0.0
 10
-310.0
 20
70.5263
 30
0.0
 10
-310.0
 20
70.5263
 30
0.0
 10
-310.0
 20
70.5263
 30
0.0
 10
-307.0
 20
70.5263
 30
0.0
 10
-307.0
 20
70.5263
 30
0.0
 10
-307.0
 20
70.5263
 30
0.0
 10
-307.0
 20
70.5263
 30
0.0
 10
-307.0
 20
63.0
 30
0.0
 10
-307.0
 20
63.0
 30
0.0
 10
-307.0
 20
63.0
 30
0.0
 10
-307.0
 20
63.0
 30
0.0
 10
-299.4736
 20
63.0
 30
0.0
 10
-299.4736
 20
63.0
 30
0.0
 10
-299.4736
 20
63.0
 30
0.0
 10
-299.4736
 20
63.0
 30
0.0
 10
-299.4736
 20
60.0
 30
0.0
 10
-299.4736
 20
60.0
 30
0.0
 10
-299.4736
 20
60.0
 30
0.0
 10
-299.4736
 20
60.0
 30
0.0
 10
-288.9473
 20
60.0
 30
0.0
 10
-288.9473
 20
60.0
 30
0.0
 10
-288.9473
 20
60.0
 30
0.0
 10
-288.9473
 20
60.0
 30
0.0
 10
-288.9473
 20
63.0
 30
0.0
 10
-288.9473
 20
63.0
 30
0.0
 10
-288.9473
 20
63.0
 30
0.0
 10
-288.9473
 20
63.0
 30
0.0
 10
-278.421
 20
63.0
 30
0.0
 10
-278.421
 20
63.0
 30
0.0
 10
-278.421
 20
63.0
 30
0.0
 10
-278.421
 20
63.0
 30
0.0
 10
-278.421
 20
60.0
 30
0.0
 10
-278.421
 20
60.0
 30
0.0
 10
-278.421
 20
60.0
 30
0.0
 10
-278.421
 20
60.0
 30
0.0
 10
-267.8947
 20
60.0
 30
0.0
 10
-267.8947
 20
60.0
 30
0.0
 10
-267.8947
 20
60.0
 30
0.0
 10
-267.8947
 20
60.0
 30
0.0
 10
-267.8947
 20
63.0
 30
0.0
 10
-267.8947
 20
63.0
 30
0.0
 10
-267.8947
 20
63.0
 30
0.0
 10
-267.8947
 20
63.0
 30
0.0
 10
-257.3684
 20
63.0
 30
0.0
 10
-257.3684
 20
63.0
 30
0.0
 10
-257.3684
 20
63.0
 30
0.0
 10
-257.3684
 20
63.0
 30
0.0
 10
-257.3684
 20
60.0
 30
0.0
 10
-257.3684
 20
60.0
 30
0.0
 10
-257.3684
 20
60.0
 30
0.0
 10
-257.3684
 20
60.0
 30
0.0
 10
-246.8421
 20
60.0
 30
0.0
 10
-246.8421
 20
60.0
 30
0.0
 10
-246.8421
 20
60.0
 30
0.0
 10
-246.8421
 20
60.0
 30
0.0
 10
-246.8421
 20
63.0
 30
0.0
 10
-246.8421
 20
63.0
 30
0.0
 10
-246.8421
 20
63.0
 30
0.0
 10
-246.8421
 20
63.0
 30
0.0
 10
-236.3157
 20
63.0
 30
0.0
 10
-236.3157
 20
63.0
 30
0.0
 10
-236.3157
 20
63.0
 30
0.0
 10
-236.3157
 20
63.0
 30
0.0
 10
-236.3157
 20
60.0
 30
0.0
 10
-236.3157
 20
60.0
 30
0.0
 10
-236.3157
 20
60.0
 30
0.0
 10
-236.3157
 20
60.0
 30
0.0
 10
-225.7894
 20
60.0
 30
0.0
 10
-225.7894
 20
60.0
 30
0.0
 10
-225.7894
 20
60.0
 30
0.0
 10
-225.7894
 20
60.0
 30
0.0
 10
-225.7894
 20
63.0
 30
0.0
 10
-225.7894
 20
63.0
 30
0.0
 10
-225.7894
 20
63.0
 30
0.0
 10
-225.7894
 20
63.0
 30
0.0
 10
-215.2631
 20
63.0
 30
0.0
 10
-215.2631
 20
63.0
 30
0.0
 10
-215.2631
 20
63.0
 30
0.0
 10
-215.2631
 20
63.0
 30
0.0
 10
-215.2631
 20
60.0
 30
0.0
 10
-215.2631
 20
60.0
 30
0.0
 10
-215.2631
 20
60.0
 30
0.0
 10
-215.2631
 20
60.0
 30
0.0
 10
-204.7368
 20
60.0
 30
0.0
 10
-204.7368
 20
60.0
 30
0.0
 10
-204.7368
 20
60.0
 30
0.0
 10
-204.7368
 20
60.0
 30
0.0
 10
-204.7368
 20
63.0
 30
0.0
 10
-204.7368
 20
63.0
 30
0.0
 10
-204.7368
 20
63.0
 30
0.0
 10
-204.7368
 20
63.0
 30
0.0
 10
-194.2105
 20
63.0
 30
0.0
 10
-194.2105
 20
63.0
 30
0.0
 10
-194.2105
 20
63.0
 30
0.0
 10
-194.2105
 20
63.0
 30
0.0
 10
-194.2105
 20
60.0
 30
0.0
 10
-194.2105
 20
60.0
 30
0.0
 10
-194.2105
 20
60.0
 30
0.0
 10
-194.2105
 20
60.0
 30
0.0
 10
-183.6842
 20
60.0
 30
0.0
 10
-183.6842
 20
60.0
 30
0.0
 10
-183.6842
 20
60.0
 30
0.0
 10
-183.6842
 20
60.0
 30
0.0
 10
-183.6842
 20
63.0
 30
0.0
 10
-183.6842
 20
63.0
 30
0.0
 10
-183.6842
 20
63.0
 30
0.0
 10
-183.6842
 20
63.0
 30
0.0
 10
-173.1578
 20
63.0
 30
0.0
 10
-173.1578
 20
63.0
 30
0.0
 10
-173.1578
 20
63.0
 30
0.0
 10
-173.1578
 20
63.0
 30
0.0
 10
-173.1578
 20
60.0
 30
0.0
 10
-173.1578
 20
60.0
 30
0.0
 10
-173.1578
 20
60.0
 30
0.0
 10
-173.1578
 20
60.0
 30
0.0
 10
-162.6315
 20
60.0
 30
0.0
 10
-162.6315
 20
60.0
 30
0.0
 10
-162.6315
 20
60.0
 30
0.0
 10
-162.6315
 20
60.0
 30
0.0
 10
-162.6315
 20
63.0
 30
0.0
 10
-162.6315
 20
63.0
 30
0.0
 10
-162.6315
 20
63.0
 30
0.0
 10
-162.6315
 20
63.0
 30
0.0
 10
-152.1052
 20
63.0
 30
0.0
 10
-152.1052
 20
63.0
 30
0.0
 10
-152.1052
 20
63.0
 30
0.0
 10
-152.1052
 20
63.0
 30
0.0
 10
-152.1052
 20
60.0
 30
0.0
 10
-152.1052
 20
60.0
 30
0.0
 10
-152.1052
 20
60.0
 30
0.0
 10
-152.1052
 20
60.0
 30
0.0
 10
-141.5789
 20
60.0
 30
0.0
 10
-141.5789
 20
60.0
 30
0.0
 10
-141.5789
 20
60.0
 30
0.0
 10
-141.5789
 20
60.0
 30
0.0
 10
-141.5789
 20
63.0
 30
0.0
 10
-141.5789
 20
63.0
 30
0.0
 10
-141.5789
 20
63.0
 30
0.0
 10
-141.5789
 20
63.0
 30
0.0
 10
-131.0526
 20
63.0
 30
0.0
 10
-131.0526
 20
63.0
 30
0.0
 10
-131.0526
 20
63.0
 30
0.0
 10
-131.0526
 20
63.0
 30
0.0
 10
-131.0526
 20
60.0
 30
0.0
 10
-131.0526
 20
60.0
 30
0.0
 10
-131.0526
 20
60.0
 30
0.0
 10
-131.0526
 20
60.0
 30
0.0
 10
-120.5263
 20
60.0
 30
0.0
 10
-120.5263
 20
60.0
 30
0.0
 10
-120.5263
 20
60.0
 30
0.0
 10
-120.5263
 20
60.0
 30
0.0
 10
-120.5263
 20
63.0
 30
0.0
 10
-120.5263
 20
63.0
 30
0.0
 10
-120.5263
 20
63.0
 30
0.0
 10
-120.5263
 20
63.0
 30
0.0
 10
-113.0
 20
63.0
 30
0.0
 10
-113.0
 20
63.0
 30
0.0
 10
-113.0
 20
63.0
 30
0.0
 10
-113.0
 20
63.0
 30
0.0
 10
-113.0
 20
70.5263
 30
0.0
 10
-113.0
 20
70.5263
 30
0.0
 10
-113.0
 20
70.5263
 30
0.0
 10
-113.0
 20
70.5263
 30
0.0
 10
-110.0
 20
70.5263
 30
0.0
 10
-110.0
 20
70.5263
 30
0.0
 10
-110.0
 20
70.5263
 30
0.0
 10
-110.0
 20
70.5263
 30
0.0
 10
-110.0
 20
81.0526
 30
0.0
 10
-110.0
 20
81.0526
 30
0.0
 10
-110.0
 20
81.0526
 30
0.0
 10
-110.0
 20
81.0526
 30
0.0
 10
-113.0
 20
81.0526
 30
0.0
 10
-113.0
 20
81.0526
 30
0.0
 10
-113.0
 20
81.0526
 30
0.0
 10
-113.0
 20
81.0526
 30
0.0
 10
-113.0
 20
91.5789
 30
0.0
 10
-113.0
 20
91.5789
 30
0.0
 10
-113.0
 20
91.5789
 30
0.0
 10
-113.0
 20
91.5789
 30
0.0
 10
-110.0
 20
91.5789
 30
0.0
 10
-110.0
 20
91.5789
 30
0.0
 10
-110.0
 20
91.5789
 30
0.0
 10
-110.0
 20
91.5789
 30
0.0
 10
-110.0
 20
102.1052
 30
0.0
 10
-110.0
 20
102.1052
 30
0.0
 10
-110.0
 20
102.1052
 30
0.0
 10
-110.0
 20
102.1052
 30
0.0
 10
-113.0
 20
102.1052
 30
0.0
 10
-113.0
 20
102.1052
 30
0.0
 10
-113.0
 20
102.1052
 30
0.0
 10
-113.0
 20
102.1052
 30
0.0
 10
-113.0
 20
112.6316
 30
0.0
 10
-113.0
 20
112.6316
 30
0.0
 10
-113.0
 20
112.6316
 30
0.0
 10
-113.0
 20
112.6316
 30
0.0
 10
-110.0
 20
112.6316
 30
0.0
 10
-110.0
 20
112.6316
 30
0.0
 10
-110.0
 20
112.6316
 30
0.0
 10
-110.0
 20
112.6316
 30
0.0
 10
-110.0
 20
123.1579
 30
0.0
 10
-110.0
 20
123.1579
 30
0.0
 10
-110.0
 20
123.1579
 30
0.0
 10
-110.0
 20
123.1579
 30
0.0
 10
-113.0
 20
123.1579
 30
0.0
 10
-113.0
 20
123.1579
 30
0.0
 10
-113.0
 20
123.1579
 30
0.0
 10
-113.0
 20
123.1579
 30
0.0
 10
-113.0
 20
133.6842
 30
0.0
 10
-113.0
 20
133.6842
 30
0.0
 10
-113.0
 20
133.6842
 30
0.0
 10
-113.0
 20
133.6842
 30
0.0
 10
-110.0
 20
133.6842
 30
0.0
 10
-110.0
 20
133.6842
 30
0.0
 10
-110.0
 20
133.6842
 30
0.0
 10
-110.0
 20
133.6842
 30
0.0
 10
-110.0
 20
144.2105
 30
0.0
 10
-110.0
 20
144.2105
 30
0.0
 10
-110.0
 20
144.2105
 30
0.0
 10
-110.0
 20
144.2105
 30
0.0
 10
-113.0
 20
144.2105
 30
0.0
 10
-113.0
 20
144.2105
 30
0.0
 10
-113.0
 20
144.2105
 30
0.0
 10
-113.0
 20
144.2105
 30
0.0
 10
-113.0
 20
154.7368
 30
0.0
 10
-113.0
 20
154.7368
 30
0.0
 10
-113.0
 20
154.7368
 30
0.0
 10
-113.0
 20
154.7368
 30
0.0
 10
-110.0
 20
154.7368
 30
0.0
 10
-110.0
 20
154.7368
 30
0.0
 10
-110.0
 20
154.7368
 30
0.0
 10
-110.0
 20
154.7368
 30
0.0
 10
-110.0
 20
165.2631
 30
0.0
 10
-110.0
 20
165.2631
 30
0.0
 10
-110.0
 20
165.2631
 30
0.0
 10
-110.0
 20
165.2631
 30
0.0
 10
-113.0
 20
165.2631
 30
0.0
 10
-113.0
 20
165.2631
 30
0.0
 10
-113.0
 20
165.2631
 30
0.0
 10
-113.0
 20
165.2631
 30
0.0
 10
-113.0
 20
175.7894
 30
0.0
 10
-113.0
 20
175.7894
 30
0.0
 10
-113.0
 20
175.7894
 30
0.0
 10
-113.0
 20
175.7894
 30
0.0
 10
-110.0
 20
175.7894
 30
0.0
 10
-110.0
 20
175.7894
 30
0.0
 10
-110.0
 20
175.7894
 30
0.0
 10
-110.0
 20
175.7894
 30
0.0
 10
-110.0
 20
186.3158
 30
0.0
 10
-110.0
 20
186.3158
 30
0.0
 10
-110.0
 20
186.3158
 30
0.0
 10
-110.0
 20
186.3158
 30
0.0
 10
-113.0
 20
186.3158
 30
0.0
 10
-113.0
 20
186.3158
 30
0.0
 10
-113.0
 20
186.3158
 30
0.0
 10
-113.0
 20
186.3158
 30
0.0
 10
-113.0
 20
196.8421
 30
0.0
 10
-113.0
 20
196.8421
 30
0.0
 10
-113.0
 20
196.8421
 30
0.0
 10
-113.0
 20
196.8421
 30
0.0
 10
-110.0
 20
196.8421
 30
0.0
 10
-110.0
 20
196.8421
 30
0.0
 10
-110.0
 20
196.8421
 30
0.0
 10
-110.0
 20
196.8421
 30
0.0
 10
-110.0
 20
207.3684
 30
0.0
 10
-110.0
 20
207.3684
 30
0.0
 10
-110.0
 20
207.3684
 30
0.0
 10
-110.0
 20
207.3684
 30
0.0
 10
-113.0
 20
207.3684
 30
0.0
 10
-113.0
 20
207.3684
 30
0.0
 10
-113.0
 20
207.3684
 30
0.0
 10
-113.0
 20
207.3684
 30
0.0
 10
-113.0
 20
217.8947
 30
0.0
 10
-113.0
 20
217.8947
 30
0.0
 10
-113.0
 20
217.8947
 30
0.0
 10
-113.0
 20
217.8947
 30
0.0
 10
-110.0
 20
217.8947
 30
0.0
 10
-110.0
 20
217.8947
 30
0.0
 10
-110.0
 20
217.8947
 30
0.0
 10
-110.0
 20
217.8947
 30
0.0
 10
-110.0
 20
228.421
 30
0.0
 10
-110.0
 20
228.421
 30
0.0
 10
-110.0
 20
228.421
 30
0.0
 10
-110.0
 20
228.421
 30
0.0
 10
-113.0
 20
228.421
 30
0.0
 10
-113.0
 20
228.421
 30
0.0
 10
-113.0
 20
228.421
 30
0.0
 10
-113.0
 20
228.421
 30
0.0
 10
-113.0
 20
238.9473
 30
0.0
 10
-113.0
 20
238.9473
 30
0.0
 10
-113.0
 20
238.9473
 30
0.0
 10
-113.0
 20
238.9473
 30
0.0
 10
-110.0
 20
238.9473
 30
0.0
 10
-110.0
 20
238.9473
 30
0.0
 10
-110.0
 20
238.9473
 30
0.0
 10
-110.0
 20
238.9473
 30
0.0
 10
-110.0
 20
249.4737
 30
0.0
 10
-110.0
 20
249.4737
 30
0.0
 10
-110.0
 20
249.4737
 30
0.0
 10
-110.0
 20
249.4737
 30
0.0
 10
-113.0
 20
249.4737
 30
0.0
 10
-113.0
 20
249.4737
 30
0.0
 10
-113.0
 20
249.4737
 30
0.0
 10
-113.0
 20
249.4737
 30
0.0
 10
-113.0
 20
257.0
 30
0.0
 10
-113.0
 20
257.0
 30
0.0
 10
-113.0
 20
257.0
 30
0.0
 10
-113.0
 20
257.0
 30
0.0
 10
-120.5263
 20
257.0
 30
0.0
 10
-120.5263
 20
257.0
 30
0.0
 10
-120.5263
 20
257.0
 30
0.0
 10
-120.5263
 20
257.0
 30
0.0
 10
-120.5263
 20
260.0
 30
0.0
 10
-120.5263
 20
260.0
 30
0.0
  0
ENDSEC
  0
SECTION
  2
OBJECTS
  0
DICTIONARY
  5
C
330
0
100
AcDbDictionary
281
     1
  3
ACAD_GROUP
350
D
  3
ACAD_LAYOUT
350
1A
  3
ACAD_MATERIAL
350
43
  3
ACAD_MLEADERSTYLE
350
6B
  3
ACAD_MLINESTYLE
350
17
  3
ACAD_PLOTSETTINGS
350
19
  3
ACAD_PLOTSTYLENAME
350
E
  3
ACAD_SCALELIST
350
47
  3
ACAD_TABLESTYLE
350
69
  3
ACAD_VISUALSTYLE
350
2A
  3
AcDbVariableDictionary
350
9C
  0
DICTIONARY
  5
A3
330
8
100
AcDbDictionary
280
     1
281
     1
  3
ACAD_XREC_ROUNDTRIP
360
A4
  0
DICTIONARY
  5
D
102
{ACAD_REACTORS
330
C
102
}
330
C
100
AcDbDictionary
281
     1
  0
DICTIONARY
  5
1A
102
{ACAD_REACTORS
330
C
102
}
330
C
100
AcDbDictionary
281
     1
  3
Layout1
350
1E
  3
Layout2
350
26
  3
Model
350
22
  0
DICTIONARY
  5
43
102
{ACAD_REACTORS
330
C
102
}
330
C
100
AcDbDictionary
281
     1
  3
ByBlock
350
45
  3
ByLayer
350
44
  3
Global
350
46
  0
DICTIONARY
  5
6B
102
{ACAD_REACTORS
330
C
102
}
330
C
100
AcDbDictionary
281
     1
  3
Standard
350
6C
  0
DICTIONARY
  5
17
102
{ACAD_REACTORS
330
C
102
}
330
C
100
AcDbDictionary
281
     1
  3
Standard
350
18
  0
DICTIONARY
  5
19
102
{ACAD_REACTORS
330
C
102
}
330
C
100
AcDbDictionary
281
     1
  0
ACDBDICTIONARYWDFLT
  5
E
102
{ACAD_REACTORS
330
C
102
}
330
C
100
AcDbDictionary
281
     1
  3
Normal
350
F
100
AcDbDictionaryWithDefault
340
F
  0
DICTIONARY
  5
47
102
{ACAD_REACTORS
330
C
102
}
330
C
100
AcDbDictionary
281
     1
  3
A0
350
48
  3
A1
350
49
  3
A2
350
4A
  3
A3
350
4B
  3
A4
350
4C
  3
A5
350
4D
  3
A6
350
4E
  3
A7
350
4F
  3
A8
350
50
  3
A9
350
51
  3
B0
350
52
  3
B1
350
53
  3
B2
350
54
  3
B3
350
55
  3
B4
350
56
  3
B5
350
57
  3
B6
350
58
  3
B7
350
59
  3
B8
350
5A
  3
B9
350
5B
  3
C0
350
5C
  3
C1
350
5D
  3
C2
350
5E
  3
C3
350
5F
  3
C4
350
60
  3
C5
350
61
  3
C6
350
62
  3
C7
350
63
  3
C8
350
64
  3
C9
350
65
  3
D0
350
66
  3
D1
350
67
  3
D2
350
68
  0
DICTIONARY
  5
69
102
{ACAD_REACTORS
330
C
102
}
330
C
100
AcDbDictionary
281
     1
  3
Standard
350
6A
  0
DICTIONARY
  5
2A
102
{ACAD_REACTORS
330
C
102
}
330
C
100
AcDbDictionary
281
     1
  3
2dWireframe
350
2F
  3
Basic
350
32
  3
Brighten
350
36
  3
ColorChange
350
3A
  3
Conceptual
350
34
  3
Dim
350
35
  3
EdgeColorOff
350
3D
  3
Facepattern
350
39
  3
Flat
350
2B
  3
FlatWithEdges
350
2C
  3
Gouraud
350
2D
  3
GouraudWithEdges
350
2E
  3
Hidden
350
31
  3
JitterOff
350
3B
  3
Linepattern
350
38
  3
OverhangOff
350
3C
  3
Realistic
350
33
  3
Shaded
350
42
  3
Shaded with edges
350
41
  3
Shades of Gray
350
3E
  3
Sketchy
350
3F
  3
Thicken
350
37
  3
Wireframe
350
30
  3
X-Ray
350
40
  0
DICTIONARY
  5
9C
102
{ACAD_REACTORS
330
C
102
}
330
C
100
AcDbDictionary
281
     1
  3
CANNOSCALE
350
A5
  3
CMLEADERSTYLE
350
9E
  3
CTABLESTYLE
350
9D
  3
DIMASSOC
350
A1
  3
HIDETEXT
350
A2
  3
MSLTSCALE
350
A6
  0
XRECORD
  5
A4
102
{ACAD_REACTORS
330
A3
102
}
330
A3
100
AcDbXrecord
280
     1
102
VTR_0.000_0.000_1.000_1.000_GRIDDISPLAY
 70
     3
102
VTR_0.000_0.000_1.000_1.000_GRIDMAJOR
 70
     5
102
VTR_0.000_0.000_1.000_1.000_DEFAULTLIGHTING
280
     1
102
VTR_0.000_0.000_1.000_1.000_DEFAULTLIGHTINGTYPE
 70
     1
102
VTR_0.000_0.000_1.000_1.000_BRIGHTNESS
141
0.0
102
VTR_0.000_0.000_1.000_1.000_CONTRAST
142
0.0
  0
LAYOUT
  5
1E
102
{ACAD_REACTORS
330
1A
102
}
330
1A
100
AcDbPlotSettings
  1

  2
none_device
  4

  6

 40
0.0
 41
0.0
 42
0.0
 43
0.0
 44
0.0
 45
0.0
 46
0.0
 47
0.0
 48
0.0
 49
0.0
140
0.0
141
0.0
142
1.0
143
1.0
 70
   688
 72
     0
 73
     0
 74
     5
  7

 75
    16
147
1.0
148
0.0
149
0.0
100
AcDbLayout
  1
Layout1
 70
     1
 71
     1
 10
0.0
 20
0.0
 11
12.0
 21
9.0
 12
0.0
 22
0.0
 32
0.0
 14
1.000000000000000E+20
 24
1.000000000000000E+20
 34
1.000000000000000E+20
 15
-1.000000000000000E+20
 25
-1.000000000000000E+20
 35
-1.000000000000000E+20
146
0.0
 13
0.0
 23
0.0
 33
0.0
 16
1.0
 26
0.0
 36
0.0
 17
0.0
 27
1.0
 37
0.0
 76
     0
330
1B
  0
LAYOUT
  5
26
102
{ACAD_REACTORS
330
1A
102
}
330
1A
100
AcDbPlotSettings
  1

  2
none_device
  4

  6

 40
0.0
 41
0.0
 42
0.0
 43
0.0
 44
0.0
 45
0.0
 46
0.0
 47
0.0
 48
0.0
 49
0.0
140
0.0
141
0.0
142
1.0
143
1.0
 70
   688
 72
     0
 73
     0
 74
     5
  7

 75
    16
147
1.0
148
0.0
149
0.0
100
AcDbLayout
  1
Layout2
 70
     1
 71
     2
 10
0.0
 20
0.0
 11
0.0
 21
0.0
 12
0.0
 22
0.0
 32
0.0
 14
0.0
 24
0.0
 34
0.0
 15
0.0
 25
0.0
 35
0.0
146
0.0
 13
0.0
 23
0.0
 33
0.0
 16
1.0
 26
0.0
 36
0.0
 17
0.0
 27
1.0
 37
0.0
 76
     0
330
23
  0
LAYOUT
  5
22
102
{ACAD_REACTORS
330
1A
102
}
330
1A
100
AcDbPlotSettings
  1

  2
none_device
  4
Letter_(8.50_x_11.00_Inches)
  6

 40
6.35
 41
6.35
 42
6.35000508
 43
6.35000508
 44
215.9
 45
279.4
 46
0.0
 47
0.0
 48
0.0
 49
0.0
140
0.0
141
0.0
142
1.0
143
1.0
 70
  1712
 72
     0
 73
     0
 74
     0
  7

 75
     0
147
1.0
148
0.0
149
0.0
100
AcDbLayout
  1
Model
 70
     1
 71
     0
 10
0.0
 20
0.0
 11
12.0
 21
9.0
 12
0.0
 22
0.0
 32
0.0
 14
-310.0381
 24
-260.0381
 34
0.0
 15
310.0381
 25
260.0381
 35
0.0
146
0.0
 13
0.0
 23
0.0
 33
0.0
 16
1.0
 26
0.0
 36
0.0
 17
0.0
 27
1.0
 37
0.0
 76
     0
330
1F
331
29
  0
MATERIAL
  5
45
102
{ACAD_REACTORS
330
43
102
}
102
{ACAD_XDICTIONARY
360
D9
102
}
330
43
100
AcDbMaterial
  1
ByBlock
  0
MATERIAL
  5
44
102
{ACAD_REACTORS
330
43
102
}
102
{ACAD_XDICTIONARY
360
D7
102
}
330
43
100
AcDbMaterial
  1
ByLayer
  0
MATERIAL
  5
46
102
{ACAD_REACTORS
330
43
102
}
102
{ACAD_XDICTIONARY
360
DB
102
}
330
43
100
AcDbMaterial
  1
Global
  0
MLEADERSTYLE
  5
6C
102
{ACAD_REACTORS
330
6B
102
}
102
{ACAD_XDICTIONARY
360
DE
102
}
330
6B
100
AcDbMLeaderStyle
170
     2
171
     1
172
     0
 90
        2
 40
0.0
 41
0.0
173
     1
 91
-1056964608
340
14
 92
       -2
290
     1
 42
0.09
291
     1
 43
0.36
  3
Standard
341
0
 44
0.18
300

342
11
174
     1
178
     6
175
     1
176
     0
 93
-1056964608
 45
0.18
292
     0
297
     0
 46
0.18
343
0
 94
-1056964608
 47
1.0
 49
1.0
140
1.0
293
     1
141
0.0
294
     1
177
     0
142
1.0
295
     0
296
     0
143
0.125
1001
ACAD_MLEADERVER
1070
     2
  0
MLINESTYLE
  5
18
102
{ACAD_REACTORS
330
17
102
}
330
17
100
AcDbMlineStyle
  2
Standard
 70
     0
  3

 62
   256
 51
90.0
 52
90.0
 71
     2
 49
0.5
 62
   256
  6
BYLAYER
 49
-0.5
 62
   256
  6
BYLAYER
  0
ACDBPLACEHOLDER
  5
F
102
{ACAD_REACTORS
330
E
102
}
330
E
  0
SCALE
  5
48
102
{ACAD_REACTORS
330
47
102
}
330
47
100
AcDbScale
 70
     0
300
1:1
140
1.0
141
1.0
290
     1
  0
SCALE
  5
49
102
{ACAD_REACTORS
330
47
102
}
330
47
100
AcDbScale
 70
     0
300
1:2
140
1.0
141
2.0
290
     0
  0
SCALE
  5
4A
102
{ACAD_REACTORS
330
47
102
}
330
47
100
AcDbScale
 70
     0
300
1:4
140
1.0
141
4.0
290
     0
  0
SCALE
  5
4B
102
{ACAD_REACTORS
330
47
102
}
330
47
100
AcDbScale
 70
     0
300
1:5
140
1.0
141
5.0
290
     0
  0
SCALE
  5
4C
102
{ACAD_REACTORS
330
47
102
}
330
47
100
AcDbScale
 70
     0
300
1:8
140
1.0
141
8.0
290
     0
  0
SCALE
  5
4D
102
{ACAD_REACTORS
330
47
102
}
330
47
100
AcDbScale
 70
     0
300
1:10
140
1.0
141
10.0
290
     0
  0
SCALE
  5
4E
102
{ACAD_REACTORS
330
47
102
}
330
47
100
AcDbScale
 70
     0
300
1:16
140
1.0
141
16.0
290
     0
  0
SCALE
  5
4F
102
{ACAD_REACTORS
330
47
102
}
330
47
100
AcDbScale
 70
     0
300
1:20
140
1.0
141
20.0
290
     0
  0
SCALE
  5
50
102
{ACAD_REACTORS
330
47
102
}
330
47
100
AcDbScale
 70
     0
300
1:30
140
1.0
141
30.0
290
     0
  0
SCALE
  5
51
102
{ACAD_REACTORS
330
47
102
}
330
47
100
AcDbScale
 70
     0
300
1:40
140
1.0
141
40.0
290
     0
  0
SCALE
  5
52
102
{ACAD_REACTORS
330
47
102
}
330
47
100
AcDbScale
 70
     0
300
1:50
140
1.0
141
50.0
290
     0
  0
SCALE
  5
53
102
{ACAD_REACTORS
330
47
102
}
330
47
100
AcDbScale
 70
     0
300
1:100
140
1.0
141
100.0
290
     0
  0
SCALE
  5
54
102
{ACAD_REACTORS
330
47
102
}
330
47
100
AcDbScale
 70
     0
300
2:1
140
2.0
141
1.0
290
     0
  0
SCALE
  5
55
102
{ACAD_REACTORS
330
47
102
}
330
47
100
AcDbScale
 70
     0
300
4:1
140
4.0
141
1.0
290
     0
  0
SCALE
  5
56
102
{ACAD_REACTORS
330
47
102
}
330
47
100
AcDbScale
 70
     0
300
8:1
140
8.0
141
1.0
290
     0
  0
SCALE
  5
57
102
{ACAD_REACTORS
330
47
102
}
330
47
100
AcDbScale
 70
     0
300
10:1
140
10.0
141
1.0
290
     0
  0
SCALE
  5
58
102
{ACAD_REACTORS
330
47
102
}
330
47
100
AcDbScale
 70
     0
300
100:1
140
100.0
141
1.0
290
     0
  0
SCALE
  5
59
102
{ACAD_REACTORS
330
47
102
}
330
47
100
AcDbScale
 70
     0
300
1/128" = 1'-0"
140
0.0078125
141
12.0
290
     0
  0
SCALE
  5
5A
102
{ACAD_REACTORS
330
47
102
}
330
47
100
AcDbScale
 70
     0
300
1/64" = 1'-0"
140
0.015625
141
12.0
290
     0
  0
SCALE
  5
5B
102
{ACAD_REACTORS
330
47
102
}
330
47
100
AcDbScale
 70
     0
300
1/32" = 1'-0"
140
0.03125
141
12.0
290
     0
  0
SCALE
  5
5C
102
{ACAD_REACTORS
330
47
102
}
330
47
100
AcDbScale
 70
     0
300
1/16" = 1'-0"
140
0.0625
141
12.0
290
     0
  0
SCALE
  5
5D
102
{ACAD_REACTORS
330
47
102
}
330
47
100
AcDbScale
 70
     0
300
3/32" = 1'-0"
140
0.09375
141
12.0
290
     0
  0
SCALE
  5
5E
102
{ACAD_REACTORS
330
47
102
}
330
47
100
AcDbScale
 70
     0
300
1/8" = 1'-0"
140
0.125
141
12.0
290
     0
  0
SCALE
  5
5F
102
{ACAD_REACTORS
330
47
102
}
330
47
100
AcDbScale
 70
     0
300
3/16" = 1'-0"
140
0.1875
141
12.0
290
     0
  0
SCALE
  5
60
102
{ACAD_REACTORS
330
47
102
}
330
47
100
AcDbScale
 70
     0
300
1/4" = 1'-0"
140
0.25
141
12.0
290
     0
  0
SCALE
  5
61
102
{ACAD_REACTORS
330
47
102
}
330
47
100
AcDbScale
 70
     0
300
3/8" = 1'-0"
140
0.375
141
12.0
290
     0
  0
SCALE
  5
62
102
{ACAD_REACTORS
330
47
102
}
330
47
100
AcDbScale
 70
     0
300
1/2" = 1'-0"
140
0.5
141
12.0
290
     0
  0
SCALE
  5
63
102
{ACAD_REACTORS
330
47
102
}
330
47
100
AcDbScale
 70
     0
300
3/4" = 1'-0"
140
0.75
141
12.0
290
     0
  0
SCALE
  5
64
102
{ACAD_REACTORS
330
47
102
}
330
47
100
AcDbScale
 70
     0
300
1" = 1'-0"
140
1.0
141
12.0
290
     0
  0
SCALE
  5
65
102
{ACAD_REACTORS
330
47
102
}
330
47
100
AcDbScale
 70
     0
300
1-1/2" = 1'-0"
140
1.5
141
12.0
290
     0
  0
SCALE
  5
66
102
{ACAD_REACTORS
330
47
102
}
330
47
100
AcDbScale
 70
     0
300
3" = 1'-0"
140
3.0
141
12.0
290
     0
  0
SCALE
  5
67
102
{ACAD_REACTORS
330
47
102
}
330
47
100
AcDbScale
 70
     0
300
6" = 1'-0"
140
6.0
141
12.0
290
     0
  0
SCALE
  5
68
102
{ACAD_REACTORS
330
47
102
}
330
47
100
AcDbScale
 70
     0
300
1'-0" = 1'-0"
140
12.0
141
12.0
290
     0
  0
TABLESTYLE
  5
6A
102
{ACAD_REACTORS
330
69
102
}
330
69
100
AcDbTableStyle
  3
Standard
 70
     0
 71
     0
 40
0.06
 41
0.06
280
     0
281
     0
  7
Standard
140
0.18
170
     2
 62
     0
 63
   257
283
     0
274
    -2
284
     1
 64
     0
275
    -2
285
     1
 65
     0
276
    -2
286
     1
 66
     0
277
    -2
287
     1
 67
     0
278
    -2
288
     1
 68
     0
279
    -2
289
     1
 69
     0
  7
Standard
140
0.25
170
     5
 62
     0
 63
   257
283
     0
274
    -2
284
     1
 64
     0
275
    -2
285
     1
 65
     0
276
    -2
286
     1
 66
     0
277
    -2
287
     1
 67
     0
278
    -2
288
     1
 68
     0
279
    -2
289
     1
 69
     0
  7
Standard
140
0.18
170
     5
 62
     0
 63
   257
283
     0
274
    -2
284
     1
 64
     0
275
    -2
285
     1
 65
     0
276
    -2
286
     1
 66
     0
277
    -2
287
     1
 67
     0
278
    -2
288
     1
 68
     0
279
    -2
289
     1
 69
     0
  0
VISUALSTYLE
  5
2F
102
{ACAD_REACTORS
330
2A
102
}
102
{ACAD_XDICTIONARY
360
AF
102
}
330
2A
100
AcDbVisualStyle
  2
2dWireframe
 70
     4
 71
     0
 72
     2
 73
     0
 90
        0
 40
0.6
 41
30.0
 62
     5
 63
     7
 74
     1
 91
        4
 64
     7
 65
   257
 75
     1
175
     1
 42
1.0
 92
        0
 66
   257
 43
1.0
 76
     1
 77
     6
 78
     2
 67
     7
 79
     5
170
     0
171
     0
290
     0
174
     0
 93
        1
 44
0.0
173
     0
291
     0
 45
0.0
1001
ACAD
1000
AcDbSavedByObjectVersion
1070
     0
  0
VISUALSTYLE
  5
32
102
{ACAD_REACTORS
330
2A
102
}
102
{ACAD_XDICTIONARY
360
B5
102
}
330
2A
100
AcDbVisualStyle
  2
Basic
 70
     7
 71
     1
 72
     0
 73
     1
 90
        0
 40
0.6
 41
30.0
 62
     5
 63
     7
 74
     0
 91
        4
 64
     7
 65
   257
 75
     1
175
     1
 42
1.0
 92
        8
 66
     7
 43
1.0
 76
     1
 77
     6
 78
     2
 67
     7
 79
     5
170
     0
171
     0
290
     0
174
     0
 93
        1
 44
0.0
173
     0
291
     1
 45
0.0
1001
ACAD
1000
AcDbSavedByObjectVersion
1070
     0
  0
VISUALSTYLE
  5
36
102
{ACAD_REACTORS
330
2A
102
}
102
{ACAD_XDICTIONARY
360
BD
102
}
330
2A
100
AcDbVisualStyle
  2
Brighten
 70
    12
 71
     2
 72
     2
 73
     0
 90
        0
 40
0.6
 41
30.0
 62
     5
 63
     7
 74
     1
 91
        4
 64
     7
 65
   257
 75
     1
175
     1
 42
1.0
 92
        8
 66
     7
 43
1.0
 76
     1
 77
     6
 78
     2
 67
     7
 79
     5
170
     0
171
     0
290
     0
174
     0
 93
        1
 44
50.0
173
     0
291
     1
 45
0.0
1001
ACAD
1000
AcDbSavedByObjectVersion
1070
     0
  0
VISUALSTYLE
  5
3A
102
{ACAD_REACTORS
330
2A
102
}
102
{ACAD_XDICTIONARY
360
C5
102
}
330
2A
100
AcDbVisualStyle
  2
ColorChange
 70
    16
 71
     2
 72
     2
 73
     3
 90
        0
 40
0.6
 41
30.0
 62
     5
 63
     8
 74
     1
 91
        4
 64
     7
 65
   257
 75
     1
175
     1
 42
1.0
 92
        8
 66
     8
 43
1.0
 76
     1
 77
     6
 78
     2
 67
     7
 79
     5
170
     0
171
     0
290
     0
174
     0
 93
        1
 44
0.0
173
     0
291
     1
 45
0.0
1001
ACAD
1000
AcDbSavedByObjectVersion
1070
     0
  0
VISUALSTYLE
  5
34
102
{ACAD_REACTORS
330
2A
102
}
102
{ACAD_XDICTIONARY
360
B9
102
}
330
2A
100
AcDbVisualStyle
  2
Conceptual
 70
     9
 71
     3
 72
     2
 73
     0
 90
        0
 40
0.6
 41
30.0
 62
     5
 63
     7
 74
     2
 91
        2
 64
     7
 65
   257
 75
     1
175
     1
 42
179.0
 92
        8
 66
     7
 43
1.0
 76
     1
 77
     6
 78
     2
 67
     7
 79
     3
170
     0
171
     0
290
     0
174
     0
 93
        1
 44
0.0
173
     0
291
     0
 45
0.0
1001
ACAD
1000
AcDbSavedByObjectVersion
1070
     0
  0
VISUALSTYLE
  5
35
102
{ACAD_REACTORS
330
2A
102
}
102
{ACAD_XDICTIONARY
360
BB
102
}
330
2A
100
AcDbVisualStyle
  2
Dim
 70
    11
 71
     2
 72
     2
 73
     0
 90
        0
 40
0.6
 41
30.0
 62
     5
 63
     7
 74
     1
 91
        4
 64
     7
 65
   257
 75
     1
175
     1
 42
1.0
 92
        8
 66
     7
 43
1.0
 76
     1
 77
     6
 78
     2
 67
     7
 79
     5
170
     0
171
     0
290
     0
174
     0
 93
        1
 44
-50.0
173
     0
291
     1
 45
0.0
1001
ACAD
1000
AcDbSavedByObjectVersion
1070
     0
  0
VISUALSTYLE
  5
3D
102
{ACAD_REACTORS
330
2A
102
}
102
{ACAD_XDICTIONARY
360
CB
102
}
330
2A
100
AcDbVisualStyle
  2
EdgeColorOff
 70
    22
 71
     2
 72
     2
 73
     0
 90
        0
 40
0.6
 41
30.0
 62
     5
 63
     7
 74
     1
 91
        4
 64
     7
 65
   257
 75
     1
175
     1
 42
1.0
 92
        8
 66
     7
 43
1.0
 76
     1
 77
     6
 78
     2
 67
     7
 79
     5
170
     0
171
     0
290
     0
174
     0
 93
        1
 44
0.0
173
     0
291
     1
 45
0.0
1001
ACAD
1000
AcDbSavedByObjectVersion
1070
     0
  0
VISUALSTYLE
  5
39
102
{ACAD_REACTORS
330
2A
102
}
102
{ACAD_XDICTIONARY
360
C3
102
}
330
2A
100
AcDbVisualStyle
  2
Facepattern
 70
    15
 71
     2
 72
     2
 73
     0
 90
        0
 40
0.6
 41
30.0
 62
     5
 63
     7
 74
     1
 91
        4
 64
     7
 65
   257
 75
     1
175
     1
 42
1.0
 92
        8
 66
     7
 43
1.0
 76
     1
 77
     6
 78
     2
 67
     7
 79
     5
170
     0
171
     0
290
     0
174
     0
 93
        1
 44
0.0
173
     0
291
     1
 45
0.0
1001
ACAD
1000
AcDbSavedByObjectVersion
1070
     0
  0
VISUALSTYLE
  5
2B
102
{ACAD_REACTORS
330
2A
102
}
102
{ACAD_XDICTIONARY
360
A7
102
}
330
2A
100
AcDbVisualStyle
  2
Flat
 70
     0
 71
     2
 72
     1
 73
     1
 90
        2
 40
0.6
 41
30.0
 62
     5
 63
     7
 74
     0
 91
        0
 64
     7
 65
   257
 75
     1
175
     1
 42
1.0
 92
        8
 66
     7
 43
1.0
 76
     1
 77
     6
 78
     2
 67
     7
 79
     5
170
     0
171
     0
290
     0
174
     0
 93
       13
 44
0.0
173
     0
291
     1
 45
0.0
1001
ACAD
1000
AcDbSavedByObjectVersion
1070
     0
  0
VISUALSTYLE
  5
2C
102
{ACAD_REACTORS
330
2A
102
}
102
{ACAD_XDICTIONARY
360
A9
102
}
330
2A
100
AcDbVisualStyle
  2
FlatWithEdges
 70
     1
 71
     2
 72
     1
 73
     1
 90
        2
 40
0.6
 41
30.0
 62
     5
 63
     7
 74
     1
 91
        0
 64
     7
 65
   257
 75
     1
175
     1
 42
1.0
 92
        0
 66
   257
 43
1.0
 76
     1
 77
     6
 78
     2
 67
     7
 79
     5
170
     0
171
     0
290
     0
174
     0
 93
       13
 44
0.0
173
     0
291
     1
 45
0.0
1001
ACAD
1000
AcDbSavedByObjectVersion
1070
     0
  0
VISUALSTYLE
  5
2D
102
{ACAD_REACTORS
330
2A
102
}
102
{ACAD_XDICTIONARY
360
AB
102
}
330
2A
100
AcDbVisualStyle
  2
Gouraud
 70
     2
 71
     2
 72
     2
 73
     1
 90
        2
 40
0.6
 41
30.0
 62
     5
 63
     7
 74
     0
 91
        0
 64
     7
 65
   257
 75
     1
175
     1
 42
1.0
 92
        0
 66
     7
 43
1.0
 76
     1
 77
     6
 78
     2
 67
     7
 79
     5
170
     0
171
     0
290
     0
174
     0
 93
       13
 44
0.0
173
     0
291
     1
 45
0.0
1001
ACAD
1000
AcDbSavedByObjectVersion
1070
     0
  0
VISUALSTYLE
  5
2E
102
{ACAD_REACTORS
330
2A
102
}
102
{ACAD_XDICTIONARY
360
AD
102
}
330
2A
100
AcDbVisualStyle
  2
GouraudWithEdges
 70
     3
 71
     2
 72
     2
 73
     1
 90
        2
 40
0.6
 41
30.0
 62
     5
 63
     7
 74
     1
 91
        0
 64
     7
 65
   257
 75
     1
175
     1
 42
1.0
 92
        0
 66
   257
 43
1.0
 76
     1
 77
     6
 78
     2
 67
     7
 79
     5
170
     0
171
     0
290
     0
174
     0
 93
       13
 44
0.0
173
     0
291
     1
 45
0.0
1001
ACAD
1000
AcDbSavedByObjectVersion
1070
     0
  0
VISUALSTYLE
  5
31
102
{ACAD_REACTORS
330
2A
102
}
102
{ACAD_XDICTIONARY
360
B3
102
}
330
2A
100
AcDbVisualStyle
  2
Hidden
 70
     6
 71
     1
 72
     2
 73
     2
 90
        0
 40
0.6
 41
30.0
 62
     5
 63
     7
 74
     2
 91
        2
 64
     7
 65
   257
 75
     2
175
     1
 42
40.0
 92
        0
 66
   257
 43
1.0
 76
     1
 77
     6
 78
     2
 67
     7
 79
     3
170
     0
171
     0
290
     0
174
     0
 93
        1
 44
0.0
173
     0
291
     0
 45
0.0
1001
ACAD
1000
AcDbSavedByObjectVersion
1070
     0
  0
VISUALSTYLE
  5
3B
102
{ACAD_REACTORS
330
2A
102
}
102
{ACAD_XDICTIONARY
360
C7
102
}
330
2A
100
AcDbVisualStyle
  2
JitterOff
 70
    20
 71
     2
 72
     2
 73
     0
 90
        0
 40
0.6
 41
30.0
 62
     5
 63
     7
 74
     1
 91
        4
 64
     7
 65
   257
 75
     1
175
     1
 42
1.0
 92
       10
 66
     7
 43
1.0
 76
     1
 77
     6
 78
     2
 67
     7
 79
     5
170
     0
171
     0
290
     0
174
     0
 93
        1
 44
0.0
173
     0
291
     1
 45
0.0
1001
ACAD
1000
AcDbSavedByObjectVersion
1070
     0
  0
VISUALSTYLE
  5
38
102
{ACAD_REACTORS
330
2A
102
}
102
{ACAD_XDICTIONARY
360
C1
102
}
330
2A
100
AcDbVisualStyle
  2
Linepattern
 70
    14
 71
     2
 72
     2
 73
     0
 90
        0
 40
0.6
 41
30.0
 62
     5
 63
     7
 74
     1
 91
        4
 64
     7
 65
   257
 75
     7
175
     7
 42
1.0
 92
        8
 66
     7
 43
1.0
 76
     1
 77
     6
 78
     2
 67
     7
 79
     5
170
     0
171
     0
290
     0
174
     0
 93
        1
 44
0.0
173
     0
291
     1
 45
0.0
1001
ACAD
1000
AcDbSavedByObjectVersion
1070
     0
  0
VISUALSTYLE
  5
3C
102
{ACAD_REACTORS
330
2A
102
}
102
{ACAD_XDICTIONARY
360
C9
102
}
330
2A
100
AcDbVisualStyle
  2
OverhangOff
 70
    21
 71
     2
 72
     2
 73
     0
 90
        0
 40
0.6
 41
30.0
 62
     5
 63
     7
 74
     1
 91
        4
 64
     7
 65
   257
 75
     1
175
     1
 42
1.0
 92
        9
 66
     7
 43
1.0
 76
     1
 77
     6
 78
     2
 67
     7
 79
     5
170
     0
171
     0
290
     0
174
     0
 93
        1
 44
0.0
173
     0
291
     1
 45
0.0
1001
ACAD
1000
AcDbSavedByObjectVersion
1070
     0
  0
VISUALSTYLE
  5
33
102
{ACAD_REACTORS
330
2A
102
}
102
{ACAD_XDICTIONARY
360
B7
102
}
330
2A
100
AcDbVisualStyle
  2
Realistic
 70
     8
 71
     2
 72
     3
 73
     0
 90
        2
 40
0.6
 41
30.0
 62
     5
 63
     7
 74
     0
 91
        0
 64
     7
 65
   257
 75
     1
175
     1
 42
1.0
 92
        8
 66
   257
 43
1.0
 76
     1
 77
     6
 78
     2
 67
     7
 79
     3
170
     0
171
     0
290
     0
174
     0
 93
       13
 44
0.0
173
     0
291
     0
 45
0.0
1001
ACAD
1000
AcDbSavedByObjectVersion
1070
     0
  0
VISUALSTYLE
  5
42
102
{ACAD_REACTORS
330
2A
102
}
102
{ACAD_XDICTIONARY
360
D5
102
}
330
2A
100
AcDbVisualStyle
  2
Shaded
 70
    27
 71
     2
 72
     2
 73
     1
 90
        2
 40
0.6
 41
30.0
 62
     5
 63
     7
 74
     0
 91
        4
 64
     7
 65
   257
 75
     1
175
     1
 42
1.0
 92
        8
 66
   257
 43
1.0
 76
     1
 77
     6
 78
     2
 67
     8
 79
     3
170
     0
171
     0
290
     0
174
     0
 93
        5
 44
0.0
173
     0
291
     0
 45
0.0
1001
ACAD
1000
AcDbSavedByObjectVersion
1070
     0
  0
VISUALSTYLE
  5
41
102
{ACAD_REACTORS
330
2A
102
}
102
{ACAD_XDICTIONARY
360
D3
102
}
330
2A
100
AcDbVisualStyle
  2
Shaded with edges
 70
    26
 71
     2
 72
     2
 73
     1
 90
        2
 40
0.6
 41
30.0
 62
     5
 63
     7
 74
     1
 91
       10
 64
     7
 65
   257
 75
     2
175
     1
 42
1.0
 92
        8
 66
   257
 43
1.0
 76
     1
 77
     6
 78
     2
 67
     7
 79
     3
170
     0
171
     0
290
     0
174
     0
 93
        5
 44
0.0
173
     0
291
     0
 45
0.0
1001
ACAD
1000
AcDbSavedByObjectVersion
1070
     0
  0
VISUALSTYLE
  5
3E
102
{ACAD_REACTORS
330
2A
102
}
102
{ACAD_XDICTIONARY
360
CD
102
}
330
2A
100
AcDbVisualStyle
  2
Shades of Gray
 70
    23
 71
     2
 72
     2
 73
     3
 90
        0
 40
0.6
 41
30.0
 62
     5
 63
     7
 74
     2
 91
        2
 64
     7
 65
     7
 75
     1
175
     1
 42
40.0
 92
        8
 66
     7
 43
1.0
 76
     1
 77
     6
 78
     2
 67
     7
 79
     3
170
     0
171
     0
290
     0
174
     0
 93
        1
 44
0.0
173
     0
291
     0
 45
0.0
1001
ACAD
1000
AcDbSavedByObjectVersion
1070
     0
  0
VISUALSTYLE
  5
3F
102
{ACAD_REACTORS
330
2A
102
}
102
{ACAD_XDICTIONARY
360
CF
102
}
330
2A
100
AcDbVisualStyle
  2
Sketchy
 70
    24
 71
     1
 72
     2
 73
     2
 90
        0
 40
0.6
 41
30.0
 62
     5
 63
     7
 74
     2
 91
        2
 64
     7
 65
     7
 75
     1
175
     1
 42
40.0
 92
       11
 66
     7
 43
1.0
 76
     1
 77
     6
 78
     2
 67
     7
 79
     6
170
     0
171
     0
290
     0
174
     0
 93
        1
 44
0.0
173
     0
291
     0
 45
0.0
1001
ACAD
1000
AcDbSavedByObjectVersion
1070
     0
  0
VISUALSTYLE
  5
37
102
{ACAD_REACTORS
330
2A
102
}
102
{ACAD_XDICTIONARY
360
BF
102
}
330
2A
100
AcDbVisualStyle
  2
Thicken
 70
    13
 71
     2
 72
     2
 73
     0
 90
        0
 40
0.6
 41
30.0
 62
     5
 63
     7
 74
     1
 91
        4
 64
     7
 65
   257
 75
     1
175
     1
 42
1.0
 92
       12
 66
     7
 43
1.0
 76
     1
 77
     6
 78
     2
 67
     7
 79
     5
170
     0
171
     0
290
     0
174
     0
 93
        1
 44
0.0
173
     0
291
     1
 45
0.0
1001
ACAD
1000
AcDbSavedByObjectVersion
1070
     0
  0
VISUALSTYLE
  5
30
102
{ACAD_REACTORS
330
2A
102
}
102
{ACAD_XDICTIONARY
360
B1
102
}
330
2A
100
AcDbVisualStyle
  2
Wireframe
 70
     5
 71
     0
 72
     2
 73
     0
 90
        0
 40
0.6
 41
30.0
 62
     5
 63
     7
 74
     1
 91
        4
 64
     7
 65
   257
 75
     1
175
     1
 42
1.0
 92
        0
 66
   257
 43
1.0
 76
     1
 77
     6
 78
     2
 67
     7
 79
     3
170
     0
171
     0
290
     0
174
     0
 93
        1
 44
0.0
173
     0
291
     0
 45
0.0
1001
ACAD
1000
AcDbSavedByObjectVersion
1070
     0
  0
VISUALSTYLE
  5
40
102
{ACAD_REACTORS
330
2A
102
}
102
{ACAD_XDICTIONARY
360
D1
102
}
330
2A
100
AcDbVisualStyle
  2
X-Ray
 70
    25
 71
     2
 72
     2
 73
     1
 90
        1
 40
0.5
 41
30.0
 62
     5
 63
     7
 74
     1
 91
        0
 64
     7
 65
   257
 75
     1
175
     1
 42
1.0
 92
        8
 66
     7
 43
1.0
 76
     1
 77
     6
 78
     2
 67
     7
 79
     3
170
     0
171
     0
290
     0
174
     0
 93
       13
 44
0.0
173
     0
291
     0
 45
0.0
1001
ACAD
1000
AcDbSavedByObjectVersion
1070
     0
  0
DICTIONARYVAR
  5
A5
102
{ACAD_REACTORS
330
9C
102
}
330
9C
100
DictionaryVariables
280
     0
  1
1:1
  0
DICTIONARYVAR
  5
9E
102
{ACAD_REACTORS
330
9C
102
}
330
9C
100
DictionaryVariables
280
     0
  1
Standard
  0
DICTIONARYVAR
  5
9D
102
{ACAD_REACTORS
330
9C
102
}
330
9C
100
DictionaryVariables
280
     0
  1
Standard
  0
DICTIONARYVAR
  5
A1
102
{ACAD_REACTORS
330
9C
102
}
330
9C
100
DictionaryVariables
280
     0
  1
2
  0
DICTIONARYVAR
  5
A2
102
{ACAD_REACTORS
330
9C
102
}
330
9C
100
DictionaryVariables
280
     0
  1
1
  0
DICTIONARYVAR
  5
A6
102
{ACAD_REACTORS
330
9C
102
}
330
9C
100
DictionaryVariables
280
     0
  1
1
  0
DICTIONARY
  5
D9
330
45
100
AcDbDictionary
280
     1
281
     1
  3
ACAD_XREC_ROUNDTRIP
360
DA
  0
DICTIONARY
  5
D7
330
44
100
AcDbDictionary
280
     1
281
     1
  3
ACAD_XREC_ROUNDTRIP
360
D8
  0
DICTIONARY
  5
DB
330
46
100
AcDbDictionary
280
     1
281
     1
  3
ACAD_XREC_ROUNDTRIP
360
DC
  0
DICTIONARY
  5
DE
330
6C
100
AcDbDictionary
280
     1
281
     1
  3
ACAD_XREC_ROUNDTRIP
360
DF
  0
DICTIONARY
  5
AF
330
2F
100
AcDbDictionary
280
     1
281
     1
  3
ACAD_XREC_ROUNDTRIP
360
B0
  0
DICTIONARY
  5
B5
330
32
100
AcDbDictionary
280
     1
281
     1
  3
ACAD_XREC_ROUNDTRIP
360
B6
  0
DICTIONARY
  5
BD
330
36
100
AcDbDictionary
280
     1
281
     1
  3
ACAD_XREC_ROUNDTRIP
360
BE
  0
DICTIONARY
  5
C5
330
3A
100
AcDbDictionary
280
     1
281
     1
  3
ACAD_XREC_ROUNDTRIP
360
C6
  0
DICTIONARY
  5
B9
330
34
100
AcDbDictionary
280
     1
281
     1
  3
ACAD_XREC_ROUNDTRIP
360
BA
  0
DICTIONARY
  5
BB
330
35
100
AcDbDictionary
280
     1
281
     1
  3
ACAD_XREC_ROUNDTRIP
360
BC
  0
DICTIONARY
  5
CB
330
3D
100
AcDbDictionary
280
     1
281
     1
  3
ACAD_XREC_ROUNDTRIP
360
CC
  0
DICTIONARY
  5
C3
330
39
100
AcDbDictionary
280
     1
281
     1
  3
ACAD_XREC_ROUNDTRIP
360
C4
  0
DICTIONARY
  5
A7
330
2B
100
AcDbDictionary
280
     1
281
     1
  3
ACAD_XREC_ROUNDTRIP
360
A8
  0
DICTIONARY
  5
A9
330
2C
100
AcDbDictionary
280
     1
281
     1
  3
ACAD_XREC_ROUNDTRIP
360
AA
  0
DICTIONARY
  5
AB
330
2D
100
AcDbDictionary
280
     1
281
     1
  3
ACAD_XREC_ROUNDTRIP
360
AC
  0
DICTIONARY
  5
AD
330
2E
100
AcDbDictionary
280
     1
281
     1
  3
ACAD_XREC_ROUNDTRIP
360
AE
  0
DICTIONARY
  5
B3
330
31
100
AcDbDictionary
280
     1
281
     1
  3
ACAD_XREC_ROUNDTRIP
360
B4
  0
DICTIONARY
  5
C7
330
3B
100
AcDbDictionary
280
     1
281
     1
  3
ACAD_XREC_ROUNDTRIP
360
C8
  0
DICTIONARY
  5
C1
330
38
100
AcDbDictionary
280
     1
281
     1
  3
ACAD_XREC_ROUNDTRIP
360
C2
  0
DICTIONARY
  5
C9
330
3C
100
AcDbDictionary
280
     1
281
     1
  3
ACAD_XREC_ROUNDTRIP
360
CA
  0
DICTIONARY
  5
B7
330
33
100
AcDbDictionary
280
     1
281
     1
  3
ACAD_XREC_ROUNDTRIP
360
B8
  0
DICTIONARY
  5
D5
330
42
100
AcDbDictionary
280
     1
281
     1
  3
ACAD_XREC_ROUNDTRIP
360
D6
  0
DICTIONARY
  5
D3
330
41
100
AcDbDictionary
280
     1
281
     1
  3
ACAD_XREC_ROUNDTRIP
360
D4
  0
DICTIONARY
  5
CD
330
3E
100
AcDbDictionary
280
     1
281
     1
  3
ACAD_XREC_ROUNDTRIP
360
CE
  0
DICTIONARY
  5
CF
330
3F
100
AcDbDictionary
280
     1
281
     1
  3
ACAD_XREC_ROUNDTRIP
360
D0
  0
DICTIONARY
  5
BF
330
37
100
AcDbDictionary
280
     1
281
     1
  3
ACAD_XREC_ROUNDTRIP
360
C0
  0
DICTIONARY
  5
B1
330
30
100
AcDbDictionary
280
     1
281
     1
  3
ACAD_XREC_ROUNDTRIP
360
B2
  0
DICTIONARY
  5
D1
330
40
100
AcDbDictionary
280
     1
281
     1
  3
ACAD_XREC_ROUNDTRIP
360
D2
  0
XRECORD
  5
DA
102
{ACAD_REACTORS
330
D9
102
}
330
D9
100
AcDbXrecord
280
     1
102
MATERIAL
148
0.0
149
0.0
149
0.0
 93
        0
 94
      127
282
     0
 72
     1
 77
     1
171
     1
175
     1
179
     1
273
     0
  0
XRECORD
  5
D8
102
{ACAD_REACTORS
330
D7
102
}
330
D7
100
AcDbXrecord
280
     1
102
MATERIAL
148
0.0
149
0.0
149
0.0
 93
        0
 94
      127
282
     0
 72
     1
 77
     1
171
     1
175
     1
179
     1
273
     0
  0
XRECORD
  5
DC
102
{ACAD_REACTORS
330
DB
102
}
330
DB
100
AcDbXrecord
280
     1
102
MATERIAL
148
0.0
149
0.0
149
0.0
 93
        0
 94
      127
282
     0
 72
     1
 77
     1
171
     1
175
     1
179
     1
273
     0
  0
XRECORD
  5
DF
102
{ACAD_REACTORS
330
DE
102
}
330
DE
100
AcDbXrecord
280
     1
102
ACAD_ROUNDTRIP_2010_MLEADER_STYLE
  0
XRECORD
  5
B0
102
{ACAD_REACTORS
330
AF
102
}
330
AF
100
AcDbXrecord
280
     1
102
RTVSPropertyOp0
 70
     1
102
RTVSPropertyOp1
 70
     1
102
RTVSPropertyOp2
 70
     1
102
RTVSPropertyOp3
 70
     1
102
RTVSPropertyOp4
 70
     1
102
RTVSPropertyOp5
 70
     1
102
RTVSPropertyOp6
 70
     1
102
RTVSPropertyOp7
 70
     1
102
RTVSPropertyOp8
 70
     1
102
RTVSPropertyOp9
 70
     1
102
RTVSPropertyOp10
 70
     1
102
RTVSPropertyOp11
 70
     1
102
RTVSPropertyOp12
 70
     1
102
RTVSPropertyOp13
 70
     1
102
RTVSPropertyOp14
 70
     1
102
RTVSPropertyOp15
 70
     1
102
RTVSPropertyOp16
 70
     1
102
RTVSPropertyOp17
 70
     1
102
RTVSPropertyOp18
 70
     1
102
RTVSPropertyOp19
 70
     1
102
RTVSPropertyOp20
 70
     1
102
RTVSPropertyOp21
 70
     1
102
RTVSPropertyOp22
 70
     1
102
RTVSPropertyOp23
 70
     1
102
RTVSPropertyOp24
 70
     1
102
RTVSPropertyOp25
 70
     1
102
RTVSPropertyOp26
 70
     1
102
RTVSPropertyOp27
 70
     1
102
RTVSPropertyOp28
 70
     1
102
RTVSPropertyOp29
 70
     1
102
RTVSPropertyOp30
 70
     1
102
RTVSPropertyOp31
 70
     1
102
RTVSPropertyOp32
 70
     1
102
RTVSPropertyOp33
 70
     1
102
RTVSPropertyOp34
 70
     1
102
RTVSPropertyOp35
 70
     1
102
RTVSPropertyOp36
 70
     1
102
RTVSPropertyOp37
 70
     1
102
RTVSPropertyOp38
 70
     1
102
RTVSPropertyOp39
 70
     1
102
RTVSPropertyOp40
 70
     1
102
RTVSPropertyOp41
 70
     1
102
RTVSPropertyOp42
 70
     1
102
RTVSPropertyOp43
 70
     1
102
RTVSPropertyOp44
 70
     1
102
RTVSPropertyOp45
 70
     1
102
RTVSPropertyOp46
 70
     1
102
RTVSPropertyOp47
 70
     1
102
RTVSPropertyOp48
 70
     1
102
RTVSPropertyOp49
 70
     1
102
RTVSPropertyOp50
 70
     1
102
RTVSPropertyOp51
 70
     0
102
RTVSPropertyOp52
 70
     0
102
RTVSPropertyOp53
 70
     1
102
RTVSPropertyOp54
 70
     1
102
RTVSPropertyOp55
 70
     1
102
RTVSPropertyOp56
 70
     1
102
RTVSPropertyOp57
 70
     1
102
RTVSPost2010Prop28
280
     1
102
RTVSPost2010PropOp28
 70
     1
102
RTVSPost2010Prop29
280
     1
102
RTVSPost2010PropOp29
 70
     1
102
RTVSPost2010Prop30
280
     0
102
RTVSPost2010PropOp30
 70
     1
102
RTVSPost2010Prop31
280
     0
102
RTVSPost2010PropOp31
 70
     1
102
RTVSPost2010Prop32
280
     0
102
RTVSPost2010PropOp32
 70
     1
102
RTVSPost2010Prop33
280
     0
102
RTVSPost2010PropOp33
 70
     1
102
RTVSPost2010Prop34
280
     0
102
RTVSPost2010PropOp34
 70
     1
102
RTVSPost2010Prop35
280
     0
102
RTVSPost2010PropOp35
 70
     1
102
RTVSPost2010Prop36
280
     0
102
RTVSPost2010PropOp36
 70
     1
102
RTVSPost2010Prop37
 90
       50
102
RTVSPost2010PropOp37
 70
     1
102
RTVSPost2010Prop38
140
0.0
102
RTVSPost2010PropOp38
 70
     1
102
RTVSPost2010Prop39
140
1.0
102
RTVSPost2010PropOp39
 70
     1
102
RTVSPost2010Prop40
 90
        0
102
RTVSPost2010PropOp40
 70
     1
102
RTVSPost2010Prop41ColorIndex
 90
       18
102
RTVSPost2010Prop41ColorRGB
 90
        0
102
RTVSPost2010PropOp41
 70
     1
102
RTVSPost2010Prop42
 90
       50
102
RTVSPost2010PropOp42
 70
     1
102
RTVSPost2010Prop43
 90
        3
102
RTVSPost2010PropOp43
 70
     1
102
RTVSPost2010Prop44ColorIndex
 90
        5
102
RTVSPost2010Prop44ColorRGB
 90
      255
102
RTVSPost2010PropOp44
 70
     1
102
RTVSPost2010Prop45
280
     0
102
RTVSPost2010PropOp45
 70
     1
102
RTVSPost2010Prop46
 90
       50
102
RTVSPost2010PropOp46
 70
     1
102
RTVSPost2010Prop47
 90
       50
102
RTVSPost2010PropOp47
 70
     1
102
RTVSPost2010Prop48
 90
       50
102
RTVSPost2010PropOp48
 70
     1
102
RTVSPost2010Prop49
280
     0
102
RTVSPost2010PropOp49
 70
     1
102
RTVSPost2010Prop50
 90
       50
102
RTVSPost2010PropOp50
 70
     1
102
RTVSPost2010Prop51ColorIndex
 90
      256
102
RTVSPost2010Prop51ColorRGB
 90
-16777216
102
RTVSPost2010PropOp51
 70
     0
102
RTVSPost2010Prop52
140
1.0
102
RTVSPost2010PropOp52
 70
     0
102
RTVSPost2010Prop53
 90
        2
102
RTVSPost2010PropOp53
 70
     1
102
RTVSPost2010Prop54
  1
strokes_ogs.tif
102
RTVSPost2010PropOp54
 70
     1
102
RTVSPost2010Prop55
280
     0
102
RTVSPost2010PropOp55
 70
     1
102
RTVSPost2010Prop56
140
1.0
102
RTVSPost2010PropOp56
 70
     1
102
RTVSPost2010Prop57
140
1.0
102
RTVSPost2010PropOp57
 70
     1
  0
XRECORD
  5
B6
102
{ACAD_REACTORS
330
B5
102
}
330
B5
100
AcDbXrecord
280
     1
102
RTVSPropertyOp0
 70
     1
102
RTVSPropertyOp1
 70
     1
102
RTVSPropertyOp2
 70
     1
102
RTVSPropertyOp3
 70
     1
102
RTVSPropertyOp4
 70
     1
102
RTVSPropertyOp5
 70
     1
102
RTVSPropertyOp6
 70
     1
102
RTVSPropertyOp7
 70
     1
102
RTVSPropertyOp8
 70
     1
102
RTVSPropertyOp9
 70
     1
102
RTVSPropertyOp10
 70
     1
102
RTVSPropertyOp11
 70
     1
102
RTVSPropertyOp12
 70
     1
102
RTVSPropertyOp13
 70
     1
102
RTVSPropertyOp14
 70
     1
102
RTVSPropertyOp15
 70
     1
102
RTVSPropertyOp16
 70
     1
102
RTVSPropertyOp17
 70
     1
102
RTVSPropertyOp18
 70
     1
102
RTVSPropertyOp19
 70
     1
102
RTVSPropertyOp20
 70
     1
102
RTVSPropertyOp21
 70
     1
102
RTVSPropertyOp22
 70
     1
102
RTVSPropertyOp23
 70
     1
102
RTVSPropertyOp24
 70
     1
102
RTVSPropertyOp25
 70
     1
102
RTVSPropertyOp26
 70
     1
102
RTVSPropertyOp27
 70
     1
102
RTVSPropertyOp28
 70
     1
102
RTVSPropertyOp29
 70
     1
102
RTVSPropertyOp30
 70
     1
102
RTVSPropertyOp31
 70
     1
102
RTVSPropertyOp32
 70
     1
102
RTVSPropertyOp33
 70
     1
102
RTVSPropertyOp34
 70
     1
102
RTVSPropertyOp35
 70
     1
102
RTVSPropertyOp36
 70
     1
102
RTVSPropertyOp37
 70
     1
102
RTVSPropertyOp38
 70
     1
102
RTVSPropertyOp39
 70
     1
102
RTVSPropertyOp40
 70
     1
102
RTVSPropertyOp41
 70
     1
102
RTVSPropertyOp42
 70
     1
102
RTVSPropertyOp43
 70
     1
102
RTVSPropertyOp44
 70
     1
102
RTVSPropertyOp45
 70
     1
102
RTVSPropertyOp46
 70
     1
102
RTVSPropertyOp47
 70
     1
102
RTVSPropertyOp48
 70
     1
102
RTVSPropertyOp49
 70
     1
102
RTVSPropertyOp50
 70
     1
102
RTVSPropertyOp51
 70
     0
102
RTVSPropertyOp52
 70
     0
102
RTVSPropertyOp53
 70
     1
102
RTVSPropertyOp54
 70
     1
102
RTVSPropertyOp55
 70
     1
102
RTVSPropertyOp56
 70
     1
102
RTVSPropertyOp57
 70
     1
102
RTVSPost2010Prop28
280
     0
102
RTVSPost2010PropOp28
 70
     1
102
RTVSPost2010Prop29
280
     1
102
RTVSPost2010PropOp29
 70
     1
102
RTVSPost2010Prop30
280
     1
102
RTVSPost2010PropOp30
 70
     1
102
RTVSPost2010Prop31
280
     0
102
RTVSPost2010PropOp31
 70
     1
102
RTVSPost2010Prop32
280
     0
102
RTVSPost2010PropOp32
 70
     1
102
RTVSPost2010Prop33
280
     0
102
RTVSPost2010PropOp33
 70
     1
102
RTVSPost2010Prop34
280
     0
102
RTVSPost2010PropOp34
 70
     1
102
RTVSPost2010Prop35
280
     0
102
RTVSPost2010PropOp35
 70
     1
102
RTVSPost2010Prop36
280
     0
102
RTVSPost2010PropOp36
 70
     1
102
RTVSPost2010Prop37
 90
       50
102
RTVSPost2010PropOp37
 70
     1
102
RTVSPost2010Prop38
140
0.0
102
RTVSPost2010PropOp38
 70
     1
102
RTVSPost2010Prop39
140
1.0
102
RTVSPost2010PropOp39
 70
     1
102
RTVSPost2010Prop40
 90
        0
102
RTVSPost2010PropOp40
 70
     1
102
RTVSPost2010Prop41ColorIndex
 90
       18
102
RTVSPost2010Prop41ColorRGB
 90
        0
102
RTVSPost2010PropOp41
 70
     1
102
RTVSPost2010Prop42
 90
       50
102
RTVSPost2010PropOp42
 70
     1
102
RTVSPost2010Prop43
 90
        3
102
RTVSPost2010PropOp43
 70
     1
102
RTVSPost2010Prop44ColorIndex
 90
        5
102
RTVSPost2010Prop44ColorRGB
 90
      255
102
RTVSPost2010PropOp44
 70
     1
102
RTVSPost2010Prop45
280
     0
102
RTVSPost2010PropOp45
 70
     1
102
RTVSPost2010Prop46
 90
       50
102
RTVSPost2010PropOp46
 70
     1
102
RTVSPost2010Prop47
 90
       50
102
RTVSPost2010PropOp47
 70
     1
102
RTVSPost2010Prop48
 90
       50
102
RTVSPost2010PropOp48
 70
     1
102
RTVSPost2010Prop49
280
     0
102
RTVSPost2010PropOp49
 70
     1
102
RTVSPost2010Prop50
 90
       50
102
RTVSPost2010PropOp50
 70
     1
102
RTVSPost2010Prop51ColorIndex
 90
      256
102
RTVSPost2010Prop51ColorRGB
 90
-16777216
102
RTVSPost2010PropOp51
 70
     0
102
RTVSPost2010Prop52
140
1.0
102
RTVSPost2010PropOp52
 70
     0
102
RTVSPost2010Prop53
 90
        2
102
RTVSPost2010PropOp53
 70
     1
102
RTVSPost2010Prop54
  1
strokes_ogs.tif
102
RTVSPost2010PropOp54
 70
     1
102
RTVSPost2010Prop55
280
     0
102
RTVSPost2010PropOp55
 70
     1
102
RTVSPost2010Prop56
140
1.0
102
RTVSPost2010PropOp56
 70
     1
102
RTVSPost2010Prop57
140
1.0
102
RTVSPost2010PropOp57
 70
     1
  0
XRECORD
  5
BE
102
{ACAD_REACTORS
330
BD
102
}
330
BD
100
AcDbXrecord
280
     1
102
RTVSPropertyOp0
 70
     1
102
RTVSPropertyOp1
 70
     1
102
RTVSPropertyOp2
 70
     1
102
RTVSPropertyOp3
 70
     1
102
RTVSPropertyOp4
 70
     1
102
RTVSPropertyOp5
 70
     1
102
RTVSPropertyOp6
 70
     1
102
RTVSPropertyOp7
 70
     1
102
RTVSPropertyOp8
 70
     1
102
RTVSPropertyOp9
 70
     1
102
RTVSPropertyOp10
 70
     1
102
RTVSPropertyOp11
 70
     1
102
RTVSPropertyOp12
 70
     1
102
RTVSPropertyOp13
 70
     1
102
RTVSPropertyOp14
 70
     1
102
RTVSPropertyOp15
 70
     1
102
RTVSPropertyOp16
 70
     1
102
RTVSPropertyOp17
 70
     1
102
RTVSPropertyOp18
 70
     1
102
RTVSPropertyOp19
 70
     1
102
RTVSPropertyOp20
 70
     1
102
RTVSPropertyOp21
 70
     1
102
RTVSPropertyOp22
 70
     1
102
RTVSPropertyOp23
 70
     1
102
RTVSPropertyOp24
 70
     1
102
RTVSPropertyOp25
 70
     1
102
RTVSPropertyOp26
 70
     1
102
RTVSPropertyOp27
 70
     1
102
RTVSPropertyOp28
 70
     1
102
RTVSPropertyOp29
 70
     1
102
RTVSPropertyOp30
 70
     1
102
RTVSPropertyOp31
 70
     1
102
RTVSPropertyOp32
 70
     1
102
RTVSPropertyOp33
 70
     1
102
RTVSPropertyOp34
 70
     1
102
RTVSPropertyOp35
 70
     1
102
RTVSPropertyOp36
 70
     1
102
RTVSPropertyOp37
 70
     1
102
RTVSPropertyOp38
 70
     1
102
RTVSPropertyOp39
 70
     1
102
RTVSPropertyOp40
 70
     1
102
RTVSPropertyOp41
 70
     1
102
RTVSPropertyOp42
 70
     1
102
RTVSPropertyOp43
 70
     1
102
RTVSPropertyOp44
 70
     1
102
RTVSPropertyOp45
 70
     1
102
RTVSPropertyOp46
 70
     1
102
RTVSPropertyOp47
 70
     1
102
RTVSPropertyOp48
 70
     1
102
RTVSPropertyOp49
 70
     1
102
RTVSPropertyOp50
 70
     1
102
RTVSPropertyOp51
 70
     0
102
RTVSPropertyOp52
 70
     0
102
RTVSPropertyOp53
 70
     1
102
RTVSPropertyOp54
 70
     1
102
RTVSPropertyOp55
 70
     1
102
RTVSPropertyOp56
 70
     1
102
RTVSPropertyOp57
 70
     1
102
RTVSPost2010Prop28
280
     0
102
RTVSPost2010PropOp28
 70
     1
102
RTVSPost2010Prop29
280
     1
102
RTVSPost2010PropOp29
 70
     1
102
RTVSPost2010Prop30
280
     1
102
RTVSPost2010PropOp30
 70
     1
102
RTVSPost2010Prop31
280
     0
102
RTVSPost2010PropOp31
 70
     1
102
RTVSPost2010Prop32
280
     0
102
RTVSPost2010PropOp32
 70
     1
102
RTVSPost2010Prop33
280
     0
102
RTVSPost2010PropOp33
 70
     1
102
RTVSPost2010Prop34
280
     0
102
RTVSPost2010PropOp34
 70
     1
102
RTVSPost2010Prop35
280
     0
102
RTVSPost2010PropOp35
 70
     1
102
RTVSPost2010Prop36
280
     0
102
RTVSPost2010PropOp36
 70
     1
102
RTVSPost2010Prop37
 90
       50
102
RTVSPost2010PropOp37
 70
     1
102
RTVSPost2010Prop38
140
0.0
102
RTVSPost2010PropOp38
 70
     1
102
RTVSPost2010Prop39
140
1.0
102
RTVSPost2010PropOp39
 70
     1
102
RTVSPost2010Prop40
 90
        0
102
RTVSPost2010PropOp40
 70
     1
102
RTVSPost2010Prop41ColorIndex
 90
       18
102
RTVSPost2010Prop41ColorRGB
 90
        0
102
RTVSPost2010PropOp41
 70
     1
102
RTVSPost2010Prop42
 90
       50
102
RTVSPost2010PropOp42
 70
     1
102
RTVSPost2010Prop43
 90
        3
102
RTVSPost2010PropOp43
 70
     1
102
RTVSPost2010Prop44ColorIndex
 90
        5
102
RTVSPost2010Prop44ColorRGB
 90
      255
102
RTVSPost2010PropOp44
 70
     1
102
RTVSPost2010Prop45
280
     0
102
RTVSPost2010PropOp45
 70
     1
102
RTVSPost2010Prop46
 90
       50
102
RTVSPost2010PropOp46
 70
     1
102
RTVSPost2010Prop47
 90
       50
102
RTVSPost2010PropOp47
 70
     1
102
RTVSPost2010Prop48
 90
       50
102
RTVSPost2010PropOp48
 70
     1
102
RTVSPost2010Prop49
280
     0
102
RTVSPost2010PropOp49
 70
     1
102
RTVSPost2010Prop50
 90
       50
102
RTVSPost2010PropOp50
 70
     1
102
RTVSPost2010Prop51ColorIndex
 90
      256
102
RTVSPost2010Prop51ColorRGB
 90
-16777216
102
RTVSPost2010PropOp51
 70
     0
102
RTVSPost2010Prop52
140
1.0
102
RTVSPost2010PropOp52
 70
     0
102
RTVSPost2010Prop53
 90
        2
102
RTVSPost2010PropOp53
 70
     1
102
RTVSPost2010Prop54
  1
strokes_ogs.tif
102
RTVSPost2010PropOp54
 70
     1
102
RTVSPost2010Prop55
280
     0
102
RTVSPost2010PropOp55
 70
     1
102
RTVSPost2010Prop56
140
1.0
102
RTVSPost2010PropOp56
 70
     1
102
RTVSPost2010Prop57
140
1.0
102
RTVSPost2010PropOp57
 70
     1
  0
XRECORD
  5
C6
102
{ACAD_REACTORS
330
C5
102
}
330
C5
100
AcDbXrecord
280
     1
102
RTVSPropertyOp0
 70
     1
102
RTVSPropertyOp1
 70
     1
102
RTVSPropertyOp2
 70
     1
102
RTVSPropertyOp3
 70
     1
102
RTVSPropertyOp4
 70
     1
102
RTVSPropertyOp5
 70
     1
102
RTVSPropertyOp6
 70
     1
102
RTVSPropertyOp7
 70
     1
102
RTVSPropertyOp8
 70
     1
102
RTVSPropertyOp9
 70
     1
102
RTVSPropertyOp10
 70
     1
102
RTVSPropertyOp11
 70
     1
102
RTVSPropertyOp12
 70
     1
102
RTVSPropertyOp13
 70
     1
102
RTVSPropertyOp14
 70
     1
102
RTVSPropertyOp15
 70
     1
102
RTVSPropertyOp16
 70
     1
102
RTVSPropertyOp17
 70
     1
102
RTVSPropertyOp18
 70
     1
102
RTVSPropertyOp19
 70
     1
102
RTVSPropertyOp20
 70
     1
102
RTVSPropertyOp21
 70
     1
102
RTVSPropertyOp22
 70
     1
102
RTVSPropertyOp23
 70
     1
102
RTVSPropertyOp24
 70
     1
102
RTVSPropertyOp25
 70
     1
102
RTVSPropertyOp26
 70
     1
102
RTVSPropertyOp27
 70
     1
102
RTVSPropertyOp28
 70
     1
102
RTVSPropertyOp29
 70
     1
102
RTVSPropertyOp30
 70
     1
102
RTVSPropertyOp31
 70
     1
102
RTVSPropertyOp32
 70
     1
102
RTVSPropertyOp33
 70
     1
102
RTVSPropertyOp34
 70
     1
102
RTVSPropertyOp35
 70
     1
102
RTVSPropertyOp36
 70
     1
102
RTVSPropertyOp37
 70
     1
102
RTVSPropertyOp38
 70
     1
102
RTVSPropertyOp39
 70
     1
102
RTVSPropertyOp40
 70
     1
102
RTVSPropertyOp41
 70
     1
102
RTVSPropertyOp42
 70
     1
102
RTVSPropertyOp43
 70
     1
102
RTVSPropertyOp44
 70
     1
102
RTVSPropertyOp45
 70
     1
102
RTVSPropertyOp46
 70
     1
102
RTVSPropertyOp47
 70
     1
102
RTVSPropertyOp48
 70
     1
102
RTVSPropertyOp49
 70
     1
102
RTVSPropertyOp50
 70
     1
102
RTVSPropertyOp51
 70
     0
102
RTVSPropertyOp52
 70
     0
102
RTVSPropertyOp53
 70
     1
102
RTVSPropertyOp54
 70
     1
102
RTVSPropertyOp55
 70
     1
102
RTVSPropertyOp56
 70
     1
102
RTVSPropertyOp57
 70
     1
102
RTVSPost2010Prop28
280
     0
102
RTVSPost2010PropOp28
 70
     1
102
RTVSPost2010Prop29
280
     1
102
RTVSPost2010PropOp29
 70
     1
102
RTVSPost2010Prop30
280
     1
102
RTVSPost2010PropOp30
 70
     1
102
RTVSPost2010Prop31
280
     0
102
RTVSPost2010PropOp31
 70
     1
102
RTVSPost2010Prop32
280
     0
102
RTVSPost2010PropOp32
 70
     1
102
RTVSPost2010Prop33
280
     0
102
RTVSPost2010PropOp33
 70
     1
102
RTVSPost2010Prop34
280
     0
102
RTVSPost2010PropOp34
 70
     1
102
RTVSPost2010Prop35
280
     0
102
RTVSPost2010PropOp35
 70
     1
102
RTVSPost2010Prop36
280
     0
102
RTVSPost2010PropOp36
 70
     1
102
RTVSPost2010Prop37
 90
       50
102
RTVSPost2010PropOp37
 70
     1
102
RTVSPost2010Prop38
140
0.0
102
RTVSPost2010PropOp38
 70
     1
102
RTVSPost2010Prop39
140
1.0
102
RTVSPost2010PropOp39
 70
     1
102
RTVSPost2010Prop40
 90
        0
102
RTVSPost2010PropOp40
 70
     1
102
RTVSPost2010Prop41ColorIndex
 90
       18
102
RTVSPost2010Prop41ColorRGB
 90
        0
102
RTVSPost2010PropOp41
 70
     1
102
RTVSPost2010Prop42
 90
       50
102
RTVSPost2010PropOp42
 70
     1
102
RTVSPost2010Prop43
 90
        3
102
RTVSPost2010PropOp43
 70
     1
102
RTVSPost2010Prop44ColorIndex
 90
        5
102
RTVSPost2010Prop44ColorRGB
 90
      255
102
RTVSPost2010PropOp44
 70
     1
102
RTVSPost2010Prop45
280
     0
102
RTVSPost2010PropOp45
 70
     1
102
RTVSPost2010Prop46
 90
       50
102
RTVSPost2010PropOp46
 70
     1
102
RTVSPost2010Prop47
 90
       50
102
RTVSPost2010PropOp47
 70
     1
102
RTVSPost2010Prop48
 90
       50
102
RTVSPost2010PropOp48
 70
     1
102
RTVSPost2010Prop49
280
     0
102
RTVSPost2010PropOp49
 70
     1
102
RTVSPost2010Prop50
 90
       50
102
RTVSPost2010PropOp50
 70
     1
102
RTVSPost2010Prop51ColorIndex
 90
      256
102
RTVSPost2010Prop51ColorRGB
 90
-16777216
102
RTVSPost2010PropOp51
 70
     0
102
RTVSPost2010Prop52
140
1.0
102
RTVSPost2010PropOp52
 70
     0
102
RTVSPost2010Prop53
 90
        2
102
RTVSPost2010PropOp53
 70
     1
102
RTVSPost2010Prop54
  1
strokes_ogs.tif
102
RTVSPost2010PropOp54
 70
     1
102
RTVSPost2010Prop55
280
     0
102
RTVSPost2010PropOp55
 70
     1
102
RTVSPost2010Prop56
140
1.0
102
RTVSPost2010PropOp56
 70
     1
102
RTVSPost2010Prop57
140
1.0
102
RTVSPost2010PropOp57
 70
     1
  0
XRECORD
  5
BA
102
{ACAD_REACTORS
330
B9
102
}
330
B9
100
AcDbXrecord
280
     1
102
RTVSPropertyOp0
 70
     1
102
RTVSPropertyOp1
 70
     1
102
RTVSPropertyOp2
 70
     1
102
RTVSPropertyOp3
 70
     1
102
RTVSPropertyOp4
 70
     1
102
RTVSPropertyOp5
 70
     1
102
RTVSPropertyOp6
 70
     1
102
RTVSPropertyOp7
 70
     1
102
RTVSPropertyOp8
 70
     1
102
RTVSPropertyOp9
 70
     1
102
RTVSPropertyOp10
 70
     1
102
RTVSPropertyOp11
 70
     1
102
RTVSPropertyOp12
 70
     1
102
RTVSPropertyOp13
 70
     1
102
RTVSPropertyOp14
 70
     1
102
RTVSPropertyOp15
 70
     1
102
RTVSPropertyOp16
 70
     1
102
RTVSPropertyOp17
 70
     1
102
RTVSPropertyOp18
 70
     1
102
RTVSPropertyOp19
 70
     1
102
RTVSPropertyOp20
 70
     1
102
RTVSPropertyOp21
 70
     1
102
RTVSPropertyOp22
 70
     1
102
RTVSPropertyOp23
 70
     1
102
RTVSPropertyOp24
 70
     1
102
RTVSPropertyOp25
 70
     1
102
RTVSPropertyOp26
 70
     1
102
RTVSPropertyOp27
 70
     1
102
RTVSPropertyOp28
 70
     1
102
RTVSPropertyOp29
 70
     1
102
RTVSPropertyOp30
 70
     1
102
RTVSPropertyOp31
 70
     1
102
RTVSPropertyOp32
 70
     1
102
RTVSPropertyOp33
 70
     1
102
RTVSPropertyOp34
 70
     1
102
RTVSPropertyOp35
 70
     1
102
RTVSPropertyOp36
 70
     1
102
RTVSPropertyOp37
 70
     1
102
RTVSPropertyOp38
 70
     1
102
RTVSPropertyOp39
 70
     1
102
RTVSPropertyOp40
 70
     1
102
RTVSPropertyOp41
 70
     1
102
RTVSPropertyOp42
 70
     1
102
RTVSPropertyOp43
 70
     1
102
RTVSPropertyOp44
 70
     1
102
RTVSPropertyOp45
 70
     1
102
RTVSPropertyOp46
 70
     1
102
RTVSPropertyOp47
 70
     1
102
RTVSPropertyOp48
 70
     1
102
RTVSPropertyOp49
 70
     1
102
RTVSPropertyOp50
 70
     1
102
RTVSPropertyOp51
 70
     0
102
RTVSPropertyOp52
 70
     0
102
RTVSPropertyOp53
 70
     1
102
RTVSPropertyOp54
 70
     1
102
RTVSPropertyOp55
 70
     1
102
RTVSPropertyOp56
 70
     1
102
RTVSPropertyOp57
 70
     1
102
RTVSPost2010Prop28
280
     0
102
RTVSPost2010PropOp28
 70
     1
102
RTVSPost2010Prop29
280
     1
102
RTVSPost2010PropOp29
 70
     1
102
RTVSPost2010Prop30
280
     1
102
RTVSPost2010PropOp30
 70
     1
102
RTVSPost2010Prop31
280
     0
102
RTVSPost2010PropOp31
 70
     1
102
RTVSPost2010Prop32
280
     0
102
RTVSPost2010PropOp32
 70
     1
102
RTVSPost2010Prop33
280
     0
102
RTVSPost2010PropOp33
 70
     1
102
RTVSPost2010Prop34
280
     0
102
RTVSPost2010PropOp34
 70
     1
102
RTVSPost2010Prop35
280
     0
102
RTVSPost2010PropOp35
 70
     1
102
RTVSPost2010Prop36
280
     0
102
RTVSPost2010PropOp36
 70
     1
102
RTVSPost2010Prop37
 90
       50
102
RTVSPost2010PropOp37
 70
     1
102
RTVSPost2010Prop38
140
0.0
102
RTVSPost2010PropOp38
 70
     1
102
RTVSPost2010Prop39
140
1.0
102
RTVSPost2010PropOp39
 70
     1
102
RTVSPost2010Prop40
 90
        0
102
RTVSPost2010PropOp40
 70
     1
102
RTVSPost2010Prop41ColorIndex
 90
       18
102
RTVSPost2010Prop41ColorRGB
 90
        0
102
RTVSPost2010PropOp41
 70
     1
102
RTVSPost2010Prop42
 90
       50
102
RTVSPost2010PropOp42
 70
     1
102
RTVSPost2010Prop43
 90
        3
102
RTVSPost2010PropOp43
 70
     1
102
RTVSPost2010Prop44ColorIndex
 90
        5
102
RTVSPost2010Prop44ColorRGB
 90
      255
102
RTVSPost2010PropOp44
 70
     1
102
RTVSPost2010Prop45
280
     0
102
RTVSPost2010PropOp45
 70
     1
102
RTVSPost2010Prop46
 90
       50
102
RTVSPost2010PropOp46
 70
     1
102
RTVSPost2010Prop47
 90
       50
102
RTVSPost2010PropOp47
 70
     1
102
RTVSPost2010Prop48
 90
       50
102
RTVSPost2010PropOp48
 70
     1
102
RTVSPost2010Prop49
280
     0
102
RTVSPost2010PropOp49
 70
     1
102
RTVSPost2010Prop50
 90
       50
102
RTVSPost2010PropOp50
 70
     1
102
RTVSPost2010Prop51ColorIndex
 90
      256
102
RTVSPost2010Prop51ColorRGB
 90
-16777216
102
RTVSPost2010PropOp51
 70
     0
102
RTVSPost2010Prop52
140
1.0
102
RTVSPost2010PropOp52
 70
     0
102
RTVSPost2010Prop53
 90
        2
102
RTVSPost2010PropOp53
 70
     1
102
RTVSPost2010Prop54
  1
strokes_ogs.tif
102
RTVSPost2010PropOp54
 70
     1
102
RTVSPost2010Prop55
280
     0
102
RTVSPost2010PropOp55
 70
     1
102
RTVSPost2010Prop56
140
1.0
102
RTVSPost2010PropOp56
 70
     1
102
RTVSPost2010Prop57
140
1.0
102
RTVSPost2010PropOp57
 70
     1
  0
XRECORD
  5
BC
102
{ACAD_REACTORS
330
BB
102
}
330
BB
100
AcDbXrecord
280
     1
102
RTVSPropertyOp0
 70
     1
102
RTVSPropertyOp1
 70
     1
102
RTVSPropertyOp2
 70
     1
102
RTVSPropertyOp3
 70
     1
102
RTVSPropertyOp4
 70
     1
102
RTVSPropertyOp5
 70
     1
102
RTVSPropertyOp6
 70
     1
102
RTVSPropertyOp7
 70
     1
102
RTVSPropertyOp8
 70
     1
102
RTVSPropertyOp9
 70
     1
102
RTVSPropertyOp10
 70
     1
102
RTVSPropertyOp11
 70
     1
102
RTVSPropertyOp12
 70
     1
102
RTVSPropertyOp13
 70
     1
102
RTVSPropertyOp14
 70
     1
102
RTVSPropertyOp15
 70
     1
102
RTVSPropertyOp16
 70
     1
102
RTVSPropertyOp17
 70
     1
102
RTVSPropertyOp18
 70
     1
102
RTVSPropertyOp19
 70
     1
102
RTVSPropertyOp20
 70
     1
102
RTVSPropertyOp21
 70
     1
102
RTVSPropertyOp22
 70
     1
102
RTVSPropertyOp23
 70
     1
102
RTVSPropertyOp24
 70
     1
102
RTVSPropertyOp25
 70
     1
102
RTVSPropertyOp26
 70
     1
102
RTVSPropertyOp27
 70
     1
102
RTVSPropertyOp28
 70
     1
102
RTVSPropertyOp29
 70
     1
102
RTVSPropertyOp30
 70
     1
102
RTVSPropertyOp31
 70
     1
102
RTVSPropertyOp32
 70
     1
102
RTVSPropertyOp33
 70
     1
102
RTVSPropertyOp34
 70
     1
102
RTVSPropertyOp35
 70
     1
102
RTVSPropertyOp36
 70
     1
102
RTVSPropertyOp37
 70
     1
102
RTVSPropertyOp38
 70
     1
102
RTVSPropertyOp39
 70
     1
102
RTVSPropertyOp40
 70
     1
102
RTVSPropertyOp41
 70
     1
102
RTVSPropertyOp42
 70
     1
102
RTVSPropertyOp43
 70
     1
102
RTVSPropertyOp44
 70
     1
102
RTVSPropertyOp45
 70
     1
102
RTVSPropertyOp46
 70
     1
102
RTVSPropertyOp47
 70
     1
102
RTVSPropertyOp48
 70
     1
102
RTVSPropertyOp49
 70
     1
102
RTVSPropertyOp50
 70
     1
102
RTVSPropertyOp51
 70
     0
102
RTVSPropertyOp52
 70
     0
102
RTVSPropertyOp53
 70
     1
102
RTVSPropertyOp54
 70
     1
102
RTVSPropertyOp55
 70
     1
102
RTVSPropertyOp56
 70
     1
102
RTVSPropertyOp57
 70
     1
102
RTVSPost2010Prop28
280
     0
102
RTVSPost2010PropOp28
 70
     1
102
RTVSPost2010Prop29
280
     1
102
RTVSPost2010PropOp29
 70
     1
102
RTVSPost2010Prop30
280
     1
102
RTVSPost2010PropOp30
 70
     1
102
RTVSPost2010Prop31
280
     0
102
RTVSPost2010PropOp31
 70
     1
102
RTVSPost2010Prop32
280
     0
102
RTVSPost2010PropOp32
 70
     1
102
RTVSPost2010Prop33
280
     0
102
RTVSPost2010PropOp33
 70
     1
102
RTVSPost2010Prop34
280
     0
102
RTVSPost2010PropOp34
 70
     1
102
RTVSPost2010Prop35
280
     0
102
RTVSPost2010PropOp35
 70
     1
102
RTVSPost2010Prop36
280
     0
102
RTVSPost2010PropOp36
 70
     1
102
RTVSPost2010Prop37
 90
       50
102
RTVSPost2010PropOp37
 70
     1
102
RTVSPost2010Prop38
140
0.0
102
RTVSPost2010PropOp38
 70
     1
102
RTVSPost2010Prop39
140
1.0
102
RTVSPost2010PropOp39
 70
     1
102
RTVSPost2010Prop40
 90
        0
102
RTVSPost2010PropOp40
 70
     1
102
RTVSPost2010Prop41ColorIndex
 90
       18
102
RTVSPost2010Prop41ColorRGB
 90
        0
102
RTVSPost2010PropOp41
 70
     1
102
RTVSPost2010Prop42
 90
       50
102
RTVSPost2010PropOp42
 70
     1
102
RTVSPost2010Prop43
 90
        3
102
RTVSPost2010PropOp43
 70
     1
102
RTVSPost2010Prop44ColorIndex
 90
        5
102
RTVSPost2010Prop44ColorRGB
 90
      255
102
RTVSPost2010PropOp44
 70
     1
102
RTVSPost2010Prop45
280
     0
102
RTVSPost2010PropOp45
 70
     1
102
RTVSPost2010Prop46
 90
       50
102
RTVSPost2010PropOp46
 70
     1
102
RTVSPost2010Prop47
 90
       50
102
RTVSPost2010PropOp47
 70
     1
102
RTVSPost2010Prop48
 90
       50
102
RTVSPost2010PropOp48
 70
     1
102
RTVSPost2010Prop49
280
     0
102
RTVSPost2010PropOp49
 70
     1
102
RTVSPost2010Prop50
 90
       50
102
RTVSPost2010PropOp50
 70
     1
102
RTVSPost2010Prop51ColorIndex
 90
      256
102
RTVSPost2010Prop51ColorRGB
 90
-16777216
102
RTVSPost2010PropOp51
 70
     0
102
RTVSPost2010Prop52
140
1.0
102
RTVSPost2010PropOp52
 70
     0
102
RTVSPost2010Prop53
 90
        2
102
RTVSPost2010PropOp53
 70
     1
102
RTVSPost2010Prop54
  1
strokes_ogs.tif
102
RTVSPost2010PropOp54
 70
     1
102
RTVSPost2010Prop55
280
     0
102
RTVSPost2010PropOp55
 70
     1
102
RTVSPost2010Prop56
140
1.0
102
RTVSPost2010PropOp56
 70
     1
102
RTVSPost2010Prop57
140
1.0
102
RTVSPost2010PropOp57
 70
     1
  0
XRECORD
  5
CC
102
{ACAD_REACTORS
330
CB
102
}
330
CB
100
AcDbXrecord
280
     1
102
RTVSPropertyOp0
 70
     0
102
RTVSPropertyOp1
 70
     0
102
RTVSPropertyOp2
 70
     0
102
RTVSPropertyOp3
 70
     0
102
RTVSPropertyOp4
 70
     0
102
RTVSPropertyOp5
 70
     0
102
RTVSPropertyOp6
 70
     0
102
RTVSPropertyOp7
 70
     0
102
RTVSPropertyOp8
 70
     0
102
RTVSPropertyOp9
 70
     0
102
RTVSPropertyOp10
 70
     0
102
RTVSPropertyOp11
 70
     0
102
RTVSPropertyOp12
 70
     0
102
RTVSPropertyOp13
 70
     0
102
RTVSPropertyOp14
 70
     2
102
RTVSPropertyOp15
 70
     0
102
RTVSPropertyOp16
 70
     0
102
RTVSPropertyOp17
 70
     0
102
RTVSPropertyOp18
 70
     0
102
RTVSPropertyOp19
 70
     0
102
RTVSPropertyOp20
 70
     0
102
RTVSPropertyOp21
 70
     0
102
RTVSPropertyOp22
 70
     0
102
RTVSPropertyOp23
 70
     0
102
RTVSPropertyOp24
 70
     0
102
RTVSPropertyOp25
 70
     0
102
RTVSPropertyOp26
 70
     0
102
RTVSPropertyOp27
 70
     0
102
RTVSPropertyOp28
 70
     0
102
RTVSPropertyOp29
 70
     0
102
RTVSPropertyOp30
 70
     0
102
RTVSPropertyOp31
 70
     0
102
RTVSPropertyOp32
 70
     0
102
RTVSPropertyOp33
 70
     0
102
RTVSPropertyOp34
 70
     0
102
RTVSPropertyOp35
 70
     0
102
RTVSPropertyOp36
 70
     0
102
RTVSPropertyOp37
 70
     0
102
RTVSPropertyOp38
 70
     0
102
RTVSPropertyOp39
 70
     0
102
RTVSPropertyOp40
 70
     0
102
RTVSPropertyOp41
 70
     0
102
RTVSPropertyOp42
 70
     0
102
RTVSPropertyOp43
 70
     0
102
RTVSPropertyOp44
 70
     0
102
RTVSPropertyOp45
 70
     0
102
RTVSPropertyOp46
 70
     0
102
RTVSPropertyOp47
 70
     0
102
RTVSPropertyOp48
 70
     0
102
RTVSPropertyOp49
 70
     0
102
RTVSPropertyOp50
 70
     0
102
RTVSPropertyOp51
 70
     0
102
RTVSPropertyOp52
 70
     0
102
RTVSPropertyOp53
 70
     0
102
RTVSPropertyOp54
 70
     0
102
RTVSPropertyOp55
 70
     0
102
RTVSPropertyOp56
 70
     0
102
RTVSPropertyOp57
 70
     0
102
RTVSPost2010Prop28
280
     0
102
RTVSPost2010PropOp28
 70
     0
102
RTVSPost2010Prop29
280
     1
102
RTVSPost2010PropOp29
 70
     0
102
RTVSPost2010Prop30
280
     1
102
RTVSPost2010PropOp30
 70
     0
102
RTVSPost2010Prop31
280
     0
102
RTVSPost2010PropOp31
 70
     0
102
RTVSPost2010Prop32
280
     0
102
RTVSPost2010PropOp32
 70
     0
102
RTVSPost2010Prop33
280
     0
102
RTVSPost2010PropOp33
 70
     0
102
RTVSPost2010Prop34
280
     0
102
RTVSPost2010PropOp34
 70
     0
102
RTVSPost2010Prop35
280
     0
102
RTVSPost2010PropOp35
 70
     0
102
RTVSPost2010Prop36
280
     0
102
RTVSPost2010PropOp36
 70
     0
102
RTVSPost2010Prop37
 90
       50
102
RTVSPost2010PropOp37
 70
     0
102
RTVSPost2010Prop38
140
0.0
102
RTVSPost2010PropOp38
 70
     0
102
RTVSPost2010Prop39
140
1.0
102
RTVSPost2010PropOp39
 70
     0
102
RTVSPost2010Prop40
 90
        0
102
RTVSPost2010PropOp40
 70
     0
102
RTVSPost2010Prop41ColorIndex
 90
       18
102
RTVSPost2010Prop41ColorRGB
 90
        0
102
RTVSPost2010PropOp41
 70
     0
102
RTVSPost2010Prop42
 90
       50
102
RTVSPost2010PropOp42
 70
     0
102
RTVSPost2010Prop43
 90
        3
102
RTVSPost2010PropOp43
 70
     0
102
RTVSPost2010Prop44ColorIndex
 90
        5
102
RTVSPost2010Prop44ColorRGB
 90
      255
102
RTVSPost2010PropOp44
 70
     0
102
RTVSPost2010Prop45
280
     0
102
RTVSPost2010PropOp45
 70
     0
102
RTVSPost2010Prop46
 90
       50
102
RTVSPost2010PropOp46
 70
     0
102
RTVSPost2010Prop47
 90
       50
102
RTVSPost2010PropOp47
 70
     0
102
RTVSPost2010Prop48
 90
       50
102
RTVSPost2010PropOp48
 70
     0
102
RTVSPost2010Prop49
280
     0
102
RTVSPost2010PropOp49
 70
     0
102
RTVSPost2010Prop50
 90
       50
102
RTVSPost2010PropOp50
 70
     0
102
RTVSPost2010Prop51ColorIndex
 90
      256
102
RTVSPost2010Prop51ColorRGB
 90
-16777216
102
RTVSPost2010PropOp51
 70
     0
102
RTVSPost2010Prop52
140
1.0
102
RTVSPost2010PropOp52
 70
     0
102
RTVSPost2010Prop53
 90
        2
102
RTVSPost2010PropOp53
 70
     0
102
RTVSPost2010Prop54
  1
strokes_ogs.tif
102
RTVSPost2010PropOp54
 70
     0
102
RTVSPost2010Prop55
280
     0
102
RTVSPost2010PropOp55
 70
     0
102
RTVSPost2010Prop56
140
1.0
102
RTVSPost2010PropOp56
 70
     0
102
RTVSPost2010Prop57
140
1.0
102
RTVSPost2010PropOp57
 70
     0
  0
XRECORD
  5
C4
102
{ACAD_REACTORS
330
C3
102
}
330
C3
100
AcDbXrecord
280
     1
102
RTVSPropertyOp0
 70
     1
102
RTVSPropertyOp1
 70
     1
102
RTVSPropertyOp2
 70
     1
102
RTVSPropertyOp3
 70
     1
102
RTVSPropertyOp4
 70
     1
102
RTVSPropertyOp5
 70
     1
102
RTVSPropertyOp6
 70
     1
102
RTVSPropertyOp7
 70
     1
102
RTVSPropertyOp8
 70
     1
102
RTVSPropertyOp9
 70
     1
102
RTVSPropertyOp10
 70
     1
102
RTVSPropertyOp11
 70
     1
102
RTVSPropertyOp12
 70
     1
102
RTVSPropertyOp13
 70
     1
102
RTVSPropertyOp14
 70
     1
102
RTVSPropertyOp15
 70
     1
102
RTVSPropertyOp16
 70
     1
102
RTVSPropertyOp17
 70
     1
102
RTVSPropertyOp18
 70
     1
102
RTVSPropertyOp19
 70
     1
102
RTVSPropertyOp20
 70
     1
102
RTVSPropertyOp21
 70
     1
102
RTVSPropertyOp22
 70
     1
102
RTVSPropertyOp23
 70
     1
102
RTVSPropertyOp24
 70
     1
102
RTVSPropertyOp25
 70
     1
102
RTVSPropertyOp26
 70
     1
102
RTVSPropertyOp27
 70
     1
102
RTVSPropertyOp28
 70
     1
102
RTVSPropertyOp29
 70
     1
102
RTVSPropertyOp30
 70
     1
102
RTVSPropertyOp31
 70
     1
102
RTVSPropertyOp32
 70
     1
102
RTVSPropertyOp33
 70
     1
102
RTVSPropertyOp34
 70
     1
102
RTVSPropertyOp35
 70
     1
102
RTVSPropertyOp36
 70
     1
102
RTVSPropertyOp37
 70
     1
102
RTVSPropertyOp38
 70
     1
102
RTVSPropertyOp39
 70
     1
102
RTVSPropertyOp40
 70
     1
102
RTVSPropertyOp41
 70
     1
102
RTVSPropertyOp42
 70
     1
102
RTVSPropertyOp43
 70
     1
102
RTVSPropertyOp44
 70
     1
102
RTVSPropertyOp45
 70
     1
102
RTVSPropertyOp46
 70
     1
102
RTVSPropertyOp47
 70
     1
102
RTVSPropertyOp48
 70
     1
102
RTVSPropertyOp49
 70
     1
102
RTVSPropertyOp50
 70
     1
102
RTVSPropertyOp51
 70
     0
102
RTVSPropertyOp52
 70
     0
102
RTVSPropertyOp53
 70
     1
102
RTVSPropertyOp54
 70
     1
102
RTVSPropertyOp55
 70
     1
102
RTVSPropertyOp56
 70
     1
102
RTVSPropertyOp57
 70
     1
102
RTVSPost2010Prop28
280
     0
102
RTVSPost2010PropOp28
 70
     1
102
RTVSPost2010Prop29
280
     1
102
RTVSPost2010PropOp29
 70
     1
102
RTVSPost2010Prop30
280
     1
102
RTVSPost2010PropOp30
 70
     1
102
RTVSPost2010Prop31
280
     0
102
RTVSPost2010PropOp31
 70
     1
102
RTVSPost2010Prop32
280
     0
102
RTVSPost2010PropOp32
 70
     1
102
RTVSPost2010Prop33
280
     0
102
RTVSPost2010PropOp33
 70
     1
102
RTVSPost2010Prop34
280
     0
102
RTVSPost2010PropOp34
 70
     1
102
RTVSPost2010Prop35
280
     0
102
RTVSPost2010PropOp35
 70
     1
102
RTVSPost2010Prop36
280
     0
102
RTVSPost2010PropOp36
 70
     1
102
RTVSPost2010Prop37
 90
       50
102
RTVSPost2010PropOp37
 70
     1
102
RTVSPost2010Prop38
140
0.0
102
RTVSPost2010PropOp38
 70
     1
102
RTVSPost2010Prop39
140
1.0
102
RTVSPost2010PropOp39
 70
     1
102
RTVSPost2010Prop40
 90
        0
102
RTVSPost2010PropOp40
 70
     1
102
RTVSPost2010Prop41ColorIndex
 90
       18
102
RTVSPost2010Prop41ColorRGB
 90
        0
102
RTVSPost2010PropOp41
 70
     1
102
RTVSPost2010Prop42
 90
       50
102
RTVSPost2010PropOp42
 70
     1
102
RTVSPost2010Prop43
 90
        3
102
RTVSPost2010PropOp43
 70
     1
102
RTVSPost2010Prop44ColorIndex
 90
        5
102
RTVSPost2010Prop44ColorRGB
 90
      255
102
RTVSPost2010PropOp44
 70
     1
102
RTVSPost2010Prop45
280
     0
102
RTVSPost2010PropOp45
 70
     1
102
RTVSPost2010Prop46
 90
       50
102
RTVSPost2010PropOp46
 70
     1
102
RTVSPost2010Prop47
 90
       50
102
RTVSPost2010PropOp47
 70
     1
102
RTVSPost2010Prop48
 90
       50
102
RTVSPost2010PropOp48
 70
     1
102
RTVSPost2010Prop49
280
     0
102
RTVSPost2010PropOp49
 70
     1
102
RTVSPost2010Prop50
 90
       50
102
RTVSPost2010PropOp50
 70
     1
102
RTVSPost2010Prop51ColorIndex
 90
      256
102
RTVSPost2010Prop51ColorRGB
 90
-16777216
102
RTVSPost2010PropOp51
 70
     0
102
RTVSPost2010Prop52
140
1.0
102
RTVSPost2010PropOp52
 70
     0
102
RTVSPost2010Prop53
 90
        2
102
RTVSPost2010PropOp53
 70
     1
102
RTVSPost2010Prop54
  1
strokes_ogs.tif
102
RTVSPost2010PropOp54
 70
     1
102
RTVSPost2010Prop55
280
     0
102
RTVSPost2010PropOp55
 70
     1
102
RTVSPost2010Prop56
140
1.0
102
RTVSPost2010PropOp56
 70
     1
102
RTVSPost2010Prop57
140
1.0
102
RTVSPost2010PropOp57
 70
     1
  0
XRECORD
  5
A8
102
{ACAD_REACTORS
330
A7
102
}
330
A7
100
AcDbXrecord
280
     1
102
RTVSPropertyOp0
 70
     1
102
RTVSPropertyOp1
 70
     1
102
RTVSPropertyOp2
 70
     1
102
RTVSPropertyOp3
 70
     1
102
RTVSPropertyOp4
 70
     1
102
RTVSPropertyOp5
 70
     1
102
RTVSPropertyOp6
 70
     1
102
RTVSPropertyOp7
 70
     1
102
RTVSPropertyOp8
 70
     1
102
RTVSPropertyOp9
 70
     1
102
RTVSPropertyOp10
 70
     1
102
RTVSPropertyOp11
 70
     1
102
RTVSPropertyOp12
 70
     1
102
RTVSPropertyOp13
 70
     1
102
RTVSPropertyOp14
 70
     1
102
RTVSPropertyOp15
 70
     1
102
RTVSPropertyOp16
 70
     1
102
RTVSPropertyOp17
 70
     1
102
RTVSPropertyOp18
 70
     1
102
RTVSPropertyOp19
 70
     1
102
RTVSPropertyOp20
 70
     1
102
RTVSPropertyOp21
 70
     1
102
RTVSPropertyOp22
 70
     1
102
RTVSPropertyOp23
 70
     1
102
RTVSPropertyOp24
 70
     1
102
RTVSPropertyOp25
 70
     1
102
RTVSPropertyOp26
 70
     1
102
RTVSPropertyOp27
 70
     1
102
RTVSPropertyOp28
 70
     1
102
RTVSPropertyOp29
 70
     1
102
RTVSPropertyOp30
 70
     1
102
RTVSPropertyOp31
 70
     1
102
RTVSPropertyOp32
 70
     1
102
RTVSPropertyOp33
 70
     1
102
RTVSPropertyOp34
 70
     1
102
RTVSPropertyOp35
 70
     1
102
RTVSPropertyOp36
 70
     1
102
RTVSPropertyOp37
 70
     1
102
RTVSPropertyOp38
 70
     1
102
RTVSPropertyOp39
 70
     1
102
RTVSPropertyOp40
 70
     1
102
RTVSPropertyOp41
 70
     1
102
RTVSPropertyOp42
 70
     1
102
RTVSPropertyOp43
 70
     1
102
RTVSPropertyOp44
 70
     1
102
RTVSPropertyOp45
 70
     1
102
RTVSPropertyOp46
 70
     1
102
RTVSPropertyOp47
 70
     1
102
RTVSPropertyOp48
 70
     1
102
RTVSPropertyOp49
 70
     1
102
RTVSPropertyOp50
 70
     1
102
RTVSPropertyOp51
 70
     0
102
RTVSPropertyOp52
 70
     0
102
RTVSPropertyOp53
 70
     1
102
RTVSPropertyOp54
 70
     1
102
RTVSPropertyOp55
 70
     1
102
RTVSPropertyOp56
 70
     1
102
RTVSPropertyOp57
 70
     1
102
RTVSPost2010Prop28
280
     0
102
RTVSPost2010PropOp28
 70
     1
102
RTVSPost2010Prop29
280
     1
102
RTVSPost2010PropOp29
 70
     1
102
RTVSPost2010Prop30
280
     1
102
RTVSPost2010PropOp30
 70
     1
102
RTVSPost2010Prop31
280
     0
102
RTVSPost2010PropOp31
 70
     1
102
RTVSPost2010Prop32
280
     0
102
RTVSPost2010PropOp32
 70
     1
102
RTVSPost2010Prop33
280
     0
102
RTVSPost2010PropOp33
 70
     1
102
RTVSPost2010Prop34
280
     0
102
RTVSPost2010PropOp34
 70
     1
102
RTVSPost2010Prop35
280
     0
102
RTVSPost2010PropOp35
 70
     1
102
RTVSPost2010Prop36
280
     0
102
RTVSPost2010PropOp36
 70
     1
102
RTVSPost2010Prop37
 90
       50
102
RTVSPost2010PropOp37
 70
     1
102
RTVSPost2010Prop38
140
0.0
102
RTVSPost2010PropOp38
 70
     1
102
RTVSPost2010Prop39
140
1.0
102
RTVSPost2010PropOp39
 70
     1
102
RTVSPost2010Prop40
 90
        0
102
RTVSPost2010PropOp40
 70
     1
102
RTVSPost2010Prop41ColorIndex
 90
       18
102
RTVSPost2010Prop41ColorRGB
 90
        0
102
RTVSPost2010PropOp41
 70
     1
102
RTVSPost2010Prop42
 90
       50
102
RTVSPost2010PropOp42
 70
     1
102
RTVSPost2010Prop43
 90
        3
102
RTVSPost2010PropOp43
 70
     1
102
RTVSPost2010Prop44ColorIndex
 90
        5
102
RTVSPost2010Prop44ColorRGB
 90
      255
102
RTVSPost2010PropOp44
 70
     1
102
RTVSPost2010Prop45
280
     0
102
RTVSPost2010PropOp45
 70
     1
102
RTVSPost2010Prop46
 90
       50
102
RTVSPost2010PropOp46
 70
     1
102
RTVSPost2010Prop47
 90
       50
102
RTVSPost2010PropOp47
 70
     1
102
RTVSPost2010Prop48
 90
       50
102
RTVSPost2010PropOp48
 70
     1
102
RTVSPost2010Prop49
280
     0
102
RTVSPost2010PropOp49
 70
     1
102
RTVSPost2010Prop50
 90
       50
102
RTVSPost2010PropOp50
 70
     1
102
RTVSPost2010Prop51ColorIndex
 90
      256
102
RTVSPost2010Prop51ColorRGB
 90
-16777216
102
RTVSPost2010PropOp51
 70
     0
102
RTVSPost2010Prop52
140
1.0
102
RTVSPost2010PropOp52
 70
     0
102
RTVSPost2010Prop53
 90
        2
102
RTVSPost2010PropOp53
 70
     1
102
RTVSPost2010Prop54
  1
strokes_ogs.tif
102
RTVSPost2010PropOp54
 70
     1
102
RTVSPost2010Prop55
280
     0
102
RTVSPost2010PropOp55
 70
     1
102
RTVSPost2010Prop56
140
1.0
102
RTVSPost2010PropOp56
 70
     1
102
RTVSPost2010Prop57
140
1.0
102
RTVSPost2010PropOp57
 70
     1
  0
XRECORD
  5
AA
102
{ACAD_REACTORS
330
A9
102
}
330
A9
100
AcDbXrecord
280
     1
102
RTVSPropertyOp0
 70
     1
102
RTVSPropertyOp1
 70
     1
102
RTVSPropertyOp2
 70
     1
102
RTVSPropertyOp3
 70
     1
102
RTVSPropertyOp4
 70
     1
102
RTVSPropertyOp5
 70
     1
102
RTVSPropertyOp6
 70
     1
102
RTVSPropertyOp7
 70
     1
102
RTVSPropertyOp8
 70
     1
102
RTVSPropertyOp9
 70
     1
102
RTVSPropertyOp10
 70
     1
102
RTVSPropertyOp11
 70
     1
102
RTVSPropertyOp12
 70
     1
102
RTVSPropertyOp13
 70
     1
102
RTVSPropertyOp14
 70
     1
102
RTVSPropertyOp15
 70
     1
102
RTVSPropertyOp16
 70
     1
102
RTVSPropertyOp17
 70
     1
102
RTVSPropertyOp18
 70
     1
102
RTVSPropertyOp19
 70
     1
102
RTVSPropertyOp20
 70
     1
102
RTVSPropertyOp21
 70
     1
102
RTVSPropertyOp22
 70
     1
102
RTVSPropertyOp23
 70
     1
102
RTVSPropertyOp24
 70
     1
102
RTVSPropertyOp25
 70
     1
102
RTVSPropertyOp26
 70
     1
102
RTVSPropertyOp27
 70
     1
102
RTVSPropertyOp28
 70
     1
102
RTVSPropertyOp29
 70
     1
102
RTVSPropertyOp30
 70
     1
102
RTVSPropertyOp31
 70
     1
102
RTVSPropertyOp32
 70
     1
102
RTVSPropertyOp33
 70
     1
102
RTVSPropertyOp34
 70
     1
102
RTVSPropertyOp35
 70
     1
102
RTVSPropertyOp36
 70
     1
102
RTVSPropertyOp37
 70
     1
102
RTVSPropertyOp38
 70
     1
102
RTVSPropertyOp39
 70
     1
102
RTVSPropertyOp40
 70
     1
102
RTVSPropertyOp41
 70
     1
102
RTVSPropertyOp42
 70
     1
102
RTVSPropertyOp43
 70
     1
102
RTVSPropertyOp44
 70
     1
102
RTVSPropertyOp45
 70
     1
102
RTVSPropertyOp46
 70
     1
102
RTVSPropertyOp47
 70
     1
102
RTVSPropertyOp48
 70
     1
102
RTVSPropertyOp49
 70
     1
102
RTVSPropertyOp50
 70
     1
102
RTVSPropertyOp51
 70
     0
102
RTVSPropertyOp52
 70
     0
102
RTVSPropertyOp53
 70
     1
102
RTVSPropertyOp54
 70
     1
102
RTVSPropertyOp55
 70
     1
102
RTVSPropertyOp56
 70
     1
102
RTVSPropertyOp57
 70
     1
102
RTVSPost2010Prop28
280
     0
102
RTVSPost2010PropOp28
 70
     1
102
RTVSPost2010Prop29
280
     1
102
RTVSPost2010PropOp29
 70
     1
102
RTVSPost2010Prop30
280
     1
102
RTVSPost2010PropOp30
 70
     1
102
RTVSPost2010Prop31
280
     0
102
RTVSPost2010PropOp31
 70
     1
102
RTVSPost2010Prop32
280
     0
102
RTVSPost2010PropOp32
 70
     1
102
RTVSPost2010Prop33
280
     0
102
RTVSPost2010PropOp33
 70
     1
102
RTVSPost2010Prop34
280
     0
102
RTVSPost2010PropOp34
 70
     1
102
RTVSPost2010Prop35
280
     0
102
RTVSPost2010PropOp35
 70
     1
102
RTVSPost2010Prop36
280
     0
102
RTVSPost2010PropOp36
 70
     1
102
RTVSPost2010Prop37
 90
       50
102
RTVSPost2010PropOp37
 70
     1
102
RTVSPost2010Prop38
140
0.0
102
RTVSPost2010PropOp38
 70
     1
102
RTVSPost2010Prop39
140
1.0
102
RTVSPost2010PropOp39
 70
     1
102
RTVSPost2010Prop40
 90
        0
102
RTVSPost2010PropOp40
 70
     1
102
RTVSPost2010Prop41ColorIndex
 90
       18
102
RTVSPost2010Prop41ColorRGB
 90
        0
102
RTVSPost2010PropOp41
 70
     1
102
RTVSPost2010Prop42
 90
       50
102
RTVSPost2010PropOp42
 70
     1
102
RTVSPost2010Prop43
 90
        3
102
RTVSPost2010PropOp43
 70
     1
102
RTVSPost2010Prop44ColorIndex
 90
        5
102
RTVSPost2010Prop44ColorRGB
 90
      255
102
RTVSPost2010PropOp44
 70
     1
102
RTVSPost2010Prop45
280
     0
102
RTVSPost2010PropOp45
 70
     1
102
RTVSPost2010Prop46
 90
       50
102
RTVSPost2010PropOp46
 70
     1
102
RTVSPost2010Prop47
 90
       50
102
RTVSPost2010PropOp47
 70
     1
102
RTVSPost2010Prop48
 90
       50
102
RTVSPost2010PropOp48
 70
     1
102
RTVSPost2010Prop49
280
     0
102
RTVSPost2010PropOp49
 70
     1
102
RTVSPost2010Prop50
 90
       50
102
RTVSPost2010PropOp50
 70
     1
102
RTVSPost2010Prop51ColorIndex
 90
      256
102
RTVSPost2010Prop51ColorRGB
 90
-16777216
102
RTVSPost2010PropOp51
 70
     0
102
RTVSPost2010Prop52
140
1.0
102
RTVSPost2010PropOp52
 70
     0
102
RTVSPost2010Prop53
 90
        2
102
RTVSPost2010PropOp53
 70
     1
102
RTVSPost2010Prop54
  1
strokes_ogs.tif
102
RTVSPost2010PropOp54
 70
     1
102
RTVSPost2010Prop55
280
     0
102
RTVSPost2010PropOp55
 70
     1
102
RTVSPost2010Prop56
140
1.0
102
RTVSPost2010PropOp56
 70
     1
102
RTVSPost2010Prop57
140
1.0
102
RTVSPost2010PropOp57
 70
     1
  0
XRECORD
  5
AC
102
{ACAD_REACTORS
330
AB
102
}
330
AB
100
AcDbXrecord
280
     1
102
RTVSPropertyOp0
 70
     1
102
RTVSPropertyOp1
 70
     1
102
RTVSPropertyOp2
 70
     1
102
RTVSPropertyOp3
 70
     1
102
RTVSPropertyOp4
 70
     1
102
RTVSPropertyOp5
 70
     1
102
RTVSPropertyOp6
 70
     1
102
RTVSPropertyOp7
 70
     1
102
RTVSPropertyOp8
 70
     1
102
RTVSPropertyOp9
 70
     1
102
RTVSPropertyOp10
 70
     1
102
RTVSPropertyOp11
 70
     1
102
RTVSPropertyOp12
 70
     1
102
RTVSPropertyOp13
 70
     1
102
RTVSPropertyOp14
 70
     1
102
RTVSPropertyOp15
 70
     1
102
RTVSPropertyOp16
 70
     1
102
RTVSPropertyOp17
 70
     1
102
RTVSPropertyOp18
 70
     1
102
RTVSPropertyOp19
 70
     1
102
RTVSPropertyOp20
 70
     1
102
RTVSPropertyOp21
 70
     1
102
RTVSPropertyOp22
 70
     1
102
RTVSPropertyOp23
 70
     1
102
RTVSPropertyOp24
 70
     1
102
RTVSPropertyOp25
 70
     1
102
RTVSPropertyOp26
 70
     1
102
RTVSPropertyOp27
 70
     1
102
RTVSPropertyOp28
 70
     1
102
RTVSPropertyOp29
 70
     1
102
RTVSPropertyOp30
 70
     1
102
RTVSPropertyOp31
 70
     1
102
RTVSPropertyOp32
 70
     1
102
RTVSPropertyOp33
 70
     1
102
RTVSPropertyOp34
 70
     1
102
RTVSPropertyOp35
 70
     1
102
RTVSPropertyOp36
 70
     1
102
RTVSPropertyOp37
 70
     1
102
RTVSPropertyOp38
 70
     1
102
RTVSPropertyOp39
 70
     1
102
RTVSPropertyOp40
 70
     1
102
RTVSPropertyOp41
 70
     1
102
RTVSPropertyOp42
 70
     1
102
RTVSPropertyOp43
 70
     1
102
RTVSPropertyOp44
 70
     1
102
RTVSPropertyOp45
 70
     1
102
RTVSPropertyOp46
 70
     1
102
RTVSPropertyOp47
 70
     1
102
RTVSPropertyOp48
 70
     1
102
RTVSPropertyOp49
 70
     1
102
RTVSPropertyOp50
 70
     1
102
RTVSPropertyOp51
 70
     0
102
RTVSPropertyOp52
 70
     0
102
RTVSPropertyOp53
 70
     1
102
RTVSPropertyOp54
 70
     1
102
RTVSPropertyOp55
 70
     1
102
RTVSPropertyOp56
 70
     1
102
RTVSPropertyOp57
 70
     1
102
RTVSPost2010Prop28
280
     0
102
RTVSPost2010PropOp28
 70
     1
102
RTVSPost2010Prop29
280
     1
102
RTVSPost2010PropOp29
 70
     1
102
RTVSPost2010Prop30
280
     1
102
RTVSPost2010PropOp30
 70
     1
102
RTVSPost2010Prop31
280
     0
102
RTVSPost2010PropOp31
 70
     1
102
RTVSPost2010Prop32
280
     0
102
RTVSPost2010PropOp32
 70
     1
102
RTVSPost2010Prop33
280
     0
102
RTVSPost2010PropOp33
 70
     1
102
RTVSPost2010Prop34
280
     0
102
RTVSPost2010PropOp34
 70
     1
102
RTVSPost2010Prop35
280
     0
102
RTVSPost2010PropOp35
 70
     1
102
RTVSPost2010Prop36
280
     0
102
RTVSPost2010PropOp36
 70
     1
102
RTVSPost2010Prop37
 90
       50
102
RTVSPost2010PropOp37
 70
     1
102
RTVSPost2010Prop38
140
0.0
102
RTVSPost2010PropOp38
 70
     1
102
RTVSPost2010Prop39
140
1.0
102
RTVSPost2010PropOp39
 70
     1
102
RTVSPost2010Prop40
 90
        0
102
RTVSPost2010PropOp40
 70
     1
102
RTVSPost2010Prop41ColorIndex
 90
       18
102
RTVSPost2010Prop41ColorRGB
 90
        0
102
RTVSPost2010PropOp41
 70
     1
102
RTVSPost2010Prop42
 90
       50
102
RTVSPost2010PropOp42
 70
     1
102
RTVSPost2010Prop43
 90
        3
102
RTVSPost2010PropOp43
 70
     1
102
RTVSPost2010Prop44ColorIndex
 90
        5
102
RTVSPost2010Prop44ColorRGB
 90
      255
102
RTVSPost2010PropOp44
 70
     1
102
RTVSPost2010Prop45
280
     0
102
RTVSPost2010PropOp45
 70
     1
102
RTVSPost2010Prop46
 90
       50
102
RTVSPost2010PropOp46
 70
     1
102
RTVSPost2010Prop47
 90
       50
102
RTVSPost2010PropOp47
 70
     1
102
RTVSPost2010Prop48
 90
       50
102
RTVSPost2010PropOp48
 70
     1
102
RTVSPost2010Prop49
280
     0
102
RTVSPost2010PropOp49
 70
     1
102
RTVSPost2010Prop50
 90
       50
102
RTVSPost2010PropOp50
 70
     1
102
RTVSPost2010Prop51ColorIndex
 90
      256
102
RTVSPost2010Prop51ColorRGB
 90
-16777216
102
RTVSPost2010PropOp51
 70
     0
102
RTVSPost2010Prop52
140
1.0
102
RTVSPost2010PropOp52
 70
     0
102
RTVSPost2010Prop53
 90
        2
102
RTVSPost2010PropOp53
 70
     1
102
RTVSPost2010Prop54
  1
strokes_ogs.tif
102
RTVSPost2010PropOp54
 70
     1
102
RTVSPost2010Prop55
280
     0
102
RTVSPost2010PropOp55
 70
     1
102
RTVSPost2010Prop56
140
1.0
102
RTVSPost2010PropOp56
 70
     1
102
RTVSPost2010Prop57
140
1.0
102
RTVSPost2010PropOp57
 70
     1
  0
XRECORD
  5
AE
102
{ACAD_REACTORS
330
AD
102
}
330
AD
100
AcDbXrecord
280
     1
102
RTVSPropertyOp0
 70
     1
102
RTVSPropertyOp1
 70
     1
102
RTVSPropertyOp2
 70
     1
102
RTVSPropertyOp3
 70
     1
102
RTVSPropertyOp4
 70
     1
102
RTVSPropertyOp5
 70
     1
102
RTVSPropertyOp6
 70
     1
102
RTVSPropertyOp7
 70
     1
102
RTVSPropertyOp8
 70
     1
102
RTVSPropertyOp9
 70
     1
102
RTVSPropertyOp10
 70
     1
102
RTVSPropertyOp11
 70
     1
102
RTVSPropertyOp12
 70
     1
102
RTVSPropertyOp13
 70
     1
102
RTVSPropertyOp14
 70
     1
102
RTVSPropertyOp15
 70
     1
102
RTVSPropertyOp16
 70
     1
102
RTVSPropertyOp17
 70
     1
102
RTVSPropertyOp18
 70
     1
102
RTVSPropertyOp19
 70
     1
102
RTVSPropertyOp20
 70
     1
102
RTVSPropertyOp21
 70
     1
102
RTVSPropertyOp22
 70
     1
102
RTVSPropertyOp23
 70
     1
102
RTVSPropertyOp24
 70
     1
102
RTVSPropertyOp25
 70
     1
102
RTVSPropertyOp26
 70
     1
102
RTVSPropertyOp27
 70
     1
102
RTVSPropertyOp28
 70
     1
102
RTVSPropertyOp29
 70
     1
102
RTVSPropertyOp30
 70
     1
102
RTVSPropertyOp31
 70
     1
102
RTVSPropertyOp32
 70
     1
102
RTVSPropertyOp33
 70
     1
102
RTVSPropertyOp34
 70
     1
102
RTVSPropertyOp35
 70
     1
102
RTVSPropertyOp36
 70
     1
102
RTVSPropertyOp37
 70
     1
102
RTVSPropertyOp38
 70
     1
102
RTVSPropertyOp39
 70
     1
102
RTVSPropertyOp40
 70
     1
102
RTVSPropertyOp41
 70
     1
102
RTVSPropertyOp42
 70
     1
102
RTVSPropertyOp43
 70
     1
102
RTVSPropertyOp44
 70
     1
102
RTVSPropertyOp45
 70
     1
102
RTVSPropertyOp46
 70
     1
102
RTVSPropertyOp47
 70
     1
102
RTVSPropertyOp48
 70
     1
102
RTVSPropertyOp49
 70
     1
102
RTVSPropertyOp50
 70
     1
102
RTVSPropertyOp51
 70
     0
102
RTVSPropertyOp52
 70
     0
102
RTVSPropertyOp53
 70
     1
102
RTVSPropertyOp54
 70
     1
102
RTVSPropertyOp55
 70
     1
102
RTVSPropertyOp56
 70
     1
102
RTVSPropertyOp57
 70
     1
102
RTVSPost2010Prop28
280
     0
102
RTVSPost2010PropOp28
 70
     1
102
RTVSPost2010Prop29
280
     1
102
RTVSPost2010PropOp29
 70
     1
102
RTVSPost2010Prop30
280
     1
102
RTVSPost2010PropOp30
 70
     1
102
RTVSPost2010Prop31
280
     0
102
RTVSPost2010PropOp31
 70
     1
102
RTVSPost2010Prop32
280
     0
102
RTVSPost2010PropOp32
 70
     1
102
RTVSPost2010Prop33
280
     0
102
RTVSPost2010PropOp33
 70
     1
102
RTVSPost2010Prop34
280
     0
102
RTVSPost2010PropOp34
 70
     1
102
RTVSPost2010Prop35
280
     0
102
RTVSPost2010PropOp35
 70
     1
102
RTVSPost2010Prop36
280
     0
102
RTVSPost2010PropOp36
 70
     1
102
RTVSPost2010Prop37
 90
       50
102
RTVSPost2010PropOp37
 70
     1
102
RTVSPost2010Prop38
140
0.0
102
RTVSPost2010PropOp38
 70
     1
102
RTVSPost2010Prop39
140
1.0
102
RTVSPost2010PropOp39
 70
     1
102
RTVSPost2010Prop40
 90
        0
102
RTVSPost2010PropOp40
 70
     1
102
RTVSPost2010Prop41ColorIndex
 90
       18
102
RTVSPost2010Prop41ColorRGB
 90
        0
102
RTVSPost2010PropOp41
 70
     1
102
RTVSPost2010Prop42
 90
       50
102
RTVSPost2010PropOp42
 70
     1
102
RTVSPost2010Prop43
 90
        3
102
RTVSPost2010PropOp43
 70
     1
102
RTVSPost2010Prop44ColorIndex
 90
        5
102
RTVSPost2010Prop44ColorRGB
 90
      255
102
RTVSPost2010PropOp44
 70
     1
102
RTVSPost2010Prop45
280
     0
102
RTVSPost2010PropOp45
 70
     1
102
RTVSPost2010Prop46
 90
       50
102
RTVSPost2010PropOp46
 70
     1
102
RTVSPost2010Prop47
 90
       50
102
RTVSPost2010PropOp47
 70
     1
102
RTVSPost2010Prop48
 90
       50
102
RTVSPost2010PropOp48
 70
     1
102
RTVSPost2010Prop49
280
     0
102
RTVSPost2010PropOp49
 70
     1
102
RTVSPost2010Prop50
 90
       50
102
RTVSPost2010PropOp50
 70
     1
102
RTVSPost2010Prop51ColorIndex
 90
      256
102
RTVSPost2010Prop51ColorRGB
 90
-16777216
102
RTVSPost2010PropOp51
 70
     0
102
RTVSPost2010Prop52
140
1.0
102
RTVSPost2010PropOp52
 70
     0
102
RTVSPost2010Prop53
 90
        2
102
RTVSPost2010PropOp53
 70
     1
102
RTVSPost2010Prop54
  1
strokes_ogs.tif
102
RTVSPost2010PropOp54
 70
     1
102
RTVSPost2010Prop55
280
     0
102
RTVSPost2010PropOp55
 70
     1
102
RTVSPost2010Prop56
140
1.0
102
RTVSPost2010PropOp56
 70
     1
102
RTVSPost2010Prop57
140
1.0
102
RTVSPost2010PropOp57
 70
     1
  0
XRECORD
  5
B4
102
{ACAD_REACTORS
330
B3
102
}
330
B3
100
AcDbXrecord
280
     1
102
RTVSPropertyOp0
 70
     1
102
RTVSPropertyOp1
 70
     1
102
RTVSPropertyOp2
 70
     1
102
RTVSPropertyOp3
 70
     1
102
RTVSPropertyOp4
 70
     1
102
RTVSPropertyOp5
 70
     1
102
RTVSPropertyOp6
 70
     1
102
RTVSPropertyOp7
 70
     1
102
RTVSPropertyOp8
 70
     1
102
RTVSPropertyOp9
 70
     1
102
RTVSPropertyOp10
 70
     1
102
RTVSPropertyOp11
 70
     1
102
RTVSPropertyOp12
 70
     1
102
RTVSPropertyOp13
 70
     1
102
RTVSPropertyOp14
 70
     1
102
RTVSPropertyOp15
 70
     1
102
RTVSPropertyOp16
 70
     1
102
RTVSPropertyOp17
 70
     1
102
RTVSPropertyOp18
 70
     1
102
RTVSPropertyOp19
 70
     1
102
RTVSPropertyOp20
 70
     1
102
RTVSPropertyOp21
 70
     1
102
RTVSPropertyOp22
 70
     1
102
RTVSPropertyOp23
 70
     1
102
RTVSPropertyOp24
 70
     1
102
RTVSPropertyOp25
 70
     1
102
RTVSPropertyOp26
 70
     1
102
RTVSPropertyOp27
 70
     1
102
RTVSPropertyOp28
 70
     1
102
RTVSPropertyOp29
 70
     1
102
RTVSPropertyOp30
 70
     1
102
RTVSPropertyOp31
 70
     1
102
RTVSPropertyOp32
 70
     1
102
RTVSPropertyOp33
 70
     1
102
RTVSPropertyOp34
 70
     1
102
RTVSPropertyOp35
 70
     1
102
RTVSPropertyOp36
 70
     1
102
RTVSPropertyOp37
 70
     1
102
RTVSPropertyOp38
 70
     1
102
RTVSPropertyOp39
 70
     1
102
RTVSPropertyOp40
 70
     1
102
RTVSPropertyOp41
 70
     1
102
RTVSPropertyOp42
 70
     1
102
RTVSPropertyOp43
 70
     1
102
RTVSPropertyOp44
 70
     1
102
RTVSPropertyOp45
 70
     1
102
RTVSPropertyOp46
 70
     1
102
RTVSPropertyOp47
 70
     1
102
RTVSPropertyOp48
 70
     1
102
RTVSPropertyOp49
 70
     1
102
RTVSPropertyOp50
 70
     1
102
RTVSPropertyOp51
 70
     0
102
RTVSPropertyOp52
 70
     0
102
RTVSPropertyOp53
 70
     1
102
RTVSPropertyOp54
 70
     1
102
RTVSPropertyOp55
 70
     1
102
RTVSPropertyOp56
 70
     1
102
RTVSPropertyOp57
 70
     1
102
RTVSPost2010Prop28
280
     0
102
RTVSPost2010PropOp28
 70
     1
102
RTVSPost2010Prop29
280
     1
102
RTVSPost2010PropOp29
 70
     1
102
RTVSPost2010Prop30
280
     1
102
RTVSPost2010PropOp30
 70
     1
102
RTVSPost2010Prop31
280
     0
102
RTVSPost2010PropOp31
 70
     1
102
RTVSPost2010Prop32
280
     0
102
RTVSPost2010PropOp32
 70
     1
102
RTVSPost2010Prop33
280
     0
102
RTVSPost2010PropOp33
 70
     1
102
RTVSPost2010Prop34
280
     0
102
RTVSPost2010PropOp34
 70
     1
102
RTVSPost2010Prop35
280
     0
102
RTVSPost2010PropOp35
 70
     1
102
RTVSPost2010Prop36
280
     0
102
RTVSPost2010PropOp36
 70
     1
102
RTVSPost2010Prop37
 90
       50
102
RTVSPost2010PropOp37
 70
     1
102
RTVSPost2010Prop38
140
0.0
102
RTVSPost2010PropOp38
 70
     1
102
RTVSPost2010Prop39
140
1.0
102
RTVSPost2010PropOp39
 70
     1
102
RTVSPost2010Prop40
 90
        0
102
RTVSPost2010PropOp40
 70
     1
102
RTVSPost2010Prop41ColorIndex
 90
       18
102
RTVSPost2010Prop41ColorRGB
 90
        0
102
RTVSPost2010PropOp41
 70
     1
102
RTVSPost2010Prop42
 90
       50
102
RTVSPost2010PropOp42
 70
     1
102
RTVSPost2010Prop43
 90
        3
102
RTVSPost2010PropOp43
 70
     1
102
RTVSPost2010Prop44ColorIndex
 90
        5
102
RTVSPost2010Prop44ColorRGB
 90
      255
102
RTVSPost2010PropOp44
 70
     1
102
RTVSPost2010Prop45
280
     0
102
RTVSPost2010PropOp45
 70
     1
102
RTVSPost2010Prop46
 90
       50
102
RTVSPost2010PropOp46
 70
     1
102
RTVSPost2010Prop47
 90
       50
102
RTVSPost2010PropOp47
 70
     1
102
RTVSPost2010Prop48
 90
       50
102
RTVSPost2010PropOp48
 70
     1
102
RTVSPost2010Prop49
280
     0
102
RTVSPost2010PropOp49
 70
     1
102
RTVSPost2010Prop50
 90
       50
102
RTVSPost2010PropOp50
 70
     1
102
RTVSPost2010Prop51ColorIndex
 90
      256
102
RTVSPost2010Prop51ColorRGB
 90
-16777216
102
RTVSPost2010PropOp51
 70
     0
102
RTVSPost2010Prop52
140
1.0
102
RTVSPost2010PropOp52
 70
     0
102
RTVSPost2010Prop53
 90
        2
102
RTVSPost2010PropOp53
 70
     1
102
RTVSPost2010Prop54
  1
strokes_ogs.tif
102
RTVSPost2010PropOp54
 70
     1
102
RTVSPost2010Prop55
280
     0
102
RTVSPost2010PropOp55
 70
     1
102
RTVSPost2010Prop56
140
1.0
102
RTVSPost2010PropOp56
 70
     1
102
RTVSPost2010Prop57
140
1.0
102
RTVSPost2010PropOp57
 70
     1
  0
XRECORD
  5
C8
102
{ACAD_REACTORS
330
C7
102
}
330
C7
100
AcDbXrecord
280
     1
102
RTVSPropertyOp0
 70
     0
102
RTVSPropertyOp1
 70
     0
102
RTVSPropertyOp2
 70
     0
102
RTVSPropertyOp3
 70
     0
102
RTVSPropertyOp4
 70
     0
102
RTVSPropertyOp5
 70
     0
102
RTVSPropertyOp6
 70
     0
102
RTVSPropertyOp7
 70
     0
102
RTVSPropertyOp8
 70
     0
102
RTVSPropertyOp9
 70
     0
102
RTVSPropertyOp10
 70
     0
102
RTVSPropertyOp11
 70
     0
102
RTVSPropertyOp12
 70
     0
102
RTVSPropertyOp13
 70
     0
102
RTVSPropertyOp14
 70
     2
102
RTVSPropertyOp15
 70
     0
102
RTVSPropertyOp16
 70
     0
102
RTVSPropertyOp17
 70
     0
102
RTVSPropertyOp18
 70
     0
102
RTVSPropertyOp19
 70
     0
102
RTVSPropertyOp20
 70
     0
102
RTVSPropertyOp21
 70
     0
102
RTVSPropertyOp22
 70
     0
102
RTVSPropertyOp23
 70
     0
102
RTVSPropertyOp24
 70
     0
102
RTVSPropertyOp25
 70
     0
102
RTVSPropertyOp26
 70
     0
102
RTVSPropertyOp27
 70
     0
102
RTVSPropertyOp28
 70
     0
102
RTVSPropertyOp29
 70
     0
102
RTVSPropertyOp30
 70
     0
102
RTVSPropertyOp31
 70
     0
102
RTVSPropertyOp32
 70
     0
102
RTVSPropertyOp33
 70
     0
102
RTVSPropertyOp34
 70
     0
102
RTVSPropertyOp35
 70
     0
102
RTVSPropertyOp36
 70
     0
102
RTVSPropertyOp37
 70
     0
102
RTVSPropertyOp38
 70
     0
102
RTVSPropertyOp39
 70
     0
102
RTVSPropertyOp40
 70
     0
102
RTVSPropertyOp41
 70
     0
102
RTVSPropertyOp42
 70
     0
102
RTVSPropertyOp43
 70
     0
102
RTVSPropertyOp44
 70
     0
102
RTVSPropertyOp45
 70
     0
102
RTVSPropertyOp46
 70
     0
102
RTVSPropertyOp47
 70
     0
102
RTVSPropertyOp48
 70
     0
102
RTVSPropertyOp49
 70
     0
102
RTVSPropertyOp50
 70
     0
102
RTVSPropertyOp51
 70
     0
102
RTVSPropertyOp52
 70
     0
102
RTVSPropertyOp53
 70
     0
102
RTVSPropertyOp54
 70
     0
102
RTVSPropertyOp55
 70
     0
102
RTVSPropertyOp56
 70
     0
102
RTVSPropertyOp57
 70
     0
102
RTVSPost2010Prop28
280
     0
102
RTVSPost2010PropOp28
 70
     0
102
RTVSPost2010Prop29
280
     1
102
RTVSPost2010PropOp29
 70
     0
102
RTVSPost2010Prop30
280
     1
102
RTVSPost2010PropOp30
 70
     0
102
RTVSPost2010Prop31
280
     0
102
RTVSPost2010PropOp31
 70
     0
102
RTVSPost2010Prop32
280
     0
102
RTVSPost2010PropOp32
 70
     0
102
RTVSPost2010Prop33
280
     0
102
RTVSPost2010PropOp33
 70
     0
102
RTVSPost2010Prop34
280
     0
102
RTVSPost2010PropOp34
 70
     0
102
RTVSPost2010Prop35
280
     0
102
RTVSPost2010PropOp35
 70
     0
102
RTVSPost2010Prop36
280
     0
102
RTVSPost2010PropOp36
 70
     0
102
RTVSPost2010Prop37
 90
       50
102
RTVSPost2010PropOp37
 70
     0
102
RTVSPost2010Prop38
140
0.0
102
RTVSPost2010PropOp38
 70
     0
102
RTVSPost2010Prop39
140
1.0
102
RTVSPost2010PropOp39
 70
     0
102
RTVSPost2010Prop40
 90
        0
102
RTVSPost2010PropOp40
 70
     0
102
RTVSPost2010Prop41ColorIndex
 90
       18
102
RTVSPost2010Prop41ColorRGB
 90
        0
102
RTVSPost2010PropOp41
 70
     0
102
RTVSPost2010Prop42
 90
       50
102
RTVSPost2010PropOp42
 70
     0
102
RTVSPost2010Prop43
 90
        3
102
RTVSPost2010PropOp43
 70
     0
102
RTVSPost2010Prop44ColorIndex
 90
        5
102
RTVSPost2010Prop44ColorRGB
 90
      255
102
RTVSPost2010PropOp44
 70
     0
102
RTVSPost2010Prop45
280
     0
102
RTVSPost2010PropOp45
 70
     0
102
RTVSPost2010Prop46
 90
       50
102
RTVSPost2010PropOp46
 70
     0
102
RTVSPost2010Prop47
 90
       50
102
RTVSPost2010PropOp47
 70
     0
102
RTVSPost2010Prop48
 90
       50
102
RTVSPost2010PropOp48
 70
     0
102
RTVSPost2010Prop49
280
     0
102
RTVSPost2010PropOp49
 70
     0
102
RTVSPost2010Prop50
 90
       50
102
RTVSPost2010PropOp50
 70
     0
102
RTVSPost2010Prop51ColorIndex
 90
      256
102
RTVSPost2010Prop51ColorRGB
 90
-16777216
102
RTVSPost2010PropOp51
 70
     0
102
RTVSPost2010Prop52
140
1.0
102
RTVSPost2010PropOp52
 70
     0
102
RTVSPost2010Prop53
 90
        2
102
RTVSPost2010PropOp53
 70
     0
102
RTVSPost2010Prop54
  1
strokes_ogs.tif
102
RTVSPost2010PropOp54
 70
     0
102
RTVSPost2010Prop55
280
     0
102
RTVSPost2010PropOp55
 70
     0
102
RTVSPost2010Prop56
140
1.0
102
RTVSPost2010PropOp56
 70
     0
102
RTVSPost2010Prop57
140
1.0
102
RTVSPost2010PropOp57
 70
     0
  0
XRECORD
  5
C2
102
{ACAD_REACTORS
330
C1
102
}
330
C1
100
AcDbXrecord
280
     1
102
RTVSPropertyOp0
 70
     1
102
RTVSPropertyOp1
 70
     1
102
RTVSPropertyOp2
 70
     1
102
RTVSPropertyOp3
 70
     1
102
RTVSPropertyOp4
 70
     1
102
RTVSPropertyOp5
 70
     1
102
RTVSPropertyOp6
 70
     1
102
RTVSPropertyOp7
 70
     1
102
RTVSPropertyOp8
 70
     1
102
RTVSPropertyOp9
 70
     1
102
RTVSPropertyOp10
 70
     1
102
RTVSPropertyOp11
 70
     1
102
RTVSPropertyOp12
 70
     1
102
RTVSPropertyOp13
 70
     1
102
RTVSPropertyOp14
 70
     1
102
RTVSPropertyOp15
 70
     1
102
RTVSPropertyOp16
 70
     1
102
RTVSPropertyOp17
 70
     1
102
RTVSPropertyOp18
 70
     1
102
RTVSPropertyOp19
 70
     1
102
RTVSPropertyOp20
 70
     1
102
RTVSPropertyOp21
 70
     1
102
RTVSPropertyOp22
 70
     1
102
RTVSPropertyOp23
 70
     1
102
RTVSPropertyOp24
 70
     1
102
RTVSPropertyOp25
 70
     1
102
RTVSPropertyOp26
 70
     1
102
RTVSPropertyOp27
 70
     1
102
RTVSPropertyOp28
 70
     1
102
RTVSPropertyOp29
 70
     1
102
RTVSPropertyOp30
 70
     1
102
RTVSPropertyOp31
 70
     1
102
RTVSPropertyOp32
 70
     1
102
RTVSPropertyOp33
 70
     1
102
RTVSPropertyOp34
 70
     1
102
RTVSPropertyOp35
 70
     1
102
RTVSPropertyOp36
 70
     1
102
RTVSPropertyOp37
 70
     1
102
RTVSPropertyOp38
 70
     1
102
RTVSPropertyOp39
 70
     1
102
RTVSPropertyOp40
 70
     1
102
RTVSPropertyOp41
 70
     1
102
RTVSPropertyOp42
 70
     1
102
RTVSPropertyOp43
 70
     1
102
RTVSPropertyOp44
 70
     1
102
RTVSPropertyOp45
 70
     1
102
RTVSPropertyOp46
 70
     1
102
RTVSPropertyOp47
 70
     1
102
RTVSPropertyOp48
 70
     1
102
RTVSPropertyOp49
 70
     1
102
RTVSPropertyOp50
 70
     1
102
RTVSPropertyOp51
 70
     0
102
RTVSPropertyOp52
 70
     0
102
RTVSPropertyOp53
 70
     1
102
RTVSPropertyOp54
 70
     1
102
RTVSPropertyOp55
 70
     1
102
RTVSPropertyOp56
 70
     1
102
RTVSPropertyOp57
 70
     1
102
RTVSPost2010Prop28
280
     0
102
RTVSPost2010PropOp28
 70
     1
102
RTVSPost2010Prop29
280
     1
102
RTVSPost2010PropOp29
 70
     1
102
RTVSPost2010Prop30
280
     1
102
RTVSPost2010PropOp30
 70
     1
102
RTVSPost2010Prop31
280
     0
102
RTVSPost2010PropOp31
 70
     1
102
RTVSPost2010Prop32
280
     0
102
RTVSPost2010PropOp32
 70
     1
102
RTVSPost2010Prop33
280
     0
102
RTVSPost2010PropOp33
 70
     1
102
RTVSPost2010Prop34
280
     0
102
RTVSPost2010PropOp34
 70
     1
102
RTVSPost2010Prop35
280
     0
102
RTVSPost2010PropOp35
 70
     1
102
RTVSPost2010Prop36
280
     0
102
RTVSPost2010PropOp36
 70
     1
102
RTVSPost2010Prop37
 90
       50
102
RTVSPost2010PropOp37
 70
     1
102
RTVSPost2010Prop38
140
0.0
102
RTVSPost2010PropOp38
 70
     1
102
RTVSPost2010Prop39
140
1.0
102
RTVSPost2010PropOp39
 70
     1
102
RTVSPost2010Prop40
 90
        0
102
RTVSPost2010PropOp40
 70
     1
102
RTVSPost2010Prop41ColorIndex
 90
       18
102
RTVSPost2010Prop41ColorRGB
 90
        0
102
RTVSPost2010PropOp41
 70
     1
102
RTVSPost2010Prop42
 90
       50
102
RTVSPost2010PropOp42
 70
     1
102
RTVSPost2010Prop43
 90
        3
102
RTVSPost2010PropOp43
 70
     1
102
RTVSPost2010Prop44ColorIndex
 90
        5
102
RTVSPost2010Prop44ColorRGB
 90
      255
102
RTVSPost2010PropOp44
 70
     1
102
RTVSPost2010Prop45
280
     0
102
RTVSPost2010PropOp45
 70
     1
102
RTVSPost2010Prop46
 90
       50
102
RTVSPost2010PropOp46
 70
     1
102
RTVSPost2010Prop47
 90
       50
102
RTVSPost2010PropOp47
 70
     1
102
RTVSPost2010Prop48
 90
       50
102
RTVSPost2010PropOp48
 70
     1
102
RTVSPost2010Prop49
280
     0
102
RTVSPost2010PropOp49
 70
     1
102
RTVSPost2010Prop50
 90
       50
102
RTVSPost2010PropOp50
 70
     1
102
RTVSPost2010Prop51ColorIndex
 90
      256
102
RTVSPost2010Prop51ColorRGB
 90
-16777216
102
RTVSPost2010PropOp51
 70
     0
102
RTVSPost2010Prop52
140
1.0
102
RTVSPost2010PropOp52
 70
     0
102
RTVSPost2010Prop53
 90
        2
102
RTVSPost2010PropOp53
 70
     1
102
RTVSPost2010Prop54
  1
strokes_ogs.tif
102
RTVSPost2010PropOp54
 70
     1
102
RTVSPost2010Prop55
280
     0
102
RTVSPost2010PropOp55
 70
     1
102
RTVSPost2010Prop56
140
1.0
102
RTVSPost2010PropOp56
 70
     1
102
RTVSPost2010Prop57
140
1.0
102
RTVSPost2010PropOp57
 70
     1
  0
XRECORD
  5
CA
102
{ACAD_REACTORS
330
C9
102
}
330
C9
100
AcDbXrecord
280
     1
102
RTVSPropertyOp0
 70
     0
102
RTVSPropertyOp1
 70
     0
102
RTVSPropertyOp2
 70
     0
102
RTVSPropertyOp3
 70
     0
102
RTVSPropertyOp4
 70
     0
102
RTVSPropertyOp5
 70
     0
102
RTVSPropertyOp6
 70
     0
102
RTVSPropertyOp7
 70
     0
102
RTVSPropertyOp8
 70
     0
102
RTVSPropertyOp9
 70
     0
102
RTVSPropertyOp10
 70
     0
102
RTVSPropertyOp11
 70
     0
102
RTVSPropertyOp12
 70
     0
102
RTVSPropertyOp13
 70
     0
102
RTVSPropertyOp14
 70
     2
102
RTVSPropertyOp15
 70
     0
102
RTVSPropertyOp16
 70
     0
102
RTVSPropertyOp17
 70
     0
102
RTVSPropertyOp18
 70
     0
102
RTVSPropertyOp19
 70
     0
102
RTVSPropertyOp20
 70
     0
102
RTVSPropertyOp21
 70
     0
102
RTVSPropertyOp22
 70
     0
102
RTVSPropertyOp23
 70
     0
102
RTVSPropertyOp24
 70
     0
102
RTVSPropertyOp25
 70
     0
102
RTVSPropertyOp26
 70
     0
102
RTVSPropertyOp27
 70
     0
102
RTVSPropertyOp28
 70
     0
102
RTVSPropertyOp29
 70
     0
102
RTVSPropertyOp30
 70
     0
102
RTVSPropertyOp31
 70
     0
102
RTVSPropertyOp32
 70
     0
102
RTVSPropertyOp33
 70
     0
102
RTVSPropertyOp34
 70
     0
102
RTVSPropertyOp35
 70
     0
102
RTVSPropertyOp36
 70
     0
102
RTVSPropertyOp37
 70
     0
102
RTVSPropertyOp38
 70
     0
102
RTVSPropertyOp39
 70
     0
102
RTVSPropertyOp40
 70
     0
102
RTVSPropertyOp41
 70
     0
102
RTVSPropertyOp42
 70
     0
102
RTVSPropertyOp43
 70
     0
102
RTVSPropertyOp44
 70
     0
102
RTVSPropertyOp45
 70
     0
102
RTVSPropertyOp46
 70
     0
102
RTVSPropertyOp47
 70
     0
102
RTVSPropertyOp48
 70
     0
102
RTVSPropertyOp49
 70
     0
102
RTVSPropertyOp50
 70
     0
102
RTVSPropertyOp51
 70
     0
102
RTVSPropertyOp52
 70
     0
102
RTVSPropertyOp53
 70
     0
102
RTVSPropertyOp54
 70
     0
102
RTVSPropertyOp55
 70
     0
102
RTVSPropertyOp56
 70
     0
102
RTVSPropertyOp57
 70
     0
102
RTVSPost2010Prop28
280
     0
102
RTVSPost2010PropOp28
 70
     0
102
RTVSPost2010Prop29
280
     1
102
RTVSPost2010PropOp29
 70
     0
102
RTVSPost2010Prop30
280
     1
102
RTVSPost2010PropOp30
 70
     0
102
RTVSPost2010Prop31
280
     0
102
RTVSPost2010PropOp31
 70
     0
102
RTVSPost2010Prop32
280
     0
102
RTVSPost2010PropOp32
 70
     0
102
RTVSPost2010Prop33
280
     0
102
RTVSPost2010PropOp33
 70
     0
102
RTVSPost2010Prop34
280
     0
102
RTVSPost2010PropOp34
 70
     0
102
RTVSPost2010Prop35
280
     0
102
RTVSPost2010PropOp35
 70
     0
102
RTVSPost2010Prop36
280
     0
102
RTVSPost2010PropOp36
 70
     0
102
RTVSPost2010Prop37
 90
       50
102
RTVSPost2010PropOp37
 70
     0
102
RTVSPost2010Prop38
140
0.0
102
RTVSPost2010PropOp38
 70
     0
102
RTVSPost2010Prop39
140
1.0
102
RTVSPost2010PropOp39
 70
     0
102
RTVSPost2010Prop40
 90
        0
102
RTVSPost2010PropOp40
 70
     0
102
RTVSPost2010Prop41ColorIndex
 90
       18
102
RTVSPost2010Prop41ColorRGB
 90
        0
102
RTVSPost2010PropOp41
 70
     0
102
RTVSPost2010Prop42
 90
       50
102
RTVSPost2010PropOp42
 70
     0
102
RTVSPost2010Prop43
 90
        3
102
RTVSPost2010PropOp43
 70
     0
102
RTVSPost2010Prop44ColorIndex
 90
        5
102
RTVSPost2010Prop44ColorRGB
 90
      255
102
RTVSPost2010PropOp44
 70
     0
102
RTVSPost2010Prop45
280
     0
102
RTVSPost2010PropOp45
 70
     0
102
RTVSPost2010Prop46
 90
       50
102
RTVSPost2010PropOp46
 70
     0
102
RTVSPost2010Prop47
 90
       50
102
RTVSPost2010PropOp47
 70
     0
102
RTVSPost2010Prop48
 90
       50
102
RTVSPost2010PropOp48
 70
     0
102
RTVSPost2010Prop49
280
     0
102
RTVSPost2010PropOp49
 70
     0
102
RTVSPost2010Prop50
 90
       50
102
RTVSPost2010PropOp50
 70
     0
102
RTVSPost2010Prop51ColorIndex
 90
      256
102
RTVSPost2010Prop51ColorRGB
 90
-16777216
102
RTVSPost2010PropOp51
 70
     0
102
RTVSPost2010Prop52
140
1.0
102
RTVSPost2010PropOp52
 70
     0
102
RTVSPost2010Prop53
 90
        2
102
RTVSPost2010PropOp53
 70
     0
102
RTVSPost2010Prop54
  1
strokes_ogs.tif
102
RTVSPost2010PropOp54
 70
     0
102
RTVSPost2010Prop55
280
     0
102
RTVSPost2010PropOp55
 70
     0
102
RTVSPost2010Prop56
140
1.0
102
RTVSPost2010PropOp56
 70
     0
102
RTVSPost2010Prop57
140
1.0
102
RTVSPost2010PropOp57
 70
     0
  0
XRECORD
  5
B8
102
{ACAD_REACTORS
330
B7
102
}
330
B7
100
AcDbXrecord
280
     1
102
RTVSPropertyOp0
 70
     1
102
RTVSPropertyOp1
 70
     1
102
RTVSPropertyOp2
 70
     1
102
RTVSPropertyOp3
 70
     1
102
RTVSPropertyOp4
 70
     1
102
RTVSPropertyOp5
 70
     1
102
RTVSPropertyOp6
 70
     1
102
RTVSPropertyOp7
 70
     1
102
RTVSPropertyOp8
 70
     1
102
RTVSPropertyOp9
 70
     1
102
RTVSPropertyOp10
 70
     1
102
RTVSPropertyOp11
 70
     1
102
RTVSPropertyOp12
 70
     1
102
RTVSPropertyOp13
 70
     1
102
RTVSPropertyOp14
 70
     1
102
RTVSPropertyOp15
 70
     1
102
RTVSPropertyOp16
 70
     1
102
RTVSPropertyOp17
 70
     1
102
RTVSPropertyOp18
 70
     1
102
RTVSPropertyOp19
 70
     1
102
RTVSPropertyOp20
 70
     1
102
RTVSPropertyOp21
 70
     1
102
RTVSPropertyOp22
 70
     1
102
RTVSPropertyOp23
 70
     1
102
RTVSPropertyOp24
 70
     1
102
RTVSPropertyOp25
 70
     1
102
RTVSPropertyOp26
 70
     1
102
RTVSPropertyOp27
 70
     1
102
RTVSPropertyOp28
 70
     1
102
RTVSPropertyOp29
 70
     1
102
RTVSPropertyOp30
 70
     1
102
RTVSPropertyOp31
 70
     1
102
RTVSPropertyOp32
 70
     1
102
RTVSPropertyOp33
 70
     1
102
RTVSPropertyOp34
 70
     1
102
RTVSPropertyOp35
 70
     1
102
RTVSPropertyOp36
 70
     1
102
RTVSPropertyOp37
 70
     1
102
RTVSPropertyOp38
 70
     1
102
RTVSPropertyOp39
 70
     1
102
RTVSPropertyOp40
 70
     1
102
RTVSPropertyOp41
 70
     1
102
RTVSPropertyOp42
 70
     1
102
RTVSPropertyOp43
 70
     1
102
RTVSPropertyOp44
 70
     1
102
RTVSPropertyOp45
 70
     1
102
RTVSPropertyOp46
 70
     1
102
RTVSPropertyOp47
 70
     1
102
RTVSPropertyOp48
 70
     1
102
RTVSPropertyOp49
 70
     1
102
RTVSPropertyOp50
 70
     1
102
RTVSPropertyOp51
 70
     0
102
RTVSPropertyOp52
 70
     0
102
RTVSPropertyOp53
 70
     1
102
RTVSPropertyOp54
 70
     1
102
RTVSPropertyOp55
 70
     1
102
RTVSPropertyOp56
 70
     1
102
RTVSPropertyOp57
 70
     1
102
RTVSPost2010Prop28
280
     0
102
RTVSPost2010PropOp28
 70
     1
102
RTVSPost2010Prop29
280
     1
102
RTVSPost2010PropOp29
 70
     1
102
RTVSPost2010Prop30
280
     1
102
RTVSPost2010PropOp30
 70
     1
102
RTVSPost2010Prop31
280
     0
102
RTVSPost2010PropOp31
 70
     1
102
RTVSPost2010Prop32
280
     0
102
RTVSPost2010PropOp32
 70
     1
102
RTVSPost2010Prop33
280
     0
102
RTVSPost2010PropOp33
 70
     1
102
RTVSPost2010Prop34
280
     0
102
RTVSPost2010PropOp34
 70
     1
102
RTVSPost2010Prop35
280
     0
102
RTVSPost2010PropOp35
 70
     1
102
RTVSPost2010Prop36
280
     0
102
RTVSPost2010PropOp36
 70
     1
102
RTVSPost2010Prop37
 90
       50
102
RTVSPost2010PropOp37
 70
     1
102
RTVSPost2010Prop38
140
0.0
102
RTVSPost2010PropOp38
 70
     1
102
RTVSPost2010Prop39
140
1.0
102
RTVSPost2010PropOp39
 70
     1
102
RTVSPost2010Prop40
 90
        0
102
RTVSPost2010PropOp40
 70
     1
102
RTVSPost2010Prop41ColorIndex
 90
       18
102
RTVSPost2010Prop41ColorRGB
 90
        0
102
RTVSPost2010PropOp41
 70
     1
102
RTVSPost2010Prop42
 90
       50
102
RTVSPost2010PropOp42
 70
     1
102
RTVSPost2010Prop43
 90
        3
102
RTVSPost2010PropOp43
 70
     1
102
RTVSPost2010Prop44ColorIndex
 90
        5
102
RTVSPost2010Prop44ColorRGB
 90
      255
102
RTVSPost2010PropOp44
 70
     1
102
RTVSPost2010Prop45
280
     0
102
RTVSPost2010PropOp45
 70
     1
102
RTVSPost2010Prop46
 90
       50
102
RTVSPost2010PropOp46
 70
     1
102
RTVSPost2010Prop47
 90
       50
102
RTVSPost2010PropOp47
 70
     1
102
RTVSPost2010Prop48
 90
       50
102
RTVSPost2010PropOp48
 70
     1
102
RTVSPost2010Prop49
280
     0
102
RTVSPost2010PropOp49
 70
     1
102
RTVSPost2010Prop50
 90
       50
102
RTVSPost2010PropOp50
 70
     1
102
RTVSPost2010Prop51ColorIndex
 90
      256
102
RTVSPost2010Prop51ColorRGB
 90
-16777216
102
RTVSPost2010PropOp51
 70
     0
102
RTVSPost2010Prop52
140
1.0
102
RTVSPost2010PropOp52
 70
     0
102
RTVSPost2010Prop53
 90
        2
102
RTVSPost2010PropOp53
 70
     1
102
RTVSPost2010Prop54
  1
strokes_ogs.tif
102
RTVSPost2010PropOp54
 70
     1
102
RTVSPost2010Prop55
280
     0
102
RTVSPost2010PropOp55
 70
     1
102
RTVSPost2010Prop56
140
1.0
102
RTVSPost2010PropOp56
 70
     1
102
RTVSPost2010Prop57
140
1.0
102
RTVSPost2010PropOp57
 70
     1
  0
XRECORD
  5
D6
102
{ACAD_REACTORS
330
D5
102
}
330
D5
100
AcDbXrecord
280
     1
102
RTVSPropertyOp0
 70
     1
102
RTVSPropertyOp1
 70
     1
102
RTVSPropertyOp2
 70
     1
102
RTVSPropertyOp3
 70
     1
102
RTVSPropertyOp4
 70
     1
102
RTVSPropertyOp5
 70
     1
102
RTVSPropertyOp6
 70
     1
102
RTVSPropertyOp7
 70
     1
102
RTVSPropertyOp8
 70
     1
102
RTVSPropertyOp9
 70
     1
102
RTVSPropertyOp10
 70
     1
102
RTVSPropertyOp11
 70
     1
102
RTVSPropertyOp12
 70
     1
102
RTVSPropertyOp13
 70
     1
102
RTVSPropertyOp14
 70
     1
102
RTVSPropertyOp15
 70
     1
102
RTVSPropertyOp16
 70
     1
102
RTVSPropertyOp17
 70
     1
102
RTVSPropertyOp18
 70
     1
102
RTVSPropertyOp19
 70
     1
102
RTVSPropertyOp20
 70
     1
102
RTVSPropertyOp21
 70
     1
102
RTVSPropertyOp22
 70
     1
102
RTVSPropertyOp23
 70
     1
102
RTVSPropertyOp24
 70
     1
102
RTVSPropertyOp25
 70
     1
102
RTVSPropertyOp26
 70
     1
102
RTVSPropertyOp27
 70
     1
102
RTVSPropertyOp28
 70
     1
102
RTVSPropertyOp29
 70
     1
102
RTVSPropertyOp30
 70
     1
102
RTVSPropertyOp31
 70
     1
102
RTVSPropertyOp32
 70
     1
102
RTVSPropertyOp33
 70
     1
102
RTVSPropertyOp34
 70
     1
102
RTVSPropertyOp35
 70
     1
102
RTVSPropertyOp36
 70
     1
102
RTVSPropertyOp37
 70
     1
102
RTVSPropertyOp38
 70
     1
102
RTVSPropertyOp39
 70
     1
102
RTVSPropertyOp40
 70
     1
102
RTVSPropertyOp41
 70
     1
102
RTVSPropertyOp42
 70
     1
102
RTVSPropertyOp43
 70
     1
102
RTVSPropertyOp44
 70
     1
102
RTVSPropertyOp45
 70
     1
102
RTVSPropertyOp46
 70
     1
102
RTVSPropertyOp47
 70
     1
102
RTVSPropertyOp48
 70
     1
102
RTVSPropertyOp49
 70
     1
102
RTVSPropertyOp50
 70
     1
102
RTVSPropertyOp51
 70
     0
102
RTVSPropertyOp52
 70
     0
102
RTVSPropertyOp53
 70
     1
102
RTVSPropertyOp54
 70
     1
102
RTVSPropertyOp55
 70
     1
102
RTVSPropertyOp56
 70
     1
102
RTVSPropertyOp57
 70
     1
102
RTVSPost2010Prop28
280
     0
102
RTVSPost2010PropOp28
 70
     1
102
RTVSPost2010Prop29
280
     1
102
RTVSPost2010PropOp29
 70
     1
102
RTVSPost2010Prop30
280
     1
102
RTVSPost2010PropOp30
 70
     1
102
RTVSPost2010Prop31
280
     0
102
RTVSPost2010PropOp31
 70
     1
102
RTVSPost2010Prop32
280
     0
102
RTVSPost2010PropOp32
 70
     1
102
RTVSPost2010Prop33
280
     0
102
RTVSPost2010PropOp33
 70
     1
102
RTVSPost2010Prop34
280
     0
102
RTVSPost2010PropOp34
 70
     1
102
RTVSPost2010Prop35
280
     0
102
RTVSPost2010PropOp35
 70
     1
102
RTVSPost2010Prop36
280
     0
102
RTVSPost2010PropOp36
 70
     1
102
RTVSPost2010Prop37
 90
       50
102
RTVSPost2010PropOp37
 70
     1
102
RTVSPost2010Prop38
140
0.0
102
RTVSPost2010PropOp38
 70
     1
102
RTVSPost2010Prop39
140
1.0
102
RTVSPost2010PropOp39
 70
     1
102
RTVSPost2010Prop40
 90
        0
102
RTVSPost2010PropOp40
 70
     1
102
RTVSPost2010Prop41ColorIndex
 90
       18
102
RTVSPost2010Prop41ColorRGB
 90
        0
102
RTVSPost2010PropOp41
 70
     1
102
RTVSPost2010Prop42
 90
       50
102
RTVSPost2010PropOp42
 70
     1
102
RTVSPost2010Prop43
 90
        3
102
RTVSPost2010PropOp43
 70
     1
102
RTVSPost2010Prop44ColorIndex
 90
        5
102
RTVSPost2010Prop44ColorRGB
 90
      255
102
RTVSPost2010PropOp44
 70
     1
102
RTVSPost2010Prop45
280
     0
102
RTVSPost2010PropOp45
 70
     1
102
RTVSPost2010Prop46
 90
       50
102
RTVSPost2010PropOp46
 70
     1
102
RTVSPost2010Prop47
 90
       50
102
RTVSPost2010PropOp47
 70
     1
102
RTVSPost2010Prop48
 90
       50
102
RTVSPost2010PropOp48
 70
     1
102
RTVSPost2010Prop49
280
     0
102
RTVSPost2010PropOp49
 70
     1
102
RTVSPost2010Prop50
 90
       50
102
RTVSPost2010PropOp50
 70
     1
102
RTVSPost2010Prop51ColorIndex
 90
      256
102
RTVSPost2010Prop51ColorRGB
 90
-16777216
102
RTVSPost2010PropOp51
 70
     0
102
RTVSPost2010Prop52
140
1.0
102
RTVSPost2010PropOp52
 70
     0
102
RTVSPost2010Prop53
 90
        2
102
RTVSPost2010PropOp53
 70
     1
102
RTVSPost2010Prop54
  1
strokes_ogs.tif
102
RTVSPost2010PropOp54
 70
     1
102
RTVSPost2010Prop55
280
     0
102
RTVSPost2010PropOp55
 70
     1
102
RTVSPost2010Prop56
140
1.0
102
RTVSPost2010PropOp56
 70
     1
102
RTVSPost2010Prop57
140
1.0
102
RTVSPost2010PropOp57
 70
     1
  0
XRECORD
  5
D4
102
{ACAD_REACTORS
330
D3
102
}
330
D3
100
AcDbXrecord
280
     1
102
RTVSPropertyOp0
 70
     1
102
RTVSPropertyOp1
 70
     1
102
RTVSPropertyOp2
 70
     1
102
RTVSPropertyOp3
 70
     1
102
RTVSPropertyOp4
 70
     1
102
RTVSPropertyOp5
 70
     1
102
RTVSPropertyOp6
 70
     1
102
RTVSPropertyOp7
 70
     1
102
RTVSPropertyOp8
 70
     1
102
RTVSPropertyOp9
 70
     1
102
RTVSPropertyOp10
 70
     1
102
RTVSPropertyOp11
 70
     1
102
RTVSPropertyOp12
 70
     1
102
RTVSPropertyOp13
 70
     1
102
RTVSPropertyOp14
 70
     1
102
RTVSPropertyOp15
 70
     1
102
RTVSPropertyOp16
 70
     1
102
RTVSPropertyOp17
 70
     1
102
RTVSPropertyOp18
 70
     1
102
RTVSPropertyOp19
 70
     1
102
RTVSPropertyOp20
 70
     1
102
RTVSPropertyOp21
 70
     1
102
RTVSPropertyOp22
 70
     1
102
RTVSPropertyOp23
 70
     1
102
RTVSPropertyOp24
 70
     1
102
RTVSPropertyOp25
 70
     1
102
RTVSPropertyOp26
 70
     1
102
RTVSPropertyOp27
 70
     1
102
RTVSPropertyOp28
 70
     1
102
RTVSPropertyOp29
 70
     1
102
RTVSPropertyOp30
 70
     1
102
RTVSPropertyOp31
 70
     1
102
RTVSPropertyOp32
 70
     1
102
RTVSPropertyOp33
 70
     1
102
RTVSPropertyOp34
 70
     1
102
RTVSPropertyOp35
 70
     1
102
RTVSPropertyOp36
 70
     1
102
RTVSPropertyOp37
 70
     1
102
RTVSPropertyOp38
 70
     1
102
RTVSPropertyOp39
 70
     1
102
RTVSPropertyOp40
 70
     1
102
RTVSPropertyOp41
 70
     1
102
RTVSPropertyOp42
 70
     1
102
RTVSPropertyOp43
 70
     1
102
RTVSPropertyOp44
 70
     1
102
RTVSPropertyOp45
 70
     1
102
RTVSPropertyOp46
 70
     1
102
RTVSPropertyOp47
 70
     1
102
RTVSPropertyOp48
 70
     1
102
RTVSPropertyOp49
 70
     1
102
RTVSPropertyOp50
 70
     1
102
RTVSPropertyOp51
 70
     0
102
RTVSPropertyOp52
 70
     0
102
RTVSPropertyOp53
 70
     1
102
RTVSPropertyOp54
 70
     1
102
RTVSPropertyOp55
 70
     1
102
RTVSPropertyOp56
 70
     1
102
RTVSPropertyOp57
 70
     1
102
RTVSPost2010Prop28
280
     0
102
RTVSPost2010PropOp28
 70
     1
102
RTVSPost2010Prop29
280
     1
102
RTVSPost2010PropOp29
 70
     1
102
RTVSPost2010Prop30
280
     1
102
RTVSPost2010PropOp30
 70
     1
102
RTVSPost2010Prop31
280
     0
102
RTVSPost2010PropOp31
 70
     1
102
RTVSPost2010Prop32
280
     0
102
RTVSPost2010PropOp32
 70
     1
102
RTVSPost2010Prop33
280
     0
102
RTVSPost2010PropOp33
 70
     1
102
RTVSPost2010Prop34
280
     0
102
RTVSPost2010PropOp34
 70
     1
102
RTVSPost2010Prop35
280
     0
102
RTVSPost2010PropOp35
 70
     1
102
RTVSPost2010Prop36
280
     0
102
RTVSPost2010PropOp36
 70
     1
102
RTVSPost2010Prop37
 90
       50
102
RTVSPost2010PropOp37
 70
     1
102
RTVSPost2010Prop38
140
0.0
102
RTVSPost2010PropOp38
 70
     1
102
RTVSPost2010Prop39
140
1.0
102
RTVSPost2010PropOp39
 70
     1
102
RTVSPost2010Prop40
 90
        0
102
RTVSPost2010PropOp40
 70
     1
102
RTVSPost2010Prop41ColorIndex
 90
       18
102
RTVSPost2010Prop41ColorRGB
 90
        0
102
RTVSPost2010PropOp41
 70
     1
102
RTVSPost2010Prop42
 90
       50
102
RTVSPost2010PropOp42
 70
     1
102
RTVSPost2010Prop43
 90
        3
102
RTVSPost2010PropOp43
 70
     1
102
RTVSPost2010Prop44ColorIndex
 90
        5
102
RTVSPost2010Prop44ColorRGB
 90
      255
102
RTVSPost2010PropOp44
 70
     1
102
RTVSPost2010Prop45
280
     0
102
RTVSPost2010PropOp45
 70
     1
102
RTVSPost2010Prop46
 90
       50
102
RTVSPost2010PropOp46
 70
     1
102
RTVSPost2010Prop47
 90
       50
102
RTVSPost2010PropOp47
 70
     1
102
RTVSPost2010Prop48
 90
       50
102
RTVSPost2010PropOp48
 70
     1
102
RTVSPost2010Prop49
280
     0
102
RTVSPost2010PropOp49
 70
     1
102
RTVSPost2010Prop50
 90
       50
102
RTVSPost2010PropOp50
 70
     1
102
RTVSPost2010Prop51ColorIndex
 90
      256
102
RTVSPost2010Prop51ColorRGB
 90
-16777216
102
RTVSPost2010PropOp51
 70
     0
102
RTVSPost2010Prop52
140
1.0
102
RTVSPost2010PropOp52
 70
     0
102
RTVSPost2010Prop53
 90
        2
102
RTVSPost2010PropOp53
 70
     1
102
RTVSPost2010Prop54
  1
strokes_ogs.tif
102
RTVSPost2010PropOp54
 70
     1
102
RTVSPost2010Prop55
280
     0
102
RTVSPost2010PropOp55
 70
     1
102
RTVSPost2010Prop56
140
1.0
102
RTVSPost2010PropOp56
 70
     1
102
RTVSPost2010Prop57
140
1.0
102
RTVSPost2010PropOp57
 70
     1
  0
XRECORD
  5
CE
102
{ACAD_REACTORS
330
CD
102
}
330
CD
100
AcDbXrecord
280
     1
102
RTVSPropertyOp0
 70
     1
102
RTVSPropertyOp1
 70
     1
102
RTVSPropertyOp2
 70
     1
102
RTVSPropertyOp3
 70
     1
102
RTVSPropertyOp4
 70
     1
102
RTVSPropertyOp5
 70
     1
102
RTVSPropertyOp6
 70
     1
102
RTVSPropertyOp7
 70
     1
102
RTVSPropertyOp8
 70
     1
102
RTVSPropertyOp9
 70
     1
102
RTVSPropertyOp10
 70
     1
102
RTVSPropertyOp11
 70
     1
102
RTVSPropertyOp12
 70
     1
102
RTVSPropertyOp13
 70
     1
102
RTVSPropertyOp14
 70
     1
102
RTVSPropertyOp15
 70
     1
102
RTVSPropertyOp16
 70
     1
102
RTVSPropertyOp17
 70
     1
102
RTVSPropertyOp18
 70
     1
102
RTVSPropertyOp19
 70
     1
102
RTVSPropertyOp20
 70
     1
102
RTVSPropertyOp21
 70
     1
102
RTVSPropertyOp22
 70
     1
102
RTVSPropertyOp23
 70
     1
102
RTVSPropertyOp24
 70
     1
102
RTVSPropertyOp25
 70
     1
102
RTVSPropertyOp26
 70
     1
102
RTVSPropertyOp27
 70
     1
102
RTVSPropertyOp28
 70
     1
102
RTVSPropertyOp29
 70
     1
102
RTVSPropertyOp30
 70
     1
102
RTVSPropertyOp31
 70
     1
102
RTVSPropertyOp32
 70
     1
102
RTVSPropertyOp33
 70
     1
102
RTVSPropertyOp34
 70
     1
102
RTVSPropertyOp35
 70
     1
102
RTVSPropertyOp36
 70
     1
102
RTVSPropertyOp37
 70
     1
102
RTVSPropertyOp38
 70
     1
102
RTVSPropertyOp39
 70
     1
102
RTVSPropertyOp40
 70
     1
102
RTVSPropertyOp41
 70
     1
102
RTVSPropertyOp42
 70
     1
102
RTVSPropertyOp43
 70
     1
102
RTVSPropertyOp44
 70
     1
102
RTVSPropertyOp45
 70
     1
102
RTVSPropertyOp46
 70
     1
102
RTVSPropertyOp47
 70
     1
102
RTVSPropertyOp48
 70
     1
102
RTVSPropertyOp49
 70
     1
102
RTVSPropertyOp50
 70
     1
102
RTVSPropertyOp51
 70
     0
102
RTVSPropertyOp52
 70
     0
102
RTVSPropertyOp53
 70
     1
102
RTVSPropertyOp54
 70
     1
102
RTVSPropertyOp55
 70
     1
102
RTVSPropertyOp56
 70
     1
102
RTVSPropertyOp57
 70
     1
102
RTVSPost2010Prop28
280
     0
102
RTVSPost2010PropOp28
 70
     1
102
RTVSPost2010Prop29
280
     1
102
RTVSPost2010PropOp29
 70
     1
102
RTVSPost2010Prop30
280
     1
102
RTVSPost2010PropOp30
 70
     1
102
RTVSPost2010Prop31
280
     0
102
RTVSPost2010PropOp31
 70
     1
102
RTVSPost2010Prop32
280
     0
102
RTVSPost2010PropOp32
 70
     1
102
RTVSPost2010Prop33
280
     0
102
RTVSPost2010PropOp33
 70
     1
102
RTVSPost2010Prop34
280
     0
102
RTVSPost2010PropOp34
 70
     1
102
RTVSPost2010Prop35
280
     0
102
RTVSPost2010PropOp35
 70
     1
102
RTVSPost2010Prop36
280
     0
102
RTVSPost2010PropOp36
 70
     1
102
RTVSPost2010Prop37
 90
       50
102
RTVSPost2010PropOp37
 70
     1
102
RTVSPost2010Prop38
140
0.0
102
RTVSPost2010PropOp38
 70
     1
102
RTVSPost2010Prop39
140
1.0
102
RTVSPost2010PropOp39
 70
     1
102
RTVSPost2010Prop40
 90
        0
102
RTVSPost2010PropOp40
 70
     1
102
RTVSPost2010Prop41ColorIndex
 90
       18
102
RTVSPost2010Prop41ColorRGB
 90
        0
102
RTVSPost2010PropOp41
 70
     1
102
RTVSPost2010Prop42
 90
       50
102
RTVSPost2010PropOp42
 70
     1
102
RTVSPost2010Prop43
 90
        3
102
RTVSPost2010PropOp43
 70
     1
102
RTVSPost2010Prop44ColorIndex
 90
        5
102
RTVSPost2010Prop44ColorRGB
 90
      255
102
RTVSPost2010PropOp44
 70
     1
102
RTVSPost2010Prop45
280
     0
102
RTVSPost2010PropOp45
 70
     1
102
RTVSPost2010Prop46
 90
       50
102
RTVSPost2010PropOp46
 70
     1
102
RTVSPost2010Prop47
 90
       50
102
RTVSPost2010PropOp47
 70
     1
102
RTVSPost2010Prop48
 90
       50
102
RTVSPost2010PropOp48
 70
     1
102
RTVSPost2010Prop49
280
     0
102
RTVSPost2010PropOp49
 70
     1
102
RTVSPost2010Prop50
 90
       50
102
RTVSPost2010PropOp50
 70
     1
102
RTVSPost2010Prop51ColorIndex
 90
      256
102
RTVSPost2010Prop51ColorRGB
 90
-16777216
102
RTVSPost2010PropOp51
 70
     0
102
RTVSPost2010Prop52
140
1.0
102
RTVSPost2010PropOp52
 70
     0
102
RTVSPost2010Prop53
 90
        2
102
RTVSPost2010PropOp53
 70
     1
102
RTVSPost2010Prop54
  1
strokes_ogs.tif
102
RTVSPost2010PropOp54
 70
     1
102
RTVSPost2010Prop55
280
     0
102
RTVSPost2010PropOp55
 70
     1
102
RTVSPost2010Prop56
140
1.0
102
RTVSPost2010PropOp56
 70
     1
102
RTVSPost2010Prop57
140
1.0
102
RTVSPost2010PropOp57
 70
     1
  0
XRECORD
  5
D0
102
{ACAD_REACTORS
330
CF
102
}
330
CF
100
AcDbXrecord
280
     1
102
RTVSPropertyOp0
 70
     1
102
RTVSPropertyOp1
 70
     1
102
RTVSPropertyOp2
 70
     1
102
RTVSPropertyOp3
 70
     1
102
RTVSPropertyOp4
 70
     1
102
RTVSPropertyOp5
 70
     1
102
RTVSPropertyOp6
 70
     1
102
RTVSPropertyOp7
 70
     1
102
RTVSPropertyOp8
 70
     1
102
RTVSPropertyOp9
 70
     1
102
RTVSPropertyOp10
 70
     1
102
RTVSPropertyOp11
 70
     1
102
RTVSPropertyOp12
 70
     1
102
RTVSPropertyOp13
 70
     1
102
RTVSPropertyOp14
 70
     1
102
RTVSPropertyOp15
 70
     1
102
RTVSPropertyOp16
 70
     1
102
RTVSPropertyOp17
 70
     1
102
RTVSPropertyOp18
 70
     1
102
RTVSPropertyOp19
 70
     1
102
RTVSPropertyOp20
 70
     1
102
RTVSPropertyOp21
 70
     1
102
RTVSPropertyOp22
 70
     1
102
RTVSPropertyOp23
 70
     1
102
RTVSPropertyOp24
 70
     1
102
RTVSPropertyOp25
 70
     1
102
RTVSPropertyOp26
 70
     1
102
RTVSPropertyOp27
 70
     1
102
RTVSPropertyOp28
 70
     1
102
RTVSPropertyOp29
 70
     1
102
RTVSPropertyOp30
 70
     1
102
RTVSPropertyOp31
 70
     1
102
RTVSPropertyOp32
 70
     1
102
RTVSPropertyOp33
 70
     1
102
RTVSPropertyOp34
 70
     1
102
RTVSPropertyOp35
 70
     1
102
RTVSPropertyOp36
 70
     1
102
RTVSPropertyOp37
 70
     1
102
RTVSPropertyOp38
 70
     1
102
RTVSPropertyOp39
 70
     1
102
RTVSPropertyOp40
 70
     1
102
RTVSPropertyOp41
 70
     1
102
RTVSPropertyOp42
 70
     1
102
RTVSPropertyOp43
 70
     1
102
RTVSPropertyOp44
 70
     1
102
RTVSPropertyOp45
 70
     1
102
RTVSPropertyOp46
 70
     1
102
RTVSPropertyOp47
 70
     1
102
RTVSPropertyOp48
 70
     1
102
RTVSPropertyOp49
 70
     1
102
RTVSPropertyOp50
 70
     1
102
RTVSPropertyOp51
 70
     0
102
RTVSPropertyOp52
 70
     0
102
RTVSPropertyOp53
 70
     1
102
RTVSPropertyOp54
 70
     1
102
RTVSPropertyOp55
 70
     1
102
RTVSPropertyOp56
 70
     1
102
RTVSPropertyOp57
 70
     1
102
RTVSPost2010Prop28
280
     0
102
RTVSPost2010PropOp28
 70
     1
102
RTVSPost2010Prop29
280
     1
102
RTVSPost2010PropOp29
 70
     1
102
RTVSPost2010Prop30
280
     1
102
RTVSPost2010PropOp30
 70
     1
102
RTVSPost2010Prop31
280
     0
102
RTVSPost2010PropOp31
 70
     1
102
RTVSPost2010Prop32
280
     0
102
RTVSPost2010PropOp32
 70
     1
102
RTVSPost2010Prop33
280
     0
102
RTVSPost2010PropOp33
 70
     1
102
RTVSPost2010Prop34
280
     0
102
RTVSPost2010PropOp34
 70
     1
102
RTVSPost2010Prop35
280
     0
102
RTVSPost2010PropOp35
 70
     1
102
RTVSPost2010Prop36
280
     0
102
RTVSPost2010PropOp36
 70
     1
102
RTVSPost2010Prop37
 90
       50
102
RTVSPost2010PropOp37
 70
     1
102
RTVSPost2010Prop38
140
0.0
102
RTVSPost2010PropOp38
 70
     1
102
RTVSPost2010Prop39
140
1.0
102
RTVSPost2010PropOp39
 70
     1
102
RTVSPost2010Prop40
 90
        0
102
RTVSPost2010PropOp40
 70
     1
102
RTVSPost2010Prop41ColorIndex
 90
       18
102
RTVSPost2010Prop41ColorRGB
 90
        0
102
RTVSPost2010PropOp41
 70
     1
102
RTVSPost2010Prop42
 90
       50
102
RTVSPost2010PropOp42
 70
     1
102
RTVSPost2010Prop43
 90
        3
102
RTVSPost2010PropOp43
 70
     1
102
RTVSPost2010Prop44ColorIndex
 90
        5
102
RTVSPost2010Prop44ColorRGB
 90
      255
102
RTVSPost2010PropOp44
 70
     1
102
RTVSPost2010Prop45
280
     0
102
RTVSPost2010PropOp45
 70
     1
102
RTVSPost2010Prop46
 90
       50
102
RTVSPost2010PropOp46
 70
     1
102
RTVSPost2010Prop47
 90
       50
102
RTVSPost2010PropOp47
 70
     1
102
RTVSPost2010Prop48
 90
       50
102
RTVSPost2010PropOp48
 70
     1
102
RTVSPost2010Prop49
280
     0
102
RTVSPost2010PropOp49
 70
     1
102
RTVSPost2010Prop50
 90
       50
102
RTVSPost2010PropOp50
 70
     1
102
RTVSPost2010Prop51ColorIndex
 90
      256
102
RTVSPost2010Prop51ColorRGB
 90
-16777216
102
RTVSPost2010PropOp51
 70
     0
102
RTVSPost2010Prop52
140
1.0
102
RTVSPost2010PropOp52
 70
     0
102
RTVSPost2010Prop53
 90
        2
102
RTVSPost2010PropOp53
 70
     1
102
RTVSPost2010Prop54
  1
strokes_ogs.tif
102
RTVSPost2010PropOp54
 70
     1
102
RTVSPost2010Prop55
280
     0
102
RTVSPost2010PropOp55
 70
     1
102
RTVSPost2010Prop56
140
1.0
102
RTVSPost2010PropOp56
 70
     1
102
RTVSPost2010Prop57
140
1.0
102
RTVSPost2010PropOp57
 70
     1
  0
XRECORD
  5
C0
102
{ACAD_REACTORS
330
BF
102
}
330
BF
100
AcDbXrecord
280
     1
102
RTVSPropertyOp0
 70
     1
102
RTVSPropertyOp1
 70
     1
102
RTVSPropertyOp2
 70
     1
102
RTVSPropertyOp3
 70
     1
102
RTVSPropertyOp4
 70
     1
102
RTVSPropertyOp5
 70
     1
102
RTVSPropertyOp6
 70
     1
102
RTVSPropertyOp7
 70
     1
102
RTVSPropertyOp8
 70
     1
102
RTVSPropertyOp9
 70
     1
102
RTVSPropertyOp10
 70
     1
102
RTVSPropertyOp11
 70
     1
102
RTVSPropertyOp12
 70
     1
102
RTVSPropertyOp13
 70
     1
102
RTVSPropertyOp14
 70
     1
102
RTVSPropertyOp15
 70
     1
102
RTVSPropertyOp16
 70
     1
102
RTVSPropertyOp17
 70
     1
102
RTVSPropertyOp18
 70
     1
102
RTVSPropertyOp19
 70
     1
102
RTVSPropertyOp20
 70
     1
102
RTVSPropertyOp21
 70
     1
102
RTVSPropertyOp22
 70
     1
102
RTVSPropertyOp23
 70
     1
102
RTVSPropertyOp24
 70
     1
102
RTVSPropertyOp25
 70
     1
102
RTVSPropertyOp26
 70
     1
102
RTVSPropertyOp27
 70
     1
102
RTVSPropertyOp28
 70
     1
102
RTVSPropertyOp29
 70
     1
102
RTVSPropertyOp30
 70
     1
102
RTVSPropertyOp31
 70
     1
102
RTVSPropertyOp32
 70
     1
102
RTVSPropertyOp33
 70
     1
102
RTVSPropertyOp34
 70
     1
102
RTVSPropertyOp35
 70
     1
102
RTVSPropertyOp36
 70
     1
102
RTVSPropertyOp37
 70
     1
102
RTVSPropertyOp38
 70
     1
102
RTVSPropertyOp39
 70
     1
102
RTVSPropertyOp40
 70
     1
102
RTVSPropertyOp41
 70
     1
102
RTVSPropertyOp42
 70
     1
102
RTVSPropertyOp43
 70
     1
102
RTVSPropertyOp44
 70
     1
102
RTVSPropertyOp45
 70
     1
102
RTVSPropertyOp46
 70
     1
102
RTVSPropertyOp47
 70
     1
102
RTVSPropertyOp48
 70
     1
102
RTVSPropertyOp49
 70
     1
102
RTVSPropertyOp50
 70
     1
102
RTVSPropertyOp51
 70
     0
102
RTVSPropertyOp52
 70
     0
102
RTVSPropertyOp53
 70
     1
102
RTVSPropertyOp54
 70
     1
102
RTVSPropertyOp55
 70
     1
102
RTVSPropertyOp56
 70
     1
102
RTVSPropertyOp57
 70
     1
102
RTVSPost2010Prop28
280
     0
102
RTVSPost2010PropOp28
 70
     1
102
RTVSPost2010Prop29
280
     1
102
RTVSPost2010PropOp29
 70
     1
102
RTVSPost2010Prop30
280
     1
102
RTVSPost2010PropOp30
 70
     1
102
RTVSPost2010Prop31
280
     0
102
RTVSPost2010PropOp31
 70
     1
102
RTVSPost2010Prop32
280
     0
102
RTVSPost2010PropOp32
 70
     1
102
RTVSPost2010Prop33
280
     0
102
RTVSPost2010PropOp33
 70
     1
102
RTVSPost2010Prop34
280
     0
102
RTVSPost2010PropOp34
 70
     1
102
RTVSPost2010Prop35
280
     0
102
RTVSPost2010PropOp35
 70
     1
102
RTVSPost2010Prop36
280
     0
102
RTVSPost2010PropOp36
 70
     1
102
RTVSPost2010Prop37
 90
       50
102
RTVSPost2010PropOp37
 70
     1
102
RTVSPost2010Prop38
140
0.0
102
RTVSPost2010PropOp38
 70
     1
102
RTVSPost2010Prop39
140
1.0
102
RTVSPost2010PropOp39
 70
     1
102
RTVSPost2010Prop40
 90
        0
102
RTVSPost2010PropOp40
 70
     1
102
RTVSPost2010Prop41ColorIndex
 90
       18
102
RTVSPost2010Prop41ColorRGB
 90
        0
102
RTVSPost2010PropOp41
 70
     1
102
RTVSPost2010Prop42
 90
       50
102
RTVSPost2010PropOp42
 70
     1
102
RTVSPost2010Prop43
 90
        3
102
RTVSPost2010PropOp43
 70
     1
102
RTVSPost2010Prop44ColorIndex
 90
        5
102
RTVSPost2010Prop44ColorRGB
 90
      255
102
RTVSPost2010PropOp44
 70
     1
102
RTVSPost2010Prop45
280
     0
102
RTVSPost2010PropOp45
 70
     1
102
RTVSPost2010Prop46
 90
       50
102
RTVSPost2010PropOp46
 70
     1
102
RTVSPost2010Prop47
 90
       50
102
RTVSPost2010PropOp47
 70
     1
102
RTVSPost2010Prop48
 90
       50
102
RTVSPost2010PropOp48
 70
     1
102
RTVSPost2010Prop49
280
     0
102
RTVSPost2010PropOp49
 70
     1
102
RTVSPost2010Prop50
 90
       50
102
RTVSPost2010PropOp50
 70
     1
102
RTVSPost2010Prop51ColorIndex
 90
      256
102
RTVSPost2010Prop51ColorRGB
 90
-16777216
102
RTVSPost2010PropOp51
 70
     0
102
RTVSPost2010Prop52
140
1.0
102
RTVSPost2010PropOp52
 70
     0
102
RTVSPost2010Prop53
 90
        2
102
RTVSPost2010PropOp53
 70
     1
102
RTVSPost2010Prop54
  1
strokes_ogs.tif
102
RTVSPost2010PropOp54
 70
     1
102
RTVSPost2010Prop55
280
     0
102
RTVSPost2010PropOp55
 70
     1
102
RTVSPost2010Prop56
140
1.0
102
RTVSPost2010PropOp56
 70
     1
102
RTVSPost2010Prop57
140
1.0
102
RTVSPost2010PropOp57
 70
     1
  0
XRECORD
  5
B2
102
{ACAD_REACTORS
330
B1
102
}
330
B1
100
AcDbXrecord
280
     1
102
RTVSPropertyOp0
 70
     1
102
RTVSPropertyOp1
 70
     1
102
RTVSPropertyOp2
 70
     1
102
RTVSPropertyOp3
 70
     1
102
RTVSPropertyOp4
 70
     1
102
RTVSPropertyOp5
 70
     1
102
RTVSPropertyOp6
 70
     1
102
RTVSPropertyOp7
 70
     1
102
RTVSPropertyOp8
 70
     1
102
RTVSPropertyOp9
 70
     1
102
RTVSPropertyOp10
 70
     1
102
RTVSPropertyOp11
 70
     1
102
RTVSPropertyOp12
 70
     1
102
RTVSPropertyOp13
 70
     1
102
RTVSPropertyOp14
 70
     1
102
RTVSPropertyOp15
 70
     1
102
RTVSPropertyOp16
 70
     1
102
RTVSPropertyOp17
 70
     1
102
RTVSPropertyOp18
 70
     1
102
RTVSPropertyOp19
 70
     1
102
RTVSPropertyOp20
 70
     1
102
RTVSPropertyOp21
 70
     1
102
RTVSPropertyOp22
 70
     1
102
RTVSPropertyOp23
 70
     1
102
RTVSPropertyOp24
 70
     1
102
RTVSPropertyOp25
 70
     1
102
RTVSPropertyOp26
 70
     1
102
RTVSPropertyOp27
 70
     1
102
RTVSPropertyOp28
 70
     1
102
RTVSPropertyOp29
 70
     1
102
RTVSPropertyOp30
 70
     1
102
RTVSPropertyOp31
 70
     1
102
RTVSPropertyOp32
 70
     1
102
RTVSPropertyOp33
 70
     1
102
RTVSPropertyOp34
 70
     1
102
RTVSPropertyOp35
 70
     1
102
RTVSPropertyOp36
 70
     1
102
RTVSPropertyOp37
 70
     1
102
RTVSPropertyOp38
 70
     1
102
RTVSPropertyOp39
 70
     1
102
RTVSPropertyOp40
 70
     1
102
RTVSPropertyOp41
 70
     1
102
RTVSPropertyOp42
 70
     1
102
RTVSPropertyOp43
 70
     1
102
RTVSPropertyOp44
 70
     1
102
RTVSPropertyOp45
 70
     1
102
RTVSPropertyOp46
 70
     1
102
RTVSPropertyOp47
 70
     1
102
RTVSPropertyOp48
 70
     1
102
RTVSPropertyOp49
 70
     1
102
RTVSPropertyOp50
 70
     1
102
RTVSPropertyOp51
 70
     0
102
RTVSPropertyOp52
 70
     0
102
RTVSPropertyOp53
 70
     1
102
RTVSPropertyOp54
 70
     1
102
RTVSPropertyOp55
 70
     1
102
RTVSPropertyOp56
 70
     1
102
RTVSPropertyOp57
 70
     1
102
RTVSPost2010Prop28
280
     0
102
RTVSPost2010PropOp28
 70
     1
102
RTVSPost2010Prop29
280
     1
102
RTVSPost2010PropOp29
 70
     1
102
RTVSPost2010Prop30
280
     1
102
RTVSPost2010PropOp30
 70
     1
102
RTVSPost2010Prop31
280
     0
102
RTVSPost2010PropOp31
 70
     1
102
RTVSPost2010Prop32
280
     0
102
RTVSPost2010PropOp32
 70
     1
102
RTVSPost2010Prop33
280
     0
102
RTVSPost2010PropOp33
 70
     1
102
RTVSPost2010Prop34
280
     0
102
RTVSPost2010PropOp34
 70
     1
102
RTVSPost2010Prop35
280
     0
102
RTVSPost2010PropOp35
 70
     1
102
RTVSPost2010Prop36
280
     0
102
RTVSPost2010PropOp36
 70
     1
102
RTVSPost2010Prop37
 90
       50
102
RTVSPost2010PropOp37
 70
     1
102
RTVSPost2010Prop38
140
0.0
102
RTVSPost2010PropOp38
 70
     1
102
RTVSPost2010Prop39
140
1.0
102
RTVSPost2010PropOp39
 70
     1
102
RTVSPost2010Prop40
 90
        0
102
RTVSPost2010PropOp40
 70
     1
102
RTVSPost2010Prop41ColorIndex
 90
       18
102
RTVSPost2010Prop41ColorRGB
 90
        0
102
RTVSPost2010PropOp41
 70
     1
102
RTVSPost2010Prop42
 90
       50
102
RTVSPost2010PropOp42
 70
     1
102
RTVSPost2010Prop43
 90
        3
102
RTVSPost2010PropOp43
 70
     1
102
RTVSPost2010Prop44ColorIndex
 90
        5
102
RTVSPost2010Prop44ColorRGB
 90
      255
102
RTVSPost2010PropOp44
 70
     1
102
RTVSPost2010Prop45
280
     0
102
RTVSPost2010PropOp45
 70
     1
102
RTVSPost2010Prop46
 90
       50
102
RTVSPost2010PropOp46
 70
     1
102
RTVSPost2010Prop47
 90
       50
102
RTVSPost2010PropOp47
 70
     1
102
RTVSPost2010Prop48
 90
       50
102
RTVSPost2010PropOp48
 70
     1
102
RTVSPost2010Prop49
280
     0
102
RTVSPost2010PropOp49
 70
     1
102
RTVSPost2010Prop50
 90
       50
102
RTVSPost2010PropOp50
 70
     1
102
RTVSPost2010Prop51ColorIndex
 90
      256
102
RTVSPost2010Prop51ColorRGB
 90
-16777216
102
RTVSPost2010PropOp51
 70
     0
102
RTVSPost2010Prop52
140
1.0
102
RTVSPost2010PropOp52
 70
     0
102
RTVSPost2010Prop53
 90
        2
102
RTVSPost2010PropOp53
 70
     1
102
RTVSPost2010Prop54
  1
strokes_ogs.tif
102
RTVSPost2010PropOp54
 70
     1
102
RTVSPost2010Prop55
280
     0
102
RTVSPost2010PropOp55
 70
     1
102
RTVSPost2010Prop56
140
1.0
102
RTVSPost2010PropOp56
 70
     1
102
RTVSPost2010Prop57
140
1.0
102
RTVSPost2010PropOp57
 70
     1
  0
XRECORD
  5
D2
102
{ACAD_REACTORS
330
D1
102
}
330
D1
100
AcDbXrecord
280
     1
102
RTVSPropertyOp0
 70
     1
102
RTVSPropertyOp1
 70
     1
102
RTVSPropertyOp2
 70
     1
102
RTVSPropertyOp3
 70
     1
102
RTVSPropertyOp4
 70
     1
102
RTVSPropertyOp5
 70
     1
102
RTVSPropertyOp6
 70
     1
102
RTVSPropertyOp7
 70
     1
102
RTVSPropertyOp8
 70
     1
102
RTVSPropertyOp9
 70
     1
102
RTVSPropertyOp10
 70
     1
102
RTVSPropertyOp11
 70
     1
102
RTVSPropertyOp12
 70
     1
102
RTVSPropertyOp13
 70
     1
102
RTVSPropertyOp14
 70
     1
102
RTVSPropertyOp15
 70
     1
102
RTVSPropertyOp16
 70
     1
102
RTVSPropertyOp17
 70
     1
102
RTVSPropertyOp18
 70
     1
102
RTVSPropertyOp19
 70
     1
102
RTVSPropertyOp20
 70
     1
102
RTVSPropertyOp21
 70
     1
102
RTVSPropertyOp22
 70
     1
102
RTVSPropertyOp23
 70
     1
102
RTVSPropertyOp24
 70
     1
102
RTVSPropertyOp25
 70
     1
102
RTVSPropertyOp26
 70
     1
102
RTVSPropertyOp27
 70
     1
102
RTVSPropertyOp28
 70
     1
102
RTVSPropertyOp29
 70
     1
102
RTVSPropertyOp30
 70
     1
102
RTVSPropertyOp31
 70
     1
102
RTVSPropertyOp32
 70
     1
102
RTVSPropertyOp33
 70
     1
102
RTVSPropertyOp34
 70
     1
102
RTVSPropertyOp35
 70
     1
102
RTVSPropertyOp36
 70
     1
102
RTVSPropertyOp37
 70
     1
102
RTVSPropertyOp38
 70
     1
102
RTVSPropertyOp39
 70
     1
102
RTVSPropertyOp40
 70
     1
102
RTVSPropertyOp41
 70
     1
102
RTVSPropertyOp42
 70
     1
102
RTVSPropertyOp43
 70
     1
102
RTVSPropertyOp44
 70
     1
102
RTVSPropertyOp45
 70
     1
102
RTVSPropertyOp46
 70
     1
102
RTVSPropertyOp47
 70
     1
102
RTVSPropertyOp48
 70
     1
102
RTVSPropertyOp49
 70
     1
102
RTVSPropertyOp50
 70
     1
102
RTVSPropertyOp51
 70
     0
102
RTVSPropertyOp52
 70
     0
102
RTVSPropertyOp53
 70
     1
102
RTVSPropertyOp54
 70
     1
102
RTVSPropertyOp55
 70
     1
102
RTVSPropertyOp56
 70
     1
102
RTVSPropertyOp57
 70
     1
102
RTVSPost2010Prop28
280
     0
102
RTVSPost2010PropOp28
 70
     1
102
RTVSPost2010Prop29
280
     1
102
RTVSPost2010PropOp29
 70
     1
102
RTVSPost2010Prop30
280
     1
102
RTVSPost2010PropOp30
 70
     1
102
RTVSPost2010Prop31
280
     0
102
RTVSPost2010PropOp31
 70
     1
102
RTVSPost2010Prop32
280
     0
102
RTVSPost2010PropOp32
 70
     1
102
RTVSPost2010Prop33
280
     0
102
RTVSPost2010PropOp33
 70
     1
102
RTVSPost2010Prop34
280
     0
102
RTVSPost2010PropOp34
 70
     1
102
RTVSPost2010Prop35
280
     0
102
RTVSPost2010PropOp35
 70
     1
102
RTVSPost2010Prop36
280
     0
102
RTVSPost2010PropOp36
 70
     1
102
RTVSPost2010Prop37
 90
       50
102
RTVSPost2010PropOp37
 70
     1
102
RTVSPost2010Prop38
140
0.0
102
RTVSPost2010PropOp38
 70
     1
102
RTVSPost2010Prop39
140
1.0
102
RTVSPost2010PropOp39
 70
     1
102
RTVSPost2010Prop40
 90
        0
102
RTVSPost2010PropOp40
 70
     1
102
RTVSPost2010Prop41ColorIndex
 90
       18
102
RTVSPost2010Prop41ColorRGB
 90
        0
102
RTVSPost2010PropOp41
 70
     1
102
RTVSPost2010Prop42
 90
       50
102
RTVSPost2010PropOp42
 70
     1
102
RTVSPost2010Prop43
 90
        3
102
RTVSPost2010PropOp43
 70
     1
102
RTVSPost2010Prop44ColorIndex
 90
        5
102
RTVSPost2010Prop44ColorRGB
 90
      255
102
RTVSPost2010PropOp44
 70
     1
102
RTVSPost2010Prop45
280
     0
102
RTVSPost2010PropOp45
 70
     1
102
RTVSPost2010Prop46
 90
       50
102
RTVSPost2010PropOp46
 70
     1
102
RTVSPost2010Prop47
 90
       50
102
RTVSPost2010PropOp47
 70
     1
102
RTVSPost2010Prop48
 90
       50
102
RTVSPost2010PropOp48
 70
     1
102
RTVSPost2010Prop49
280
     0
102
RTVSPost2010PropOp49
 70
     1
102
RTVSPost2010Prop50
 90
       50
102
RTVSPost2010PropOp50
 70
     1
102
RTVSPost2010Prop51ColorIndex
 90
      256
102
RTVSPost2010Prop51ColorRGB
 90
-16777216
102
RTVSPost2010PropOp51
 70
     0
102
RTVSPost2010Prop52
140
1.0
102
RTVSPost2010PropOp52
 70
     0
102
RTVSPost2010Prop53
 90
        2
102
RTVSPost2010PropOp53
 70
     1
102
RTVSPost2010Prop54
  1
strokes_ogs.tif
102
RTVSPost2010PropOp54
 70
     1
102
RTVSPost2010Prop55
280
     0
102
RTVSPost2010PropOp55
 70
     1
102
RTVSPost2010Prop56
140
1.0
102
RTVSPost2010PropOp56
 70
     1
102
RTVSPost2010Prop57
140
1.0
102
RTVSPost2010PropOp57
 70
     1
  0
ENDSEC
  0
EOF
