  0
SECTION
  2
HEADER
  9
$ACADVER
  1
AC1024
  9
$ACADMAINTVER
 70
     6
  9
$DWGCODEPAGE
  3
ANSI_1252
  9
$INSBASE
 10
0.0
 20
0.0
 30
0.0
  9
$EXTMIN
 10
1.000000000000000E+20
 20
1.000000000000000E+20
 30
1.000000000000000E+20
  9
$EXTMAX
 10
-1.000000000000000E+20
 20
-1.000000000000000E+20
 30
-1.000000000000000E+20
  9
$LIMMIN
 10
0.0
 20
0.0
  9
$LIMMAX
 10
12.0
 20
9.0
  9
$ORTHOMODE
 70
     0
  9
$REGENMODE
 70
     1
  9
$FILLMODE
 70
     1
  9
$QTEXTMODE
 70
     0
  9
$MIRRTEXT
 70
     1
  9
$LTSCALE
 40
1.0
  9
$ATTMODE
 70
     1
  9
$TEXTSIZE
 40
0.2
  9
$TRACEWID
 40
0.05
  9
$TEXTSTYLE
  7
Standard
  9
$CLAYER
  8
0
  9
$CELTYPE
  6
ByLayer
  9
$CECOLOR
 62
   256
  9
$CELTSCALE
 40
1.0
  9
$DISPSILH
 70
     0
  9
$DIMSCALE
 40
1.0
  9
$DIMASZ
 40
0.18
  9
$DIMEXO
 40
0.0625
  9
$DIMDLI
 40
0.38
  9
$DIMRND
 40
0.0
  9
$DIMDLE
 40
0.0
  9
$DIMEXE
 40
0.18
  9
$DIMTP
 40
0.0
  9
$DIMTM
 40
0.0
  9
$DIMTXT
 40
0.18
  9
$DIMCEN
 40
0.09
  9
$DIMTSZ
 40
0.0
  9
$DIMTOL
 70
     0
  9
$DIMLIM
 70
     0
  9
$DIMTIH
 70
     1
  9
$DIMTOH
 70
     1
  9
$DIMSE1
 70
     0
  9
$DIMSE2
 70
     0
  9
$DIMTAD
 70
     0
  9
$DIMZIN
 70
     0
  9
$DIMBLK
  1

  9
$DIMASO
 70
     1
  9
$DIMSHO
 70
     1
  9
$DIMPOST
  1

  9
$DIMAPOST
  1

  9
$DIMALT
 70
     0
  9
$DIMALTD
 70
     2
  9
$DIMALTF
 40
25.4
  9
$DIMLFAC
 40
1.0
  9
$DIMTOFL
 70
     0
  9
$DIMTVP
 40
0.0
  9
$DIMTIX
 70
     0
  9
$DIMSOXD
 70
     0
  9
$DIMSAH
 70
     0
  9
$DIMBLK1
  1

  9
$DIMBLK2
  1

  9
$DIMSTYLE
  2
Standard
  9
$DIMCLRD
 70
     0
  9
$DIMCLRE
 70
     0
  9
$DIMCLRT
 70
     0
  9
$DIMTFAC
 40
1.0
  9
$DIMGAP
 40
0.09
  9
$DIMJUST
 70
     0
  9
$DIMSD1
 70
     0
  9
$DIMSD2
 70
     0
  9
$DIMTOLJ
 70
     1
  9
$DIMTZIN
 70
     0
  9
$DIMALTZ
 70
     0
  9
$DIMALTTZ
 70
     0
  9
$DIMUPT
 70
     0
  9
$DIMDEC
 70
     4
  9
$DIMTDEC
 70
     4
  9
$DIMALTU
 70
     2
  9
$DIMALTTD
 70
     2
  9
$DIMTXSTY
  7
Standard
  9
$DIMAUNIT
 70
     0
  9
$DIMADEC
 70
     0
  9
$DIMALTRND
 40
0.0
  9
$DIMAZIN
 70
     0
  9
$DIMDSEP
 70
    46
  9
$DIMATFIT
 70
     3
  9
$DIMFRAC
 70
     0
  9
$DIMLDRBLK
  1

  9
$DIMLUNIT
 70
     2
  9
$DIMLWD
 70
    -2
  9
$DIMLWE
 70
    -2
  9
$DIMTMOVE
 70
     0
  9
$DIMFXL
 40
1.0
  9
$DIMFXLON
 70
     0
  9
$DIMJOGANG
 40
0.7853981633974483
  9
$DIMTFILL
 70
     0
  9
$DIMTFILLCLR
 70
     0
  9
$DIMARCSYM
 70
     0
  9
$DIMLTYPE
  6

  9
$DIMLTEX1
  6

  9
$DIMLTEX2
  6

  9
$DIMTXTDIRECTION
 70
     0
  9
$LUNITS
 70
     2
  9
$LUPREC
 70
     4
  9
$SKETCHINC
 40
0.1
  9
$FILLETRAD
 40
0.5
  9
$AUNITS
 70
     0
  9
$AUPREC
 70
     0
  9
$MENU
  1
.
  9
$ELEVATION
 40
0.0
  9
$PELEVATION
 40
0.0
  9
$THICKNESS
 40
0.0
  9
$LIMCHECK
 70
     0
  9
$CHAMFERA
 40
0.5
  9
$CHAMFERB
 40
0.5
  9
$CHAMFERC
 40
1.0
  9
$CHAMFERD
 40
0.0
  9
$SKPOLY
 70
     0
  9
$TDCREATE
 40
2458425.840320463
  9
$TDUCREATE
 40
2458425.798653796
  9
$TDUPDATE
 40
2458425.840320833
  9
$TDUUPDATE
 40
2458425.798654167
  9
$TDINDWG
 40
0.0000000116
  9
$TDUSRTIMER
 40
0.0000000116
  9
$USRTIMER
 70
     1
  9
$ANGBASE
 50
0.0
  9
$ANGDIR
 70
     0
  9
$PDMODE
 70
     0
  9
$PDSIZE
 40
0.0
  9
$PLINEWID
 40
0.0
  9
$SPLFRAME
 70
     0
  9
$SPLINETYPE
 70
     6
  9
$SPLINESEGS
 70
     8
  9
$HANDSEED
  5
4F
  9
$SURFTAB1
 70
     6
  9
$SURFTAB2
 70
     6
  9
$SURFTYPE
 70
     6
  9
$SURFU
 70
     6
  9
$SURFV
 70
     6
  9
$UCSBASE
  2

  9
$UCSNAME
  2

  9
$UCSORG
 10
0.0
 20
0.0
 30
0.0
  9
$UCSXDIR
 10
1.0
 20
0.0
 30
0.0
  9
$UCSYDIR
 10
0.0
 20
1.0
 30
0.0
  9
$UCSORTHOREF
  2

  9
$UCSORTHOVIEW
 70
     0
  9
$UCSORGTOP
 10
0.0
 20
0.0
 30
0.0
  9
$UCSORGBOTTOM
 10
0.0
 20
0.0
 30
0.0
  9
$UCSORGLEFT
 10
0.0
 20
0.0
 30
0.0
  9
$UCSORGRIGHT
 10
0.0
 20
0.0
 30
0.0
  9
$UCSORGFRONT
 10
0.0
 20
0.0
 30
0.0
  9
$UCSORGBACK
 10
0.0
 20
0.0
 30
0.0
  9
$PUCSBASE
  2

  9
$PUCSNAME
  2

  9
$PUCSORG
 10
0.0
 20
0.0
 30
0.0
  9
$PUCSXDIR
 10
1.0
 20
0.0
 30
0.0
  9
$PUCSYDIR
 10
0.0
 20
1.0
 30
0.0
  9
$PUCSORTHOREF
  2

  9
$PUCSORTHOVIEW
 70
     0
  9
$PUCSORGTOP
 10
0.0
 20
0.0
 30
0.0
  9
$PUCSORGBOTTOM
 10
0.0
 20
0.0
 30
0.0
  9
$PUCSORGLEFT
 10
0.0
 20
0.0
 30
0.0
  9
$PUCSORGRIGHT
 10
0.0
 20
0.0
 30
0.0
  9
$PUCSORGFRONT
 10
0.0
 20
0.0
 30
0.0
  9
$PUCSORGBACK
 10
0.0
 20
0.0
 30
0.0
  9
$USERI1
 70
     0
  9
$USERI2
 70
     0
  9
$USERI3
 70
     0
  9
$USERI4
 70
     0
  9
$USERI5
 70
     0
  9
$USERR1
 40
0.0
  9
$USERR2
 40
0.0
  9
$USERR3
 40
0.0
  9
$USERR4
 40
0.0
  9
$USERR5
 40
0.0
  9
$WORLDVIEW
 70
     1
  9
$SHADEDGE
 70
     3
  9
$SHADEDIF
 70
    70
  9
$TILEMODE
 70
     1
  9
$MAXACTVP
 70
    64
  9
$PINSBASE
 10
0.0
 20
0.0
 30
0.0
  9
$PLIMCHECK
 70
     0
  9
$PEXTMIN
 10
1.000000000000000E+20
 20
1.000000000000000E+20
 30
1.000000000000000E+20
  9
$PEXTMAX
 10
-1.000000000000000E+20
 20
-1.000000000000000E+20
 30
-1.000000000000000E+20
  9
$PLIMMIN
 10
0.0
 20
0.0
  9
$PLIMMAX
 10
12.0
 20
9.0
  9
$UNITMODE
 70
     0
  9
$VISRETAIN
 70
     1
  9
$PLINEGEN
 70
     0
  9
$PSLTSCALE
 70
     1
  9
$TREEDEPTH
 70
  3020
  9
$CMLSTYLE
  2
Standard
  9
$CMLJUST
 70
     0
  9
$CMLSCALE
 40
1.0
  9
$PROXYGRAPHICS
 70
     1
  9
$MEASUREMENT
 70
     0
  9
$CELWEIGHT
370
    -1
  9
$ENDCAPS
280
     0
  9
$JOINSTYLE
280
     0
  9
$LWDISPLAY
290
     1
  9
$INSUNITS
 70
     1
  9
$HYPERLINKBASE
  1

  9
$STYLESHEET
  1

  9
$XEDIT
290
     1
  9
$CEPSNTYPE
380
     0
  9
$PSTYLEMODE
290
     1
  9
$FINGERPRINTGUID
  2
{315EFF0C-8C32-4AA2-942A-AFDB15E93102}
  9
$VERSIONGUID
  2
{FAEB1C32-E019-11D5-929B-00C0DF256EC4}
  9
$EXTNAMES
290
     1
  9
$PSVPSCALE
 40
0.0
  9
$OLESTARTUP
290
     0
  9
$SORTENTS
280
   127
  9
$INDEXCTL
280
     0
  9
$HIDETEXT
280
     1
  9
$XCLIPFRAME
280
     2
  9
$HALOGAP
280
     0
  9
$OBSCOLOR
 70
   257
  9
$OBSLTYPE
280
     0
  9
$INTERSECTIONDISPLAY
280
     0
  9
$INTERSECTIONCOLOR
 70
   257
  9
$DIMASSOC
280
     2
  9
$PROJECTNAME
  1

  9
$CAMERADISPLAY
290
     0
  9
$LENSLENGTH
 40
50.0
  9
$CAMERAHEIGHT
 40
0.0
  9
$STEPSPERSEC
 40
2.0
  9
$STEPSIZE
 40
6.0
  9
$3DDWFPREC
 40
2.0
  9
$PSOLWIDTH
 40
0.25
  9
$PSOLHEIGHT
 40
4.0
  9
$LOFTANG1
 40
1.570796326794897
  9
$LOFTANG2
 40
1.570796326794897
  9
$LOFTMAG1
 40
0.0
  9
$LOFTMAG2
 40
0.0
  9
$LOFTPARAM
 70
     7
  9
$LOFTNORMALS
280
     1
  9
$LATITUDE
 40
37.795
  9
$LONGITUDE
 40
-122.394
  9
$NORTHDIRECTION
 40
0.0
  9
$TIMEZONE
 70
 -8000
  9
$LIGHTGLYPHDISPLAY
280
     1
  9
$TILEMODELIGHTSYNCH
280
     1
  9
$CMATERIAL
347
3C
  9
$SOLIDHIST
280
     1
  9
$SHOWHIST
280
     1
  9
$DWFFRAME
280
     2
  9
$DGNFRAME
280
     2
  9
$REALWORLDSCALE
290
     1
  9
$INTERFERECOLOR
 62
   256
  9
$CSHADOW
280
     0
  9
$SHADOWPLANELOCATION
 40
0.0
  0
ENDSEC
  0
SECTION
  2
CLASSES
  0
CLASS
  1
ACDBDICTIONARYWDFLT
  2
AcDbDictionaryWithDefault
  3
ObjectDBX Classes
 90
        0
 91
        4
280
     0
281
     0
  0
CLASS
  1
VISUALSTYLE
  2
AcDbVisualStyle
  3
ObjectDBX Classes
 90
     4095
 91
        4
280
     0
281
     0
  0
CLASS
  1
MATERIAL
  2
AcDbMaterial
  3
ObjectDBX Classes
 90
     1153
 91
        4
280
     0
281
     0
  0
CLASS
  1
SUN
  2
AcDbSun
  3
SCENEOE
 90
     1024
 91
        4
280
     0
281
     0
  0
ENDSEC
  0
SECTION
  2
TABLES
  0
TABLE
  2
VPORT
  5
8
330
0
100
AcDbSymbolTable
 70
     1
  0
VPORT
  5
29
330
8
100
AcDbSymbolTableRecord
100
AcDbViewportTableRecord
  2
*Active
 70
     0
 10
0.0
 20
0.0
 11
1.0
 21
1.0
 12
0.0
 22
0.0
 13
0.0
 23
0.0
 14
0.5
 24
0.5
 15
0.5
 25
0.5
 16
0.0
 26
0.0
 36
1.0
 17
500.0
 27
500.0
 37
0.0
 40
1000.0
 41
1.0
 42
50.0
 43
0.0
 44
0.0
 50
0.0
 51
0.0
 71
     0
 72
   100
 73
     1
 74
     3
 75
     0
 76
     0
 77
     0
 78
     0
281
     0
 65
     1
110
0.0
120
0.0
130
0.0
111
1.0
121
0.0
131
0.0
112
0.0
122
1.0
132
0.0
 79
     0
146
0.0
 60
     3
 61
     5
292
     1
282
     1
141
0.0
142
0.0
 63
   250
361
3F
  0
ENDTAB
  0
TABLE
  2
LTYPE
  5
5
330
0
100
AcDbSymbolTable
 70
     1
  0
LTYPE
  5
14
330
5
100
AcDbSymbolTableRecord
100
AcDbLinetypeTableRecord
  2
ByBlock
 70
     0
  3

 72
    65
 73
     0
 40
0.0
  0
LTYPE
  5
15
330
5
100
AcDbSymbolTableRecord
100
AcDbLinetypeTableRecord
  2
ByLayer
 70
     0
  3

 72
    65
 73
     0
 40
0.0
  0
LTYPE
  5
16
330
5
100
AcDbSymbolTableRecord
100
AcDbLinetypeTableRecord
  2
Continuous
 70
     0
  3
Solid line
 72
    65
 73
     0
 40
0.0
  0
ENDTAB
  0
TABLE
  2
LAYER
  5
2
330
0
100
AcDbSymbolTable
 70
     2
  0
LAYER
  5
10
330
2
100
AcDbSymbolTableRecord
100
AcDbLayerTableRecord
  2
0
 70
     0
 62
     7
  6
Continuous
370
    -3
390
F
347
3E
  0
LAYER
  5
40
330
2
100
AcDbSymbolTableRecord
100
AcDbLayerTableRecord
  2
Layer 1
 70
     0
 62
     7
  6
Continuous
370
    -3
390
F
347
3E
  0
ENDTAB
  0
TABLE
  2
STYLE
  5
3
330
0
100
AcDbSymbolTable
 70
     1
  0
STYLE
  5
11
330
3
100
AcDbSymbolTableRecord
100
AcDbTextStyleTableRecord
  2
Standard
 70
     0
 40
0.0
 41
1.0
 50
0.0
 71
     0
 42
0.2
  3
txt
  4

  0
ENDTAB
  0
TABLE
  2
VIEW
  5
6
330
0
100
AcDbSymbolTable
 70
     0
  0
ENDTAB
  0
TABLE
  2
UCS
  5
7
330
0
100
AcDbSymbolTable
 70
     0
  0
ENDTAB
  0
TABLE
  2
APPID
  5
9
330
0
100
AcDbSymbolTable
 70
     1
  0
APPID
  5
12
330
9
100
AcDbSymbolTableRecord
100
AcDbRegAppTableRecord
  2
ACAD
 70
     0
  0
ENDTAB
  0
TABLE
  2
DIMSTYLE
  5
A
330
0
100
AcDbSymbolTable
 70
     1
100
AcDbDimStyleTable
  0
DIMSTYLE
105
27
330
A
100
AcDbSymbolTableRecord
100
AcDbDimStyleTableRecord
  2
Standard
 70
     0
178
     0
340
11
  0
ENDTAB
  0
TABLE
  2
BLOCK_RECORD
  5
1
330
0
100
AcDbSymbolTable
 70
     1
  0
BLOCK_RECORD
  5
1F
330
1
100
AcDbSymbolTableRecord
100
AcDbBlockTableRecord
  2
*Model_Space
340
22
 70
     0
280
     1
281
     0
  0
BLOCK_RECORD
  5
1B
330
1
100
AcDbSymbolTableRecord
100
AcDbBlockTableRecord
  2
*Paper_Space
340
1E
 70
     0
280
     1
281
     0
  0
BLOCK_RECORD
  5
23
330
1
100
AcDbSymbolTableRecord
100
AcDbBlockTableRecord
  2
*Paper_Space0
340
26
 70
     0
280
     1
281
     0
  0
ENDTAB
  0
ENDSEC
  0
SECTION
  2
BLOCKS
  0
BLOCK
  5
20
330
1F
100
AcDbEntity
  8
0
100
AcDbBlockBegin
  2
*Model_Space
 70
     0
 10
0.0
 20
0.0
 30
0.0
  3
*Model_Space
  1

  0
ENDBLK
  5
21
330
1F
100
AcDbEntity
  8
0
100
AcDbBlockEnd
  0
BLOCK
  5
1C
330
1B
100
AcDbEntity
 67
     1
  8
0
100
AcDbBlockBegin
  2
*Paper_Space
 70
     0
 10
0.0
 20
0.0
 30
0.0
  3
*Paper_Space
  1

  0
ENDBLK
  5
1D
330
1B
100
AcDbEntity
 67
     1
  8
0
100
AcDbBlockEnd
  0
BLOCK
  5
24
330
23
100
AcDbEntity
  8
0
100
AcDbBlockBegin
  2
*Paper_Space0
 70
     0
 10
0.0
 20
0.0
 30
0.0
  3
*Paper_Space0
  1

  0
ENDBLK
  5
25
330
23
100
AcDbEntity
  8
0
100
AcDbBlockEnd
  0
ENDSEC
  0
SECTION
  2
ENTITIES
  0
SPLINE
  5
41
330
1F
100
AcDbEntity
  8
Layer 1
370
     0
100
AcDbSpline
210
0.0
220
0.0
230
1.0
 70
    11
 71
     3
 72
   854
 73
   850
 74
     0
 42
0.0000000001
 43
0.0000000001
 12
1.0
 22
0.0
 32
0.0
 13
1.0
 23
0.0
 33
0.0
 40
0.0
 40
0.0
 40
0.0
 40
0.0
 40
1.0
 40
1.0
 40
1.0
 40
2.0
 40
2.0
 40
2.0
 40
3.0
 40
3.0
 40
3.0
 40
4.0
 40
4.0
 40
4.0
 40
5.0
 40
5.0
 40
5.0
 40
6.0
 40
6.0
 40
6.0
 40
7.0
 40
7.0
 40
7.0
 40
8.0
 40
8.0
 40
8.0
 40
9.0
 40
9.0
 40
9.0
 40
10.0
 40
10.0
 40
10.0
 40
11.0
 40
11.0
 40
11.0
 40
12.0
 40
12.0
 40
12.0
 40
13.0
 40
13.0
 40
13.0
 40
14.0
 40
14.0
 40
14.0
 40
15.0
 40
15.0
 40
15.0
 40
16.0
 40
16.0
 40
16.0
 40
17.0
 40
17.0
 40
17.0
 40
18.0
 40
18.0
 40
18.0
 40
19.0
 40
19.0
 40
19.0
 40
20.0
 40
20.0
 40
20.0
 40
21.0
 40
21.0
 40
21.0
 40
22.0
 40
22.0
 40
22.0
 40
23.0
 40
23.0
 40
23.0
 40
24.0
 40
24.0
 40
24.0
 40
25.0
 40
25.0
 40
25.0
 40
26.0
 40
26.0
 40
26.0
 40
27.0
 40
27.0
 40
27.0
 40
28.0
 40
28.0
 40
28.0
 40
29.0
 40
29.0
 40
29.0
 40
30.0
 40
30.0
 40
30.0
 40
31.0
 40
31.0
 40
31.0
 40
32.0
 40
32.0
 40
32.0
 40
33.0
 40
33.0
 40
33.0
 40
34.0
 40
34.0
 40
34.0
 40
35.0
 40
35.0
 40
35.0
 40
36.0
 40
36.0
 40
36.0
 40
37.0
 40
37.0
 40
37.0
 40
38.0
 40
38.0
 40
38.0
 40
39.0
 40
39.0
 40
39.0
 40
40.0
 40
40.0
 40
40.0
 40
41.0
 40
41.0
 40
41.0
 40
42.0
 40
42.0
 40
42.0
 40
43.0
 40
43.0
 40
43.0
 40
44.0
 40
44.0
 40
44.0
 40
45.0
 40
45.0
 40
45.0
 40
46.0
 40
46.0
 40
46.0
 40
47.0
 40
47.0
 40
47.0
 40
48.0
 40
48.0
 40
48.0
 40
49.0
 40
49.0
 40
49.0
 40
50.0
 40
50.0
 40
50.0
 40
51.0
 40
51.0
 40
51.0
 40
52.0
 40
52.0
 40
52.0
 40
53.0
 40
53.0
 40
53.0
 40
54.0
 40
54.0
 40
54.0
 40
55.0
 40
55.0
 40
55.0
 40
56.0
 40
56.0
 40
56.0
 40
57.0
 40
57.0
 40
57.0
 40
58.0
 40
58.0
 40
58.0
 40
59.0
 40
59.0
 40
59.0
 40
60.0
 40
60.0
 40
60.0
 40
61.0
 40
61.0
 40
61.0
 40
62.0
 40
62.0
 40
62.0
 40
63.0
 40
63.0
 40
63.0
 40
64.0
 40
64.0
 40
64.0
 40
65.0
 40
65.0
 40
65.0
 40
66.0
 40
66.0
 40
66.0
 40
67.0
 40
67.0
 40
67.0
 40
68.0
 40
68.0
 40
68.0
 40
69.0
 40
69.0
 40
69.0
 40
70.0
 40
70.0
 40
70.0
 40
71.0
 40
71.0
 40
71.0
 40
72.0
 40
72.0
 40
72.0
 40
73.0
 40
73.0
 40
73.0
 40
74.0
 40
74.0
 40
74.0
 40
75.0
 40
75.0
 40
75.0
 40
76.0
 40
76.0
 40
76.0
 40
77.0
 40
77.0
 40
77.0
 40
78.0
 40
78.0
 40
78.0
 40
79.0
 40
79.0
 40
79.0
 40
80.0
 40
80.0
 40
80.0
 40
81.0
 40
81.0
 40
81.0
 40
82.0
 40
82.0
 40
82.0
 40
83.0
 40
83.0
 40
83.0
 40
84.0
 40
84.0
 40
84.0
 40
85.0
 40
85.0
 40
85.0
 40
86.0
 40
86.0
 40
86.0
 40
87.0
 40
87.0
 40
87.0
 40
88.0
 40
88.0
 40
88.0
 40
89.0
 40
89.0
 40
89.0
 40
90.0
 40
90.0
 40
90.0
 40
91.0
 40
91.0
 40
91.0
 40
92.0
 40
92.0
 40
92.0
 40
93.0
 40
93.0
 40
93.0
 40
94.0
 40
94.0
 40
94.0
 40
95.0
 40
95.0
 40
95.0
 40
96.0
 40
96.0
 40
96.0
 40
97.0
 40
97.0
 40
97.0
 40
98.0
 40
98.0
 40
98.0
 40
99.0
 40
99.0
 40
99.0
 40
100.0
 40
100.0
 40
100.0
 40
101.0
 40
101.0
 40
101.0
 40
102.0
 40
102.0
 40
102.0
 40
103.0
 40
103.0
 40
103.0
 40
104.0
 40
104.0
 40
104.0
 40
105.0
 40
105.0
 40
105.0
 40
106.0
 40
106.0
 40
106.0
 40
107.0
 40
107.0
 40
107.0
 40
108.0
 40
108.0
 40
108.0
 40
109.0
 40
109.0
 40
109.0
 40
110.0
 40
110.0
 40
110.0
 40
111.0
 40
111.0
 40
111.0
 40
112.0
 40
112.0
 40
112.0
 40
113.0
 40
113.0
 40
113.0
 40
114.0
 40
114.0
 40
114.0
 40
115.0
 40
115.0
 40
115.0
 40
116.0
 40
116.0
 40
116.0
 40
117.0
 40
117.0
 40
117.0
 40
118.0
 40
118.0
 40
118.0
 40
119.0
 40
119.0
 40
119.0
 40
120.0
 40
120.0
 40
120.0
 40
121.0
 40
121.0
 40
121.0
 40
122.0
 40
122.0
 40
122.0
 40
123.0
 40
123.0
 40
123.0
 40
124.0
 40
124.0
 40
124.0
 40
125.0
 40
125.0
 40
125.0
 40
126.0
 40
126.0
 40
126.0
 40
127.0
 40
127.0
 40
127.0
 40
128.0
 40
128.0
 40
128.0
 40
129.0
 40
129.0
 40
129.0
 40
130.0
 40
130.0
 40
130.0
 40
131.0
 40
131.0
 40
131.0
 40
132.0
 40
132.0
 40
132.0
 40
133.0
 40
133.0
 40
133.0
 40
134.0
 40
134.0
 40
134.0
 40
135.0
 40
135.0
 40
135.0
 40
136.0
 40
136.0
 40
136.0
 40
137.0
 40
137.0
 40
137.0
 40
138.0
 40
138.0
 40
138.0
 40
139.0
 40
139.0
 40
139.0
 40
140.0
 40
140.0
 40
140.0
 40
141.0
 40
141.0
 40
141.0
 40
142.0
 40
142.0
 40
142.0
 40
143.0
 40
143.0
 40
143.0
 40
144.0
 40
144.0
 40
144.0
 40
145.0
 40
145.0
 40
145.0
 40
146.0
 40
146.0
 40
146.0
 40
147.0
 40
147.0
 40
147.0
 40
148.0
 40
148.0
 40
148.0
 40
149.0
 40
149.0
 40
149.0
 40
150.0
 40
150.0
 40
150.0
 40
151.0
 40
151.0
 40
151.0
 40
152.0
 40
152.0
 40
152.0
 40
153.0
 40
153.0
 40
153.0
 40
154.0
 40
154.0
 40
154.0
 40
155.0
 40
155.0
 40
155.0
 40
156.0
 40
156.0
 40
156.0
 40
157.0
 40
157.0
 40
157.0
 40
158.0
 40
158.0
 40
158.0
 40
159.0
 40
159.0
 40
159.0
 40
160.0
 40
160.0
 40
160.0
 40
161.0
 40
161.0
 40
161.0
 40
162.0
 40
162.0
 40
162.0
 40
163.0
 40
163.0
 40
163.0
 40
164.0
 40
164.0
 40
164.0
 40
165.0
 40
165.0
 40
165.0
 40
166.0
 40
166.0
 40
166.0
 40
167.0
 40
167.0
 40
167.0
 40
168.0
 40
168.0
 40
168.0
 40
169.0
 40
169.0
 40
169.0
 40
170.0
 40
170.0
 40
170.0
 40
171.0
 40
171.0
 40
171.0
 40
172.0
 40
172.0
 40
172.0
 40
173.0
 40
173.0
 40
173.0
 40
174.0
 40
174.0
 40
174.0
 40
175.0
 40
175.0
 40
175.0
 40
176.0
 40
176.0
 40
176.0
 40
177.0
 40
177.0
 40
177.0
 40
178.0
 40
178.0
 40
178.0
 40
179.0
 40
179.0
 40
179.0
 40
180.0
 40
180.0
 40
180.0
 40
181.0
 40
181.0
 40
181.0
 40
182.0
 40
182.0
 40
182.0
 40
183.0
 40
183.0
 40
183.0
 40
184.0
 40
184.0
 40
184.0
 40
185.0
 40
185.0
 40
185.0
 40
186.0
 40
186.0
 40
186.0
 40
187.0
 40
187.0
 40
187.0
 40
188.0
 40
188.0
 40
188.0
 40
189.0
 40
189.0
 40
189.0
 40
190.0
 40
190.0
 40
190.0
 40
191.0
 40
191.0
 40
191.0
 40
192.0
 40
192.0
 40
192.0
 40
193.0
 40
193.0
 40
193.0
 40
194.0
 40
194.0
 40
194.0
 40
195.0
 40
195.0
 40
195.0
 40
196.0
 40
196.0
 40
196.0
 40
197.0
 40
197.0
 40
197.0
 40
198.0
 40
198.0
 40
198.0
 40
199.0
 40
199.0
 40
199.0
 40
200.0
 40
200.0
 40
200.0
 40
201.0
 40
201.0
 40
201.0
 40
202.0
 40
202.0
 40
202.0
 40
203.0
 40
203.0
 40
203.0
 40
204.0
 40
204.0
 40
204.0
 40
205.0
 40
205.0
 40
205.0
 40
206.0
 40
206.0
 40
206.0
 40
207.0
 40
207.0
 40
207.0
 40
208.0
 40
208.0
 40
208.0
 40
209.0
 40
209.0
 40
209.0
 40
210.0
 40
210.0
 40
210.0
 40
211.0
 40
211.0
 40
211.0
 40
212.0
 40
212.0
 40
212.0
 40
213.0
 40
213.0
 40
213.0
 40
214.0
 40
214.0
 40
214.0
 40
215.0
 40
215.0
 40
215.0
 40
216.0
 40
216.0
 40
216.0
 40
217.0
 40
217.0
 40
217.0
 40
218.0
 40
218.0
 40
218.0
 40
219.0
 40
219.0
 40
219.0
 40
220.0
 40
220.0
 40
220.0
 40
221.0
 40
221.0
 40
221.0
 40
222.0
 40
222.0
 40
222.0
 40
223.0
 40
223.0
 40
223.0
 40
224.0
 40
224.0
 40
224.0
 40
225.0
 40
225.0
 40
225.0
 40
226.0
 40
226.0
 40
226.0
 40
227.0
 40
227.0
 40
227.0
 40
228.0
 40
228.0
 40
228.0
 40
229.0
 40
229.0
 40
229.0
 40
230.0
 40
230.0
 40
230.0
 40
231.0
 40
231.0
 40
231.0
 40
232.0
 40
232.0
 40
232.0
 40
233.0
 40
233.0
 40
233.0
 40
234.0
 40
234.0
 40
234.0
 40
235.0
 40
235.0
 40
235.0
 40
236.0
 40
236.0
 40
236.0
 40
237.0
 40
237.0
 40
237.0
 40
238.0
 40
238.0
 40
238.0
 40
239.0
 40
239.0
 40
239.0
 40
240.0
 40
240.0
 40
240.0
 40
241.0
 40
241.0
 40
241.0
 40
242.0
 40
242.0
 40
242.0
 40
243.0
 40
243.0
 40
243.0
 40
244.0
 40
244.0
 40
244.0
 40
245.0
 40
245.0
 40
245.0
 40
246.0
 40
246.0
 40
246.0
 40
247.0
 40
247.0
 40
247.0
 40
248.0
 40
248.0
 40
248.0
 40
249.0
 40
249.0
 40
249.0
 40
250.0
 40
250.0
 40
250.0
 40
251.0
 40
251.0
 40
251.0
 40
252.0
 40
252.0
 40
252.0
 40
253.0
 40
253.0
 40
253.0
 40
254.0
 40
254.0
 40
254.0
 40
255.0
 40
255.0
 40
255.0
 40
256.0
 40
256.0
 40
256.0
 40
257.0
 40
257.0
 40
257.0
 40
258.0
 40
258.0
 40
258.0
 40
259.0
 40
259.0
 40
259.0
 40
260.0
 40
260.0
 40
260.0
 40
261.0
 40
261.0
 40
261.0
 40
262.0
 40
262.0
 40
262.0
 40
263.0
 40
263.0
 40
263.0
 40
264.0
 40
264.0
 40
264.0
 40
265.0
 40
265.0
 40
265.0
 40
266.0
 40
266.0
 40
266.0
 40
267.0
 40
267.0
 40
267.0
 40
268.0
 40
268.0
 40
268.0
 40
269.0
 40
269.0
 40
269.0
 40
270.0
 40
270.0
 40
270.0
 40
271.0
 40
271.0
 40
271.0
 40
272.0
 40
272.0
 40
272.0
 40
273.0
 40
273.0
 40
273.0
 40
274.0
 40
274.0
 40
274.0
 40
275.0
 40
275.0
 40
275.0
 40
276.0
 40
276.0
 40
276.0
 40
277.0
 40
277.0
 40
277.0
 40
278.0
 40
278.0
 40
278.0
 40
279.0
 40
279.0
 40
279.0
 40
280.0
 40
280.0
 40
280.0
 40
281.0
 40
281.0
 40
281.0
 40
282.0
 40
282.0
 40
282.0
 40
283.0
 40
283.0
 40
283.0
 40
283.0
 10
962.5466688885026
 20
481.6361840907193
 30
0.0
 10
962.5466688885026
 20
481.6361840907193
 30
0.0
 10
906.5719984783464
 20
481.6361840907193
 30
0.0
 10
906.5719984783464
 20
481.6361840907193
 30
0.0
 10
905.4653090252214
 20
481.6361840907193
 30
0.0
 10
904.3927382244401
 20
481.2533105555631
 30
0.0
 10
903.5361708416276
 20
480.5525048915006
 30
0.0
 10
903.5361708416276
 20
480.5525048915006
 30
0.0
 10
893.6503676189714
 20
472.4645532313443
 30
0.0
 10
893.6503676189714
 20
472.4645532313443
 30
0.0
 10
893.6111830486589
 20
472.4325097743131
 30
0.0
 10
893.5522841228776
 20
472.4461816493131
 30
0.0
 10
893.5312269939714
 20
472.4922021571256
 30
0.0
 10
893.5312269939714
 20
472.4922021571256
 30
0.0
 10
880.0604017986589
 20
501.9602197352506
 30
0.0
 10
880.0604017986589
 20
501.9602197352506
 30
0.0
 10
879.3225477947526
 20
503.5751489344693
 30
0.0
 10
877.7408827556901
 20
504.6393579188443
 30
0.0
 10
875.9672011150651
 20
504.7118676844693
 30
0.0
 10
874.1836928142839
 20
504.8412011805631
 30
0.0
 10
872.5286024822526
 20
503.8593286219693
 30
0.0
 10
871.6593397869401
 20
502.3109887782193
 30
0.0
 10
871.6593397869401
 20
502.3109887782193
 30
0.0
 10
861.0121229900651
 20
483.3567041102506
 30
0.0
 10
861.0121229900651
 20
483.3567041102506
 30
0.0
 10
860.9775770916276
 20
483.2951806727506
 30
0.0
 10
860.8853529705339
 20
483.3084863368131
 30
0.0
 10
860.8696059002214
 20
483.3772729579068
 30
0.0
 10
860.8696059002214
 20
483.3772729579068
 30
0.0
 10
844.9684218181901
 20
552.6572412196256
 30
0.0
 10
844.9684218181901
 20
552.6572412196256
 30
0.0
 10
844.5614393963151
 20
554.4303125086881
 30
0.0
 10
843.2858656658464
 20
555.9828637782193
 30
0.0
 10
841.5187147869401
 20
556.4151757899381
 30
0.0
 10
838.5488051189714
 20
557.1417382899381
 30
0.0
 10
835.8766859783464
 20
555.0716699305631
 30
0.0
 10
835.6189955486589
 20
552.2763818446256
 30
0.0
 10
835.6189955486589
 20
552.2763818446256
 30
0.0
 10
823.3941420330339
 20
419.2063745204068
 30
0.0
 10
823.3941420330339
 20
419.2063745204068
 30
0.0
 10
823.3854750408464
 20
419.1121972743131
 30
0.0
 10
823.2475966228776
 20
419.1131738368131
 30
0.0
 10
823.2402724041276
 20
419.2074121180631
 30
0.0
 10
823.2402724041276
 20
419.2074121180631
 30
0.0
 10
806.2167738689714
 20
637.8412011805631
 30
0.0
 10
806.2167738689714
 20
637.8412011805631
 30
0.0
 10
806.0305556072526
 20
640.2313378993131
 30
0.0
 10
804.0814589275651
 20
642.1009668055631
 30
0.0
 10
801.6854628338151
 20
642.1881250086881
 30
0.0
 10
799.2610853924089
 20
642.2459863368131
 30
0.0
 10
797.2100600017839
 20
640.5487207118131
 30
0.0
 10
796.8514174236589
 20
638.1803125086881
 30
0.0
 10
796.8514174236589
 20
638.1803125086881
 30
0.0
 10
773.3718642010026
 20
482.9567407313443
 30
0.0
 10
773.3718642010026
 20
482.9567407313443
 30
0.0
 10
773.3662489666276
 20
482.9195703211881
 30
0.0
 10
773.3347548260026
 20
482.8918603602506
 30
0.0
 10
773.2971571697526
 20
482.8910669032193
 30
0.0
 10
773.2971571697526
 20
482.8910669032193
 30
0.0
 10
745.2485121502214
 20
482.3050073329068
 30
0.0
 10
745.2485121502214
 20
482.3050073329068
 30
0.0
 10
744.2452772869401
 20
482.2840722743131
 30
0.0
 10
743.2739027752214
 20
481.9489282313443
 30
0.0
 10
742.4711073650651
 20
481.3468774500943
 30
0.0
 10
742.4711073650651
 20
481.3468774500943
 30
0.0
 10
736.8097914470964
 20
477.1009057704068
 30
0.0
 10
736.8097914470964
 20
477.1009057704068
 30
0.0
 10
736.7690809978776
 20
477.0703271571256
 30
0.0
 10
736.7104262127214
 20
477.0868676844693
 30
0.0
 10
736.6916884197526
 20
477.1342309657193
 30
0.0
 10
736.6916884197526
 20
477.1342309657193
 30
0.0
 10
725.6971815838151
 20
504.8956445399381
 30
0.0
 10
725.6971815838151
 20
504.8956445399381
 30
0.0
 10
725.1929091228776
 20
506.1688378993131
 30
0.0
 10
724.2450331463151
 20
507.2827905360318
 30
0.0
 10
722.9587782635026
 20
507.7528833094693
 30
0.0
 10
720.2441786541276
 20
508.7450097743131
 30
0.0
 10
717.5178602947526
 20
507.2498315516568
 30
0.0
 10
716.7370985760026
 20
504.7550195399381
 30
0.0
 10
716.7370985760026
 20
504.7550195399381
 30
0.0
 10
705.7637099041276
 20
469.6905664149381
 30
0.0
 10
705.7637099041276
 20
469.6905664149381
 30
0.0
 10
705.7450941814714
 20
469.6310571375943
 30
0.0
 10
705.6672133220964
 20
469.6170190516568
 30
0.0
 10
705.6290053142839
 20
469.6663354579068
 30
0.0
 10
705.6290053142839
 20
469.6663354579068
 30
0.0
 10
698.5635756267839
 20
478.7782739344693
 30
0.0
 10
698.5635756267839
 20
478.7782739344693
 30
0.0
 10
697.6594618572526
 20
479.9442895594693
 30
0.0
 10
696.2683485760026
 20
480.6284326258756
 30
0.0
 10
694.7928844643684
 20
480.632766125671
 30
0.0
 10
692.8651235036086
 20
480.661952117578
 30
0.0
 10
690.9372073069353
 20
480.6826933558496
 30
0.0
 10
689.0093180835393
 20
480.7010376354538
 30
0.0
 10
684.9290246673554
 20
480.7398625027672
 30
0.0
 10
680.8484391525471
 20
480.7626957621924
 30
0.0
 10
676.7679542750247
 20
480.7513557396105
 30
0.0
 10
676.1490752681111
 20
480.7496358209919
 30
0.0
 10
675.5301984142752
 20
480.7470562478629
 30
0.0
 10
674.9113030462104
 20
480.7434136202446
 30
0.0
 10
674.269660683065
 20
480.7396350725121
 30
0.0
 10
673.6279416793877
 20
480.661087516517
 30
0.0
 10
673.0007144313404
 20
480.5276787233706
 30
0.0
 10
672.5336989188017
 20
480.4283463424781
 30
0.0
 10
671.7631005121584
 20
480.3578125242275
 30
0.0
 10
671.5058530350452
 20
479.9089572651737
 30
0.0
 10
671.241312817694
 20
479.4472689836821
 30
0.0
 10
671.0009938915045
 20
478.9694232991678
 30
0.0
 10
670.7555037578095
 20
478.4974086309339
 30
0.0
 10
669.7917215563502
 20
476.6443022383355
 30
0.0
 10
668.8978790184956
 20
474.7563564973152
 30
0.0
 10
668.0093343904646
 20
472.866369540523
 30
0.0
 10
667.5300121812943
 20
471.8468228628954
 30
0.0
 10
667.0515878107308
 20
470.8268543180475
 30
0.0
 10
666.5682142986589
 20
469.8092187586881
 30
0.0
 10
664.9733046306901
 20
466.4529565516568
 30
0.0
 10
663.3251112713151
 20
462.9823144618131
 30
0.0
 10
661.8104017986589
 20
460.0792382899381
 30
0.0
 10
657.7237929119401
 20
452.2462915125943
 30
0.0
 10
653.9098891033464
 20
446.6193383875943
 30
0.0
 10
649.8081434978776
 20
442.3714746180631
 30
0.0
 10
648.4453505291276
 20
440.9604638758756
 30
0.0
 10
646.6232680095964
 20
440.0992578211881
 30
0.0
 10
644.8636854900651
 20
439.2675927821256
 30
0.0
 10
644.2979506267839
 20
439.0014795008756
 30
0.0
 10
643.7635267986589
 20
438.7500756922818
 30
0.0
 10
643.2931898845964
 20
438.6798852625943
 30
0.0
 10
642.7392958416276
 20
438.5984033290006
 30
0.0
 10
642.1347426189714
 20
438.7221215907193
 30
0.0
 10
641.5184096111589
 20
438.8350366297818
 30
0.0
 10
633.0555800213151
 20
440.3747094813443
 30
0.0
 10
629.1724623455339
 20
449.9235376063443
 30
0.0
 10
628.9217299236589
 20
459.2268823329068
 30
0.0
 10
632.2990492595964
 20
460.0139306727506
 30
0.0
 10
639.4177016033464
 20
461.9395288172818
 30
0.0
 10
640.5102309002214
 20
462.4952539149381
 30
0.0
 10
645.2714613689714
 20
464.9177392665006
 30
0.0
 10
648.5391005291276
 20
468.2872461024381
 30
0.0
 10
650.2218397869401
 20
472.5095361415006
 30
0.0
 10
650.8880385174089
 20
474.1808007899381
 30
0.0
 10
651.2755507244401
 20
475.9006494227506
 30
0.0
 10
651.6504896892839
 20
477.5635522547818
 30
0.0
 10
653.0875014080339
 20
483.9363549891568
 30
0.0
 10
651.5238417400651
 20
489.6438745204068
 30
0.0
 10
647.2489393963151
 20
493.6349023524381
 30
0.0
 10
643.8783339275651
 20
496.7805322352506
 30
0.0
 10
639.3838881267839
 20
498.5848535243131
 30
0.0
 10
634.9165419353776
 20
498.5848535243131
 30
0.0
 10
631.5670546306901
 20
498.5848535243131
 30
0.0
 10
628.4235609783464
 20
497.5778955165006
 30
0.0
 10
625.8246840252214
 20
495.6729272547818
 30
0.0
 10
622.2247084392839
 20
493.0341333094693
 30
0.0
 10
619.2181166424089
 20
488.7275537196256
 30
0.0
 10
617.1606825603776
 20
483.3829492274381
 30
0.0
 10
616.5580824627214
 20
482.9364770594693
 30
0.0
 10
616.1123427166276
 20
482.2299340907193
 30
0.0
 10
615.7914198650651
 20
481.6435083094693
 30
0.0
 10
613.9178236736589
 20
478.2229760829068
 30
0.0
 10
611.8863295330339
 20
473.9456323329068
 30
0.0
 10
609.9215468181901
 20
469.8092187586881
 30
0.0
 10
608.3265761150651
 20
466.4529565516568
 30
0.0
 10
606.6784437908464
 20
462.9823144618131
 30
0.0
 10
605.1637343181901
 20
460.0792382899381
 30
0.0
 10
601.0771254314714
 20
452.2462915125943
 30
0.0
 10
597.2632216228776
 20
446.6193383875943
 30
0.0
 10
593.1614149822526
 20
442.3714746180631
 30
0.0
 10
591.7986830486589
 20
440.9604638758756
 30
0.0
 10
589.9766005291276
 20
440.0992578211881
 30
0.0
 10
588.2170180095964
 20
439.2675927821256
 30
0.0
 10
587.6512831463151
 20
439.0014795008756
 30
0.0
 10
587.1167982830339
 20
438.7500756922818
 30
0.0
 10
586.6465224041276
 20
438.6798852625943
 30
0.0
 10
586.0934828533464
 20
438.5984033290006
 30
0.0
 10
585.4880751385026
 20
438.7221215907193
 30
0.0
 10
584.8717421306901
 20
438.8350366297818
 30
0.0
 10
576.4089125408464
 20
440.3747094813443
 30
0.0
 10
572.5257948650651
 20
449.9235376063443
 30
0.0
 10
572.2750624431901
 20
459.2268823329068
 30
0.0
 10
575.6523817791276
 20
460.0139306727506
 30
0.0
 10
582.7710341228776
 20
461.9395288172818
 30
0.0
 10
583.8635634197526
 20
462.4952539149381
 30
0.0
 10
588.6247938885026
 20
464.9177392665006
 30
0.0
 10
591.8923720135026
 20
468.2872461024381
 30
0.0
 10
593.5751723064714
 20
472.5095361415006
 30
0.0
 10
594.2413710369401
 20
474.1808007899381
 30
0.0
 10
594.6288832439714
 20
475.9006494227506
 30
0.0
 10
595.0037611736589
 20
477.5635522547818
 30
0.0
 10
596.4408339275651
 20
483.9363549891568
 30
0.0
 10
594.8771132244401
 20
489.6438745204068
 30
0.0
 10
590.6022719158464
 20
493.6349023524381
 30
0.0
 10
587.2316664470964
 20
496.7805322352506
 30
0.0
 10
582.7372206463151
 20
498.5848535243131
 30
0.0
 10
578.2698134197526
 20
498.5848535243131
 30
0.0
 10
574.9203261150651
 20
498.5848535243131
 30
0.0
 10
571.7768934978776
 20
497.5778955165006
 30
0.0
 10
569.1780165447526
 20
495.6729272547818
 30
0.0
 10
565.2252577556901
 20
492.7755273524381
 30
0.0
 10
561.9892348064714
 20
487.8679956141568
 30
0.0
 10
559.9410780681901
 20
481.7797387782193
 30
0.0
 10
559.4078139080339
 20
481.0948022547818
 30
0.0
 10
558.5789564861589
 20
479.8632959071256
 30
0.0
 10
557.2407606853776
 20
477.8341211024381
 30
0.0
 10
556.8641737713151
 20
477.2636254969693
 30
0.0
 10
556.5661391033464
 20
476.8109277430631
 30
0.0
 10
556.4453505291276
 20
476.6410669032193
 30
0.0
 10
555.1155165447526
 20
474.7797998133756
 30
0.0
 10
553.9933851970964
 20
473.2690576258756
 30
0.0
 10
552.9143446697526
 20
471.8869775477506
 30
0.0
 10
550.3694838299089
 20
468.6250146571256
 30
0.0
 10
547.6102064861589
 20
465.1499170008756
 30
0.0
 10
544.6727675213151
 20
461.8393701258756
 30
0.0
 10
541.0243910564714
 20
457.7284692469693
 30
0.0
 10
537.8513563885026
 20
454.2715600672818
 30
0.0
 10
534.2232435955339
 20
450.7611230555631
 30
0.0
 10
533.6262587322526
 20
450.1837915125943
 30
0.0
 10
529.9820936931901
 20
447.2379296961881
 30
0.0
 10
527.9126356853776
 20
445.7154687586881
 30
0.0
 10
526.2957533611589
 20
449.9466088954068
 30
0.0
 10
524.9025648845964
 20
452.0165551844693
 30
0.0
 10
523.0661391033464
 20
454.7458642665006
 30
0.0
 10
523.0661391033464
 20
454.7458642665006
 30
0.0
 10
522.7866591228776
 20
455.1602319422818
 30
0.0
 10
522.7866591228776
 20
455.1602319422818
 30
0.0
 10
521.1401747478776
 20
457.6091455165006
 30
0.0
 10
519.1534804119401
 20
459.9088891688443
 30
0.0
 10
517.3339003338151
 20
461.4696191493131
 30
0.0
 10
516.3156508220964
 20
462.3426049891568
 30
0.0
 10
515.1800307049089
 20
462.8733056727506
 30
0.0
 10
514.2926405681901
 20
463.1865380946256
 30
0.0
 10
514.4319227947526
 20
467.2576440516568
 30
0.0
 10
514.8777235760026
 20
471.3243554774381
 30
0.0
 10
515.6207655681901
 20
475.2972558680631
 30
0.0
 10
515.7262953533464
 20
475.8614038172818
 30
0.0
 10
515.8360365642839
 20
476.3960717860318
 30
0.0
 10
516.0133436931901
 20
476.7367700282193
 30
0.0
 10
516.2674940838151
 20
477.2213891688443
 30
0.0
 10
516.8255995525651
 20
477.6485131922818
 30
0.0
 10
517.4344252361589
 20
478.1149438563443
 30
0.0
 10
528.2655409588151
 20
486.4142602625943
 30
0.0
 10
553.4555434002214
 20
509.0297387782193
 30
0.0
 10
553.4446181072526
 20
539.7053979579068
 30
0.0
 10
553.4446181072526
 20
541.4679712000943
 30
0.0
 10
553.3508681072526
 20
543.2713159266568
 30
0.0
 10
553.1651381267839
 20
545.0672753993131
 30
0.0
 10
552.6863783611589
 20
549.6828759852506
 30
0.0
 10
551.4891127361589
 20
553.5943750086881
 30
0.0
 10
549.6053847088151
 20
556.6943505946256
 30
0.0
 10
546.7312392010026
 20
561.4238427821256
 30
0.0
 10
542.3516615642839
 20
564.0284570399381
 30
0.0
 10
537.2738417400651
 20
564.0284570399381
 30
0.0
 10
533.7698134197526
 20
564.0284570399381
 30
0.0
 10
530.1712416424089
 20
562.8147729579068
 30
0.0
 10
526.8682020916276
 20
560.5180200282193
 30
0.0
 10
522.6076430095964
 20
557.5550683680631
 30
0.0
 10
518.9271620525651
 20
552.9527124110318
 30
0.0
 10
515.6174086345964
 20
546.4483789149381
 30
0.0
 10
508.7406386150651
 20
532.9438012782193
 30
0.0
 10
506.0607069744401
 20
518.5373071375943
 30
0.0
 10
503.2233046306901
 20
503.2849267665006
 30
0.0
 10
502.8028334392839
 20
501.0235131922818
 30
0.0
 10
502.3806532635026
 20
498.7557519618131
 30
0.0
 10
501.9429091228776
 20
496.4840234461881
 30
0.0
 10
500.8420790447526
 20
490.7729028407193
 30
0.0
 10
499.9507826580339
 20
485.2075952235318
 30
0.0
 10
499.2662733806901
 20
479.7683252040006
 30
0.0
 10
498.8985975994401
 20
479.2215112391568
 30
0.0
 10
498.4776991619401
 20
478.5876001063443
 30
0.0
 10
497.9803847088151
 20
477.8336328211881
 30
0.0
 10
497.6038588299089
 20
477.2636254969693
 30
0.0
 10
497.3066176189714
 20
476.8109277430631
 30
0.0
 10
497.1854628338151
 20
476.6410669032193
 30
0.0
 10
495.8569105877214
 20
474.7822412196256
 30
0.0
 10
494.7352064861589
 20
473.2715600672818
 30
0.0
 10
493.6557387127214
 20
471.8869775477506
 30
0.0
 10
491.1087416424089
 20
468.6230615321256
 30
0.0
 10
488.3473280681901
 20
465.1469873133756
 30
0.0
 10
485.4128798260026
 20
461.8393701258756
 30
0.0
 10
481.7640150799089
 20
457.7279809657193
 30
0.0
 10
478.5910414470964
 20
454.2710717860318
 30
0.0
 10
474.9632948650651
 20
450.7611230555631
 30
0.0
 10
474.3667982830339
 20
450.1842797938443
 30
0.0
 10
470.7230604900651
 20
447.2379296961881
 30
0.0
 10
468.6527479900651
 20
445.7154687586881
 30
0.0
 10
467.0358046306901
 20
449.9485620204068
 30
0.0
 10
465.6422499431901
 20
452.0189965907193
 30
0.0
 10
463.8041151775651
 20
454.7492822352506
 30
0.0
 10
463.8041151775651
 20
454.7492822352506
 30
0.0
 10
463.5275648845964
 20
455.1602319422818
 30
0.0
 10
463.5275648845964
 20
455.1602319422818
 30
0.0
 10
461.8794325603776
 20
457.6106103602506
 30
0.0
 10
459.8923109783464
 20
459.9103540125943
 30
0.0
 10
458.0740126385026
 20
461.4696191493131
 30
0.0
 10
457.0557631267839
 20
462.3426049891568
 30
0.0
 10
455.9209364666276
 20
462.8733056727506
 30
0.0
 10
455.0335463299089
 20
463.1865380946256
 30
0.0
 10
455.1724623455339
 20
467.2581323329068
 30
0.0
 10
455.6178358806901
 20
471.3243554774381
 30
0.0
 10
456.3616713299089
 20
475.2972558680631
 30
0.0
 10
456.4676283611589
 20
475.8618920985318
 30
0.0
 10
456.5770033611589
 20
476.3965600672818
 30
0.0
 10
456.7551649822526
 20
476.7382348719693
 30
0.0
 10
457.0080336345964
 20
477.2218774500943
 30
0.0
 10
457.5661391033464
 20
477.6485131922818
 30
0.0
 10
458.1753309978776
 20
478.1149438563443
 30
0.0
 10
469.0060805095964
 20
486.4142602625943
 30
0.0
 10
494.1965101970964
 20
509.0297387782193
 30
0.0
 10
494.1850966228776
 20
539.7053979579068
 30
0.0
 10
494.1850966228776
 20
541.4694360438443
 30
0.0
 10
494.0909804119401
 20
543.2732690516568
 30
0.0
 10
493.9051893963151
 20
545.0672753993131
 30
0.0
 10
493.4264906658464
 20
549.6828759852506
 30
0.0
 10
492.2292250408464
 20
553.5949243250943
 30
0.0
 10
490.3467177166276
 20
556.6943505946256
 30
0.0
 10
487.4726332439714
 20
561.4238427821256
 30
0.0
 10
483.0930556072526
 20
564.0284570399381
 30
0.0
 10
478.0147475017839
 20
564.0284570399381
 30
0.0
 10
474.5107802166276
 20
564.0284570399381
 30
0.0
 10
470.9122084392839
 20
562.8147729579068
 30
0.0
 10
467.6083143963151
 20
560.5180200282193
 30
0.0
 10
463.3473280681901
 20
557.5550683680631
 30
0.0
 10
459.6672743572526
 20
552.9527124110318
 30
0.0
 10
456.3574599041276
 20
546.4483789149381
 30
0.0
 10
449.4811781658464
 20
532.9442895594693
 30
0.0
 10
446.8012465252214
 20
518.5377954188443
 30
0.0
 10
443.9638441814714
 20
503.2854150477506
 30
0.0
 10
443.5433729900651
 20
501.0240014735318
 30
0.0
 10
443.1211928142839
 20
498.7557519618131
 30
0.0
 10
442.6833876385026
 20
496.4840234461881
 30
0.0
 10
441.8134535564714
 20
491.9707177821256
 30
0.0
 10
441.0795058025651
 20
487.5516503993131
 30
0.0
 10
440.4697645916276
 20
483.2105859461881
 30
0.0
 10
439.6595839275651
 20
482.7415307704068
 30
0.0
 10
438.9194716228776
 20
482.0818628016568
 30
0.0
 10
438.2430189861589
 20
481.4726709071256
 30
0.0
 10
437.7967909588151
 20
481.0710595790006
 30
0.0
 10
437.3754652752214
 20
480.6915429774381
 30
0.0
 10
437.0221327556901
 20
480.4494775477506
 30
0.0
 10
436.3432387127214
 20
479.9825586024381
 30
0.0
 10
435.6876600994401
 20
479.4788354579068
 30
0.0
 10
435.0539931072526
 20
478.9918359461881
 30
0.0
 10
434.2581557049089
 20
478.3805688563443
 30
0.0
 10
433.5062636150651
 20
477.8031762782193
 30
0.0
 10
432.7261122478776
 20
477.3043359461881
 30
0.0
 10
430.0871351970964
 20
475.6173852625943
 30
0.0
 10
427.5942152752214
 20
474.7257837000943
 30
0.0
 10
425.5171889080339
 20
474.7257837000943
 30
0.0
 10
425.5171889080339
 20
474.7257837000943
 30
0.0
 10
425.4758070720964
 20
474.7257837000943
 30
0.0
 10
425.4758070720964
 20
474.7257837000943
 30
0.0
 10
425.5783461345964
 20
475.6404565516568
 30
0.0
 10
425.6872938885026
 20
476.5497583094693
 30
0.0
 10
425.7953871502214
 20
477.4565576258756
 30
0.0
 10
426.3006972088151
 20
481.6847680750943
 30
0.0
 10
426.8233412517839
 20
486.0568383875943
 30
0.0
 10
426.6966933025651
 20
490.6454003993131
 30
0.0
 10
426.6384657635026
 20
492.7364648524381
 30
0.0
 10
426.4999769939714
 20
494.8387597743131
 30
0.0
 10
426.2854994549089
 20
496.8939965907193
 30
0.0
 10
425.2524794353776
 20
506.7791284266568
 30
0.0
 10
420.3823012127214
 20
518.3316186610318
 30
0.0
 10
410.0873183025651
 20
518.0576318446256
 30
0.0
 10
400.6475600017839
 20
517.7832177821256
 30
0.0
 10
390.0444105877214
 20
511.7511743250943
 30
0.0
 10
389.0700453533464
 20
499.1563256922818
 30
0.0
 10
388.9433363689714
 20
497.5277856532193
 30
0.0
 10
388.8483656658464
 20
495.7961572352506
 30
0.0
 10
389.1894911541276
 20
494.1082299891568
 30
0.0
 10
389.3157118572526
 20
493.4842065516568
 30
0.0
 10
389.5817030681901
 20
492.8916162196256
 30
0.0
 10
389.8387831463151
 20
492.3181298915006
 30
0.0
 10
389.9772719158464
 20
492.0088647547818
 30
0.0
 10
390.1946791424089
 20
491.5242456141568
 30
0.0
 10
390.2740248455339
 20
491.2404931727506
 30
0.0
 10
390.0026015056901
 20
490.6631005946256
 30
0.0
 10
389.6281508220964
 20
490.0739282313443
 30
0.0
 10
389.2346571697526
 20
489.4553369227506
 30
0.0
 10
388.6613539470964
 20
488.5524438563443
 30
0.0
 10
388.0112074627214
 20
487.5292504969693
 30
0.0
 10
387.5611952556901
 20
486.3297876063443
 30
0.0
 10
386.5308607830339
 20
483.5799707118131
 30
0.0
 10
386.0322035564714
 20
480.6159204188443
 30
0.0
 10
385.7907484783464
 20
477.7062524500943
 30
0.0
 10
385.6359633220964
 20
477.3944848719693
 30
0.0
 10
385.4786146892839
 20
477.0770410243131
 30
0.0
 10
385.3093031658464
 20
476.7353051844693
 30
0.0
 10
380.9470595135026
 20
467.9273217860318
 30
0.0
 10
369.3589247478776
 20
444.5312646571256
 30
0.0
 10
360.9467543377214
 20
444.5312646571256
 30
0.0
 10
359.2855604900651
 20
444.5312646571256
 30
0.0
 10
357.8016127361589
 20
445.5009301844693
 30
0.0
 10
356.4105604900651
 20
447.4951928797818
 30
0.0
 10
352.8753432049089
 20
452.5644677821256
 30
0.0
 10
350.7885512127214
 20
458.9176171961881
 30
0.0
 10
350.2084730877214
 20
466.3783715907193
 30
0.0
 10
349.4114149822526
 20
476.6322168055631
 30
0.0
 10
351.7502211345964
 20
488.1164697352506
 30
0.0
 10
356.6250380291276
 20
497.8847192469693
 30
0.0
 10
357.8429945720964
 20
500.3243554774381
 30
0.0
 10
359.5527724041276
 20
503.2618554774381
 30
0.0
 10
361.9827650799089
 20
504.3316796961881
 30
0.0
 10
362.5611342205339
 20
504.5864404383756
 30
0.0
 10
363.1138075603776
 20
504.7155908290006
 30
0.0
 10
363.6258925213151
 20
504.7155908290006
 30
0.0
 10
364.9463881267839
 20
504.7155908290006
 30
0.0
 10
365.7827528728776
 20
503.8412011805631
 30
0.0
 10
366.2517470135026
 20
503.1071923915006
 30
0.0
 10
367.2826918377214
 20
501.4948266688443
 30
0.0
 10
367.5815809978776
 20
499.0330957118131
 30
0.0
 10
367.0129164470964
 20
496.8350366297818
 30
0.0
 10
366.8947523845964
 20
496.3779443446256
 30
0.0
 10
366.6287611736589
 20
495.8590234461881
 30
0.0
 10
366.3467787517839
 20
495.3101342860318
 30
0.0
 10
366.2112196697526
 20
495.0459741297818
 30
0.0
 10
366.0761488689714
 20
494.7813256922818
 30
0.0
 10
365.9490736736589
 20
494.5132592860318
 30
0.0
 10
365.2681044353776
 20
493.0713037196256
 30
0.0
 10
365.0907973064714
 20
491.7579492274381
 30
0.0
 10
365.4222182049089
 20
490.6090844813443
 30
0.0
 10
365.6147230877214
 20
489.9413598719693
 30
0.0
 10
366.0744398845964
 20
489.0257104579068
 30
0.0
 10
367.1720961345964
 20
488.4537500086881
 30
0.0
 10
367.6985243572526
 20
488.1792749110318
 30
0.0
 10
368.2241591228776
 20
488.0403588954068
 30
0.0
 10
368.7349623455339
 20
488.0403588954068
 30
0.0
 10
371.0395888103776
 20
488.0408471766568
 30
0.0
 10
372.0228041424089
 20
490.6498559657193
 30
0.0
 10
372.3462294353776
 20
491.5075830165006
 30
0.0
 10
374.9003065838151
 20
498.2878564540006
 30
0.0
 10
373.0474013103776
 20
506.3087915125943
 30
0.0
 10
367.8399428142839
 20
511.0132592860318
 30
0.0
 10
365.4800184978776
 20
513.1450341883756
 30
0.0
 10
362.3104017986589
 20
514.2718042079068
 30
0.0
 10
358.6746596111589
 20
514.2718042079068
 30
0.0
 10
354.3318251385026
 20
514.2718042079068
 30
0.0
 10
349.9142225994401
 20
512.6461938563443
 30
0.0
 10
346.8577040447526
 20
509.9232934657193
 30
0.0
 10
341.4792860760026
 20
505.1319116297818
 30
0.0
 10
337.2567518963151
 20
497.8631738368131
 30
0.0
 10
334.9681776775651
 20
489.4558252040006
 30
0.0
 10
334.2607191814714
 20
486.8562768641568
 30
0.0
 10
333.7191542400651
 20
484.2417138758756
 30
0.0
 10
333.3412245525651
 20
481.6361840907193
 30
0.0
 10
333.3412245525651
 20
481.6361840907193
 30
0.0
 10
306.5883559002214
 20
481.6361840907193
 30
0.0
 10
306.5883559002214
 20
481.6361840907193
 30
0.0
 10
305.4817274822526
 20
481.6361840907193
 30
0.0
 10
304.4090956463151
 20
481.2533105555631
 30
0.0
 10
303.5525892986589
 20
480.5525048915006
 30
0.0
 10
303.5525892986589
 20
480.5525048915006
 30
0.0
 10
293.6667250408464
 20
472.4645532313443
 30
0.0
 10
293.6667250408464
 20
472.4645532313443
 30
0.0
 10
293.6275404705339
 20
472.4325097743131
 30
0.0
 10
293.5686415447526
 20
472.4461816493131
 30
0.0
 10
293.5476454510026
 20
472.4922021571256
 30
0.0
 10
293.5476454510026
 20
472.4922021571256
 30
0.0
 10
280.0768202556901
 20
501.9602197352506
 30
0.0
 10
280.0768202556901
 20
501.9602197352506
 30
0.0
 10
279.3389052166276
 20
503.5751489344693
 30
0.0
 10
277.7572401775651
 20
504.6393579188443
 30
0.0
 10
275.9835585369401
 20
504.7118676844693
 30
0.0
 10
274.2000502361589
 20
504.8412011805631
 30
0.0
 10
272.5449599041276
 20
503.8593286219693
 30
0.0
 10
271.6757582439714
 20
502.3109887782193
 30
0.0
 10
271.6757582439714
 20
502.3109887782193
 30
0.0
 10
261.0284804119401
 20
483.3567041102506
 30
0.0
 10
261.0284804119401
 20
483.3567041102506
 30
0.0
 10
260.9939345135026
 20
483.2951806727506
 30
0.0
 10
260.9017103924089
 20
483.3084863368131
 30
0.0
 10
260.8859633220964
 20
483.3772729579068
 30
0.0
 10
260.8859633220964
 20
483.3772729579068
 30
0.0
 10
244.9847792400651
 20
552.6572412196256
 30
0.0
 10
244.9847792400651
 20
552.6572412196256
 30
0.0
 10
244.5777968181901
 20
554.4303125086881
 30
0.0
 10
243.3022230877214
 20
555.9828637782193
 30
0.0
 10
241.5350722088151
 20
556.4151757899381
 30
0.0
 10
238.5651625408464
 20
557.1417382899381
 30
0.0
 10
235.8930434002214
 20
555.0716699305631
 30
0.0
 10
235.6353529705339
 20
552.2763818446256
 30
0.0
 10
235.6353529705339
 20
552.2763818446256
 30
0.0
 10
223.4104994549089
 20
419.2063745204068
 30
0.0
 10
223.4104994549089
 20
419.2063745204068
 30
0.0
 10
223.4018324627214
 20
419.1121972743131
 30
0.0
 10
223.2639540447526
 20
419.1131738368131
 30
0.0
 10
223.2566298260026
 20
419.2074121180631
 30
0.0
 10
223.2566298260026
 20
419.2074121180631
 30
0.0
 10
206.2331312908464
 20
637.8412011805631
 30
0.0
 10
206.2331312908464
 20
637.8412011805631
 30
0.0
 10
206.0469130291276
 20
640.2313378993131
 30
0.0
 10
204.0978163494401
 20
642.1009668055631
 30
0.0
 10
201.7018812908464
 20
642.1881250086881
 30
0.0
 10
199.2775038494401
 20
642.2459863368131
 30
0.0
 10
197.2264784588151
 20
640.5487207118131
 30
0.0
 10
196.8677748455339
 20
638.1803125086881
 30
0.0
 10
196.8677748455339
 20
638.1803125086881
 30
0.0
 10
173.3882826580339
 20
482.9567407313443
 30
0.0
 10
173.3882826580339
 20
482.9567407313443
 30
0.0
 10
173.3826674236589
 20
482.9195703211881
 30
0.0
 10
173.3511122478776
 20
482.8918603602506
 30
0.0
 10
173.3135145916276
 20
482.8910669032193
 30
0.0
 10
173.3135145916276
 20
482.8910669032193
 30
0.0
 10
145.2642592205339
 20
482.3050073329068
 30
0.0
 10
145.2642592205339
 20
482.3050073329068
 30
0.0
 10
144.2614516033464
 20
482.2840112391568
 30
0.0
 10
143.2904433025651
 20
481.9490503016568
 30
0.0
 10
142.4879530681901
 20
481.3472436610318
 30
0.0
 10
142.4879530681901
 20
481.3472436610318
 30
0.0
 10
136.8261488689714
 20
477.1009057704068
 30
0.0
 10
136.8261488689714
 20
477.1009057704068
 30
0.0
 10
136.7854384197526
 20
477.0703271571256
 30
0.0
 10
136.7267836345964
 20
477.0868676844693
 30
0.0
 10
136.7080458416276
 20
477.1342309657193
 30
0.0
 10
136.7080458416276
 20
477.1342309657193
 30
0.0
 10
125.7135390056901
 20
504.8956445399381
 30
0.0
 10
125.7135390056901
 20
504.8956445399381
 30
0.0
 10
125.2092665447526
 20
506.1688378993131
 30
0.0
 10
124.2614516033464
 20
507.2827905360318
 30
0.0
 10
122.9751967205339
 20
507.7528833094693
 30
0.0
 10
120.2605360760026
 20
508.7450097743131
 30
0.0
 10
117.5342177166276
 20
507.2498315516568
 30
0.0
 10
116.7534559978776
 20
504.7550195399381
 30
0.0
 10
116.7534559978776
 20
504.7550195399381
 30
0.0
 10
105.7800673260026
 20
469.6905664149381
 30
0.0
 10
105.7800673260026
 20
469.6905664149381
 30
0.0
 10
105.7614516033464
 20
469.6310571375943
 30
0.0
 10
105.6836317791276
 20
469.6170190516568
 30
0.0
 10
105.6453627361589
 20
469.6663354579068
 30
0.0
 10
105.6453627361589
 20
469.6663354579068
 30
0.0
 10
98.55686175959636
 20
478.8080590907193
 30
0.0
 10
98.55686175959636
 20
478.8080590907193
 30
0.0
 10
97.66709125178386
 20
479.9545434657193
 30
0.0
 10
96.29715716975261
 20
480.6287988368131
 30
0.0
 10
94.84384906428386
 20
480.6327050868131
 30
0.0
 10
94.84384906428386
 20
480.6327050868131
 30
0.0
 10
37.54459369319011
 20
480.8011010829068
 30
0.0
 10
37.53092181819011
 20
480.8011010829068
 30
0.0
 10
34.93210590022136
 20
480.8011010829068
 30
0.0
 10
33.02353656428386
 20
478.2134545985318
 30
0.0
 10
33.01566302912761
 20
475.6126855555631
 30
0.0
 10
33.00785052912761
 20
473.0080102625943
 30
0.0
 10
36.29795062678386
 20
471.3714135829068
 30
0.0
 10
38.90268695490886
 20
471.3655542079068
 30
0.0
 10
38.90268695490886
 20
471.3655542079068
 30
0.0
 10
92.47684466975261
 20
471.2077172938443
 30
0.0
 10
92.47684466975261
 20
471.2077172938443
 30
0.0
 10
92.50064838069011
 20
471.2076562586881
 30
0.0
 10
92.52304828303386
 20
471.1966088954068
 30
0.0
 10
92.53763568537761
 20
471.1778100672818
 30
0.0
 10
92.53763568537761
 20
471.1778100672818
 30
0.0
 10
103.6882094158464
 20
456.7983545008756
 30
0.0
 10
103.6882094158464
 20
456.7983545008756
 30
0.0
 10
104.4034193767839
 20
455.8761132899381
 30
0.0
 10
105.3849867595964
 20
455.1419213954068
 30
0.0
 10
106.5288466228776
 20
454.9105371180631
 30
0.0
 10
109.0441664470964
 20
454.4018090907193
 30
0.0
 10
111.3395766033464
 20
455.8728173915006
 30
0.0
 10
112.0419081463151
 20
458.1175073329068
 30
0.0
 10
112.0419081463151
 20
458.1175073329068
 30
0.0
 10
121.7105482830339
 20
489.0127710047818
 30
0.0
 10
121.7105482830339
 20
489.0127710047818
 30
0.0
 10
121.7322767986589
 20
489.0821679774381
 30
0.0
 10
121.8292006267839
 20
489.0857690516568
 30
0.0
 10
121.8559950603776
 20
489.0181420985318
 30
0.0
 10
121.8559950603776
 20
489.0181420985318
 30
0.0
 10
130.2492445720964
 20
467.8248437586881
 30
0.0
 10
130.2492445720964
 20
467.8248437586881
 30
0.0
 10
130.7911757244401
 20
466.4587548915006
 30
0.0
 10
131.9386976970964
 20
465.4220117274381
 30
0.0
 10
133.3537367595964
 20
465.0221704188443
 30
0.0
 10
134.7677382244401
 20
464.6223901454068
 30
0.0
 10
136.2876356853776
 20
464.9065698329068
 30
0.0
 10
137.4645766033464
 20
465.7885278407193
 30
0.0
 10
137.4645766033464
 20
465.7885278407193
 30
0.0
 10
146.9335097088151
 20
472.8899682704068
 30
0.0
 10
146.9781874431901
 20
472.9053491297818
 30
0.0
 10
146.9781874431901
 20
472.9053491297818
 30
0.0
 10
177.5462416424089
 20
473.5437768641568
 30
0.0
 10
177.5462416424089
 20
473.5437768641568
 30
0.0
 10
179.8412855877214
 20
473.5927880946256
 30
0.0
 10
181.7678602947526
 20
475.2841333094693
 30
0.0
 10
182.1117934002214
 20
477.5537255946256
 30
0.0
 10
182.1117934002214
 20
477.5537255946256
 30
0.0
 10
199.9281996502214
 20
595.3421777430631
 30
0.0
 10
199.9281996502214
 20
595.3421777430631
 30
0.0
 10
199.9419325603776
 20
595.4329980555631
 30
0.0
 10
200.0743178142839
 20
595.4281152430631
 30
0.0
 10
200.0814589275651
 20
595.3365625086881
 30
0.0
 10
200.0814589275651
 20
595.3365625086881
 30
0.0
 10
218.2374037517839
 20
362.1594384852506
 30
0.0
 10
218.2374037517839
 20
362.1594384852506
 30
0.0
 10
218.4275282635026
 20
359.7174218836881
 30
0.0
 10
220.4560316814714
 20
357.8261254969693
 30
0.0
 10
222.9401625408464
 20
357.8104394618131
 30
0.0
 10
225.3753432049089
 20
357.8104394618131
 30
0.0
 10
227.4126356853776
 20
359.6664575282193
 30
0.0
 10
227.6360853924089
 20
362.0947412196256
 30
0.0
 10
227.6360853924089
 20
362.0947412196256
 30
0.0
 10
242.2871474041276
 20
521.5723413172818
 30
0.0
 10
242.2871474041276
 20
521.5723413172818
 30
0.0
 10
242.2952040447526
 20
521.6597436610318
 30
0.0
 10
242.4196547283464
 20
521.6681054774381
 30
0.0
 10
242.4393080486589
 20
521.5825341883756
 30
0.0
 10
242.4393080486589
 20
521.5825341883756
 30
0.0
 10
254.4153822674089
 20
469.4017480555631
 30
0.0
 10
254.4153822674089
 20
469.4017480555631
 30
0.0
 10
254.7780531658464
 20
467.8216699305631
 30
0.0
 10
255.8146132244401
 20
466.3972314540006
 30
0.0
 10
257.3335951580339
 20
465.8307641688443
 30
0.0
 10
259.6044691814714
 20
464.9839013758756
 30
0.0
 10
262.0470961345964
 20
465.9138940516568
 30
0.0
 10
263.1756972088151
 20
467.9208520594693
 30
0.0
 10
263.1756972088151
 20
467.9208520594693
 30
0.0
 10
275.2810438885026
 20
489.4687646571256
 30
0.0
 10
275.2810438885026
 20
489.4687646571256
 30
0.0
 10
275.3119887127214
 20
489.5238183680631
 30
0.0
 10
275.3923109783464
 20
489.5204614344693
 30
0.0
 10
275.4185560955339
 20
489.4630273524381
 30
0.0
 10
275.4185560955339
 20
489.4630273524381
 30
0.0
 10
287.5537489666276
 20
462.9192041102506
 30
0.0
 10
287.5537489666276
 20
462.9192041102506
 30
0.0
 10
288.1613539470964
 20
461.5884545985318
 30
0.0
 10
289.3519667400651
 20
460.6163476649381
 30
0.0
 10
290.7757948650651
 20
460.2851098719693
 30
0.0
 10
292.2006605877214
 20
459.9558862391568
 30
0.0
 10
293.6960829510026
 20
460.3007959071256
 30
0.0
 10
294.8298720135026
 20
461.2298120204068
 30
0.0
 10
294.8298720135026
 20
461.2298120204068
 30
0.0
 10
308.2229994549089
 20
472.1876977625943
 30
0.0
 10
308.2718886150651
 20
472.2051538172818
 30
0.0
 10
308.2718886150651
 20
472.2051538172818
 30
0.0
 10
319.2464979900651
 20
472.2051538172818
 30
0.0
 10
332.6991347088151
 20
472.2051538172818
 30
0.0
 10
332.7583998455339
 20
464.2397607508756
 30
0.0
 10
334.3887099041276
 20
456.6461328211881
 30
0.0
 10
337.5666273845964
 20
450.1651147547818
 30
0.0
 10
341.0832899822526
 20
442.9930566493131
 30
0.0
 10
345.2906264080339
 20
438.3288720790006
 30
0.0
 10
350.4453505291276
 20
435.8980859461881
 30
0.0
 10
352.5760267986589
 20
434.9225000086881
 30
0.0
 10
354.7670668377214
 20
434.4281152430631
 30
0.0
 10
356.9581068767839
 20
434.4281152430631
 30
0.0
 10
365.5839003338151
 20
434.4281152430631
 30
0.0
 10
372.4888685955339
 20
441.8122705165006
 30
0.0
 10
376.7624892010026
 20
448.0072778407193
 30
0.0
 10
379.4338759197526
 20
451.8800195399381
 30
0.0
 10
383.1667250408464
 20
457.7585595790006
 30
0.0
 10
386.4402846111589
 20
463.6352075282193
 30
0.0
 10
388.5732802166276
 20
453.6041406336881
 30
0.0
 10
394.5622328533464
 20
444.8721460047818
 30
0.0
 10
403.1164320720964
 20
444.8729394618131
 30
0.0
 10
406.0302504314714
 20
444.8729394618131
 30
0.0
 10
409.0306166424089
 20
445.9192041102506
 30
0.0
 10
412.0334852947526
 20
447.9817651454068
 30
0.0
 10
417.6833876385026
 20
451.8628686610318
 30
0.0
 10
420.9585951580339
 20
458.3382714930631
 30
0.0
 10
422.7105482830339
 20
463.0858911219693
 30
0.0
 10
422.7105482830339
 20
463.0858911219693
 30
0.0
 10
422.7865980877214
 20
463.2921289149381
 30
0.0
 10
422.7865980877214
 20
463.2921289149381
 30
0.0
 10
423.0056532635026
 20
463.8866723719693
 30
0.0
 10
423.2159193767839
 20
464.4576562586881
 30
0.0
 10
423.4569472088151
 20
464.9447168055631
 30
0.0
 10
423.7174452556901
 20
465.0468286219693
 30
0.0
 10
423.9720228924089
 20
465.1577905360318
 30
0.0
 10
424.2198256267839
 20
465.2771142665006
 30
0.0
 10
427.8652724041276
 20
465.9585717860318
 30
0.0
 10
431.2936781658464
 20
467.1992334071256
 30
0.0
 10
434.4131239666276
 20
468.9657739344693
 30
0.0
 10
436.0873793377214
 20
469.9141381922818
 30
0.0
 10
437.6876600994401
 20
471.0192407313443
 30
0.0
 10
439.1874769939714
 20
472.2442163172818
 30
0.0
 10
437.9545058025651
 20
458.8750756922818
 30
0.0
 10
438.0238417400651
 20
446.2477563563443
 30
0.0
 10
439.3871229900651
 20
434.0726464930631
 30
0.0
 10
440.6823500408464
 20
422.5009912196256
 30
0.0
 10
443.0287245525651
 20
414.2262719813443
 30
0.0
 10
446.9954603924089
 20
407.2422021571256
 30
0.0
 10
449.6365126385026
 20
402.5922387782193
 30
0.0
 10
454.2917860760026
 20
397.6241601649381
 30
0.0
 10
459.4384535564714
 20
397.6241601649381
 30
0.0
 10
461.8608778728776
 20
397.6241601649381
 30
0.0
 10
465.3121107830339
 20
398.7833398524381
 30
0.0
 10
467.9958266033464
 20
404.3042749110318
 30
0.0
 10
472.2854994549089
 20
413.1284326258756
 30
0.0
 10
473.0889052166276
 20
424.6009057704068
 30
0.0
 10
470.3882826580339
 20
438.4221337977506
 30
0.0
 10
471.7476576580339
 20
439.3407128993131
 30
0.0
 10
474.1050184978776
 20
441.0836938563443
 30
0.0
 10
477.0678480877214
 20
443.8767846766568
 30
0.0
 10
479.3044813885026
 20
445.9840234461881
 30
0.0
 10
481.8982924236589
 20
448.4496606532193
 30
0.0
 10
484.3852919353776
 20
451.0507959071256
 30
0.0
 10
489.2558363689714
 20
456.1480249110318
 30
0.0
 10
493.8249892010026
 20
461.6179345790006
 30
0.0
 10
497.9664686931901
 20
467.3097070399381
 30
0.0
 10
497.9958266033464
 20
467.3500512782193
 30
0.0
 10
498.0286635174089
 20
467.3983911219693
 30
0.0
 10
498.0583266033464
 20
467.4394677821256
 30
0.0
 10
497.2507704510026
 20
455.8365625086881
 30
0.0
 10
497.4477309002214
 20
444.7794336024381
 30
0.0
 10
498.6465834392839
 20
434.0726464930631
 30
0.0
 10
499.9418104900651
 20
422.5009912196256
 30
0.0
 10
502.2882460369401
 20
414.2262719813443
 30
0.0
 10
506.2549208416276
 20
407.2417138758756
 30
0.0
 10
508.8960341228776
 20
402.5922387782193
 30
0.0
 10
513.5521010174089
 20
397.6241601649381
 30
0.0
 10
518.6975477947526
 20
397.6241601649381
 30
0.0
 10
521.1199110760026
 20
397.6241601649381
 30
0.0
 10
524.5715712322526
 20
398.7833398524381
 30
0.0
 10
527.2549208416276
 20
404.3042749110318
 30
0.0
 10
531.5458143963151
 20
413.1294091883756
 30
0.0
 10
532.3487929119401
 20
424.6009057704068
 30
0.0
 10
529.6477431072526
 20
438.4211572352506
 30
0.0
 10
531.0063246502214
 20
439.3392480555631
 30
0.0
 10
533.3594740642839
 20
441.0797265711881
 30
0.0
 10
536.3273085369401
 20
443.8767846766568
 30
0.0
 10
538.5665053142839
 20
445.9864648524381
 30
0.0
 10
541.1628187908464
 20
448.4546045008756
 30
0.0
 10
543.6443251385026
 20
451.0507959071256
 30
0.0
 10
548.4266127361589
 20
456.0558007899381
 30
0.0
 10
552.9161146892839
 20
461.4262231532193
 30
0.0
 10
557.0029677166276
 20
467.0133203211881
 30
0.0
 10
556.8666151775651
 20
465.2128442469693
 30
0.0
 10
556.8045424236589
 20
463.4320825282193
 30
0.0
 10
556.8396986736589
 20
461.6935571375943
 30
0.0
 10
556.9621351970964
 20
455.6580346766568
 30
0.0
 10
558.0969008220964
 20
450.0963891688443
 30
0.0
 10
560.2103041424089
 20
445.1646264735318
 30
0.0
 10
564.4716566814714
 20
435.2141259852506
 30
0.0
 10
573.0771254314714
 20
428.7844384852506
 30
0.0
 10
582.1335219158464
 20
428.7844384852506
 30
0.0
 10
587.5777968181901
 20
428.7844384852506
 30
0.0
 10
592.6464003338151
 20
431.0983422938443
 30
0.0
 10
596.7929457439714
 20
435.4768212977506
 30
0.0
 10
601.5845717205339
 20
440.5372461024381
 30
0.0
 10
605.1088026775651
 20
446.4298242274381
 30
0.0
 10
608.8948744549089
 20
453.0505517665006
 30
0.0
 10
610.6113661541276
 20
456.0514672938443
 30
0.0
 10
612.1283339275651
 20
458.8565820399381
 30
0.0
 10
613.4927138103776
 20
461.5404809657193
 30
0.0
 10
613.6312636150651
 20
455.5645898524381
 30
0.0
 10
614.7616347088151
 20
450.0542749110318
 30
0.0
 10
616.8569716228776
 20
445.1646264735318
 30
0.0
 10
621.1183241619401
 20
435.2141259852506
 30
0.0
 10
629.7238539470964
 20
428.7844384852506
 30
0.0
 10
638.7801893963151
 20
428.7844384852506
 30
0.0
 10
644.2245253338151
 20
428.7844384852506
 30
0.0
 10
649.2930678142839
 20
431.0983422938443
 30
0.0
 10
653.4396132244401
 20
435.4768212977506
 30
0.0
 10
658.2312392010026
 20
440.5372461024381
 30
0.0
 10
661.7555311931901
 20
446.4298242274381
 30
0.0
 10
665.5415419353776
 20
453.0505517665006
 30
0.0
 10
669.4343031658464
 20
459.8561547938443
 30
0.0
 10
672.3358534588151
 20
465.6851342860318
 30
0.0
 10
674.6136854900651
 20
471.2603906336881
 30
0.0
 10
680.5625990642839
 20
471.2428735438443
 30
0.0
 10
686.5115126385026
 20
471.2252954188443
 30
0.0
 10
692.4602431072526
 20
471.2078393641568
 30
0.0
 10
692.4816664470964
 20
471.1972802821256
 30
0.0
 10
692.4998549236589
 20
471.1883691493131
 30
0.0
 10
692.5212782635026
 20
471.1778100672818
 30
0.0
 10
692.5212782635026
 20
471.1778100672818
 30
0.0
 10
703.6718519939714
 20
456.7983545008756
 30
0.0
 10
703.6718519939714
 20
456.7983545008756
 30
0.0
 10
704.3870009197526
 20
455.8761132899381
 30
0.0
 10
705.3686293377214
 20
455.1419213954068
 30
0.0
 10
706.5124892010026
 20
454.9105371180631
 30
0.0
 10
709.0278090252214
 20
454.4018090907193
 30
0.0
 10
711.3232191814714
 20
455.8728173915006
 30
0.0
 10
712.0254896892839
 20
458.1175073329068
 30
0.0
 10
712.0254896892839
 20
458.1175073329068
 30
0.0
 10
721.6941298260026
 20
489.0127710047818
 30
0.0
 10
721.6941298260026
 20
489.0127710047818
 30
0.0
 10
721.7158583416276
 20
489.0821679774381
 30
0.0
 10
721.8128432049089
 20
489.0857690516568
 30
0.0
 10
721.8396376385026
 20
489.0181420985318
 30
0.0
 10
721.8396376385026
 20
489.0181420985318
 30
0.0
 10
730.2328871502214
 20
467.8248437586881
 30
0.0
 10
730.2328871502214
 20
467.8248437586881
 30
0.0
 10
730.7747572674089
 20
466.4587548915006
 30
0.0
 10
731.9222792400651
 20
465.4220117274381
 30
0.0
 10
733.3373183025651
 20
465.0221704188443
 30
0.0
 10
734.7513808025651
 20
464.6223901454068
 30
0.0
 10
736.2712782635026
 20
464.9065698329068
 30
0.0
 10
737.4482191814714
 20
465.7885278407193
 30
0.0
 10
737.4482191814714
 20
465.7885278407193
 30
0.0
 10
746.9171522869401
 20
472.8899682704068
 30
0.0
 10
746.9618300213151
 20
472.9053491297818
 30
0.0
 10
746.9618300213151
 20
472.9053491297818
 30
0.0
 10
777.5298842205339
 20
473.5437768641568
 30
0.0
 10
777.5298842205339
 20
473.5437768641568
 30
0.0
 10
779.8249281658464
 20
473.5927880946256
 30
0.0
 10
781.7514418377214
 20
475.2841333094693
 30
0.0
 10
782.0954359783464
 20
477.5537255946256
 30
0.0
 10
782.0954359783464
 20
477.5537255946256
 30
0.0
 10
799.9117811931901
 20
595.3421777430631
 30
0.0
 10
799.9117811931901
 20
595.3421777430631
 30
0.0
 10
799.9255141033464
 20
595.4329980555631
 30
0.0
 10
800.0579603924089
 20
595.4281152430631
 30
0.0
 10
800.0651015056901
 20
595.3365625086881
 30
0.0
 10
800.0651015056901
 20
595.3365625086881
 30
0.0
 10
818.2210463299089
 20
362.1594384852506
 30
0.0
 10
818.2210463299089
 20
362.1594384852506
 30
0.0
 10
818.4111708416276
 20
359.7174218836881
 30
0.0
 10
820.4396742595964
 20
357.8261254969693
 30
0.0
 10
822.9238051189714
 20
357.8104394618131
 30
0.0
 10
825.3589857830339
 20
357.8104394618131
 30
0.0
 10
827.3962782635026
 20
359.6664575282193
 30
0.0
 10
827.6197279705339
 20
362.0947412196256
 30
0.0
 10
827.6197279705339
 20
362.0947412196256
 30
0.0
 10
842.2707899822526
 20
521.5723413172818
 30
0.0
 10
842.2707899822526
 20
521.5723413172818
 30
0.0
 10
842.2788466228776
 20
521.6597436610318
 30
0.0
 10
842.4032973064714
 20
521.6681054774381
 30
0.0
 10
842.4228895916276
 20
521.5825341883756
 30
0.0
 10
842.4228895916276
 20
521.5825341883756
 30
0.0
 10
854.3990248455339
 20
469.4017480555631
 30
0.0
 10
854.3990248455339
 20
469.4017480555631
 30
0.0
 10
854.7616957439714
 20
467.8216699305631
 30
0.0
 10
855.7982558025651
 20
466.3972314540006
 30
0.0
 10
857.3172377361589
 20
465.8307641688443
 30
0.0
 10
859.5881117595964
 20
464.9839013758756
 30
0.0
 10
862.0307387127214
 20
465.9138940516568
 30
0.0
 10
863.1593397869401
 20
467.9208520594693
 30
0.0
 10
863.1593397869401
 20
467.9208520594693
 30
0.0
 10
875.2646864666276
 20
489.4687646571256
 30
0.0
 10
875.2646864666276
 20
489.4687646571256
 30
0.0
 10
875.2956312908464
 20
489.5238183680631
 30
0.0
 10
875.3759535564714
 20
489.5204614344693
 30
0.0
 10
875.4021986736589
 20
489.4630273524381
 30
0.0
 10
875.4021986736589
 20
489.4630273524381
 30
0.0
 10
887.5373915447526
 20
462.9192041102506
 30
0.0
 10
887.5373915447526
 20
462.9192041102506
 30
0.0
 10
888.1449354900651
 20
461.5884545985318
 30
0.0
 10
889.3356093181901
 20
460.6163476649381
 30
0.0
 10
890.7594374431901
 20
460.2851098719693
 30
0.0
 10
892.1843031658464
 20
459.9558862391568
 30
0.0
 10
893.6796644939714
 20
460.3007959071256
 30
0.0
 10
894.8134535564714
 20
461.2298120204068
 30
0.0
 10
894.8134535564714
 20
461.2298120204068
 30
0.0
 10
908.2065809978776
 20
472.1876977625943
 30
0.0
 10
908.2554701580339
 20
472.2051538172818
 30
0.0
 10
908.2554701580339
 20
472.2051538172818
 30
0.0
 10
962.8591688885026
 20
472.2051538172818
 30
0.0
 10
962.8591688885026
 20
472.2051538172818
 30
0.0
 10
965.3641127361589
 20
472.2051538172818
 30
0.0
 10
966.9667738689714
 20
474.4493554774381
 30
0.0
 10
966.9841688885026
 20
476.9541772547818
 30
0.0
 10
967.0046767010026
 20
479.8916772547818
 30
0.0
 10
965.2903822674089
 20
481.6361840907193
 30
0.0
 10
962.5466688885026
 20
481.6361840907193
 30
0.0
  0
SPLINE
  5
42
330
1F
100
AcDbEntity
  8
Layer 1
370
     0
100
AcDbSpline
210
0.0
220
0.0
230
1.0
 70
    11
 71
     3
 72
    29
 73
    25
 74
     0
 42
0.0000000001
 43
0.0000000001
 12
1.0
 22
0.0
 32
0.0
 13
1.0
 23
0.0
 33
0.0
 40
0.0
 40
0.0
 40
0.0
 40
0.0
 40
1.0
 40
1.0
 40
1.0
 40
2.0
 40
2.0
 40
2.0
 40
3.0
 40
3.0
 40
3.0
 40
4.0
 40
4.0
 40
4.0
 40
5.0
 40
5.0
 40
5.0
 40
6.0
 40
6.0
 40
6.0
 40
7.0
 40
7.0
 40
7.0
 40
8.0
 40
8.0
 40
8.0
 40
8.0
 10
528.9646986736589
 20
547.5442041102506
 30
0.0
 10
530.1332777752214
 20
552.2849878016568
 30
0.0
 10
534.6606215252214
 20
556.7169336024381
 30
0.0
 10
538.6534804119401
 20
557.0282128993131
 30
0.0
 10
538.7640761150651
 20
557.0370629969693
 30
0.0
 10
538.8721693767839
 20
557.0409692469693
 30
0.0
 10
538.9802016033464
 20
557.0409692469693
 30
0.0
 10
543.0879286541276
 20
557.0409692469693
 30
0.0
 10
545.3592299236589
 20
550.5012963954068
 30
0.0
 10
545.9570082439714
 20
548.4961694422818
 30
0.0
 10
546.6130751385026
 20
546.3030542079068
 30
0.0
 10
546.9271620525651
 20
543.9945214930631
 30
0.0
 10
546.9178847088151
 20
541.4375146571256
 30
0.0
 10
546.9043349041276
 20
537.1405786219693
 30
0.0
 10
545.9578627361589
 20
532.7071679774381
 30
0.0
 10
544.9902113689714
 20
528.5344384852506
 30
0.0
 10
542.9815443767839
 20
519.8786157313443
 30
0.0
 10
539.1735609783464
 20
511.8380883875943
 30
0.0
 10
533.6709975017839
 20
504.6365503016568
 30
0.0
 10
528.8490370525651
 20
498.3251489344693
 30
0.0
 10
523.2620009197526
 20
492.3937524500943
 30
0.0
 10
517.7847670330339
 20
487.7526391688443
 30
0.0
 10
520.8784559978776
 20
510.0170434657193
 30
0.0
 10
524.5369642986589
 20
529.5811303797818
 30
0.0
 10
528.9646986736589
 20
547.5442041102506
 30
0.0
  0
SPLINE
  5
43
330
1F
100
AcDbEntity
  8
Layer 1
370
     0
100
AcDbSpline
210
0.0
220
0.0
230
1.0
 70
    11
 71
     3
 72
    29
 73
    25
 74
     0
 42
0.0000000001
 43
0.0000000001
 12
1.0
 22
0.0
 32
0.0
 13
1.0
 23
0.0
 33
0.0
 40
0.0
 40
0.0
 40
0.0
 40
0.0
 40
1.0
 40
1.0
 40
1.0
 40
2.0
 40
2.0
 40
2.0
 40
3.0
 40
3.0
 40
3.0
 40
4.0
 40
4.0
 40
4.0
 40
5.0
 40
5.0
 40
5.0
 40
6.0
 40
6.0
 40
6.0
 40
7.0
 40
7.0
 40
7.0
 40
8.0
 40
8.0
 40
8.0
 40
8.0
 10
469.7047499431901
 20
547.5442041102506
 30
0.0
 10
470.8737562908464
 20
552.2849878016568
 30
0.0
 10
475.4015272869401
 20
556.7169336024381
 30
0.0
 10
479.3939589275651
 20
557.0282128993131
 30
0.0
 10
479.5041884197526
 20
557.0370629969693
 30
0.0
 10
479.6126478924089
 20
557.0409692469693
 30
0.0
 10
479.7207411541276
 20
557.0409692469693
 30
0.0
 10
483.8271864666276
 20
557.0409692469693
 30
0.0
 10
486.0997084392839
 20
550.5012963954068
 30
0.0
 10
486.6983412517839
 20
548.4971460047818
 30
0.0
 10
487.3539809002214
 20
546.3005517665006
 30
0.0
 10
487.6680678142839
 20
543.9915307704068
 30
0.0
 10
487.6583632244401
 20
541.4380639735318
 30
0.0
 10
487.6444472088151
 20
537.1405786219693
 30
0.0
 10
486.6979140056901
 20
532.7071679774381
 30
0.0
 10
485.7298964275651
 20
528.5344384852506
 30
0.0
 10
483.7229384197526
 20
519.8791650477506
 30
0.0
 10
479.9149550213151
 20
511.8390649500943
 30
0.0
 10
474.4115370525651
 20
504.6365503016568
 30
0.0
 10
469.5878065838151
 20
498.3236840907193
 30
0.0
 10
464.0012587322526
 20
492.3922876063443
 30
0.0
 10
458.5257338299089
 20
487.7531274500943
 30
0.0
 10
461.6185683025651
 20
510.0121606532193
 30
0.0
 10
465.2766493572526
 20
529.5757592860318
 30
0.0
 10
469.7047499431901
 20
547.5442041102506
 30
0.0
  0
SPLINE
  5
44
330
1F
100
AcDbEntity
  8
Layer 1
370
     0
100
AcDbSpline
210
0.0
220
0.0
230
1.0
 70
    11
 71
     3
 72
    26
 73
    22
 74
     0
 42
0.0000000001
 43
0.0000000001
 12
1.0
 22
0.0
 32
0.0
 13
1.0
 23
0.0
 33
0.0
 40
0.0
 40
0.0
 40
0.0
 40
0.0
 40
1.0
 40
1.0
 40
1.0
 40
2.0
 40
2.0
 40
2.0
 40
3.0
 40
3.0
 40
3.0
 40
4.0
 40
4.0
 40
4.0
 40
5.0
 40
5.0
 40
5.0
 40
6.0
 40
6.0
 40
6.0
 40
7.0
 40
7.0
 40
7.0
 40
7.0
 10
410.5423964275651
 20
456.1112207118131
 30
0.0
 10
409.1910170330339
 20
454.6520532313443
 30
0.0
 10
407.9642103924089
 20
453.9116967860318
 30
0.0
 10
406.8956679119401
 20
453.9116967860318
 30
0.0
 10
406.8956679119401
 20
453.9116967860318
 30
0.0
 10
406.8952406658464
 20
453.9116967860318
 30
0.0
 10
406.8952406658464
 20
453.9116967860318
 30
0.0
 10
406.0036391033464
 20
453.9121850672818
 30
0.0
 10
405.1466444744401
 20
454.4360498133756
 30
0.0
 10
404.2748793377214
 20
455.5131982508756
 30
0.0
 10
400.9004896892839
 20
459.6854394618131
 30
0.0
 10
399.0184096111589
 20
470.1450341883756
 30
0.0
 10
398.8415297283464
 20
475.9070581141568
 30
0.0
 10
399.6985243572526
 20
474.9741967860318
 30
0.0
 10
400.5906142010026
 20
474.0796655360318
 30
0.0
 10
401.5113295330339
 20
473.2293237391568
 30
0.0
 10
404.3913954510026
 20
470.5722192469693
 30
0.0
 10
409.7643202556901
 20
466.2172998133756
 30
0.0
 10
415.4239271892839
 20
464.7129663172818
 30
0.0
 10
414.1595228924089
 20
461.0818017665006
 30
0.0
 10
412.5907362713151
 20
458.3239892665006
 30
0.0
 10
410.5423964275651
 20
456.1112207118131
 30
0.0
  0
SPLINE
  5
45
330
1F
100
AcDbEntity
  8
Layer 1
370
     0
100
AcDbSpline
210
0.0
220
0.0
230
1.0
 70
    11
 71
     3
 72
    32
 73
    28
 74
     0
 42
0.0000000001
 43
0.0000000001
 12
1.0
 22
0.0
 32
0.0
 13
1.0
 23
0.0
 33
0.0
 40
0.0
 40
0.0
 40
0.0
 40
0.0
 40
1.0
 40
1.0
 40
1.0
 40
2.0
 40
2.0
 40
2.0
 40
3.0
 40
3.0
 40
3.0
 40
4.0
 40
4.0
 40
4.0
 40
5.0
 40
5.0
 40
5.0
 40
6.0
 40
6.0
 40
6.0
 40
7.0
 40
7.0
 40
7.0
 40
8.0
 40
8.0
 40
8.0
 40
9.0
 40
9.0
 40
9.0
 40
9.0
 10
420.5845106853776
 20
484.9379419032193
 30
0.0
 10
420.4849013103776
 20
481.5811914149381
 30
0.0
 10
420.0926893963151
 20
478.5769189540006
 30
0.0
 10
419.3868178142839
 20
475.7558129969693
 30
0.0
 10
419.3771132244401
 20
475.7185205165006
 30
0.0
 10
419.3678358806901
 20
475.6812280360318
 30
0.0
 10
419.3585585369401
 20
475.6453393641568
 30
0.0
 10
417.1543959392839
 20
476.5050805750943
 30
0.0
 10
412.1821059002214
 20
479.4047387782193
 30
0.0
 10
411.2786635174089
 20
480.0493310633756
 30
0.0
 10
408.2229994549089
 20
482.2346337977506
 30
0.0
 10
405.5151747478776
 20
485.0037378016568
 30
0.0
 10
403.2300184978776
 20
488.2789453211881
 30
0.0
 10
401.1423720135026
 20
491.2708886805631
 30
0.0
 10
394.8178480877214
 20
501.4943383875943
 30
0.0
 10
401.1014174236589
 20
507.4306176844693
 30
0.0
 10
403.5934828533464
 20
509.7838281336881
 30
0.0
 10
406.8243178142839
 20
511.1889795008756
 30
0.0
 10
409.7444838299089
 20
511.1889795008756
 30
0.0
 10
410.4681166424089
 20
511.1889795008756
 30
0.0
 10
411.1701430095964
 20
511.1026147547818
 30
0.0
 10
411.8317030681901
 20
510.9322045985318
 30
0.0
 10
416.1255873455339
 20
509.8260644618131
 30
0.0
 10
418.6653212322526
 20
505.9989770594693
 30
0.0
 10
419.5962294353776
 20
499.2309716883756
 30
0.0
 10
420.1366347088151
 20
495.3037255946256
 30
0.0
 10
420.7373427166276
 20
490.1298974696256
 30
0.0
 10
420.5845106853776
 20
484.9379419032193
 30
0.0
  0
SPLINE
  5
46
330
1F
100
AcDbEntity
  8
Layer 1
370
     0
100
AcDbSpline
210
0.0
220
0.0
230
1.0
 70
    11
 71
     3
 72
    29
 73
    25
 74
     0
 42
0.0000000001
 43
0.0000000001
 12
1.0
 22
0.0
 32
0.0
 13
1.0
 23
0.0
 33
0.0
 40
0.0
 40
0.0
 40
0.0
 40
0.0
 40
1.0
 40
1.0
 40
1.0
 40
2.0
 40
2.0
 40
2.0
 40
3.0
 40
3.0
 40
3.0
 40
4.0
 40
4.0
 40
4.0
 40
5.0
 40
5.0
 40
5.0
 40
6.0
 40
6.0
 40
6.0
 40
7.0
 40
7.0
 40
7.0
 40
8.0
 40
8.0
 40
8.0
 40
8.0
 10
454.6181410564714
 20
455.2348169032193
 30
0.0
 10
456.7428969158464
 20
452.9194482508756
 30
0.0
 10
458.5675429119401
 20
449.9466088954068
 30
0.0
 10
459.9324110760026
 20
447.5890039149381
 30
0.0
 10
460.0662001385026
 20
447.3577417079068
 30
0.0
 10
460.2114638103776
 20
447.1156762782193
 30
0.0
 10
460.3621596111589
 20
446.8638452235318
 30
0.0
 10
461.1115492595964
 20
445.6148217860318
 30
0.0
 10
462.1377943767839
 20
443.9037622157193
 30
0.0
 10
462.0153578533464
 20
442.7622827235318
 30
0.0
 10
462.0010145916276
 20
442.6316674891568
 30
0.0
 10
461.9816054119401
 20
442.5492089930631
 30
0.0
 10
461.9672621502214
 20
442.5011132899381
 30
0.0
 10
461.9296644939714
 20
442.4927514735318
 30
0.0
 10
461.8684462322526
 20
442.4834130946256
 30
0.0
 10
461.7768324627214
 20
442.4834130946256
 30
0.0
 10
461.7768324627214
 20
442.4834130946256
 30
0.0
 10
461.7768324627214
 20
442.4834130946256
 30
0.0
 10
461.7764662517839
 20
442.4834130946256
 30
0.0
 10
460.2861708416276
 20
442.4839013758756
 30
0.0
 10
457.4251478924089
 20
444.5332177821256
 30
0.0
 10
456.7598036541276
 20
445.4635766688443
 30
0.0
 10
454.6084364666276
 20
448.4746850672818
 30
0.0
 10
454.2263563885026
 20
449.5180200282193
 30
0.0
 10
454.6181410564714
 20
455.2348169032193
 30
0.0
  0
SPLINE
  5
47
330
1F
100
AcDbEntity
  8
Layer 1
370
     0
100
AcDbSpline
210
0.0
220
0.0
230
1.0
 70
    11
 71
     3
 72
    29
 73
    25
 74
     0
 42
0.0000000001
 43
0.0000000001
 12
1.0
 22
0.0
 32
0.0
 13
1.0
 23
0.0
 33
0.0
 40
0.0
 40
0.0
 40
0.0
 40
0.0
 40
1.0
 40
1.0
 40
1.0
 40
2.0
 40
2.0
 40
2.0
 40
3.0
 40
3.0
 40
3.0
 40
4.0
 40
4.0
 40
4.0
 40
5.0
 40
5.0
 40
5.0
 40
6.0
 40
6.0
 40
6.0
 40
7.0
 40
7.0
 40
7.0
 40
8.0
 40
8.0
 40
8.0
 40
8.0
 10
462.4907606853776
 20
408.2172998133756
 30
0.0
 10
462.2881239666276
 20
407.8308862391568
 30
0.0
 10
461.7624892010026
 20
406.9329370204068
 30
0.0
 10
461.2546156658464
 20
406.9329370204068
 30
0.0
 10
460.6454237713151
 20
406.9334253016568
 30
0.0
 10
459.5186537517839
 20
407.9948877040006
 30
0.0
 10
458.6308363689714
 20
409.9626611415006
 30
0.0
 10
456.6547011150651
 20
414.3440698329068
 30
0.0
 10
455.4020766033464
 20
419.6769555750943
 30
0.0
 10
454.8013685955339
 20
426.2657617274381
 30
0.0
 10
454.4593886150651
 20
430.0142968836881
 30
0.0
 10
454.3154677166276
 20
433.8806909266568
 30
0.0
 10
454.3728407635026
 20
437.6650537196256
 30
0.0
 10
455.4079970135026
 20
436.7121118250943
 30
0.0
 10
456.6149672283464
 20
435.9088891688443
 30
0.0
 10
457.9579237713151
 20
435.2917016688443
 30
0.0
 10
460.1760023845964
 20
434.2719873133756
 30
0.0
 10
462.2247694744401
 20
434.0397485438443
 30
0.0
 10
464.0536268963151
 20
434.5905908290006
 30
0.0
 10
464.6083754314714
 20
430.8666528407193
 30
0.0
 10
465.0972059978776
 20
426.7302392665006
 30
0.0
 10
465.1567763103776
 20
422.6296533290006
 30
0.0
 10
465.2449721111589
 20
416.5200341883756
 30
0.0
 10
464.3727797283464
 20
411.8058007899381
 30
0.0
 10
462.4907606853776
 20
408.2172998133756
 30
0.0
  0
SPLINE
  5
48
330
1F
100
AcDbEntity
  8
Layer 1
370
     0
100
AcDbSpline
210
0.0
220
0.0
230
1.0
 70
    11
 71
     3
 72
    29
 73
    25
 74
     0
 42
0.0000000001
 43
0.0000000001
 12
1.0
 22
0.0
 32
0.0
 13
1.0
 23
0.0
 33
0.0
 40
0.0
 40
0.0
 40
0.0
 40
0.0
 40
1.0
 40
1.0
 40
1.0
 40
2.0
 40
2.0
 40
2.0
 40
3.0
 40
3.0
 40
3.0
 40
4.0
 40
4.0
 40
4.0
 40
5.0
 40
5.0
 40
5.0
 40
6.0
 40
6.0
 40
6.0
 40
7.0
 40
7.0
 40
7.0
 40
8.0
 40
8.0
 40
8.0
 40
8.0
 10
513.8771742595964
 20
455.2348169032193
 30
0.0
 10
516.0049208416276
 20
452.9174951258756
 30
0.0
 10
517.8278578533464
 20
449.9456323329068
 30
0.0
 10
519.1914442791276
 20
447.5890039149381
 30
0.0
 10
519.3248671306901
 20
447.3577417079068
 30
0.0
 10
519.4709242595964
 20
447.1151879969693
 30
0.0
 10
519.6220473064714
 20
446.8633569422818
 30
0.0
 10
520.3710097088151
 20
445.6143335047818
 30
0.0
 10
521.3968886150651
 20
443.9037622157193
 30
0.0
 10
521.2744520916276
 20
442.7622827235318
 30
0.0
 10
521.2601088299089
 20
442.6316674891568
 30
0.0
 10
521.2406996502214
 20
442.5487207118131
 30
0.0
 10
521.2262953533464
 20
442.5011132899381
 30
0.0
 10
521.1891859783464
 20
442.4927514735318
 30
0.0
 10
521.1275404705339
 20
442.4834130946256
 30
0.0
 10
521.0363539470964
 20
442.4834130946256
 30
0.0
 10
521.0363539470964
 20
442.4834130946256
 30
0.0
 10
521.0363539470964
 20
442.4834130946256
 30
0.0
 10
521.0354994549089
 20
442.4834130946256
 30
0.0
 10
519.5452650799089
 20
442.4839013758756
 30
0.0
 10
516.6846083416276
 20
444.5332177821256
 30
0.0
 10
516.0192641033464
 20
445.4635766688443
 30
0.0
 10
513.8678969158464
 20
448.4746850672818
 30
0.0
 10
513.4862440838151
 20
449.5180200282193
 30
0.0
 10
513.8771742595964
 20
455.2348169032193
 30
0.0
  0
SPLINE
  5
49
330
1F
100
AcDbEntity
  8
Layer 1
370
     0
100
AcDbSpline
210
0.0
220
0.0
230
1.0
 70
    11
 71
     3
 72
    29
 73
    25
 74
     0
 42
0.0000000001
 43
0.0000000001
 12
1.0
 22
0.0
 32
0.0
 13
1.0
 23
0.0
 33
0.0
 40
0.0
 40
0.0
 40
0.0
 40
0.0
 40
1.0
 40
1.0
 40
1.0
 40
2.0
 40
2.0
 40
2.0
 40
3.0
 40
3.0
 40
3.0
 40
4.0
 40
4.0
 40
4.0
 40
5.0
 40
5.0
 40
5.0
 40
6.0
 40
6.0
 40
6.0
 40
7.0
 40
7.0
 40
7.0
 40
8.0
 40
8.0
 40
8.0
 40
8.0
 10
521.7506483806901
 20
408.2172998133756
 30
0.0
 10
521.5480116619401
 20
407.8308862391568
 30
0.0
 10
521.0220106853776
 20
406.9329370204068
 30
0.0
 10
520.5145643963151
 20
406.9329370204068
 30
0.0
 10
519.9049452556901
 20
406.9334253016568
 30
0.0
 10
518.7777479900651
 20
407.9948877040006
 30
0.0
 10
517.8903578533464
 20
409.9621728602506
 30
0.0
 10
515.9137343181901
 20
414.3455346766568
 30
0.0
 10
514.6615980877214
 20
419.6784204188443
 30
0.0
 10
514.0612562908464
 20
426.2657617274381
 30
0.0
 10
513.7184828533464
 20
430.0142968836881
 30
0.0
 10
513.5749281658464
 20
433.8806909266568
 30
0.0
 10
513.6323622478776
 20
437.6650537196256
 30
0.0
 10
514.6675184978776
 20
436.7121118250943
 30
0.0
 10
515.8749159588151
 20
435.9088891688443
 30
0.0
 10
517.2173842205339
 20
435.2917016688443
 30
0.0
 10
519.4346083416276
 20
434.2724755946256
 30
0.0
 10
521.4821547283464
 20
434.0412133875943
 30
0.0
 10
523.3135145916276
 20
434.5905908290006
 30
0.0
 10
523.8682631267839
 20
430.8651269618131
 30
0.0
 10
524.3571547283464
 20
426.7277368250943
 30
0.0
 10
524.4153822674089
 20
422.6296533290006
 30
0.0
 10
524.5040663494401
 20
416.5205224696256
 30
0.0
 10
523.6326674236589
 20
411.8062890711881
 30
0.0
 10
521.7506483806901
 20
408.2172998133756
 30
0.0
  0
SPLINE
  5
4A
330
1F
100
AcDbEntity
  8
Layer 1
370
     0
100
AcDbSpline
210
0.0
220
0.0
230
1.0
 70
    11
 71
     3
 72
    26
 73
    22
 74
     0
 42
0.0000000001
 43
0.0000000001
 12
1.0
 22
0.0
 32
0.0
 13
1.0
 23
0.0
 33
0.0
 40
0.0
 40
0.0
 40
0.0
 40
0.0
 40
1.0
 40
1.0
 40
1.0
 40
2.0
 40
2.0
 40
2.0
 40
3.0
 40
3.0
 40
3.0
 40
4.0
 40
4.0
 40
4.0
 40
5.0
 40
5.0
 40
5.0
 40
6.0
 40
6.0
 40
6.0
 40
7.0
 40
7.0
 40
7.0
 40
7.0
 10
578.6337660564714
 20
486.9219506922818
 30
0.0
 10
579.8614271892839
 20
488.3604882899381
 30
0.0
 10
581.2706068767839
 20
489.1828149500943
 30
0.0
 10
582.6021498455339
 20
489.2373193446256
 30
0.0
 10
582.6021498455339
 20
489.2373193446256
 30
0.0
 10
582.7464979900651
 20
489.2402490321256
 30
0.0
 10
582.7464979900651
 20
489.2402490321256
 30
0.0
 10
583.8981703533464
 20
489.2402490321256
 30
0.0
 10
585.1376723064714
 20
488.6751855555631
 30
0.0
 10
586.2370375408464
 20
487.6485742274381
 30
0.0
 10
588.2541273845964
 20
485.7681420985318
 30
0.0
 10
589.3914564861589
 20
482.6510156336881
 30
0.0
 10
589.2782973064714
 20
479.3114160243131
 30
0.0
 10
589.0756605877214
 20
473.3726953211881
 30
0.0
 10
585.5201796306901
 20
470.1013330165006
 30
0.0
 10
577.3883436931901
 20
468.3716577235318
 30
0.0
 10
577.3883436931901
 20
468.3716577235318
 30
0.0
 10
571.8216322674089
 20
467.1874536219693
 30
0.0
 10
571.8216322674089
 20
467.1874536219693
 30
0.0
 10
571.8545302166276
 20
473.6358178797818
 30
0.0
 10
574.9220350994401
 20
482.5714257899381
 30
0.0
 10
578.6337660564714
 20
486.9219506922818
 30
0.0
  0
SPLINE
  5
4B
330
1F
100
AcDbEntity
  8
Layer 1
370
     0
100
AcDbSpline
210
0.0
220
0.0
230
1.0
 70
    11
 71
     3
 72
    26
 73
    22
 74
     0
 42
0.0000000001
 43
0.0000000001
 12
1.0
 22
0.0
 32
0.0
 13
1.0
 23
0.0
 33
0.0
 40
0.0
 40
0.0
 40
0.0
 40
0.0
 40
1.0
 40
1.0
 40
1.0
 40
2.0
 40
2.0
 40
2.0
 40
3.0
 40
3.0
 40
3.0
 40
4.0
 40
4.0
 40
4.0
 40
5.0
 40
5.0
 40
5.0
 40
6.0
 40
6.0
 40
6.0
 40
7.0
 40
7.0
 40
7.0
 40
7.0
 10
635.2804335369401
 20
486.9219506922818
 30
0.0
 10
636.5080946697526
 20
488.3604882899381
 30
0.0
 10
637.9172743572526
 20
489.1828149500943
 30
0.0
 10
639.2488173260026
 20
489.2373193446256
 30
0.0
 10
639.2488173260026
 20
489.2373193446256
 30
0.0
 10
639.3932265056901
 20
489.2402490321256
 30
0.0
 10
639.3932265056901
 20
489.2402490321256
 30
0.0
 10
640.5448988689714
 20
489.2402490321256
 30
0.0
 10
641.7843397869401
 20
488.6751855555631
 30
0.0
 10
642.8837050213151
 20
487.6485742274381
 30
0.0
 10
644.9007948650651
 20
485.7681420985318
 30
0.0
 10
646.0381239666276
 20
482.6510156336881
 30
0.0
 10
645.9250258220964
 20
479.3114160243131
 30
0.0
 10
645.7223891033464
 20
473.3726953211881
 30
0.0
 10
642.1668471111589
 20
470.1013330165006
 30
0.0
 10
634.0350111736589
 20
468.3716577235318
 30
0.0
 10
634.0350111736589
 20
468.3716577235318
 30
0.0
 10
628.4682997478776
 20
467.1874536219693
 30
0.0
 10
628.4682997478776
 20
467.1874536219693
 30
0.0
 10
628.5012587322526
 20
473.6358178797818
 30
0.0
 10
631.5687025799089
 20
482.5714257899381
 30
0.0
 10
635.2804335369401
 20
486.9219506922818
 30
0.0
  0
HATCH
  5
4C
330
1F
100
AcDbEntity
  8
Layer 1
 62
     7
420
 16777215
100
AcDbHatch
 10
0.0
 20
0.0
 30
0.0
210
0.0
220
0.0
230
1.0
  2
SOLID
 70
     1
 71
     0
 91
       11
 92
        1
 93
        1
 72
     4
 94
        3
 73
     0
 74
     1
 95
      854
 96
      850
 40
0.0
 40
0.0
 40
0.0
 40
0.0
 40
1.0
 40
1.0
 40
1.0
 40
2.0
 40
2.0
 40
2.0
 40
3.0
 40
3.0
 40
3.0
 40
4.0
 40
4.0
 40
4.0
 40
5.0
 40
5.0
 40
5.0
 40
6.0
 40
6.0
 40
6.0
 40
7.0
 40
7.0
 40
7.0
 40
8.0
 40
8.0
 40
8.0
 40
9.0
 40
9.0
 40
9.0
 40
10.0
 40
10.0
 40
10.0
 40
11.0
 40
11.0
 40
11.0
 40
12.0
 40
12.0
 40
12.0
 40
13.0
 40
13.0
 40
13.0
 40
14.0
 40
14.0
 40
14.0
 40
15.0
 40
15.0
 40
15.0
 40
16.0
 40
16.0
 40
16.0
 40
17.0
 40
17.0
 40
17.0
 40
18.0
 40
18.0
 40
18.0
 40
19.0
 40
19.0
 40
19.0
 40
20.0
 40
20.0
 40
20.0
 40
21.0
 40
21.0
 40
21.0
 40
22.0
 40
22.0
 40
22.0
 40
23.0
 40
23.0
 40
23.0
 40
24.0
 40
24.0
 40
24.0
 40
25.0
 40
25.0
 40
25.0
 40
26.0
 40
26.0
 40
26.0
 40
27.0
 40
27.0
 40
27.0
 40
28.0
 40
28.0
 40
28.0
 40
29.0
 40
29.0
 40
29.0
 40
30.0
 40
30.0
 40
30.0
 40
31.0
 40
31.0
 40
31.0
 40
32.0
 40
32.0
 40
32.0
 40
33.0
 40
33.0
 40
33.0
 40
34.0
 40
34.0
 40
34.0
 40
35.0
 40
35.0
 40
35.0
 40
36.0
 40
36.0
 40
36.0
 40
37.0
 40
37.0
 40
37.0
 40
38.0
 40
38.0
 40
38.0
 40
39.0
 40
39.0
 40
39.0
 40
40.0
 40
40.0
 40
40.0
 40
41.0
 40
41.0
 40
41.0
 40
42.0
 40
42.0
 40
42.0
 40
43.0
 40
43.0
 40
43.0
 40
44.0
 40
44.0
 40
44.0
 40
45.0
 40
45.0
 40
45.0
 40
46.0
 40
46.0
 40
46.0
 40
47.0
 40
47.0
 40
47.0
 40
48.0
 40
48.0
 40
48.0
 40
49.0
 40
49.0
 40
49.0
 40
50.0
 40
50.0
 40
50.0
 40
51.0
 40
51.0
 40
51.0
 40
52.0
 40
52.0
 40
52.0
 40
53.0
 40
53.0
 40
53.0
 40
54.0
 40
54.0
 40
54.0
 40
55.0
 40
55.0
 40
55.0
 40
56.0
 40
56.0
 40
56.0
 40
57.0
 40
57.0
 40
57.0
 40
58.0
 40
58.0
 40
58.0
 40
59.0
 40
59.0
 40
59.0
 40
60.0
 40
60.0
 40
60.0
 40
61.0
 40
61.0
 40
61.0
 40
62.0
 40
62.0
 40
62.0
 40
63.0
 40
63.0
 40
63.0
 40
64.0
 40
64.0
 40
64.0
 40
65.0
 40
65.0
 40
65.0
 40
66.0
 40
66.0
 40
66.0
 40
67.0
 40
67.0
 40
67.0
 40
68.0
 40
68.0
 40
68.0
 40
69.0
 40
69.0
 40
69.0
 40
70.0
 40
70.0
 40
70.0
 40
71.0
 40
71.0
 40
71.0
 40
72.0
 40
72.0
 40
72.0
 40
73.0
 40
73.0
 40
73.0
 40
74.0
 40
74.0
 40
74.0
 40
75.0
 40
75.0
 40
75.0
 40
76.0
 40
76.0
 40
76.0
 40
77.0
 40
77.0
 40
77.0
 40
78.0
 40
78.0
 40
78.0
 40
79.0
 40
79.0
 40
79.0
 40
80.0
 40
80.0
 40
80.0
 40
81.0
 40
81.0
 40
81.0
 40
82.0
 40
82.0
 40
82.0
 40
83.0
 40
83.0
 40
83.0
 40
84.0
 40
84.0
 40
84.0
 40
85.0
 40
85.0
 40
85.0
 40
86.0
 40
86.0
 40
86.0
 40
87.0
 40
87.0
 40
87.0
 40
88.0
 40
88.0
 40
88.0
 40
89.0
 40
89.0
 40
89.0
 40
90.0
 40
90.0
 40
90.0
 40
91.0
 40
91.0
 40
91.0
 40
92.0
 40
92.0
 40
92.0
 40
93.0
 40
93.0
 40
93.0
 40
94.0
 40
94.0
 40
94.0
 40
95.0
 40
95.0
 40
95.0
 40
96.0
 40
96.0
 40
96.0
 40
97.0
 40
97.0
 40
97.0
 40
98.0
 40
98.0
 40
98.0
 40
99.0
 40
99.0
 40
99.0
 40
100.0
 40
100.0
 40
100.0
 40
101.0
 40
101.0
 40
101.0
 40
102.0
 40
102.0
 40
102.0
 40
103.0
 40
103.0
 40
103.0
 40
104.0
 40
104.0
 40
104.0
 40
105.0
 40
105.0
 40
105.0
 40
106.0
 40
106.0
 40
106.0
 40
107.0
 40
107.0
 40
107.0
 40
108.0
 40
108.0
 40
108.0
 40
109.0
 40
109.0
 40
109.0
 40
110.0
 40
110.0
 40
110.0
 40
111.0
 40
111.0
 40
111.0
 40
112.0
 40
112.0
 40
112.0
 40
113.0
 40
113.0
 40
113.0
 40
114.0
 40
114.0
 40
114.0
 40
115.0
 40
115.0
 40
115.0
 40
116.0
 40
116.0
 40
116.0
 40
117.0
 40
117.0
 40
117.0
 40
118.0
 40
118.0
 40
118.0
 40
119.0
 40
119.0
 40
119.0
 40
120.0
 40
120.0
 40
120.0
 40
121.0
 40
121.0
 40
121.0
 40
122.0
 40
122.0
 40
122.0
 40
123.0
 40
123.0
 40
123.0
 40
124.0
 40
124.0
 40
124.0
 40
125.0
 40
125.0
 40
125.0
 40
126.0
 40
126.0
 40
126.0
 40
127.0
 40
127.0
 40
127.0
 40
128.0
 40
128.0
 40
128.0
 40
129.0
 40
129.0
 40
129.0
 40
130.0
 40
130.0
 40
130.0
 40
131.0
 40
131.0
 40
131.0
 40
132.0
 40
132.0
 40
132.0
 40
133.0
 40
133.0
 40
133.0
 40
134.0
 40
134.0
 40
134.0
 40
135.0
 40
135.0
 40
135.0
 40
136.0
 40
136.0
 40
136.0
 40
137.0
 40
137.0
 40
137.0
 40
138.0
 40
138.0
 40
138.0
 40
139.0
 40
139.0
 40
139.0
 40
140.0
 40
140.0
 40
140.0
 40
141.0
 40
141.0
 40
141.0
 40
142.0
 40
142.0
 40
142.0
 40
143.0
 40
143.0
 40
143.0
 40
144.0
 40
144.0
 40
144.0
 40
145.0
 40
145.0
 40
145.0
 40
146.0
 40
146.0
 40
146.0
 40
147.0
 40
147.0
 40
147.0
 40
148.0
 40
148.0
 40
148.0
 40
149.0
 40
149.0
 40
149.0
 40
150.0
 40
150.0
 40
150.0
 40
151.0
 40
151.0
 40
151.0
 40
152.0
 40
152.0
 40
152.0
 40
153.0
 40
153.0
 40
153.0
 40
154.0
 40
154.0
 40
154.0
 40
155.0
 40
155.0
 40
155.0
 40
156.0
 40
156.0
 40
156.0
 40
157.0
 40
157.0
 40
157.0
 40
158.0
 40
158.0
 40
158.0
 40
159.0
 40
159.0
 40
159.0
 40
160.0
 40
160.0
 40
160.0
 40
161.0
 40
161.0
 40
161.0
 40
162.0
 40
162.0
 40
162.0
 40
163.0
 40
163.0
 40
163.0
 40
164.0
 40
164.0
 40
164.0
 40
165.0
 40
165.0
 40
165.0
 40
166.0
 40
166.0
 40
166.0
 40
167.0
 40
167.0
 40
167.0
 40
168.0
 40
168.0
 40
168.0
 40
169.0
 40
169.0
 40
169.0
 40
170.0
 40
170.0
 40
170.0
 40
171.0
 40
171.0
 40
171.0
 40
172.0
 40
172.0
 40
172.0
 40
173.0
 40
173.0
 40
173.0
 40
174.0
 40
174.0
 40
174.0
 40
175.0
 40
175.0
 40
175.0
 40
176.0
 40
176.0
 40
176.0
 40
177.0
 40
177.0
 40
177.0
 40
178.0
 40
178.0
 40
178.0
 40
179.0
 40
179.0
 40
179.0
 40
180.0
 40
180.0
 40
180.0
 40
181.0
 40
181.0
 40
181.0
 40
182.0
 40
182.0
 40
182.0
 40
183.0
 40
183.0
 40
183.0
 40
184.0
 40
184.0
 40
184.0
 40
185.0
 40
185.0
 40
185.0
 40
186.0
 40
186.0
 40
186.0
 40
187.0
 40
187.0
 40
187.0
 40
188.0
 40
188.0
 40
188.0
 40
189.0
 40
189.0
 40
189.0
 40
190.0
 40
190.0
 40
190.0
 40
191.0
 40
191.0
 40
191.0
 40
192.0
 40
192.0
 40
192.0
 40
193.0
 40
193.0
 40
193.0
 40
194.0
 40
194.0
 40
194.0
 40
195.0
 40
195.0
 40
195.0
 40
196.0
 40
196.0
 40
196.0
 40
197.0
 40
197.0
 40
197.0
 40
198.0
 40
198.0
 40
198.0
 40
199.0
 40
199.0
 40
199.0
 40
200.0
 40
200.0
 40
200.0
 40
201.0
 40
201.0
 40
201.0
 40
202.0
 40
202.0
 40
202.0
 40
203.0
 40
203.0
 40
203.0
 40
204.0
 40
204.0
 40
204.0
 40
205.0
 40
205.0
 40
205.0
 40
206.0
 40
206.0
 40
206.0
 40
207.0
 40
207.0
 40
207.0
 40
208.0
 40
208.0
 40
208.0
 40
209.0
 40
209.0
 40
209.0
 40
210.0
 40
210.0
 40
210.0
 40
211.0
 40
211.0
 40
211.0
 40
212.0
 40
212.0
 40
212.0
 40
213.0
 40
213.0
 40
213.0
 40
214.0
 40
214.0
 40
214.0
 40
215.0
 40
215.0
 40
215.0
 40
216.0
 40
216.0
 40
216.0
 40
217.0
 40
217.0
 40
217.0
 40
218.0
 40
218.0
 40
218.0
 40
219.0
 40
219.0
 40
219.0
 40
220.0
 40
220.0
 40
220.0
 40
221.0
 40
221.0
 40
221.0
 40
222.0
 40
222.0
 40
222.0
 40
223.0
 40
223.0
 40
223.0
 40
224.0
 40
224.0
 40
224.0
 40
225.0
 40
225.0
 40
225.0
 40
226.0
 40
226.0
 40
226.0
 40
227.0
 40
227.0
 40
227.0
 40
228.0
 40
228.0
 40
228.0
 40
229.0
 40
229.0
 40
229.0
 40
230.0
 40
230.0
 40
230.0
 40
231.0
 40
231.0
 40
231.0
 40
232.0
 40
232.0
 40
232.0
 40
233.0
 40
233.0
 40
233.0
 40
234.0
 40
234.0
 40
234.0
 40
235.0
 40
235.0
 40
235.0
 40
236.0
 40
236.0
 40
236.0
 40
237.0
 40
237.0
 40
237.0
 40
238.0
 40
238.0
 40
238.0
 40
239.0
 40
239.0
 40
239.0
 40
240.0
 40
240.0
 40
240.0
 40
241.0
 40
241.0
 40
241.0
 40
242.0
 40
242.0
 40
242.0
 40
243.0
 40
243.0
 40
243.0
 40
244.0
 40
244.0
 40
244.0
 40
245.0
 40
245.0
 40
245.0
 40
246.0
 40
246.0
 40
246.0
 40
247.0
 40
247.0
 40
247.0
 40
248.0
 40
248.0
 40
248.0
 40
249.0
 40
249.0
 40
249.0
 40
250.0
 40
250.0
 40
250.0
 40
251.0
 40
251.0
 40
251.0
 40
252.0
 40
252.0
 40
252.0
 40
253.0
 40
253.0
 40
253.0
 40
254.0
 40
254.0
 40
254.0
 40
255.0
 40
255.0
 40
255.0
 40
256.0
 40
256.0
 40
256.0
 40
257.0
 40
257.0
 40
257.0
 40
258.0
 40
258.0
 40
258.0
 40
259.0
 40
259.0
 40
259.0
 40
260.0
 40
260.0
 40
260.0
 40
261.0
 40
261.0
 40
261.0
 40
262.0
 40
262.0
 40
262.0
 40
263.0
 40
263.0
 40
263.0
 40
264.0
 40
264.0
 40
264.0
 40
265.0
 40
265.0
 40
265.0
 40
266.0
 40
266.0
 40
266.0
 40
267.0
 40
267.0
 40
267.0
 40
268.0
 40
268.0
 40
268.0
 40
269.0
 40
269.0
 40
269.0
 40
270.0
 40
270.0
 40
270.0
 40
271.0
 40
271.0
 40
271.0
 40
272.0
 40
272.0
 40
272.0
 40
273.0
 40
273.0
 40
273.0
 40
274.0
 40
274.0
 40
274.0
 40
275.0
 40
275.0
 40
275.0
 40
276.0
 40
276.0
 40
276.0
 40
277.0
 40
277.0
 40
277.0
 40
278.0
 40
278.0
 40
278.0
 40
279.0
 40
279.0
 40
279.0
 40
280.0
 40
280.0
 40
280.0
 40
281.0
 40
281.0
 40
281.0
 40
282.0
 40
282.0
 40
282.0
 40
283.0
 40
283.0
 40
283.0
 40
283.0
 10
962.5466688885026
 20
481.6361840907193
 10
962.5466688885026
 20
481.6361840907193
 10
906.5719984783464
 20
481.6361840907193
 10
906.5719984783464
 20
481.6361840907193
 10
905.4653090252214
 20
481.6361840907193
 10
904.3927382244401
 20
481.2533105555631
 10
903.5361708416276
 20
480.5525048915006
 10
903.5361708416276
 20
480.5525048915006
 10
893.6503676189714
 20
472.4645532313443
 10
893.6503676189714
 20
472.4645532313443
 10
893.6111830486589
 20
472.4325097743131
 10
893.5522841228776
 20
472.4461816493131
 10
893.5312269939714
 20
472.4922021571256
 10
893.5312269939714
 20
472.4922021571256
 10
880.0604017986589
 20
501.9602197352506
 10
880.0604017986589
 20
501.9602197352506
 10
879.3225477947526
 20
503.5751489344693
 10
877.7408827556901
 20
504.6393579188443
 10
875.9672011150651
 20
504.7118676844693
 10
874.1836928142839
 20
504.8412011805631
 10
872.5286024822526
 20
503.8593286219693
 10
871.6593397869401
 20
502.3109887782193
 10
871.6593397869401
 20
502.3109887782193
 10
861.0121229900651
 20
483.3567041102506
 10
861.0121229900651
 20
483.3567041102506
 10
860.9775770916276
 20
483.2951806727506
 10
860.8853529705339
 20
483.3084863368131
 10
860.8696059002214
 20
483.3772729579068
 10
860.8696059002214
 20
483.3772729579068
 10
844.9684218181901
 20
552.6572412196256
 10
844.9684218181901
 20
552.6572412196256
 10
844.5614393963151
 20
554.4303125086881
 10
843.2858656658464
 20
555.9828637782193
 10
841.5187147869401
 20
556.4151757899381
 10
838.5488051189714
 20
557.1417382899381
 10
835.8766859783464
 20
555.0716699305631
 10
835.6189955486589
 20
552.2763818446256
 10
835.6189955486589
 20
552.2763818446256
 10
823.3941420330339
 20
419.2063745204068
 10
823.3941420330339
 20
419.2063745204068
 10
823.3854750408464
 20
419.1121972743131
 10
823.2475966228776
 20
419.1131738368131
 10
823.2402724041276
 20
419.2074121180631
 10
823.2402724041276
 20
419.2074121180631
 10
806.2167738689714
 20
637.8412011805631
 10
806.2167738689714
 20
637.8412011805631
 10
806.0305556072526
 20
640.2313378993131
 10
804.0814589275651
 20
642.1009668055631
 10
801.6854628338151
 20
642.1881250086881
 10
799.2610853924089
 20
642.2459863368131
 10
797.2100600017839
 20
640.5487207118131
 10
796.8514174236589
 20
638.1803125086881
 10
796.8514174236589
 20
638.1803125086881
 10
773.3718642010026
 20
482.9567407313443
 10
773.3718642010026
 20
482.9567407313443
 10
773.3662489666276
 20
482.9195703211881
 10
773.3347548260026
 20
482.8918603602506
 10
773.2971571697526
 20
482.8910669032193
 10
773.2971571697526
 20
482.8910669032193
 10
745.2485121502214
 20
482.3050073329068
 10
745.2485121502214
 20
482.3050073329068
 10
744.2452772869401
 20
482.2840722743131
 10
743.2739027752214
 20
481.9489282313443
 10
742.4711073650651
 20
481.3468774500943
 10
742.4711073650651
 20
481.3468774500943
 10
736.8097914470964
 20
477.1009057704068
 10
736.8097914470964
 20
477.1009057704068
 10
736.7690809978776
 20
477.0703271571256
 10
736.7104262127214
 20
477.0868676844693
 10
736.6916884197526
 20
477.1342309657193
 10
736.6916884197526
 20
477.1342309657193
 10
725.6971815838151
 20
504.8956445399381
 10
725.6971815838151
 20
504.8956445399381
 10
725.1929091228776
 20
506.1688378993131
 10
724.2450331463151
 20
507.2827905360318
 10
722.9587782635026
 20
507.7528833094693
 10
720.2441786541276
 20
508.7450097743131
 10
717.5178602947526
 20
507.2498315516568
 10
716.7370985760026
 20
504.7550195399381
 10
716.7370985760026
 20
504.7550195399381
 10
705.7637099041276
 20
469.6905664149381
 10
705.7637099041276
 20
469.6905664149381
 10
705.7450941814714
 20
469.6310571375943
 10
705.6672133220964
 20
469.6170190516568
 10
705.6290053142839
 20
469.6663354579068
 10
705.6290053142839
 20
469.6663354579068
 10
698.5635756267839
 20
478.7782739344693
 10
698.5635756267839
 20
478.7782739344693
 10
697.6594618572526
 20
479.9442895594693
 10
696.2683485760026
 20
480.6284326258756
 10
694.7928844643684
 20
480.632766125671
 10
692.8651235036086
 20
480.661952117578
 10
690.9372073069353
 20
480.6826933558496
 10
689.0093180835393
 20
480.7010376354538
 10
684.9290246673554
 20
480.7398625027672
 10
680.8484391525471
 20
480.7626957621924
 10
676.7679542750247
 20
480.7513557396105
 10
676.1490752681111
 20
480.7496358209919
 10
675.5301984142752
 20
480.7470562478629
 10
674.9113030462104
 20
480.7434136202446
 10
674.269660683065
 20
480.7396350725121
 10
673.6279416793877
 20
480.661087516517
 10
673.0007144313404
 20
480.5276787233706
 10
672.5336989188017
 20
480.4283463424781
 10
671.7631005121584
 20
480.3578125242275
 10
671.5058530350452
 20
479.9089572651737
 10
671.241312817694
 20
479.4472689836821
 10
671.0009938915045
 20
478.9694232991678
 10
670.7555037578095
 20
478.4974086309339
 10
669.7917215563502
 20
476.6443022383355
 10
668.8978790184956
 20
474.7563564973152
 10
668.0093343904646
 20
472.866369540523
 10
667.5300121812943
 20
471.8468228628954
 10
667.0515878107308
 20
470.8268543180475
 10
666.5682142986589
 20
469.8092187586881
 10
664.9733046306901
 20
466.4529565516568
 10
663.3251112713151
 20
462.9823144618131
 10
661.8104017986589
 20
460.0792382899381
 10
657.7237929119401
 20
452.2462915125943
 10
653.9098891033464
 20
446.6193383875943
 10
649.8081434978776
 20
442.3714746180631
 10
648.4453505291276
 20
440.9604638758756
 10
646.6232680095964
 20
440.0992578211881
 10
644.8636854900651
 20
439.2675927821256
 10
644.2979506267839
 20
439.0014795008756
 10
643.7635267986589
 20
438.7500756922818
 10
643.2931898845964
 20
438.6798852625943
 10
642.7392958416276
 20
438.5984033290006
 10
642.1347426189714
 20
438.7221215907193
 10
641.5184096111589
 20
438.8350366297818
 10
633.0555800213151
 20
440.3747094813443
 10
629.1724623455339
 20
449.9235376063443
 10
628.9217299236589
 20
459.2268823329068
 10
632.2990492595964
 20
460.0139306727506
 10
639.4177016033464
 20
461.9395288172818
 10
640.5102309002214
 20
462.4952539149381
 10
645.2714613689714
 20
464.9177392665006
 10
648.5391005291276
 20
468.2872461024381
 10
650.2218397869401
 20
472.5095361415006
 10
650.8880385174089
 20
474.1808007899381
 10
651.2755507244401
 20
475.9006494227506
 10
651.6504896892839
 20
477.5635522547818
 10
653.0875014080339
 20
483.9363549891568
 10
651.5238417400651
 20
489.6438745204068
 10
647.2489393963151
 20
493.6349023524381
 10
643.8783339275651
 20
496.7805322352506
 10
639.3838881267839
 20
498.5848535243131
 10
634.9165419353776
 20
498.5848535243131
 10
631.5670546306901
 20
498.5848535243131
 10
628.4235609783464
 20
497.5778955165006
 10
625.8246840252214
 20
495.6729272547818
 10
622.2247084392839
 20
493.0341333094693
 10
619.2181166424089
 20
488.7275537196256
 10
617.1606825603776
 20
483.3829492274381
 10
616.5580824627214
 20
482.9364770594693
 10
616.1123427166276
 20
482.2299340907193
 10
615.7914198650651
 20
481.6435083094693
 10
613.9178236736589
 20
478.2229760829068
 10
611.8863295330339
 20
473.9456323329068
 10
609.9215468181901
 20
469.8092187586881
 10
608.3265761150651
 20
466.4529565516568
 10
606.6784437908464
 20
462.9823144618131
 10
605.1637343181901
 20
460.0792382899381
 10
601.0771254314714
 20
452.2462915125943
 10
597.2632216228776
 20
446.6193383875943
 10
593.1614149822526
 20
442.3714746180631
 10
591.7986830486589
 20
440.9604638758756
 10
589.9766005291276
 20
440.0992578211881
 10
588.2170180095964
 20
439.2675927821256
 10
587.6512831463151
 20
439.0014795008756
 10
587.1167982830339
 20
438.7500756922818
 10
586.6465224041276
 20
438.6798852625943
 10
586.0934828533464
 20
438.5984033290006
 10
585.4880751385026
 20
438.7221215907193
 10
584.8717421306901
 20
438.8350366297818
 10
576.4089125408464
 20
440.3747094813443
 10
572.5257948650651
 20
449.9235376063443
 10
572.2750624431901
 20
459.2268823329068
 10
575.6523817791276
 20
460.0139306727506
 10
582.7710341228776
 20
461.9395288172818
 10
583.8635634197526
 20
462.4952539149381
 10
588.6247938885026
 20
464.9177392665006
 10
591.8923720135026
 20
468.2872461024381
 10
593.5751723064714
 20
472.5095361415006
 10
594.2413710369401
 20
474.1808007899381
 10
594.6288832439714
 20
475.9006494227506
 10
595.0037611736589
 20
477.5635522547818
 10
596.4408339275651
 20
483.9363549891568
 10
594.8771132244401
 20
489.6438745204068
 10
590.6022719158464
 20
493.6349023524381
 10
587.2316664470964
 20
496.7805322352506
 10
582.7372206463151
 20
498.5848535243131
 10
578.2698134197526
 20
498.5848535243131
 10
574.9203261150651
 20
498.5848535243131
 10
571.7768934978776
 20
497.5778955165006
 10
569.1780165447526
 20
495.6729272547818
 10
565.2252577556901
 20
492.7755273524381
 10
561.9892348064714
 20
487.8679956141568
 10
559.9410780681901
 20
481.7797387782193
 10
559.4078139080339
 20
481.0948022547818
 10
558.5789564861589
 20
479.8632959071256
 10
557.2407606853776
 20
477.8341211024381
 10
556.8641737713151
 20
477.2636254969693
 10
556.5661391033464
 20
476.8109277430631
 10
556.4453505291276
 20
476.6410669032193
 10
555.1155165447526
 20
474.7797998133756
 10
553.9933851970964
 20
473.2690576258756
 10
552.9143446697526
 20
471.8869775477506
 10
550.3694838299089
 20
468.6250146571256
 10
547.6102064861589
 20
465.1499170008756
 10
544.6727675213151
 20
461.8393701258756
 10
541.0243910564714
 20
457.7284692469693
 10
537.8513563885026
 20
454.2715600672818
 10
534.2232435955339
 20
450.7611230555631
 10
533.6262587322526
 20
450.1837915125943
 10
529.9820936931901
 20
447.2379296961881
 10
527.9126356853776
 20
445.7154687586881
 10
526.2957533611589
 20
449.9466088954068
 10
524.9025648845964
 20
452.0165551844693
 10
523.0661391033464
 20
454.7458642665006
 10
523.0661391033464
 20
454.7458642665006
 10
522.7866591228776
 20
455.1602319422818
 10
522.7866591228776
 20
455.1602319422818
 10
521.1401747478776
 20
457.6091455165006
 10
519.1534804119401
 20
459.9088891688443
 10
517.3339003338151
 20
461.4696191493131
 10
516.3156508220964
 20
462.3426049891568
 10
515.1800307049089
 20
462.8733056727506
 10
514.2926405681901
 20
463.1865380946256
 10
514.4319227947526
 20
467.2576440516568
 10
514.8777235760026
 20
471.3243554774381
 10
515.6207655681901
 20
475.2972558680631
 10
515.7262953533464
 20
475.8614038172818
 10
515.8360365642839
 20
476.3960717860318
 10
516.0133436931901
 20
476.7367700282193
 10
516.2674940838151
 20
477.2213891688443
 10
516.8255995525651
 20
477.6485131922818
 10
517.4344252361589
 20
478.1149438563443
 10
528.2655409588151
 20
486.4142602625943
 10
553.4555434002214
 20
509.0297387782193
 10
553.4446181072526
 20
539.7053979579068
 10
553.4446181072526
 20
541.4679712000943
 10
553.3508681072526
 20
543.2713159266568
 10
553.1651381267839
 20
545.0672753993131
 10
552.6863783611589
 20
549.6828759852506
 10
551.4891127361589
 20
553.5943750086881
 10
549.6053847088151
 20
556.6943505946256
 10
546.7312392010026
 20
561.4238427821256
 10
542.3516615642839
 20
564.0284570399381
 10
537.2738417400651
 20
564.0284570399381
 10
533.7698134197526
 20
564.0284570399381
 10
530.1712416424089
 20
562.8147729579068
 10
526.8682020916276
 20
560.5180200282193
 10
522.6076430095964
 20
557.5550683680631
 10
518.9271620525651
 20
552.9527124110318
 10
515.6174086345964
 20
546.4483789149381
 10
508.7406386150651
 20
532.9438012782193
 10
506.0607069744401
 20
518.5373071375943
 10
503.2233046306901
 20
503.2849267665006
 10
502.8028334392839
 20
501.0235131922818
 10
502.3806532635026
 20
498.7557519618131
 10
501.9429091228776
 20
496.4840234461881
 10
500.8420790447526
 20
490.7729028407193
 10
499.9507826580339
 20
485.2075952235318
 10
499.2662733806901
 20
479.7683252040006
 10
498.8985975994401
 20
479.2215112391568
 10
498.4776991619401
 20
478.5876001063443
 10
497.9803847088151
 20
477.8336328211881
 10
497.6038588299089
 20
477.2636254969693
 10
497.3066176189714
 20
476.8109277430631
 10
497.1854628338151
 20
476.6410669032193
 10
495.8569105877214
 20
474.7822412196256
 10
494.7352064861589
 20
473.2715600672818
 10
493.6557387127214
 20
471.8869775477506
 10
491.1087416424089
 20
468.6230615321256
 10
488.3473280681901
 20
465.1469873133756
 10
485.4128798260026
 20
461.8393701258756
 10
481.7640150799089
 20
457.7279809657193
 10
478.5910414470964
 20
454.2710717860318
 10
474.9632948650651
 20
450.7611230555631
 10
474.3667982830339
 20
450.1842797938443
 10
470.7230604900651
 20
447.2379296961881
 10
468.6527479900651
 20
445.7154687586881
 10
467.0358046306901
 20
449.9485620204068
 10
465.6422499431901
 20
452.0189965907193
 10
463.8041151775651
 20
454.7492822352506
 10
463.8041151775651
 20
454.7492822352506
 10
463.5275648845964
 20
455.1602319422818
 10
463.5275648845964
 20
455.1602319422818
 10
461.8794325603776
 20
457.6106103602506
 10
459.8923109783464
 20
459.9103540125943
 10
458.0740126385026
 20
461.4696191493131
 10
457.0557631267839
 20
462.3426049891568
 10
455.9209364666276
 20
462.8733056727506
 10
455.0335463299089
 20
463.1865380946256
 10
455.1724623455339
 20
467.2581323329068
 10
455.6178358806901
 20
471.3243554774381
 10
456.3616713299089
 20
475.2972558680631
 10
456.4676283611589
 20
475.8618920985318
 10
456.5770033611589
 20
476.3965600672818
 10
456.7551649822526
 20
476.7382348719693
 10
457.0080336345964
 20
477.2218774500943
 10
457.5661391033464
 20
477.6485131922818
 10
458.1753309978776
 20
478.1149438563443
 10
469.0060805095964
 20
486.4142602625943
 10
494.1965101970964
 20
509.0297387782193
 10
494.1850966228776
 20
539.7053979579068
 10
494.1850966228776
 20
541.4694360438443
 10
494.0909804119401
 20
543.2732690516568
 10
493.9051893963151
 20
545.0672753993131
 10
493.4264906658464
 20
549.6828759852506
 10
492.2292250408464
 20
553.5949243250943
 10
490.3467177166276
 20
556.6943505946256
 10
487.4726332439714
 20
561.4238427821256
 10
483.0930556072526
 20
564.0284570399381
 10
478.0147475017839
 20
564.0284570399381
 10
474.5107802166276
 20
564.0284570399381
 10
470.9122084392839
 20
562.8147729579068
 10
467.6083143963151
 20
560.5180200282193
 10
463.3473280681901
 20
557.5550683680631
 10
459.6672743572526
 20
552.9527124110318
 10
456.3574599041276
 20
546.4483789149381
 10
449.4811781658464
 20
532.9442895594693
 10
446.8012465252214
 20
518.5377954188443
 10
443.9638441814714
 20
503.2854150477506
 10
443.5433729900651
 20
501.0240014735318
 10
443.1211928142839
 20
498.7557519618131
 10
442.6833876385026
 20
496.4840234461881
 10
441.8134535564714
 20
491.9707177821256
 10
441.0795058025651
 20
487.5516503993131
 10
440.4697645916276
 20
483.2105859461881
 10
439.6595839275651
 20
482.7415307704068
 10
438.9194716228776
 20
482.0818628016568
 10
438.2430189861589
 20
481.4726709071256
 10
437.7967909588151
 20
481.0710595790006
 10
437.3754652752214
 20
480.6915429774381
 10
437.0221327556901
 20
480.4494775477506
 10
436.3432387127214
 20
479.9825586024381
 10
435.6876600994401
 20
479.4788354579068
 10
435.0539931072526
 20
478.9918359461881
 10
434.2581557049089
 20
478.3805688563443
 10
433.5062636150651
 20
477.8031762782193
 10
432.7261122478776
 20
477.3043359461881
 10
430.0871351970964
 20
475.6173852625943
 10
427.5942152752214
 20
474.7257837000943
 10
425.5171889080339
 20
474.7257837000943
 10
425.5171889080339
 20
474.7257837000943
 10
425.4758070720964
 20
474.7257837000943
 10
425.4758070720964
 20
474.7257837000943
 10
425.5783461345964
 20
475.6404565516568
 10
425.6872938885026
 20
476.5497583094693
 10
425.7953871502214
 20
477.4565576258756
 10
426.3006972088151
 20
481.6847680750943
 10
426.8233412517839
 20
486.0568383875943
 10
426.6966933025651
 20
490.6454003993131
 10
426.6384657635026
 20
492.7364648524381
 10
426.4999769939714
 20
494.8387597743131
 10
426.2854994549089
 20
496.8939965907193
 10
425.2524794353776
 20
506.7791284266568
 10
420.3823012127214
 20
518.3316186610318
 10
410.0873183025651
 20
518.0576318446256
 10
400.6475600017839
 20
517.7832177821256
 10
390.0444105877214
 20
511.7511743250943
 10
389.0700453533464
 20
499.1563256922818
 10
388.9433363689714
 20
497.5277856532193
 10
388.8483656658464
 20
495.7961572352506
 10
389.1894911541276
 20
494.1082299891568
 10
389.3157118572526
 20
493.4842065516568
 10
389.5817030681901
 20
492.8916162196256
 10
389.8387831463151
 20
492.3181298915006
 10
389.9772719158464
 20
492.0088647547818
 10
390.1946791424089
 20
491.5242456141568
 10
390.2740248455339
 20
491.2404931727506
 10
390.0026015056901
 20
490.6631005946256
 10
389.6281508220964
 20
490.0739282313443
 10
389.2346571697526
 20
489.4553369227506
 10
388.6613539470964
 20
488.5524438563443
 10
388.0112074627214
 20
487.5292504969693
 10
387.5611952556901
 20
486.3297876063443
 10
386.5308607830339
 20
483.5799707118131
 10
386.0322035564714
 20
480.6159204188443
 10
385.7907484783464
 20
477.7062524500943
 10
385.6359633220964
 20
477.3944848719693
 10
385.4786146892839
 20
477.0770410243131
 10
385.3093031658464
 20
476.7353051844693
 10
380.9470595135026
 20
467.9273217860318
 10
369.3589247478776
 20
444.5312646571256
 10
360.9467543377214
 20
444.5312646571256
 10
359.2855604900651
 20
444.5312646571256
 10
357.8016127361589
 20
445.5009301844693
 10
356.4105604900651
 20
447.4951928797818
 10
352.8753432049089
 20
452.5644677821256
 10
350.7885512127214
 20
458.9176171961881
 10
350.2084730877214
 20
466.3783715907193
 10
349.4114149822526
 20
476.6322168055631
 10
351.7502211345964
 20
488.1164697352506
 10
356.6250380291276
 20
497.8847192469693
 10
357.8429945720964
 20
500.3243554774381
 10
359.5527724041276
 20
503.2618554774381
 10
361.9827650799089
 20
504.3316796961881
 10
362.5611342205339
 20
504.5864404383756
 10
363.1138075603776
 20
504.7155908290006
 10
363.6258925213151
 20
504.7155908290006
 10
364.9463881267839
 20
504.7155908290006
 10
365.7827528728776
 20
503.8412011805631
 10
366.2517470135026
 20
503.1071923915006
 10
367.2826918377214
 20
501.4948266688443
 10
367.5815809978776
 20
499.0330957118131
 10
367.0129164470964
 20
496.8350366297818
 10
366.8947523845964
 20
496.3779443446256
 10
366.6287611736589
 20
495.8590234461881
 10
366.3467787517839
 20
495.3101342860318
 10
366.2112196697526
 20
495.0459741297818
 10
366.0761488689714
 20
494.7813256922818
 10
365.9490736736589
 20
494.5132592860318
 10
365.2681044353776
 20
493.0713037196256
 10
365.0907973064714
 20
491.7579492274381
 10
365.4222182049089
 20
490.6090844813443
 10
365.6147230877214
 20
489.9413598719693
 10
366.0744398845964
 20
489.0257104579068
 10
367.1720961345964
 20
488.4537500086881
 10
367.6985243572526
 20
488.1792749110318
 10
368.2241591228776
 20
488.0403588954068
 10
368.7349623455339
 20
488.0403588954068
 10
371.0395888103776
 20
488.0408471766568
 10
372.0228041424089
 20
490.6498559657193
 10
372.3462294353776
 20
491.5075830165006
 10
374.9003065838151
 20
498.2878564540006
 10
373.0474013103776
 20
506.3087915125943
 10
367.8399428142839
 20
511.0132592860318
 10
365.4800184978776
 20
513.1450341883756
 10
362.3104017986589
 20
514.2718042079068
 10
358.6746596111589
 20
514.2718042079068
 10
354.3318251385026
 20
514.2718042079068
 10
349.9142225994401
 20
512.6461938563443
 10
346.8577040447526
 20
509.9232934657193
 10
341.4792860760026
 20
505.1319116297818
 10
337.2567518963151
 20
497.8631738368131
 10
334.9681776775651
 20
489.4558252040006
 10
334.2607191814714
 20
486.8562768641568
 10
333.7191542400651
 20
484.2417138758756
 10
333.3412245525651
 20
481.6361840907193
 10
333.3412245525651
 20
481.6361840907193
 10
306.5883559002214
 20
481.6361840907193
 10
306.5883559002214
 20
481.6361840907193
 10
305.4817274822526
 20
481.6361840907193
 10
304.4090956463151
 20
481.2533105555631
 10
303.5525892986589
 20
480.5525048915006
 10
303.5525892986589
 20
480.5525048915006
 10
293.6667250408464
 20
472.4645532313443
 10
293.6667250408464
 20
472.4645532313443
 10
293.6275404705339
 20
472.4325097743131
 10
293.5686415447526
 20
472.4461816493131
 10
293.5476454510026
 20
472.4922021571256
 10
293.5476454510026
 20
472.4922021571256
 10
280.0768202556901
 20
501.9602197352506
 10
280.0768202556901
 20
501.9602197352506
 10
279.3389052166276
 20
503.5751489344693
 10
277.7572401775651
 20
504.6393579188443
 10
275.9835585369401
 20
504.7118676844693
 10
274.2000502361589
 20
504.8412011805631
 10
272.5449599041276
 20
503.8593286219693
 10
271.6757582439714
 20
502.3109887782193
 10
271.6757582439714
 20
502.3109887782193
 10
261.0284804119401
 20
483.3567041102506
 10
261.0284804119401
 20
483.3567041102506
 10
260.9939345135026
 20
483.2951806727506
 10
260.9017103924089
 20
483.3084863368131
 10
260.8859633220964
 20
483.3772729579068
 10
260.8859633220964
 20
483.3772729579068
 10
244.9847792400651
 20
552.6572412196256
 10
244.9847792400651
 20
552.6572412196256
 10
244.5777968181901
 20
554.4303125086881
 10
243.3022230877214
 20
555.9828637782193
 10
241.5350722088151
 20
556.4151757899381
 10
238.5651625408464
 20
557.1417382899381
 10
235.8930434002214
 20
555.0716699305631
 10
235.6353529705339
 20
552.2763818446256
 10
235.6353529705339
 20
552.2763818446256
 10
223.4104994549089
 20
419.2063745204068
 10
223.4104994549089
 20
419.2063745204068
 10
223.4018324627214
 20
419.1121972743131
 10
223.2639540447526
 20
419.1131738368131
 10
223.2566298260026
 20
419.2074121180631
 10
223.2566298260026
 20
419.2074121180631
 10
206.2331312908464
 20
637.8412011805631
 10
206.2331312908464
 20
637.8412011805631
 10
206.0469130291276
 20
640.2313378993131
 10
204.0978163494401
 20
642.1009668055631
 10
201.7018812908464
 20
642.1881250086881
 10
199.2775038494401
 20
642.2459863368131
 10
197.2264784588151
 20
640.5487207118131
 10
196.8677748455339
 20
638.1803125086881
 10
196.8677748455339
 20
638.1803125086881
 10
173.3882826580339
 20
482.9567407313443
 10
173.3882826580339
 20
482.9567407313443
 10
173.3826674236589
 20
482.9195703211881
 10
173.3511122478776
 20
482.8918603602506
 10
173.3135145916276
 20
482.8910669032193
 10
173.3135145916276
 20
482.8910669032193
 10
145.2642592205339
 20
482.3050073329068
 10
145.2642592205339
 20
482.3050073329068
 10
144.2614516033464
 20
482.2840112391568
 10
143.2904433025651
 20
481.9490503016568
 10
142.4879530681901
 20
481.3472436610318
 10
142.4879530681901
 20
481.3472436610318
 10
136.8261488689714
 20
477.1009057704068
 10
136.8261488689714
 20
477.1009057704068
 10
136.7854384197526
 20
477.0703271571256
 10
136.7267836345964
 20
477.0868676844693
 10
136.7080458416276
 20
477.1342309657193
 10
136.7080458416276
 20
477.1342309657193
 10
125.7135390056901
 20
504.8956445399381
 10
125.7135390056901
 20
504.8956445399381
 10
125.2092665447526
 20
506.1688378993131
 10
124.2614516033464
 20
507.2827905360318
 10
122.9751967205339
 20
507.7528833094693
 10
120.2605360760026
 20
508.7450097743131
 10
117.5342177166276
 20
507.2498315516568
 10
116.7534559978776
 20
504.7550195399381
 10
116.7534559978776
 20
504.7550195399381
 10
105.7800673260026
 20
469.6905664149381
 10
105.7800673260026
 20
469.6905664149381
 10
105.7614516033464
 20
469.6310571375943
 10
105.6836317791276
 20
469.6170190516568
 10
105.6453627361589
 20
469.6663354579068
 10
105.6453627361589
 20
469.6663354579068
 10
98.55686175959636
 20
478.8080590907193
 10
98.55686175959636
 20
478.8080590907193
 10
97.66709125178386
 20
479.9545434657193
 10
96.29715716975261
 20
480.6287988368131
 10
94.84384906428386
 20
480.6327050868131
 10
94.84384906428386
 20
480.6327050868131
 10
37.54459369319011
 20
480.8011010829068
 10
37.53092181819011
 20
480.8011010829068
 10
34.93210590022136
 20
480.8011010829068
 10
33.02353656428386
 20
478.2134545985318
 10
33.01566302912761
 20
475.6126855555631
 10
33.00785052912761
 20
473.0080102625943
 10
36.29795062678386
 20
471.3714135829068
 10
38.90268695490886
 20
471.3655542079068
 10
38.90268695490886
 20
471.3655542079068
 10
92.47684466975261
 20
471.2077172938443
 10
92.47684466975261
 20
471.2077172938443
 10
92.50064838069011
 20
471.2076562586881
 10
92.52304828303386
 20
471.1966088954068
 10
92.53763568537761
 20
471.1778100672818
 10
92.53763568537761
 20
471.1778100672818
 10
103.6882094158464
 20
456.7983545008756
 10
103.6882094158464
 20
456.7983545008756
 10
104.4034193767839
 20
455.8761132899381
 10
105.3849867595964
 20
455.1419213954068
 10
106.5288466228776
 20
454.9105371180631
 10
109.0441664470964
 20
454.4018090907193
 10
111.3395766033464
 20
455.8728173915006
 10
112.0419081463151
 20
458.1175073329068
 10
112.0419081463151
 20
458.1175073329068
 10
121.7105482830339
 20
489.0127710047818
 10
121.7105482830339
 20
489.0127710047818
 10
121.7322767986589
 20
489.0821679774381
 10
121.8292006267839
 20
489.0857690516568
 10
121.8559950603776
 20
489.0181420985318
 10
121.8559950603776
 20
489.0181420985318
 10
130.2492445720964
 20
467.8248437586881
 10
130.2492445720964
 20
467.8248437586881
 10
130.7911757244401
 20
466.4587548915006
 10
131.9386976970964
 20
465.4220117274381
 10
133.3537367595964
 20
465.0221704188443
 10
134.7677382244401
 20
464.6223901454068
 10
136.2876356853776
 20
464.9065698329068
 10
137.4645766033464
 20
465.7885278407193
 10
137.4645766033464
 20
465.7885278407193
 10
146.9335097088151
 20
472.8899682704068
 10
146.9781874431901
 20
472.9053491297818
 10
146.9781874431901
 20
472.9053491297818
 10
177.5462416424089
 20
473.5437768641568
 10
177.5462416424089
 20
473.5437768641568
 10
179.8412855877214
 20
473.5927880946256
 10
181.7678602947526
 20
475.2841333094693
 10
182.1117934002214
 20
477.5537255946256
 10
182.1117934002214
 20
477.5537255946256
 10
199.9281996502214
 20
595.3421777430631
 10
199.9281996502214
 20
595.3421777430631
 10
199.9419325603776
 20
595.4329980555631
 10
200.0743178142839
 20
595.4281152430631
 10
200.0814589275651
 20
595.3365625086881
 10
200.0814589275651
 20
595.3365625086881
 10
218.2374037517839
 20
362.1594384852506
 10
218.2374037517839
 20
362.1594384852506
 10
218.4275282635026
 20
359.7174218836881
 10
220.4560316814714
 20
357.8261254969693
 10
222.9401625408464
 20
357.8104394618131
 10
225.3753432049089
 20
357.8104394618131
 10
227.4126356853776
 20
359.6664575282193
 10
227.6360853924089
 20
362.0947412196256
 10
227.6360853924089
 20
362.0947412196256
 10
242.2871474041276
 20
521.5723413172818
 10
242.2871474041276
 20
521.5723413172818
 10
242.2952040447526
 20
521.6597436610318
 10
242.4196547283464
 20
521.6681054774381
 10
242.4393080486589
 20
521.5825341883756
 10
242.4393080486589
 20
521.5825341883756
 10
254.4153822674089
 20
469.4017480555631
 10
254.4153822674089
 20
469.4017480555631
 10
254.7780531658464
 20
467.8216699305631
 10
255.8146132244401
 20
466.3972314540006
 10
257.3335951580339
 20
465.8307641688443
 10
259.6044691814714
 20
464.9839013758756
 10
262.0470961345964
 20
465.9138940516568
 10
263.1756972088151
 20
467.9208520594693
 10
263.1756972088151
 20
467.9208520594693
 10
275.2810438885026
 20
489.4687646571256
 10
275.2810438885026
 20
489.4687646571256
 10
275.3119887127214
 20
489.5238183680631
 10
275.3923109783464
 20
489.5204614344693
 10
275.4185560955339
 20
489.4630273524381
 10
275.4185560955339
 20
489.4630273524381
 10
287.5537489666276
 20
462.9192041102506
 10
287.5537489666276
 20
462.9192041102506
 10
288.1613539470964
 20
461.5884545985318
 10
289.3519667400651
 20
460.6163476649381
 10
290.7757948650651
 20
460.2851098719693
 10
292.2006605877214
 20
459.9558862391568
 10
293.6960829510026
 20
460.3007959071256
 10
294.8298720135026
 20
461.2298120204068
 10
294.8298720135026
 20
461.2298120204068
 10
308.2229994549089
 20
472.1876977625943
 10
308.2718886150651
 20
472.2051538172818
 10
308.2718886150651
 20
472.2051538172818
 10
319.2464979900651
 20
472.2051538172818
 10
332.6991347088151
 20
472.2051538172818
 10
332.7583998455339
 20
464.2397607508756
 10
334.3887099041276
 20
456.6461328211881
 10
337.5666273845964
 20
450.1651147547818
 10
341.0832899822526
 20
442.9930566493131
 10
345.2906264080339
 20
438.3288720790006
 10
350.4453505291276
 20
435.8980859461881
 10
352.5760267986589
 20
434.9225000086881
 10
354.7670668377214
 20
434.4281152430631
 10
356.9581068767839
 20
434.4281152430631
 10
365.5839003338151
 20
434.4281152430631
 10
372.4888685955339
 20
441.8122705165006
 10
376.7624892010026
 20
448.0072778407193
 10
379.4338759197526
 20
451.8800195399381
 10
383.1667250408464
 20
457.7585595790006
 10
386.4402846111589
 20
463.6352075282193
 10
388.5732802166276
 20
453.6041406336881
 10
394.5622328533464
 20
444.8721460047818
 10
403.1164320720964
 20
444.8729394618131
 10
406.0302504314714
 20
444.8729394618131
 10
409.0306166424089
 20
445.9192041102506
 10
412.0334852947526
 20
447.9817651454068
 10
417.6833876385026
 20
451.8628686610318
 10
420.9585951580339
 20
458.3382714930631
 10
422.7105482830339
 20
463.0858911219693
 10
422.7105482830339
 20
463.0858911219693
 10
422.7865980877214
 20
463.2921289149381
 10
422.7865980877214
 20
463.2921289149381
 10
423.0056532635026
 20
463.8866723719693
 10
423.2159193767839
 20
464.4576562586881
 10
423.4569472088151
 20
464.9447168055631
 10
423.7174452556901
 20
465.0468286219693
 10
423.9720228924089
 20
465.1577905360318
 10
424.2198256267839
 20
465.2771142665006
 10
427.8652724041276
 20
465.9585717860318
 10
431.2936781658464
 20
467.1992334071256
 10
434.4131239666276
 20
468.9657739344693
 10
436.0873793377214
 20
469.9141381922818
 10
437.6876600994401
 20
471.0192407313443
 10
439.1874769939714
 20
472.2442163172818
 10
437.9545058025651
 20
458.8750756922818
 10
438.0238417400651
 20
446.2477563563443
 10
439.3871229900651
 20
434.0726464930631
 10
440.6823500408464
 20
422.5009912196256
 10
443.0287245525651
 20
414.2262719813443
 10
446.9954603924089
 20
407.2422021571256
 10
449.6365126385026
 20
402.5922387782193
 10
454.2917860760026
 20
397.6241601649381
 10
459.4384535564714
 20
397.6241601649381
 10
461.8608778728776
 20
397.6241601649381
 10
465.3121107830339
 20
398.7833398524381
 10
467.9958266033464
 20
404.3042749110318
 10
472.2854994549089
 20
413.1284326258756
 10
473.0889052166276
 20
424.6009057704068
 10
470.3882826580339
 20
438.4221337977506
 10
471.7476576580339
 20
439.3407128993131
 10
474.1050184978776
 20
441.0836938563443
 10
477.0678480877214
 20
443.8767846766568
 10
479.3044813885026
 20
445.9840234461881
 10
481.8982924236589
 20
448.4496606532193
 10
484.3852919353776
 20
451.0507959071256
 10
489.2558363689714
 20
456.1480249110318
 10
493.8249892010026
 20
461.6179345790006
 10
497.9664686931901
 20
467.3097070399381
 10
497.9958266033464
 20
467.3500512782193
 10
498.0286635174089
 20
467.3983911219693
 10
498.0583266033464
 20
467.4394677821256
 10
497.2507704510026
 20
455.8365625086881
 10
497.4477309002214
 20
444.7794336024381
 10
498.6465834392839
 20
434.0726464930631
 10
499.9418104900651
 20
422.5009912196256
 10
502.2882460369401
 20
414.2262719813443
 10
506.2549208416276
 20
407.2417138758756
 10
508.8960341228776
 20
402.5922387782193
 10
513.5521010174089
 20
397.6241601649381
 10
518.6975477947526
 20
397.6241601649381
 10
521.1199110760026
 20
397.6241601649381
 10
524.5715712322526
 20
398.7833398524381
 10
527.2549208416276
 20
404.3042749110318
 10
531.5458143963151
 20
413.1294091883756
 10
532.3487929119401
 20
424.6009057704068
 10
529.6477431072526
 20
438.4211572352506
 10
531.0063246502214
 20
439.3392480555631
 10
533.3594740642839
 20
441.0797265711881
 10
536.3273085369401
 20
443.8767846766568
 10
538.5665053142839
 20
445.9864648524381
 10
541.1628187908464
 20
448.4546045008756
 10
543.6443251385026
 20
451.0507959071256
 10
548.4266127361589
 20
456.0558007899381
 10
552.9161146892839
 20
461.4262231532193
 10
557.0029677166276
 20
467.0133203211881
 10
556.8666151775651
 20
465.2128442469693
 10
556.8045424236589
 20
463.4320825282193
 10
556.8396986736589
 20
461.6935571375943
 10
556.9621351970964
 20
455.6580346766568
 10
558.0969008220964
 20
450.0963891688443
 10
560.2103041424089
 20
445.1646264735318
 10
564.4716566814714
 20
435.2141259852506
 10
573.0771254314714
 20
428.7844384852506
 10
582.1335219158464
 20
428.7844384852506
 10
587.5777968181901
 20
428.7844384852506
 10
592.6464003338151
 20
431.0983422938443
 10
596.7929457439714
 20
435.4768212977506
 10
601.5845717205339
 20
440.5372461024381
 10
605.1088026775651
 20
446.4298242274381
 10
608.8948744549089
 20
453.0505517665006
 10
610.6113661541276
 20
456.0514672938443
 10
612.1283339275651
 20
458.8565820399381
 10
613.4927138103776
 20
461.5404809657193
 10
613.6312636150651
 20
455.5645898524381
 10
614.7616347088151
 20
450.0542749110318
 10
616.8569716228776
 20
445.1646264735318
 10
621.1183241619401
 20
435.2141259852506
 10
629.7238539470964
 20
428.7844384852506
 10
638.7801893963151
 20
428.7844384852506
 10
644.2245253338151
 20
428.7844384852506
 10
649.2930678142839
 20
431.0983422938443
 10
653.4396132244401
 20
435.4768212977506
 10
658.2312392010026
 20
440.5372461024381
 10
661.7555311931901
 20
446.4298242274381
 10
665.5415419353776
 20
453.0505517665006
 10
669.4343031658464
 20
459.8561547938443
 10
672.3358534588151
 20
465.6851342860318
 10
674.6136854900651
 20
471.2603906336881
 10
680.5625990642839
 20
471.2428735438443
 10
686.5115126385026
 20
471.2252954188443
 10
692.4602431072526
 20
471.2078393641568
 10
692.4816664470964
 20
471.1972802821256
 10
692.4998549236589
 20
471.1883691493131
 10
692.5212782635026
 20
471.1778100672818
 10
692.5212782635026
 20
471.1778100672818
 10
703.6718519939714
 20
456.7983545008756
 10
703.6718519939714
 20
456.7983545008756
 10
704.3870009197526
 20
455.8761132899381
 10
705.3686293377214
 20
455.1419213954068
 10
706.5124892010026
 20
454.9105371180631
 10
709.0278090252214
 20
454.4018090907193
 10
711.3232191814714
 20
455.8728173915006
 10
712.0254896892839
 20
458.1175073329068
 10
712.0254896892839
 20
458.1175073329068
 10
721.6941298260026
 20
489.0127710047818
 10
721.6941298260026
 20
489.0127710047818
 10
721.7158583416276
 20
489.0821679774381
 10
721.8128432049089
 20
489.0857690516568
 10
721.8396376385026
 20
489.0181420985318
 10
721.8396376385026
 20
489.0181420985318
 10
730.2328871502214
 20
467.8248437586881
 10
730.2328871502214
 20
467.8248437586881
 10
730.7747572674089
 20
466.4587548915006
 10
731.9222792400651
 20
465.4220117274381
 10
733.3373183025651
 20
465.0221704188443
 10
734.7513808025651
 20
464.6223901454068
 10
736.2712782635026
 20
464.9065698329068
 10
737.4482191814714
 20
465.7885278407193
 10
737.4482191814714
 20
465.7885278407193
 10
746.9171522869401
 20
472.8899682704068
 10
746.9618300213151
 20
472.9053491297818
 10
746.9618300213151
 20
472.9053491297818
 10
777.5298842205339
 20
473.5437768641568
 10
777.5298842205339
 20
473.5437768641568
 10
779.8249281658464
 20
473.5927880946256
 10
781.7514418377214
 20
475.2841333094693
 10
782.0954359783464
 20
477.5537255946256
 10
782.0954359783464
 20
477.5537255946256
 10
799.9117811931901
 20
595.3421777430631
 10
799.9117811931901
 20
595.3421777430631
 10
799.9255141033464
 20
595.4329980555631
 10
800.0579603924089
 20
595.4281152430631
 10
800.0651015056901
 20
595.3365625086881
 10
800.0651015056901
 20
595.3365625086881
 10
818.2210463299089
 20
362.1594384852506
 10
818.2210463299089
 20
362.1594384852506
 10
818.4111708416276
 20
359.7174218836881
 10
820.4396742595964
 20
357.8261254969693
 10
822.9238051189714
 20
357.8104394618131
 10
825.3589857830339
 20
357.8104394618131
 10
827.3962782635026
 20
359.6664575282193
 10
827.6197279705339
 20
362.0947412196256
 10
827.6197279705339
 20
362.0947412196256
 10
842.2707899822526
 20
521.5723413172818
 10
842.2707899822526
 20
521.5723413172818
 10
842.2788466228776
 20
521.6597436610318
 10
842.4032973064714
 20
521.6681054774381
 10
842.4228895916276
 20
521.5825341883756
 10
842.4228895916276
 20
521.5825341883756
 10
854.3990248455339
 20
469.4017480555631
 10
854.3990248455339
 20
469.4017480555631
 10
854.7616957439714
 20
467.8216699305631
 10
855.7982558025651
 20
466.3972314540006
 10
857.3172377361589
 20
465.8307641688443
 10
859.5881117595964
 20
464.9839013758756
 10
862.0307387127214
 20
465.9138940516568
 10
863.1593397869401
 20
467.9208520594693
 10
863.1593397869401
 20
467.9208520594693
 10
875.2646864666276
 20
489.4687646571256
 10
875.2646864666276
 20
489.4687646571256
 10
875.2956312908464
 20
489.5238183680631
 10
875.3759535564714
 20
489.5204614344693
 10
875.4021986736589
 20
489.4630273524381
 10
875.4021986736589
 20
489.4630273524381
 10
887.5373915447526
 20
462.9192041102506
 10
887.5373915447526
 20
462.9192041102506
 10
888.1449354900651
 20
461.5884545985318
 10
889.3356093181901
 20
460.6163476649381
 10
890.7594374431901
 20
460.2851098719693
 10
892.1843031658464
 20
459.9558862391568
 10
893.6796644939714
 20
460.3007959071256
 10
894.8134535564714
 20
461.2298120204068
 10
894.8134535564714
 20
461.2298120204068
 10
908.2065809978776
 20
472.1876977625943
 10
908.2554701580339
 20
472.2051538172818
 10
908.2554701580339
 20
472.2051538172818
 10
962.8591688885026
 20
472.2051538172818
 10
962.8591688885026
 20
472.2051538172818
 10
965.3641127361589
 20
472.2051538172818
 10
966.9667738689714
 20
474.4493554774381
 10
966.9841688885026
 20
476.9541772547818
 10
967.0046767010026
 20
479.8916772547818
 10
965.2903822674089
 20
481.6361840907193
 10
962.5466688885026
 20
481.6361840907193
 97
        0
 97
        0
 92
        1
 93
        1
 72
     4
 94
        3
 73
     0
 74
     1
 95
       29
 96
       25
 40
0.0
 40
0.0
 40
0.0
 40
0.0
 40
1.0
 40
1.0
 40
1.0
 40
2.0
 40
2.0
 40
2.0
 40
3.0
 40
3.0
 40
3.0
 40
4.0
 40
4.0
 40
4.0
 40
5.0
 40
5.0
 40
5.0
 40
6.0
 40
6.0
 40
6.0
 40
7.0
 40
7.0
 40
7.0
 40
8.0
 40
8.0
 40
8.0
 40
8.0
 10
528.9646986736589
 20
547.5442041102506
 10
530.1332777752214
 20
552.2849878016568
 10
534.6606215252214
 20
556.7169336024381
 10
538.6534804119401
 20
557.0282128993131
 10
538.7640761150651
 20
557.0370629969693
 10
538.8721693767839
 20
557.0409692469693
 10
538.9802016033464
 20
557.0409692469693
 10
543.0879286541276
 20
557.0409692469693
 10
545.3592299236589
 20
550.5012963954068
 10
545.9570082439714
 20
548.4961694422818
 10
546.6130751385026
 20
546.3030542079068
 10
546.9271620525651
 20
543.9945214930631
 10
546.9178847088151
 20
541.4375146571256
 10
546.9043349041276
 20
537.1405786219693
 10
545.9578627361589
 20
532.7071679774381
 10
544.9902113689714
 20
528.5344384852506
 10
542.9815443767839
 20
519.8786157313443
 10
539.1735609783464
 20
511.8380883875943
 10
533.6709975017839
 20
504.6365503016568
 10
528.8490370525651
 20
498.3251489344693
 10
523.2620009197526
 20
492.3937524500943
 10
517.7847670330339
 20
487.7526391688443
 10
520.8784559978776
 20
510.0170434657193
 10
524.5369642986589
 20
529.5811303797818
 10
528.9646986736589
 20
547.5442041102506
 97
        0
 97
        0
 92
        1
 93
        1
 72
     4
 94
        3
 73
     0
 74
     1
 95
       29
 96
       25
 40
0.0
 40
0.0
 40
0.0
 40
0.0
 40
1.0
 40
1.0
 40
1.0
 40
2.0
 40
2.0
 40
2.0
 40
3.0
 40
3.0
 40
3.0
 40
4.0
 40
4.0
 40
4.0
 40
5.0
 40
5.0
 40
5.0
 40
6.0
 40
6.0
 40
6.0
 40
7.0
 40
7.0
 40
7.0
 40
8.0
 40
8.0
 40
8.0
 40
8.0
 10
469.7047499431901
 20
547.5442041102506
 10
470.8737562908464
 20
552.2849878016568
 10
475.4015272869401
 20
556.7169336024381
 10
479.3939589275651
 20
557.0282128993131
 10
479.5041884197526
 20
557.0370629969693
 10
479.6126478924089
 20
557.0409692469693
 10
479.7207411541276
 20
557.0409692469693
 10
483.8271864666276
 20
557.0409692469693
 10
486.0997084392839
 20
550.5012963954068
 10
486.6983412517839
 20
548.4971460047818
 10
487.3539809002214
 20
546.3005517665006
 10
487.6680678142839
 20
543.9915307704068
 10
487.6583632244401
 20
541.4380639735318
 10
487.6444472088151
 20
537.1405786219693
 10
486.6979140056901
 20
532.7071679774381
 10
485.7298964275651
 20
528.5344384852506
 10
483.7229384197526
 20
519.8791650477506
 10
479.9149550213151
 20
511.8390649500943
 10
474.4115370525651
 20
504.6365503016568
 10
469.5878065838151
 20
498.3236840907193
 10
464.0012587322526
 20
492.3922876063443
 10
458.5257338299089
 20
487.7531274500943
 10
461.6185683025651
 20
510.0121606532193
 10
465.2766493572526
 20
529.5757592860318
 10
469.7047499431901
 20
547.5442041102506
 97
        0
 97
        0
 92
        1
 93
        1
 72
     4
 94
        3
 73
     0
 74
     1
 95
       26
 96
       22
 40
0.0
 40
0.0
 40
0.0
 40
0.0
 40
1.0
 40
1.0
 40
1.0
 40
2.0
 40
2.0
 40
2.0
 40
3.0
 40
3.0
 40
3.0
 40
4.0
 40
4.0
 40
4.0
 40
5.0
 40
5.0
 40
5.0
 40
6.0
 40
6.0
 40
6.0
 40
7.0
 40
7.0
 40
7.0
 40
7.0
 10
410.5423964275651
 20
456.1112207118131
 10
409.1910170330339
 20
454.6520532313443
 10
407.9642103924089
 20
453.9116967860318
 10
406.8956679119401
 20
453.9116967860318
 10
406.8956679119401
 20
453.9116967860318
 10
406.8952406658464
 20
453.9116967860318
 10
406.8952406658464
 20
453.9116967860318
 10
406.0036391033464
 20
453.9121850672818
 10
405.1466444744401
 20
454.4360498133756
 10
404.2748793377214
 20
455.5131982508756
 10
400.9004896892839
 20
459.6854394618131
 10
399.0184096111589
 20
470.1450341883756
 10
398.8415297283464
 20
475.9070581141568
 10
399.6985243572526
 20
474.9741967860318
 10
400.5906142010026
 20
474.0796655360318
 10
401.5113295330339
 20
473.2293237391568
 10
404.3913954510026
 20
470.5722192469693
 10
409.7643202556901
 20
466.2172998133756
 10
415.4239271892839
 20
464.7129663172818
 10
414.1595228924089
 20
461.0818017665006
 10
412.5907362713151
 20
458.3239892665006
 10
410.5423964275651
 20
456.1112207118131
 97
        0
 97
        0
 92
        1
 93
        1
 72
     4
 94
        3
 73
     0
 74
     1
 95
       32
 96
       28
 40
0.0
 40
0.0
 40
0.0
 40
0.0
 40
1.0
 40
1.0
 40
1.0
 40
2.0
 40
2.0
 40
2.0
 40
3.0
 40
3.0
 40
3.0
 40
4.0
 40
4.0
 40
4.0
 40
5.0
 40
5.0
 40
5.0
 40
6.0
 40
6.0
 40
6.0
 40
7.0
 40
7.0
 40
7.0
 40
8.0
 40
8.0
 40
8.0
 40
9.0
 40
9.0
 40
9.0
 40
9.0
 10
420.5845106853776
 20
484.9379419032193
 10
420.4849013103776
 20
481.5811914149381
 10
420.0926893963151
 20
478.5769189540006
 10
419.3868178142839
 20
475.7558129969693
 10
419.3771132244401
 20
475.7185205165006
 10
419.3678358806901
 20
475.6812280360318
 10
419.3585585369401
 20
475.6453393641568
 10
417.1543959392839
 20
476.5050805750943
 10
412.1821059002214
 20
479.4047387782193
 10
411.2786635174089
 20
480.0493310633756
 10
408.2229994549089
 20
482.2346337977506
 10
405.5151747478776
 20
485.0037378016568
 10
403.2300184978776
 20
488.2789453211881
 10
401.1423720135026
 20
491.2708886805631
 10
394.8178480877214
 20
501.4943383875943
 10
401.1014174236589
 20
507.4306176844693
 10
403.5934828533464
 20
509.7838281336881
 10
406.8243178142839
 20
511.1889795008756
 10
409.7444838299089
 20
511.1889795008756
 10
410.4681166424089
 20
511.1889795008756
 10
411.1701430095964
 20
511.1026147547818
 10
411.8317030681901
 20
510.9322045985318
 10
416.1255873455339
 20
509.8260644618131
 10
418.6653212322526
 20
505.9989770594693
 10
419.5962294353776
 20
499.2309716883756
 10
420.1366347088151
 20
495.3037255946256
 10
420.7373427166276
 20
490.1298974696256
 10
420.5845106853776
 20
484.9379419032193
 97
        0
 97
        0
 92
        1
 93
        1
 72
     4
 94
        3
 73
     0
 74
     1
 95
       29
 96
       25
 40
0.0
 40
0.0
 40
0.0
 40
0.0
 40
1.0
 40
1.0
 40
1.0
 40
2.0
 40
2.0
 40
2.0
 40
3.0
 40
3.0
 40
3.0
 40
4.0
 40
4.0
 40
4.0
 40
5.0
 40
5.0
 40
5.0
 40
6.0
 40
6.0
 40
6.0
 40
7.0
 40
7.0
 40
7.0
 40
8.0
 40
8.0
 40
8.0
 40
8.0
 10
454.6181410564714
 20
455.2348169032193
 10
456.7428969158464
 20
452.9194482508756
 10
458.5675429119401
 20
449.9466088954068
 10
459.9324110760026
 20
447.5890039149381
 10
460.0662001385026
 20
447.3577417079068
 10
460.2114638103776
 20
447.1156762782193
 10
460.3621596111589
 20
446.8638452235318
 10
461.1115492595964
 20
445.6148217860318
 10
462.1377943767839
 20
443.9037622157193
 10
462.0153578533464
 20
442.7622827235318
 10
462.0010145916276
 20
442.6316674891568
 10
461.9816054119401
 20
442.5492089930631
 10
461.9672621502214
 20
442.5011132899381
 10
461.9296644939714
 20
442.4927514735318
 10
461.8684462322526
 20
442.4834130946256
 10
461.7768324627214
 20
442.4834130946256
 10
461.7768324627214
 20
442.4834130946256
 10
461.7768324627214
 20
442.4834130946256
 10
461.7764662517839
 20
442.4834130946256
 10
460.2861708416276
 20
442.4839013758756
 10
457.4251478924089
 20
444.5332177821256
 10
456.7598036541276
 20
445.4635766688443
 10
454.6084364666276
 20
448.4746850672818
 10
454.2263563885026
 20
449.5180200282193
 10
454.6181410564714
 20
455.2348169032193
 97
        0
 97
        0
 92
        1
 93
        1
 72
     4
 94
        3
 73
     0
 74
     1
 95
       29
 96
       25
 40
0.0
 40
0.0
 40
0.0
 40
0.0
 40
1.0
 40
1.0
 40
1.0
 40
2.0
 40
2.0
 40
2.0
 40
3.0
 40
3.0
 40
3.0
 40
4.0
 40
4.0
 40
4.0
 40
5.0
 40
5.0
 40
5.0
 40
6.0
 40
6.0
 40
6.0
 40
7.0
 40
7.0
 40
7.0
 40
8.0
 40
8.0
 40
8.0
 40
8.0
 10
462.4907606853776
 20
408.2172998133756
 10
462.2881239666276
 20
407.8308862391568
 10
461.7624892010026
 20
406.9329370204068
 10
461.2546156658464
 20
406.9329370204068
 10
460.6454237713151
 20
406.9334253016568
 10
459.5186537517839
 20
407.9948877040006
 10
458.6308363689714
 20
409.9626611415006
 10
456.6547011150651
 20
414.3440698329068
 10
455.4020766033464
 20
419.6769555750943
 10
454.8013685955339
 20
426.2657617274381
 10
454.4593886150651
 20
430.0142968836881
 10
454.3154677166276
 20
433.8806909266568
 10
454.3728407635026
 20
437.6650537196256
 10
455.4079970135026
 20
436.7121118250943
 10
456.6149672283464
 20
435.9088891688443
 10
457.9579237713151
 20
435.2917016688443
 10
460.1760023845964
 20
434.2719873133756
 10
462.2247694744401
 20
434.0397485438443
 10
464.0536268963151
 20
434.5905908290006
 10
464.6083754314714
 20
430.8666528407193
 10
465.0972059978776
 20
426.7302392665006
 10
465.1567763103776
 20
422.6296533290006
 10
465.2449721111589
 20
416.5200341883756
 10
464.3727797283464
 20
411.8058007899381
 10
462.4907606853776
 20
408.2172998133756
 97
        0
 97
        0
 92
        1
 93
        1
 72
     4
 94
        3
 73
     0
 74
     1
 95
       29
 96
       25
 40
0.0
 40
0.0
 40
0.0
 40
0.0
 40
1.0
 40
1.0
 40
1.0
 40
2.0
 40
2.0
 40
2.0
 40
3.0
 40
3.0
 40
3.0
 40
4.0
 40
4.0
 40
4.0
 40
5.0
 40
5.0
 40
5.0
 40
6.0
 40
6.0
 40
6.0
 40
7.0
 40
7.0
 40
7.0
 40
8.0
 40
8.0
 40
8.0
 40
8.0
 10
513.8771742595964
 20
455.2348169032193
 10
516.0049208416276
 20
452.9174951258756
 10
517.8278578533464
 20
449.9456323329068
 10
519.1914442791276
 20
447.5890039149381
 10
519.3248671306901
 20
447.3577417079068
 10
519.4709242595964
 20
447.1151879969693
 10
519.6220473064714
 20
446.8633569422818
 10
520.3710097088151
 20
445.6143335047818
 10
521.3968886150651
 20
443.9037622157193
 10
521.2744520916276
 20
442.7622827235318
 10
521.2601088299089
 20
442.6316674891568
 10
521.2406996502214
 20
442.5487207118131
 10
521.2262953533464
 20
442.5011132899381
 10
521.1891859783464
 20
442.4927514735318
 10
521.1275404705339
 20
442.4834130946256
 10
521.0363539470964
 20
442.4834130946256
 10
521.0363539470964
 20
442.4834130946256
 10
521.0363539470964
 20
442.4834130946256
 10
521.0354994549089
 20
442.4834130946256
 10
519.5452650799089
 20
442.4839013758756
 10
516.6846083416276
 20
444.5332177821256
 10
516.0192641033464
 20
445.4635766688443
 10
513.8678969158464
 20
448.4746850672818
 10
513.4862440838151
 20
449.5180200282193
 10
513.8771742595964
 20
455.2348169032193
 97
        0
 97
        0
 92
        1
 93
        1
 72
     4
 94
        3
 73
     0
 74
     1
 95
       29
 96
       25
 40
0.0
 40
0.0
 40
0.0
 40
0.0
 40
1.0
 40
1.0
 40
1.0
 40
2.0
 40
2.0
 40
2.0
 40
3.0
 40
3.0
 40
3.0
 40
4.0
 40
4.0
 40
4.0
 40
5.0
 40
5.0
 40
5.0
 40
6.0
 40
6.0
 40
6.0
 40
7.0
 40
7.0
 40
7.0
 40
8.0
 40
8.0
 40
8.0
 40
8.0
 10
521.7506483806901
 20
408.2172998133756
 10
521.5480116619401
 20
407.8308862391568
 10
521.0220106853776
 20
406.9329370204068
 10
520.5145643963151
 20
406.9329370204068
 10
519.9049452556901
 20
406.9334253016568
 10
518.7777479900651
 20
407.9948877040006
 10
517.8903578533464
 20
409.9621728602506
 10
515.9137343181901
 20
414.3455346766568
 10
514.6615980877214
 20
419.6784204188443
 10
514.0612562908464
 20
426.2657617274381
 10
513.7184828533464
 20
430.0142968836881
 10
513.5749281658464
 20
433.8806909266568
 10
513.6323622478776
 20
437.6650537196256
 10
514.6675184978776
 20
436.7121118250943
 10
515.8749159588151
 20
435.9088891688443
 10
517.2173842205339
 20
435.2917016688443
 10
519.4346083416276
 20
434.2724755946256
 10
521.4821547283464
 20
434.0412133875943
 10
523.3135145916276
 20
434.5905908290006
 10
523.8682631267839
 20
430.8651269618131
 10
524.3571547283464
 20
426.7277368250943
 10
524.4153822674089
 20
422.6296533290006
 10
524.5040663494401
 20
416.5205224696256
 10
523.6326674236589
 20
411.8062890711881
 10
521.7506483806901
 20
408.2172998133756
 97
        0
 97
        0
 92
        1
 93
        1
 72
     4
 94
        3
 73
     0
 74
     1
 95
       26
 96
       22
 40
0.0
 40
0.0
 40
0.0
 40
0.0
 40
1.0
 40
1.0
 40
1.0
 40
2.0
 40
2.0
 40
2.0
 40
3.0
 40
3.0
 40
3.0
 40
4.0
 40
4.0
 40
4.0
 40
5.0
 40
5.0
 40
5.0
 40
6.0
 40
6.0
 40
6.0
 40
7.0
 40
7.0
 40
7.0
 40
7.0
 10
578.6337660564714
 20
486.9219506922818
 10
579.8614271892839
 20
488.3604882899381
 10
581.2706068767839
 20
489.1828149500943
 10
582.6021498455339
 20
489.2373193446256
 10
582.6021498455339
 20
489.2373193446256
 10
582.7464979900651
 20
489.2402490321256
 10
582.7464979900651
 20
489.2402490321256
 10
583.8981703533464
 20
489.2402490321256
 10
585.1376723064714
 20
488.6751855555631
 10
586.2370375408464
 20
487.6485742274381
 10
588.2541273845964
 20
485.7681420985318
 10
589.3914564861589
 20
482.6510156336881
 10
589.2782973064714
 20
479.3114160243131
 10
589.0756605877214
 20
473.3726953211881
 10
585.5201796306901
 20
470.1013330165006
 10
577.3883436931901
 20
468.3716577235318
 10
577.3883436931901
 20
468.3716577235318
 10
571.8216322674089
 20
467.1874536219693
 10
571.8216322674089
 20
467.1874536219693
 10
571.8545302166276
 20
473.6358178797818
 10
574.9220350994401
 20
482.5714257899381
 10
578.6337660564714
 20
486.9219506922818
 97
        0
 97
        0
 92
        1
 93
        1
 72
     4
 94
        3
 73
     0
 74
     1
 95
       26
 96
       22
 40
0.0
 40
0.0
 40
0.0
 40
0.0
 40
1.0
 40
1.0
 40
1.0
 40
2.0
 40
2.0
 40
2.0
 40
3.0
 40
3.0
 40
3.0
 40
4.0
 40
4.0
 40
4.0
 40
5.0
 40
5.0
 40
5.0
 40
6.0
 40
6.0
 40
6.0
 40
7.0
 40
7.0
 40
7.0
 40
7.0
 10
635.2804335369401
 20
486.9219506922818
 10
636.5080946697526
 20
488.3604882899381
 10
637.9172743572526
 20
489.1828149500943
 10
639.2488173260026
 20
489.2373193446256
 10
639.2488173260026
 20
489.2373193446256
 10
639.3932265056901
 20
489.2402490321256
 10
639.3932265056901
 20
489.2402490321256
 10
640.5448988689714
 20
489.2402490321256
 10
641.7843397869401
 20
488.6751855555631
 10
642.8837050213151
 20
487.6485742274381
 10
644.9007948650651
 20
485.7681420985318
 10
646.0381239666276
 20
482.6510156336881
 10
645.9250258220964
 20
479.3114160243131
 10
645.7223891033464
 20
473.3726953211881
 10
642.1668471111589
 20
470.1013330165006
 10
634.0350111736589
 20
468.3716577235318
 10
634.0350111736589
 20
468.3716577235318
 10
628.4682997478776
 20
467.1874536219693
 10
628.4682997478776
 20
467.1874536219693
 10
628.5012587322526
 20
473.6358178797818
 10
631.5687025799089
 20
482.5714257899381
 10
635.2804335369401
 20
486.9219506922818
 97
        0
 97
        0
 75
     2
 76
     1
 98
        0
  0
ENDSEC
  0
SECTION
  2
OBJECTS
  0
DICTIONARY
  5
C
330
0
100
AcDbDictionary
281
     1
  3
ACAD_GROUP
350
D
  3
ACAD_LAYOUT
350
1A
  3
ACAD_MATERIAL
350
3B
  3
ACAD_MLEADERSTYLE
350
4E
  3
ACAD_MLINESTYLE
350
17
  3
ACAD_PLOTSETTINGS
350
19
  3
ACAD_PLOTSTYLENAME
350
E
  3
ACAD_TABLESTYLE
350
4D
  3
ACAD_VISUALSTYLE
350
2A
  0
SUN
  5
3F
330
29
100
AcDbSun
 90
        1
290
     0
 63
     7
421
 16777215
 40
1.0
291
     1
 91
  2455826
 92
 54000000
292
     0
 70
     2
 71
   256
280
     1
  0
DICTIONARY
  5
D
102
{ACAD_REACTORS
330
C
102
}
330
C
100
AcDbDictionary
281
     1
  0
DICTIONARY
  5
1A
102
{ACAD_REACTORS
330
C
102
}
330
C
100
AcDbDictionary
281
     1
  3
Layout1
350
1E
  3
Layout2
350
26
  3
Model
350
22
  0
DICTIONARY
  5
3B
102
{ACAD_REACTORS
330
C
102
}
330
C
100
AcDbDictionary
281
     1
  3
ByBlock
350
3D
  3
ByLayer
350
3C
  3
Global
350
3E
  0
DICTIONARY
  5
4E
102
{ACAD_REACTORS
330
C
102
}
330
C
100
AcDbDictionary
281
     1
  0
DICTIONARY
  5
17
102
{ACAD_REACTORS
330
C
102
}
330
C
100
AcDbDictionary
281
     1
  3
Standard
350
18
  0
DICTIONARY
  5
19
102
{ACAD_REACTORS
330
C
102
}
330
C
100
AcDbDictionary
281
     1
  0
ACDBDICTIONARYWDFLT
  5
E
102
{ACAD_REACTORS
330
C
102
}
330
C
100
AcDbDictionary
281
     1
  3
Normal
350
F
100
AcDbDictionaryWithDefault
340
F
  0
DICTIONARY
  5
4D
102
{ACAD_REACTORS
330
C
102
}
330
C
100
AcDbDictionary
281
     1
  0
DICTIONARY
  5
2A
102
{ACAD_REACTORS
330
C
102
}
330
C
100
AcDbDictionary
281
     1
  3
2dWireframe
350
2F
  3
3D Hidden
350
31
  3
3dWireframe
350
30
  3
Basic
350
32
  3
Brighten
350
36
  3
ColorChange
350
3A
  3
Conceptual
350
34
  3
Dim
350
35
  3
Facepattern
350
39
  3
Flat
350
2B
  3
FlatWithEdges
350
2C
  3
Gouraud
350
2D
  3
GouraudWithEdges
350
2E
  3
Linepattern
350
38
  3
Realistic
350
33
  3
Thicken
350
37
  0
LAYOUT
  5
1E
102
{ACAD_REACTORS
330
1A
102
}
330
1A
100
AcDbPlotSettings
  1

  2
none_device
  4

  6

 40
0.0
 41
0.0
 42
0.0
 43
0.0
 44
0.0
 45
0.0
 46
0.0
 47
0.0
 48
0.0
 49
0.0
140
0.0
141
0.0
142
1.0
143
1.0
 70
   688
 72
     0
 73
     0
 74
     5
  7

 75
    16
 76
     0
 77
     2
 78
   300
147
1.0
148
0.0
149
0.0
100
AcDbLayout
  1
Layout1
 70
     1
 71
     1
 10
0.0
 20
0.0
 11
12.0
 21
9.0
 12
0.0
 22
0.0
 32
0.0
 14
1.000000000000000E+20
 24
1.000000000000000E+20
 34
1.000000000000000E+20
 15
-1.000000000000000E+20
 25
-1.000000000000000E+20
 35
-1.000000000000000E+20
146
0.0
 13
0.0
 23
0.0
 33
0.0
 16
1.0
 26
0.0
 36
0.0
 17
0.0
 27
1.0
 37
0.0
 76
     0
330
1B
  0
LAYOUT
  5
26
102
{ACAD_REACTORS
330
1A
102
}
330
1A
100
AcDbPlotSettings
  1

  2
none_device
  4

  6

 40
0.0
 41
0.0
 42
0.0
 43
0.0
 44
0.0
 45
0.0
 46
0.0
 47
0.0
 48
0.0
 49
0.0
140
0.0
141
0.0
142
1.0
143
1.0
 70
   688
 72
     0
 73
     0
 74
     5
  7

 75
    16
 76
     0
 77
     2
 78
   300
147
1.0
148
0.0
149
0.0
100
AcDbLayout
  1
Layout2
 70
     1
 71
     2
 10
0.0
 20
0.0
 11
0.0
 21
0.0
 12
0.0
 22
0.0
 32
0.0
 14
0.0
 24
0.0
 34
0.0
 15
0.0
 25
0.0
 35
0.0
146
0.0
 13
0.0
 23
0.0
 33
0.0
 16
1.0
 26
0.0
 36
0.0
 17
0.0
 27
1.0
 37
0.0
 76
     0
330
23
  0
LAYOUT
  5
22
102
{ACAD_REACTORS
330
1A
102
}
330
1A
100
AcDbPlotSettings
  1

  2
none_device
  4

  6

 40
0.0
 41
0.0
 42
0.0
 43
0.0
 44
0.0
 45
0.0
 46
0.0
 47
0.0
 48
0.0
 49
0.0
140
0.0
141
0.0
142
1.0
143
1.0
 70
  1712
 72
     0
 73
     0
 74
     0
  7

 75
     0
 76
     0
 77
     2
 78
   300
147
1.0
148
0.0
149
0.0
100
AcDbLayout
  1
Model
 70
     1
 71
     0
 10
0.0
 20
0.0
 11
12.0
 21
9.0
 12
0.0
 22
0.0
 32
0.0
 14
1.000000000000000E+20
 24
1.000000000000000E+20
 34
1.000000000000000E+20
 15
-1.000000000000000E+20
 25
-1.000000000000000E+20
 35
-1.000000000000000E+20
146
0.0
 13
0.0
 23
0.0
 33
0.0
 16
1.0
 26
0.0
 36
0.0
 17
0.0
 27
1.0
 37
0.0
 76
     0
330
1F
331
29
  0
MATERIAL
  5
3D
102
{ACAD_REACTORS
330
3B
102
}
330
3B
100
AcDbMaterial
  1
ByBlock
 72
     1
 94
      127
  0
MATERIAL
  5
3C
102
{ACAD_REACTORS
330
3B
102
}
330
3B
100
AcDbMaterial
  1
ByLayer
 72
     1
 94
      127
  0
MATERIAL
  5
3E
102
{ACAD_REACTORS
330
3B
102
}
330
3B
100
AcDbMaterial
  1
Global
 72
     1
 94
      127
  0
MLINESTYLE
  5
18
102
{ACAD_REACTORS
330
17
102
}
330
17
100
AcDbMlineStyle
  2
Standard
 70
     0
  3

 62
   256
 51
90.0
 52
90.0
 71
     2
 49
0.5
 62
   256
  6
BYLAYER
 49
-0.5
 62
   256
  6
BYLAYER
  0
ACDBPLACEHOLDER
  5
F
102
{ACAD_REACTORS
330
E
102
}
330
E
  0
VISUALSTYLE
  5
2F
102
{ACAD_REACTORS
330
2A
102
}
330
2A
100
AcDbVisualStyle
  2
2dWireframe
 70
     4
177
     2
291
     0
 71
     0
176
     1
 72
     2
176
     1
 73
     0
176
     1
 90
        0
176
     1
 40
-0.6
176
     1
 41
-30.0
176
     1
 62
     5
 63
     7
421
 16777215
176
     1
 74
     1
176
     1
 91
        4
176
     1
 64
     7
176
     1
 65
   257
176
     1
 75
     1
176
     1
175
     1
176
     1
 42
1.0
176
     1
 92
        0
176
     1
 66
   257
176
     1
 43
1.0
176
     1
 76
     1
176
     1
 77
     6
176
     1
 78
     2
176
     1
 67
     7
176
     1
 79
     5
176
     1
170
     0
176
     1
171
     0
176
     1
290
     0
176
     1
 93
        1
176
     1
 44
0.0
176
     1
173
     0
176
     1
  0
VISUALSTYLE
  5
31
102
{ACAD_REACTORS
330
2A
102
}
330
2A
100
AcDbVisualStyle
  2
3D Hidden
 70
     6
177
     2
291
     0
 71
     1
176
     1
 72
     2
176
     1
 73
     2
176
     1
 90
        0
176
     1
 40
-0.6
176
     1
 41
-30.0
176
     1
 62
     5
 63
     7
421
 16777215
176
     1
 74
     2
176
     1
 91
        2
176
     1
 64
     7
176
     1
 65
   257
176
     1
 75
     2
176
     1
175
     1
176
     1
 42
40.0
176
     1
 92
        0
176
     1
 66
   257
176
     1
 43
1.0
176
     1
 76
     1
176
     1
 77
     6
176
     1
 78
     2
176
     1
 67
     7
176
     1
 79
     3
176
     1
170
     0
176
     1
171
     0
176
     1
290
     0
176
     1
 93
        1
176
     1
 44
0.0
176
     1
173
     0
176
     1
  0
VISUALSTYLE
  5
30
102
{ACAD_REACTORS
330
2A
102
}
330
2A
100
AcDbVisualStyle
  2
3dWireframe
 70
     5
177
     2
291
     0
 71
     0
176
     1
 72
     2
176
     1
 73
     0
176
     1
 90
        0
176
     1
 40
-0.6
176
     1
 41
-30.0
176
     1
 62
     5
 63
     7
421
 16777215
176
     1
 74
     1
176
     1
 91
        4
176
     1
 64
     7
176
     1
 65
   257
176
     1
 75
     1
176
     1
175
     1
176
     1
 42
1.0
176
     1
 92
        0
176
     1
 66
   257
176
     1
 43
1.0
176
     1
 76
     1
176
     1
 77
     6
176
     1
 78
     2
176
     1
 67
     7
176
     1
 79
     5
176
     1
170
     0
176
     1
171
     0
176
     1
290
     0
176
     1
 93
        1
176
     1
 44
0.0
176
     1
173
     0
176
     1
  0
VISUALSTYLE
  5
32
102
{ACAD_REACTORS
330
2A
102
}
330
2A
100
AcDbVisualStyle
  2
Basic
 70
     7
177
     2
291
     1
 71
     1
176
     1
 72
     0
176
     1
 73
     1
176
     1
 90
        0
176
     1
 40
-0.6
176
     1
 41
-30.0
176
     1
 62
     5
 63
     7
421
 16777215
176
     1
 74
     0
176
     1
 91
        4
176
     1
 64
     7
176
     1
 65
   257
176
     1
 75
     1
176
     1
175
     1
176
     1
 42
1.0
176
     1
 92
        8
176
     1
 66
     7
176
     1
 43
1.0
176
     1
 76
     1
176
     1
 77
     6
176
     1
 78
     2
176
     1
 67
     7
176
     1
 79
     5
176
     1
170
     0
176
     1
171
     0
176
     1
290
     0
176
     1
 93
        1
176
     1
 44
0.0
176
     1
173
     0
176
     1
  0
VISUALSTYLE
  5
36
102
{ACAD_REACTORS
330
2A
102
}
330
2A
100
AcDbVisualStyle
  2
Brighten
 70
    12
177
     2
291
     1
 71
     2
176
     1
 72
     2
176
     1
 73
     0
176
     1
 90
        0
176
     1
 40
-0.6
176
     1
 41
-30.0
176
     1
 62
     5
 63
     7
421
 16777215
176
     1
 74
     1
176
     1
 91
        4
176
     1
 64
     7
176
     1
 65
   257
176
     1
 75
     1
176
     1
175
     1
176
     1
 42
1.0
176
     1
 92
        8
176
     1
 66
     7
176
     1
 43
1.0
176
     1
 76
     1
176
     1
 77
     6
176
     1
 78
     2
176
     1
 67
     7
176
     1
 79
     5
176
     1
170
     0
176
     1
171
     0
176
     1
290
     0
176
     1
 93
        1
176
     1
 44
50.0
176
     1
173
     0
176
     1
  0
VISUALSTYLE
  5
3A
102
{ACAD_REACTORS
330
2A
102
}
330
2A
100
AcDbVisualStyle
  2
ColorChange
 70
    16
177
     2
291
     1
 71
     2
176
     1
 72
     2
176
     1
 73
     3
176
     1
 90
        0
176
     1
 40
-0.6
176
     1
 41
-30.0
176
     1
 62
     5
 63
     8
421
  8421504
176
     1
 74
     1
176
     1
 91
        4
176
     1
 64
     7
176
     1
 65
   257
176
     1
 75
     1
176
     1
175
     1
176
     1
 42
1.0
176
     1
 92
        8
176
     1
 66
     8
424
  8421504
176
     1
 43
1.0
176
     1
 76
     1
176
     1
 77
     6
176
     1
 78
     2
176
     1
 67
     7
176
     1
 79
     5
176
     1
170
     0
176
     1
171
     0
176
     1
290
     0
176
     1
 93
        1
176
     1
 44
0.0
176
     1
173
     0
176
     1
  0
VISUALSTYLE
  5
34
102
{ACAD_REACTORS
330
2A
102
}
330
2A
100
AcDbVisualStyle
  2
Conceptual
 70
     9
177
     2
291
     0
 71
     3
176
     1
 72
     2
176
     1
 73
     0
176
     1
 90
        0
176
     1
 40
-0.6
176
     1
 41
-30.0
176
     1
 62
     5
 63
     7
421
 16777215
176
     1
 74
     2
176
     1
 91
        2
176
     1
 64
     7
176
     1
 65
   257
176
     1
 75
     1
176
     1
175
     1
176
     1
 42
40.0
176
     1
 92
        8
176
     1
 66
     7
176
     1
 43
1.0
176
     1
 76
     1
176
     1
 77
     6
176
     1
 78
     2
176
     1
 67
     7
176
     1
 79
     3
176
     1
170
     0
176
     1
171
     0
176
     1
290
     0
176
     1
 93
        1
176
     1
 44
0.0
176
     1
173
     0
176
     1
  0
VISUALSTYLE
  5
35
102
{ACAD_REACTORS
330
2A
102
}
330
2A
100
AcDbVisualStyle
  2
Dim
 70
    11
177
     2
291
     1
 71
     2
176
     1
 72
     2
176
     1
 73
     0
176
     1
 90
        0
176
     1
 40
-0.6
176
     1
 41
-30.0
176
     1
 62
     5
 63
     7
421
 16777215
176
     1
 74
     1
176
     1
 91
        4
176
     1
 64
     7
176
     1
 65
   257
176
     1
 75
     1
176
     1
175
     1
176
     1
 42
1.0
176
     1
 92
        8
176
     1
 66
     7
176
     1
 43
1.0
176
     1
 76
     1
176
     1
 77
     6
176
     1
 78
     2
176
     1
 67
     7
176
     1
 79
     5
176
     1
170
     0
176
     1
171
     0
176
     1
290
     0
176
     1
 93
        1
176
     1
 44
-50.0
176
     1
173
     0
176
     1
  0
VISUALSTYLE
  5
39
102
{ACAD_REACTORS
330
2A
102
}
330
2A
100
AcDbVisualStyle
  2
Facepattern
 70
    15
177
     2
291
     1
 71
     2
176
     1
 72
     2
176
     1
 73
     0
176
     1
 90
        0
176
     1
 40
-0.6
176
     1
 41
-30.0
176
     1
 62
     5
 63
     7
421
 16777215
176
     1
 74
     1
176
     1
 91
        4
176
     1
 64
     7
176
     1
 65
   257
176
     1
 75
     1
176
     1
175
     1
176
     1
 42
1.0
176
     1
 92
        8
176
     1
 66
     7
176
     1
 43
1.0
176
     1
 76
     1
176
     1
 77
     6
176
     1
 78
     2
176
     1
 67
     7
176
     1
 79
     5
176
     1
170
     0
176
     1
171
     0
176
     1
290
     0
176
     1
 93
        1
176
     1
 44
0.0
176
     1
173
     0
176
     1
  0
VISUALSTYLE
  5
2B
102
{ACAD_REACTORS
330
2A
102
}
330
2A
100
AcDbVisualStyle
  2
Flat
 70
     0
177
     2
291
     1
 71
     2
176
     1
 72
     1
176
     1
 73
     1
176
     1
 90
        2
176
     1
 40
-0.6
176
     1
 41
30.0
176
     1
 62
     5
 63
     7
421
 16777215
176
     1
 74
     0
176
     1
 91
        4
176
     1
 64
     7
176
     1
 65
   257
176
     1
 75
     1
176
     1
175
     1
176
     1
 42
1.0
176
     1
 92
        8
176
     1
 66
     7
176
     1
 43
1.0
176
     1
 76
     1
176
     1
 77
     6
176
     1
 78
     2
176
     1
 67
     7
176
     1
 79
     5
176
     1
170
     0
176
     1
171
     0
176
     1
290
     0
176
     1
 93
       13
176
     1
 44
0.0
176
     1
173
     0
176
     1
  0
VISUALSTYLE
  5
2C
102
{ACAD_REACTORS
330
2A
102
}
330
2A
100
AcDbVisualStyle
  2
FlatWithEdges
 70
     1
177
     2
291
     1
 71
     2
176
     1
 72
     1
176
     1
 73
     1
176
     1
 90
        2
176
     1
 40
-0.6
176
     1
 41
30.0
176
     1
 62
     5
 63
     7
421
 16777215
176
     1
 74
     1
176
     1
 91
        4
176
     1
 64
     7
176
     1
 65
   257
176
     1
 75
     1
176
     1
175
     1
176
     1
 42
1.0
176
     1
 92
        0
176
     1
 66
   257
176
     1
 43
1.0
176
     1
 76
     1
176
     1
 77
     6
176
     1
 78
     2
176
     1
 67
     7
176
     1
 79
     5
176
     1
170
     0
176
     1
171
     0
176
     1
290
     0
176
     1
 93
       13
176
     1
 44
0.0
176
     1
173
     0
176
     1
  0
VISUALSTYLE
  5
2D
102
{ACAD_REACTORS
330
2A
102
}
330
2A
100
AcDbVisualStyle
  2
Gouraud
 70
     2
177
     2
291
     1
 71
     2
176
     1
 72
     2
176
     1
 73
     1
176
     1
 90
        2
176
     1
 40
-0.6
176
     1
 41
30.0
176
     1
 62
     5
 63
     7
421
 16777215
176
     1
 74
     0
176
     1
 91
        4
176
     1
 64
     7
176
     1
 65
   257
176
     1
 75
     1
176
     1
175
     1
176
     1
 42
1.0
176
     1
 92
        0
176
     1
 66
     7
176
     1
 43
1.0
176
     1
 76
     1
176
     1
 77
     6
176
     1
 78
     2
176
     1
 67
     7
176
     1
 79
     5
176
     1
170
     0
176
     1
171
     0
176
     1
290
     0
176
     1
 93
       13
176
     1
 44
0.0
176
     1
173
     0
176
     1
  0
VISUALSTYLE
  5
2E
102
{ACAD_REACTORS
330
2A
102
}
330
2A
100
AcDbVisualStyle
  2
GouraudWithEdges
 70
     3
177
     2
291
     1
 71
     2
176
     1
 72
     2
176
     1
 73
     1
176
     1
 90
        2
176
     1
 40
-0.6
176
     1
 41
30.0
176
     1
 62
     5
 63
     7
421
 16777215
176
     1
 74
     1
176
     1
 91
        4
176
     1
 64
     7
176
     1
 65
   257
176
     1
 75
     1
176
     1
175
     1
176
     1
 42
1.0
176
     1
 92
        0
176
     1
 66
   257
176
     1
 43
1.0
176
     1
 76
     1
176
     1
 77
     6
176
     1
 78
     2
176
     1
 67
     7
176
     1
 79
     5
176
     1
170
     0
176
     1
171
     0
176
     1
290
     0
176
     1
 93
       13
176
     1
 44
0.0
176
     1
173
     0
176
     1
  0
VISUALSTYLE
  5
38
102
{ACAD_REACTORS
330
2A
102
}
330
2A
100
AcDbVisualStyle
  2
Linepattern
 70
    14
177
     2
291
     1
 71
     2
176
     1
 72
     2
176
     1
 73
     0
176
     1
 90
        0
176
     1
 40
-0.6
176
     1
 41
-30.0
176
     1
 62
     5
 63
     7
421
 16777215
176
     1
 74
     1
176
     1
 91
        4
176
     1
 64
     7
176
     1
 65
   257
176
     1
 75
     7
176
     1
175
     7
176
     1
 42
1.0
176
     1
 92
        8
176
     1
 66
     7
176
     1
 43
1.0
176
     1
 76
     1
176
     1
 77
     6
176
     1
 78
     2
176
     1
 67
     7
176
     1
 79
     5
176
     1
170
     0
176
     1
171
     0
176
     1
290
     0
176
     1
 93
        1
176
     1
 44
0.0
176
     1
173
     0
176
     1
  0
VISUALSTYLE
  5
33
102
{ACAD_REACTORS
330
2A
102
}
330
2A
100
AcDbVisualStyle
  2
Realistic
 70
     8
177
     2
291
     0
 71
     2
176
     1
 72
     2
176
     1
 73
     0
176
     1
 90
        0
176
     1
 40
-0.6
176
     1
 41
-30.0
176
     1
 62
     5
 63
     7
421
 16777215
176
     1
 74
     1
176
     1
 91
        0
176
     1
 64
     7
176
     1
 65
   257
176
     1
 75
     1
176
     1
175
     1
176
     1
 42
1.0
176
     1
 92
        8
176
     1
 66
     8
424
  7895160
176
     1
 43
1.0
176
     1
 76
     1
176
     1
 77
     6
176
     1
 78
     2
176
     1
 67
     7
176
     1
 79
     5
176
     1
170
     0
176
     1
171
     0
176
     1
290
     0
176
     1
 93
       13
176
     1
 44
0.0
176
     1
173
     0
176
     1
  0
VISUALSTYLE
  5
37
102
{ACAD_REACTORS
330
2A
102
}
330
2A
100
AcDbVisualStyle
  2
Thicken
 70
    13
177
     2
291
     1
 71
     2
176
     1
 72
     2
176
     1
 73
     0
176
     1
 90
        0
176
     1
 40
-0.6
176
     1
 41
-30.0
176
     1
 62
     5
 63
     7
421
 16777215
176
     1
 74
     1
176
     1
 91
        4
176
     1
 64
     7
176
     1
 65
   257
176
     1
 75
     1
176
     1
175
     1
176
     1
 42
1.0
176
     1
 92
       12
176
     1
 66
     7
176
     1
 43
1.0
176
     1
 76
     1
176
     1
 77
     6
176
     1
 78
     2
176
     1
 67
     7
176
     1
 79
     5
176
     1
170
     0
176
     1
171
     0
176
     1
290
     0
176
     1
 93
        1
176
     1
 44
0.0
176
     1
173
     0
176
     1
  0
ENDSEC
  0
EOF
