  0
SECTION
  2
BLOCKS
  0
ENDSEC
  0
SECTION
  2
ENTITIES
  0
LINE
  8
0
 10
70
 20
212
 11
74.9875
 21
212
  0
LINE
  8
0
 10
74.9875
 20
212
 11
77.8513
 21
217.167
  0
LINE
  8
0
 10
77.8513
 20
217.167
 11
80.8498
 21
223.051
  0
LINE
  8
0
 10
80.8498
 20
223.051
 11
83.6411
 21
229.037
  0
LINE
  8
0
 10
83.6411
 20
229.037
 11
86.2217
 21
235.117
  0
LINE
  8
0
 10
86.2217
 20
235.117
 11
88.5886
 21
241.283
  0
LINE
  8
0
 10
88.5886
 20
241.283
 11
90.7389
 21
247.528
  0
LINE
  8
0
 10
90.7389
 20
247.528
 11
92.6699
 21
253.844
  0
LINE
  8
0
 10
92.6699
 20
253.844
 11
94.3793
 21
260.224
  0
LINE
  8
0
 10
94.3793
 20
260.224
 11
95.8651
 21
266.659
  0
LINE
  8
0
 10
95.8651
 20
266.659
 11
97.1253
 21
273.142
  0
LINE
  8
0
 10
97.1253
 20
273.142
 11
98.1585
 21
279.666
  0
LINE
  8
0
 10
98.1585
 20
279.666
 11
98.9634
 21
286.221
  0
LINE
  8
0
 10
98.9634
 20
286.221
 11
99.5391
 21
292.801
  0
LINE
  8
0
 10
99.5391
 20
292.801
 11
99.8847
 21
299.396
  0
LINE
  8
0
 10
99.8847
 20
299.396
 11
100
 21
306
  0
LINE
  8
0
 10
100
 20
306
 11
99.7278
 21
321.593
  0
LINE
  8
0
 10
99.7278
 20
321.593
 11
98.9116
 21
337.167
  0
LINE
  8
0
 10
98.9116
 20
337.167
 11
97.5524
 21
352.703
  0
LINE
  8
0
 10
97.5524
 20
352.703
 11
95.6518
 21
368.183
  0
LINE
  8
0
 10
95.6518
 20
368.183
 11
93.2121
 21
383.586
  0
LINE
  8
0
 10
93.2121
 20
383.586
 11
90.2363
 21
398.895
  0
LINE
  8
0
 10
90.2363
 20
398.895
 11
89.9812
 21
400
  0
LINE
  8
0
 10
89.9812
 20
400
 11
85
 21
400
  0
LINE
  8
0
 10
85
 20
400
 11
85
 21
406
  0
LINE
  8
0
 10
85
 20
406
 11
75
 21
406
  0
LINE
  8
0
 10
75
 20
406
 11
75
 21
400
  0
LINE
  8
0
 10
75
 20
400
 11
70
 21
400
  0
LINE
  8
0
 10
70
 20
400
 11
70
 21
397.653
  0
LINE
  8
0
 10
70
 20
397.653
 11
70.6734
 21
394.737
  0
LINE
  8
0
 10
70.6734
 20
394.737
 11
73.5159
 21
380.113
  0
LINE
  8
0
 10
73.5159
 20
380.113
 11
75.8464
 21
365.399
  0
LINE
  8
0
 10
75.8464
 20
365.399
 11
77.6619
 21
350.613
  0
LINE
  8
0
 10
77.6619
 20
350.613
 11
78.9603
 21
335.772
  0
LINE
  8
0
 10
78.9603
 20
335.772
 11
79.74
 21
320.895
  0
LINE
  8
0
 10
79.74
 20
320.895
 11
80
 21
306
  0
LINE
  8
0
 10
80
 20
306
 11
79.8969
 21
300.094
  0
LINE
  8
0
 10
79.8969
 20
300.094
 11
79.5878
 21
294.196
  0
LINE
  8
0
 10
79.5878
 20
294.196
 11
79.073
 21
288.312
  0
LINE
  8
0
 10
79.073
 20
288.312
 11
78.3531
 21
282.449
  0
LINE
  8
0
 10
78.3531
 20
282.449
 11
77.4292
 21
276.615
  0
LINE
  8
0
 10
77.4292
 20
276.615
 11
76.3021
 21
270.817
  0
LINE
  8
0
 10
76.3021
 20
270.817
 11
74.9734
 21
265.062
  0
LINE
  8
0
 10
74.9734
 20
265.062
 11
73.4447
 21
259.357
  0
LINE
  8
0
 10
73.4447
 20
259.357
 11
71.7178
 21
253.708
  0
LINE
  8
0
 10
71.7178
 20
253.708
 11
69.7948
 21
248.123
  0
LINE
  8
0
 10
69.7948
 20
248.123
 11
67.678
 21
242.609
  0
LINE
  8
0
 10
67.678
 20
242.609
 11
65.3701
 21
237.172
  0
LINE
  8
0
 10
65.3701
 20
237.172
 11
62.8739
 21
231.819
  0
LINE
  8
0
 10
62.8739
 20
231.819
 11
60.1924
 21
226.556
  0
LINE
  8
0
 10
60.1924
 20
226.556
 11
57.3288
 21
221.39
  0
LINE
  8
0
 10
57.3288
 20
221.39
 11
55
 21
217.514
  0
LINE
  8
0
 10
55
 20
217.514
 11
55
 21
212
  0
LINE
  8
0
 10
55
 20
212
 11
60
 21
212
  0
LINE
  8
0
 10
60
 20
212
 11
60
 21
206
  0
LINE
  8
0
 10
60
 20
206
 11
70
 21
206
  0
LINE
  8
0
 10
70
 20
206
 11
70
 21
212
  0
LINE
  8
0
 10
430
 20
212
 11
434.987
 21
212
  0
LINE
  8
0
 10
434.987
 20
212
 11
437.851
 21
217.167
  0
LINE
  8
0
 10
437.851
 20
217.167
 11
440.85
 21
223.051
  0
LINE
  8
0
 10
440.85
 20
223.051
 11
443.641
 21
229.037
  0
LINE
  8
0
 10
443.641
 20
229.037
 11
446.222
 21
235.117
  0
LINE
  8
0
 10
446.222
 20
235.117
 11
448.589
 21
241.283
  0
LINE
  8
0
 10
448.589
 20
241.283
 11
450.739
 21
247.528
  0
LINE
  8
0
 10
450.739
 20
247.528
 11
452.67
 21
253.844
  0
LINE
  8
0
 10
452.67
 20
253.844
 11
454.379
 21
260.224
  0
LINE
  8
0
 10
454.379
 20
260.224
 11
455.865
 21
266.659
  0
LINE
  8
0
 10
455.865
 20
266.659
 11
457.125
 21
273.142
  0
LINE
  8
0
 10
457.125
 20
273.142
 11
458.159
 21
279.666
  0
LINE
  8
0
 10
458.159
 20
279.666
 11
458.963
 21
286.221
  0
LINE
  8
0
 10
458.963
 20
286.221
 11
459.539
 21
292.801
  0
LINE
  8
0
 10
459.539
 20
292.801
 11
459.885
 21
299.396
  0
LINE
  8
0
 10
459.885
 20
299.396
 11
460
 21
306
  0
LINE
  8
0
 10
460
 20
306
 11
459.728
 21
321.593
  0
LINE
  8
0
 10
459.728
 20
321.593
 11
458.912
 21
337.167
  0
LINE
  8
0
 10
458.912
 20
337.167
 11
457.552
 21
352.703
  0
LINE
  8
0
 10
457.552
 20
352.703
 11
455.652
 21
368.183
  0
LINE
  8
0
 10
455.652
 20
368.183
 11
453.212
 21
383.586
  0
LINE
  8
0
 10
453.212
 20
383.586
 11
450.236
 21
398.895
  0
LINE
  8
0
 10
450.236
 20
398.895
 11
449.981
 21
400
  0
LINE
  8
0
 10
449.981
 20
400
 11
445
 21
400
  0
LINE
  8
0
 10
445
 20
400
 11
445
 21
406
  0
LINE
  8
0
 10
445
 20
406
 11
435
 21
406
  0
LINE
  8
0
 10
435
 20
406
 11
435
 21
400
  0
LINE
  8
0
 10
435
 20
400
 11
430
 21
400
  0
LINE
  8
0
 10
430
 20
400
 11
430
 21
397.653
  0
LINE
  8
0
 10
430
 20
397.653
 11
430.673
 21
394.737
  0
LINE
  8
0
 10
430.673
 20
394.737
 11
433.516
 21
380.113
  0
LINE
  8
0
 10
433.516
 20
380.113
 11
435.846
 21
365.399
  0
LINE
  8
0
 10
435.846
 20
365.399
 11
437.662
 21
350.613
  0
LINE
  8
0
 10
437.662
 20
350.613
 11
438.96
 21
335.772
  0
LINE
  8
0
 10
438.96
 20
335.772
 11
439.74
 21
320.895
  0
LINE
  8
0
 10
439.74
 20
320.895
 11
440
 21
306
  0
LINE
  8
0
 10
440
 20
306
 11
439.897
 21
300.094
  0
LINE
  8
0
 10
439.897
 20
300.094
 11
439.588
 21
294.196
  0
LINE
  8
0
 10
439.588
 20
294.196
 11
439.073
 21
288.312
  0
LINE
  8
0
 10
439.073
 20
288.312
 11
438.353
 21
282.449
  0
LINE
  8
0
 10
438.353
 20
282.449
 11
437.429
 21
276.615
  0
LINE
  8
0
 10
437.429
 20
276.615
 11
436.302
 21
270.817
  0
LINE
  8
0
 10
436.302
 20
270.817
 11
434.973
 21
265.062
  0
LINE
  8
0
 10
434.973
 20
265.062
 11
433.445
 21
259.357
  0
LINE
  8
0
 10
433.445
 20
259.357
 11
431.718
 21
253.708
  0
LINE
  8
0
 10
431.718
 20
253.708
 11
429.795
 21
248.123
  0
LINE
  8
0
 10
429.795
 20
248.123
 11
427.678
 21
242.609
  0
LINE
  8
0
 10
427.678
 20
242.609
 11
425.37
 21
237.172
  0
LINE
  8
0
 10
425.37
 20
237.172
 11
422.874
 21
231.819
  0
LINE
  8
0
 10
422.874
 20
231.819
 11
420.192
 21
226.556
  0
LINE
  8
0
 10
420.192
 20
226.556
 11
417.329
 21
221.39
  0
LINE
  8
0
 10
417.329
 20
221.39
 11
415
 21
217.514
  0
LINE
  8
0
 10
415
 20
217.514
 11
415
 21
212
  0
LINE
  8
0
 10
415
 20
212
 11
420
 21
212
  0
LINE
  8
0
 10
420
 20
212
 11
420
 21
206
  0
LINE
  8
0
 10
420
 20
206
 11
430
 21
206
  0
LINE
  8
0
 10
430
 20
206
 11
430
 21
212
  0
LINE
  8
0
 10
760
 20
212
 11
764.987
 21
212
  0
LINE
  8
0
 10
764.987
 20
212
 11
767.851
 21
217.167
  0
LINE
  8
0
 10
767.851
 20
217.167
 11
770.85
 21
223.051
  0
LINE
  8
0
 10
770.85
 20
223.051
 11
773.641
 21
229.037
  0
LINE
  8
0
 10
773.641
 20
229.037
 11
776.222
 21
235.117
  0
LINE
  8
0
 10
776.222
 20
235.117
 11
778.589
 21
241.283
  0
LINE
  8
0
 10
778.589
 20
241.283
 11
780.739
 21
247.528
  0
LINE
  8
0
 10
780.739
 20
247.528
 11
782.67
 21
253.844
  0
LINE
  8
0
 10
782.67
 20
253.844
 11
784.379
 21
260.224
  0
LINE
  8
0
 10
784.379
 20
260.224
 11
785.865
 21
266.659
  0
LINE
  8
0
 10
785.865
 20
266.659
 11
787.125
 21
273.142
  0
LINE
  8
0
 10
787.125
 20
273.142
 11
788.159
 21
279.666
  0
LINE
  8
0
 10
788.159
 20
279.666
 11
788.963
 21
286.221
  0
LINE
  8
0
 10
788.963
 20
286.221
 11
789.539
 21
292.801
  0
LINE
  8
0
 10
789.539
 20
292.801
 11
789.885
 21
299.396
  0
LINE
  8
0
 10
789.885
 20
299.396
 11
790
 21
306
  0
LINE
  8
0
 10
790
 20
306
 11
789.728
 21
321.593
  0
LINE
  8
0
 10
789.728
 20
321.593
 11
788.912
 21
337.167
  0
LINE
  8
0
 10
788.912
 20
337.167
 11
787.552
 21
352.703
  0
LINE
  8
0
 10
787.552
 20
352.703
 11
785.652
 21
368.183
  0
LINE
  8
0
 10
785.652
 20
368.183
 11
783.212
 21
383.586
  0
LINE
  8
0
 10
783.212
 20
383.586
 11
780.236
 21
398.895
  0
LINE
  8
0
 10
780.236
 20
398.895
 11
779.981
 21
400
  0
LINE
  8
0
 10
779.981
 20
400
 11
775
 21
400
  0
LINE
  8
0
 10
775
 20
400
 11
775
 21
406
  0
LINE
  8
0
 10
775
 20
406
 11
765
 21
406
  0
LINE
  8
0
 10
765
 20
406
 11
765
 21
400
  0
LINE
  8
0
 10
765
 20
400
 11
760
 21
400
  0
LINE
  8
0
 10
760
 20
400
 11
760
 21
397.653
  0
LINE
  8
0
 10
760
 20
397.653
 11
760.673
 21
394.737
  0
LINE
  8
0
 10
760.673
 20
394.737
 11
763.516
 21
380.113
  0
LINE
  8
0
 10
763.516
 20
380.113
 11
765.846
 21
365.399
  0
LINE
  8
0
 10
765.846
 20
365.399
 11
767.662
 21
350.613
  0
LINE
  8
0
 10
767.662
 20
350.613
 11
768.96
 21
335.772
  0
LINE
  8
0
 10
768.96
 20
335.772
 11
769.74
 21
320.895
  0
LINE
  8
0
 10
769.74
 20
320.895
 11
770
 21
306
  0
LINE
  8
0
 10
770
 20
306
 11
769.897
 21
300.094
  0
LINE
  8
0
 10
769.897
 20
300.094
 11
769.588
 21
294.196
  0
LINE
  8
0
 10
769.588
 20
294.196
 11
769.073
 21
288.312
  0
LINE
  8
0
 10
769.073
 20
288.312
 11
768.353
 21
282.449
  0
LINE
  8
0
 10
768.353
 20
282.449
 11
767.429
 21
276.615
  0
LINE
  8
0
 10
767.429
 20
276.615
 11
766.302
 21
270.817
  0
LINE
  8
0
 10
766.302
 20
270.817
 11
764.973
 21
265.062
  0
LINE
  8
0
 10
764.973
 20
265.062
 11
763.445
 21
259.357
  0
LINE
  8
0
 10
763.445
 20
259.357
 11
761.718
 21
253.708
  0
LINE
  8
0
 10
761.718
 20
253.708
 11
759.795
 21
248.123
  0
LINE
  8
0
 10
759.795
 20
248.123
 11
757.678
 21
242.609
  0
LINE
  8
0
 10
757.678
 20
242.609
 11
755.37
 21
237.172
  0
LINE
  8
0
 10
755.37
 20
237.172
 11
752.874
 21
231.819
  0
LINE
  8
0
 10
752.874
 20
231.819
 11
750.192
 21
226.556
  0
LINE
  8
0
 10
750.192
 20
226.556
 11
747.329
 21
221.39
  0
LINE
  8
0
 10
747.329
 20
221.39
 11
745
 21
217.514
  0
LINE
  8
0
 10
745
 20
217.514
 11
745
 21
212
  0
LINE
  8
0
 10
745
 20
212
 11
750
 21
212
  0
LINE
  8
0
 10
750
 20
212
 11
750
 21
206
  0
LINE
  8
0
 10
750
 20
206
 11
760
 21
206
  0
LINE
  8
0
 10
760
 20
206
 11
760
 21
212
  0
LINE
  8
0
 10
730
 20
212
 11
734.987
 21
212
  0
LINE
  8
0
 10
734.987
 20
212
 11
737.851
 21
217.167
  0
LINE
  8
0
 10
737.851
 20
217.167
 11
740.85
 21
223.051
  0
LINE
  8
0
 10
740.85
 20
223.051
 11
743.641
 21
229.037
  0
LINE
  8
0
 10
743.641
 20
229.037
 11
746.222
 21
235.117
  0
LINE
  8
0
 10
746.222
 20
235.117
 11
748.589
 21
241.283
  0
LINE
  8
0
 10
748.589
 20
241.283
 11
750.739
 21
247.528
  0
LINE
  8
0
 10
750.739
 20
247.528
 11
752.67
 21
253.844
  0
LINE
  8
0
 10
752.67
 20
253.844
 11
754.379
 21
260.224
  0
LINE
  8
0
 10
754.379
 20
260.224
 11
755.865
 21
266.659
  0
LINE
  8
0
 10
755.865
 20
266.659
 11
757.125
 21
273.142
  0
LINE
  8
0
 10
757.125
 20
273.142
 11
758.159
 21
279.666
  0
LINE
  8
0
 10
758.159
 20
279.666
 11
758.963
 21
286.221
  0
LINE
  8
0
 10
758.963
 20
286.221
 11
759.539
 21
292.801
  0
LINE
  8
0
 10
759.539
 20
292.801
 11
759.885
 21
299.396
  0
LINE
  8
0
 10
759.885
 20
299.396
 11
760
 21
306
  0
LINE
  8
0
 10
760
 20
306
 11
759.728
 21
321.593
  0
LINE
  8
0
 10
759.728
 20
321.593
 11
758.912
 21
337.167
  0
LINE
  8
0
 10
758.912
 20
337.167
 11
757.552
 21
352.703
  0
LINE
  8
0
 10
757.552
 20
352.703
 11
755.652
 21
368.183
  0
LINE
  8
0
 10
755.652
 20
368.183
 11
753.212
 21
383.586
  0
LINE
  8
0
 10
753.212
 20
383.586
 11
750.236
 21
398.895
  0
LINE
  8
0
 10
750.236
 20
398.895
 11
749.981
 21
400
  0
LINE
  8
0
 10
749.981
 20
400
 11
745
 21
400
  0
LINE
  8
0
 10
745
 20
400
 11
745
 21
406
  0
LINE
  8
0
 10
745
 20
406
 11
735
 21
406
  0
LINE
  8
0
 10
735
 20
406
 11
735
 21
400
  0
LINE
  8
0
 10
735
 20
400
 11
730
 21
400
  0
LINE
  8
0
 10
730
 20
400
 11
730
 21
397.653
  0
LINE
  8
0
 10
730
 20
397.653
 11
730.673
 21
394.737
  0
LINE
  8
0
 10
730.673
 20
394.737
 11
733.516
 21
380.113
  0
LINE
  8
0
 10
733.516
 20
380.113
 11
735.846
 21
365.399
  0
LINE
  8
0
 10
735.846
 20
365.399
 11
737.662
 21
350.613
  0
LINE
  8
0
 10
737.662
 20
350.613
 11
738.96
 21
335.772
  0
LINE
  8
0
 10
738.96
 20
335.772
 11
739.74
 21
320.895
  0
LINE
  8
0
 10
739.74
 20
320.895
 11
740
 21
306
  0
LINE
  8
0
 10
740
 20
306
 11
739.897
 21
300.094
  0
LINE
  8
0
 10
739.897
 20
300.094
 11
739.588
 21
294.196
  0
LINE
  8
0
 10
739.588
 20
294.196
 11
739.073
 21
288.312
  0
LINE
  8
0
 10
739.073
 20
288.312
 11
738.353
 21
282.449
  0
LINE
  8
0
 10
738.353
 20
282.449
 11
737.429
 21
276.615
  0
LINE
  8
0
 10
737.429
 20
276.615
 11
736.302
 21
270.817
  0
LINE
  8
0
 10
736.302
 20
270.817
 11
734.973
 21
265.062
  0
LINE
  8
0
 10
734.973
 20
265.062
 11
733.445
 21
259.357
  0
LINE
  8
0
 10
733.445
 20
259.357
 11
731.718
 21
253.708
  0
LINE
  8
0
 10
731.718
 20
253.708
 11
729.795
 21
248.123
  0
LINE
  8
0
 10
729.795
 20
248.123
 11
727.678
 21
242.609
  0
LINE
  8
0
 10
727.678
 20
242.609
 11
725.37
 21
237.172
  0
LINE
  8
0
 10
725.37
 20
237.172
 11
722.874
 21
231.819
  0
LINE
  8
0
 10
722.874
 20
231.819
 11
720.192
 21
226.556
  0
LINE
  8
0
 10
720.192
 20
226.556
 11
717.329
 21
221.39
  0
LINE
  8
0
 10
717.329
 20
221.39
 11
715
 21
217.514
  0
LINE
  8
0
 10
715
 20
217.514
 11
715
 21
212
  0
LINE
  8
0
 10
715
 20
212
 11
720
 21
212
  0
LINE
  8
0
 10
720
 20
212
 11
720
 21
206
  0
LINE
  8
0
 10
720
 20
206
 11
730
 21
206
  0
LINE
  8
0
 10
730
 20
206
 11
730
 21
212
  0
LINE
  8
0
 10
700
 20
212
 11
704.987
 21
212
  0
LINE
  8
0
 10
704.987
 20
212
 11
707.851
 21
217.167
  0
LINE
  8
0
 10
707.851
 20
217.167
 11
710.85
 21
223.051
  0
LINE
  8
0
 10
710.85
 20
223.051
 11
713.641
 21
229.037
  0
LINE
  8
0
 10
713.641
 20
229.037
 11
716.222
 21
235.117
  0
LINE
  8
0
 10
716.222
 20
235.117
 11
718.589
 21
241.283
  0
LINE
  8
0
 10
718.589
 20
241.283
 11
720.739
 21
247.528
  0
LINE
  8
0
 10
720.739
 20
247.528
 11
722.67
 21
253.844
  0
LINE
  8
0
 10
722.67
 20
253.844
 11
724.379
 21
260.224
  0
LINE
  8
0
 10
724.379
 20
260.224
 11
725.865
 21
266.659
  0
LINE
  8
0
 10
725.865
 20
266.659
 11
727.125
 21
273.142
  0
LINE
  8
0
 10
727.125
 20
273.142
 11
728.159
 21
279.666
  0
LINE
  8
0
 10
728.159
 20
279.666
 11
728.963
 21
286.221
  0
LINE
  8
0
 10
728.963
 20
286.221
 11
729.539
 21
292.801
  0
LINE
  8
0
 10
729.539
 20
292.801
 11
729.885
 21
299.396
  0
LINE
  8
0
 10
729.885
 20
299.396
 11
730
 21
306
  0
LINE
  8
0
 10
730
 20
306
 11
729.728
 21
321.593
  0
LINE
  8
0
 10
729.728
 20
321.593
 11
728.912
 21
337.167
  0
LINE
  8
0
 10
728.912
 20
337.167
 11
727.552
 21
352.703
  0
LINE
  8
0
 10
727.552
 20
352.703
 11
725.652
 21
368.183
  0
LINE
  8
0
 10
725.652
 20
368.183
 11
723.212
 21
383.586
  0
LINE
  8
0
 10
723.212
 20
383.586
 11
720.236
 21
398.895
  0
LINE
  8
0
 10
720.236
 20
398.895
 11
719.981
 21
400
  0
LINE
  8
0
 10
719.981
 20
400
 11
715
 21
400
  0
LINE
  8
0
 10
715
 20
400
 11
715
 21
406
  0
LINE
  8
0
 10
715
 20
406
 11
705
 21
406
  0
LINE
  8
0
 10
705
 20
406
 11
705
 21
400
  0
LINE
  8
0
 10
705
 20
400
 11
700
 21
400
  0
LINE
  8
0
 10
700
 20
400
 11
700
 21
397.653
  0
LINE
  8
0
 10
700
 20
397.653
 11
700.673
 21
394.737
  0
LINE
  8
0
 10
700.673
 20
394.737
 11
703.516
 21
380.113
  0
LINE
  8
0
 10
703.516
 20
380.113
 11
705.846
 21
365.399
  0
LINE
  8
0
 10
705.846
 20
365.399
 11
707.662
 21
350.613
  0
LINE
  8
0
 10
707.662
 20
350.613
 11
708.96
 21
335.772
  0
LINE
  8
0
 10
708.96
 20
335.772
 11
709.74
 21
320.895
  0
LINE
  8
0
 10
709.74
 20
320.895
 11
710
 21
306
  0
LINE
  8
0
 10
710
 20
306
 11
709.897
 21
300.094
  0
LINE
  8
0
 10
709.897
 20
300.094
 11
709.588
 21
294.196
  0
LINE
  8
0
 10
709.588
 20
294.196
 11
709.073
 21
288.312
  0
LINE
  8
0
 10
709.073
 20
288.312
 11
708.353
 21
282.449
  0
LINE
  8
0
 10
708.353
 20
282.449
 11
707.429
 21
276.615
  0
LINE
  8
0
 10
707.429
 20
276.615
 11
706.302
 21
270.817
  0
LINE
  8
0
 10
706.302
 20
270.817
 11
704.973
 21
265.062
  0
LINE
  8
0
 10
704.973
 20
265.062
 11
703.445
 21
259.357
  0
LINE
  8
0
 10
703.445
 20
259.357
 11
701.718
 21
253.708
  0
LINE
  8
0
 10
701.718
 20
253.708
 11
699.795
 21
248.123
  0
LINE
  8
0
 10
699.795
 20
248.123
 11
697.678
 21
242.609
  0
LINE
  8
0
 10
697.678
 20
242.609
 11
695.37
 21
237.172
  0
LINE
  8
0
 10
695.37
 20
237.172
 11
692.874
 21
231.819
  0
LINE
  8
0
 10
692.874
 20
231.819
 11
690.192
 21
226.556
  0
LINE
  8
0
 10
690.192
 20
226.556
 11
687.329
 21
221.39
  0
LINE
  8
0
 10
687.329
 20
221.39
 11
685
 21
217.514
  0
LINE
  8
0
 10
685
 20
217.514
 11
685
 21
212
  0
LINE
  8
0
 10
685
 20
212
 11
690
 21
212
  0
LINE
  8
0
 10
690
 20
212
 11
690
 21
206
  0
LINE
  8
0
 10
690
 20
206
 11
700
 21
206
  0
LINE
  8
0
 10
700
 20
206
 11
700
 21
212
  0
LINE
  8
0
 10
670
 20
212
 11
674.987
 21
212
  0
LINE
  8
0
 10
674.987
 20
212
 11
677.851
 21
217.167
  0
LINE
  8
0
 10
677.851
 20
217.167
 11
680.85
 21
223.051
  0
LINE
  8
0
 10
680.85
 20
223.051
 11
683.641
 21
229.037
  0
LINE
  8
0
 10
683.641
 20
229.037
 11
686.222
 21
235.117
  0
LINE
  8
0
 10
686.222
 20
235.117
 11
688.589
 21
241.283
  0
LINE
  8
0
 10
688.589
 20
241.283
 11
690.739
 21
247.528
  0
LINE
  8
0
 10
690.739
 20
247.528
 11
692.67
 21
253.844
  0
LINE
  8
0
 10
692.67
 20
253.844
 11
694.379
 21
260.224
  0
LINE
  8
0
 10
694.379
 20
260.224
 11
695.865
 21
266.659
  0
LINE
  8
0
 10
695.865
 20
266.659
 11
697.125
 21
273.142
  0
LINE
  8
0
 10
697.125
 20
273.142
 11
698.159
 21
279.666
  0
LINE
  8
0
 10
698.159
 20
279.666
 11
698.963
 21
286.221
  0
LINE
  8
0
 10
698.963
 20
286.221
 11
699.539
 21
292.801
  0
LINE
  8
0
 10
699.539
 20
292.801
 11
699.885
 21
299.396
  0
LINE
  8
0
 10
699.885
 20
299.396
 11
700
 21
306
  0
LINE
  8
0
 10
700
 20
306
 11
699.728
 21
321.593
  0
LINE
  8
0
 10
699.728
 20
321.593
 11
698.912
 21
337.167
  0
LINE
  8
0
 10
698.912
 20
337.167
 11
697.552
 21
352.703
  0
LINE
  8
0
 10
697.552
 20
352.703
 11
695.652
 21
368.183
  0
LINE
  8
0
 10
695.652
 20
368.183
 11
693.212
 21
383.586
  0
LINE
  8
0
 10
693.212
 20
383.586
 11
690.236
 21
398.895
  0
LINE
  8
0
 10
690.236
 20
398.895
 11
689.981
 21
400
  0
LINE
  8
0
 10
689.981
 20
400
 11
685
 21
400
  0
LINE
  8
0
 10
685
 20
400
 11
685
 21
406
  0
LINE
  8
0
 10
685
 20
406
 11
675
 21
406
  0
LINE
  8
0
 10
675
 20
406
 11
675
 21
400
  0
LINE
  8
0
 10
675
 20
400
 11
670
 21
400
  0
LINE
  8
0
 10
670
 20
400
 11
670
 21
397.653
  0
LINE
  8
0
 10
670
 20
397.653
 11
670.673
 21
394.737
  0
LINE
  8
0
 10
670.673
 20
394.737
 11
673.516
 21
380.113
  0
LINE
  8
0
 10
673.516
 20
380.113
 11
675.846
 21
365.399
  0
LINE
  8
0
 10
675.846
 20
365.399
 11
677.662
 21
350.613
  0
LINE
  8
0
 10
677.662
 20
350.613
 11
678.96
 21
335.772
  0
LINE
  8
0
 10
678.96
 20
335.772
 11
679.74
 21
320.895
  0
LINE
  8
0
 10
679.74
 20
320.895
 11
680
 21
306
  0
LINE
  8
0
 10
680
 20
306
 11
679.897
 21
300.094
  0
LINE
  8
0
 10
679.897
 20
300.094
 11
679.588
 21
294.196
  0
LINE
  8
0
 10
679.588
 20
294.196
 11
679.073
 21
288.312
  0
LINE
  8
0
 10
679.073
 20
288.312
 11
678.353
 21
282.449
  0
LINE
  8
0
 10
678.353
 20
282.449
 11
677.429
 21
276.615
  0
LINE
  8
0
 10
677.429
 20
276.615
 11
676.302
 21
270.817
  0
LINE
  8
0
 10
676.302
 20
270.817
 11
674.973
 21
265.062
  0
LINE
  8
0
 10
674.973
 20
265.062
 11
673.445
 21
259.357
  0
LINE
  8
0
 10
673.445
 20
259.357
 11
671.718
 21
253.708
  0
LINE
  8
0
 10
671.718
 20
253.708
 11
669.795
 21
248.123
  0
LINE
  8
0
 10
669.795
 20
248.123
 11
667.678
 21
242.609
  0
LINE
  8
0
 10
667.678
 20
242.609
 11
665.37
 21
237.172
  0
LINE
  8
0
 10
665.37
 20
237.172
 11
662.874
 21
231.819
  0
LINE
  8
0
 10
662.874
 20
231.819
 11
660.192
 21
226.556
  0
LINE
  8
0
 10
660.192
 20
226.556
 11
657.329
 21
221.39
  0
LINE
  8
0
 10
657.329
 20
221.39
 11
655
 21
217.514
  0
LINE
  8
0
 10
655
 20
217.514
 11
655
 21
212
  0
LINE
  8
0
 10
655
 20
212
 11
660
 21
212
  0
LINE
  8
0
 10
660
 20
212
 11
660
 21
206
  0
LINE
  8
0
 10
660
 20
206
 11
670
 21
206
  0
LINE
  8
0
 10
670
 20
206
 11
670
 21
212
  0
LINE
  8
0
 10
640
 20
212
 11
644.987
 21
212
  0
LINE
  8
0
 10
644.987
 20
212
 11
647.851
 21
217.167
  0
LINE
  8
0
 10
647.851
 20
217.167
 11
650.85
 21
223.051
  0
LINE
  8
0
 10
650.85
 20
223.051
 11
653.641
 21
229.037
  0
LINE
  8
0
 10
653.641
 20
229.037
 11
656.222
 21
235.117
  0
LINE
  8
0
 10
656.222
 20
235.117
 11
658.589
 21
241.283
  0
LINE
  8
0
 10
658.589
 20
241.283
 11
660.739
 21
247.528
  0
LINE
  8
0
 10
660.739
 20
247.528
 11
662.67
 21
253.844
  0
LINE
  8
0
 10
662.67
 20
253.844
 11
664.379
 21
260.224
  0
LINE
  8
0
 10
664.379
 20
260.224
 11
665.865
 21
266.659
  0
LINE
  8
0
 10
665.865
 20
266.659
 11
667.125
 21
273.142
  0
LINE
  8
0
 10
667.125
 20
273.142
 11
668.159
 21
279.666
  0
LINE
  8
0
 10
668.159
 20
279.666
 11
668.963
 21
286.221
  0
LINE
  8
0
 10
668.963
 20
286.221
 11
669.539
 21
292.801
  0
LINE
  8
0
 10
669.539
 20
292.801
 11
669.885
 21
299.396
  0
LINE
  8
0
 10
669.885
 20
299.396
 11
670
 21
306
  0
LINE
  8
0
 10
670
 20
306
 11
669.728
 21
321.593
  0
LINE
  8
0
 10
669.728
 20
321.593
 11
668.912
 21
337.167
  0
LINE
  8
0
 10
668.912
 20
337.167
 11
667.552
 21
352.703
  0
LINE
  8
0
 10
667.552
 20
352.703
 11
665.652
 21
368.183
  0
LINE
  8
0
 10
665.652
 20
368.183
 11
663.212
 21
383.586
  0
LINE
  8
0
 10
663.212
 20
383.586
 11
660.236
 21
398.895
  0
LINE
  8
0
 10
660.236
 20
398.895
 11
659.981
 21
400
  0
LINE
  8
0
 10
659.981
 20
400
 11
655
 21
400
  0
LINE
  8
0
 10
655
 20
400
 11
655
 21
406
  0
LINE
  8
0
 10
655
 20
406
 11
645
 21
406
  0
LINE
  8
0
 10
645
 20
406
 11
645
 21
400
  0
LINE
  8
0
 10
645
 20
400
 11
640
 21
400
  0
LINE
  8
0
 10
640
 20
400
 11
640
 21
397.653
  0
LINE
  8
0
 10
640
 20
397.653
 11
640.673
 21
394.737
  0
LINE
  8
0
 10
640.673
 20
394.737
 11
643.516
 21
380.113
  0
LINE
  8
0
 10
643.516
 20
380.113
 11
645.846
 21
365.399
  0
LINE
  8
0
 10
645.846
 20
365.399
 11
647.662
 21
350.613
  0
LINE
  8
0
 10
647.662
 20
350.613
 11
648.96
 21
335.772
  0
LINE
  8
0
 10
648.96
 20
335.772
 11
649.74
 21
320.895
  0
LINE
  8
0
 10
649.74
 20
320.895
 11
650
 21
306
  0
LINE
  8
0
 10
650
 20
306
 11
649.897
 21
300.094
  0
LINE
  8
0
 10
649.897
 20
300.094
 11
649.588
 21
294.196
  0
LINE
  8
0
 10
649.588
 20
294.196
 11
649.073
 21
288.312
  0
LINE
  8
0
 10
649.073
 20
288.312
 11
648.353
 21
282.449
  0
LINE
  8
0
 10
648.353
 20
282.449
 11
647.429
 21
276.615
  0
LINE
  8
0
 10
647.429
 20
276.615
 11
646.302
 21
270.817
  0
LINE
  8
0
 10
646.302
 20
270.817
 11
644.973
 21
265.062
  0
LINE
  8
0
 10
644.973
 20
265.062
 11
643.445
 21
259.357
  0
LINE
  8
0
 10
643.445
 20
259.357
 11
641.718
 21
253.708
  0
LINE
  8
0
 10
641.718
 20
253.708
 11
639.795
 21
248.123
  0
LINE
  8
0
 10
639.795
 20
248.123
 11
637.678
 21
242.609
  0
LINE
  8
0
 10
637.678
 20
242.609
 11
635.37
 21
237.172
  0
LINE
  8
0
 10
635.37
 20
237.172
 11
632.874
 21
231.819
  0
LINE
  8
0
 10
632.874
 20
231.819
 11
630.192
 21
226.556
  0
LINE
  8
0
 10
630.192
 20
226.556
 11
627.329
 21
221.39
  0
LINE
  8
0
 10
627.329
 20
221.39
 11
625
 21
217.514
  0
LINE
  8
0
 10
625
 20
217.514
 11
625
 21
212
  0
LINE
  8
0
 10
625
 20
212
 11
630
 21
212
  0
LINE
  8
0
 10
630
 20
212
 11
630
 21
206
  0
LINE
  8
0
 10
630
 20
206
 11
640
 21
206
  0
LINE
  8
0
 10
640
 20
206
 11
640
 21
212
  0
LINE
  8
0
 10
610
 20
212
 11
614.987
 21
212
  0
LINE
  8
0
 10
614.987
 20
212
 11
617.851
 21
217.167
  0
LINE
  8
0
 10
617.851
 20
217.167
 11
620.85
 21
223.051
  0
LINE
  8
0
 10
620.85
 20
223.051
 11
623.641
 21
229.037
  0
LINE
  8
0
 10
623.641
 20
229.037
 11
626.222
 21
235.117
  0
LINE
  8
0
 10
626.222
 20
235.117
 11
628.589
 21
241.283
  0
LINE
  8
0
 10
628.589
 20
241.283
 11
630.739
 21
247.528
  0
LINE
  8
0
 10
630.739
 20
247.528
 11
632.67
 21
253.844
  0
LINE
  8
0
 10
632.67
 20
253.844
 11
634.379
 21
260.224
  0
LINE
  8
0
 10
634.379
 20
260.224
 11
635.865
 21
266.659
  0
LINE
  8
0
 10
635.865
 20
266.659
 11
637.125
 21
273.142
  0
LINE
  8
0
 10
637.125
 20
273.142
 11
638.159
 21
279.666
  0
LINE
  8
0
 10
638.159
 20
279.666
 11
638.963
 21
286.221
  0
LINE
  8
0
 10
638.963
 20
286.221
 11
639.539
 21
292.801
  0
LINE
  8
0
 10
639.539
 20
292.801
 11
639.885
 21
299.396
  0
LINE
  8
0
 10
639.885
 20
299.396
 11
640
 21
306
  0
LINE
  8
0
 10
640
 20
306
 11
639.728
 21
321.593
  0
LINE
  8
0
 10
639.728
 20
321.593
 11
638.912
 21
337.167
  0
LINE
  8
0
 10
638.912
 20
337.167
 11
637.552
 21
352.703
  0
LINE
  8
0
 10
637.552
 20
352.703
 11
635.652
 21
368.183
  0
LINE
  8
0
 10
635.652
 20
368.183
 11
633.212
 21
383.586
  0
LINE
  8
0
 10
633.212
 20
383.586
 11
630.236
 21
398.895
  0
LINE
  8
0
 10
630.236
 20
398.895
 11
629.981
 21
400
  0
LINE
  8
0
 10
629.981
 20
400
 11
625
 21
400
  0
LINE
  8
0
 10
625
 20
400
 11
625
 21
406
  0
LINE
  8
0
 10
625
 20
406
 11
615
 21
406
  0
LINE
  8
0
 10
615
 20
406
 11
615
 21
400
  0
LINE
  8
0
 10
615
 20
400
 11
610
 21
400
  0
LINE
  8
0
 10
610
 20
400
 11
610
 21
397.653
  0
LINE
  8
0
 10
610
 20
397.653
 11
610.673
 21
394.737
  0
LINE
  8
0
 10
610.673
 20
394.737
 11
613.516
 21
380.113
  0
LINE
  8
0
 10
613.516
 20
380.113
 11
615.846
 21
365.399
  0
LINE
  8
0
 10
615.846
 20
365.399
 11
617.662
 21
350.613
  0
LINE
  8
0
 10
617.662
 20
350.613
 11
618.96
 21
335.772
  0
LINE
  8
0
 10
618.96
 20
335.772
 11
619.74
 21
320.895
  0
LINE
  8
0
 10
619.74
 20
320.895
 11
620
 21
306
  0
LINE
  8
0
 10
620
 20
306
 11
619.897
 21
300.094
  0
LINE
  8
0
 10
619.897
 20
300.094
 11
619.588
 21
294.196
  0
LINE
  8
0
 10
619.588
 20
294.196
 11
619.073
 21
288.312
  0
LINE
  8
0
 10
619.073
 20
288.312
 11
618.353
 21
282.449
  0
LINE
  8
0
 10
618.353
 20
282.449
 11
617.429
 21
276.615
  0
LINE
  8
0
 10
617.429
 20
276.615
 11
616.302
 21
270.817
  0
LINE
  8
0
 10
616.302
 20
270.817
 11
614.973
 21
265.062
  0
LINE
  8
0
 10
614.973
 20
265.062
 11
613.445
 21
259.357
  0
LINE
  8
0
 10
613.445
 20
259.357
 11
611.718
 21
253.708
  0
LINE
  8
0
 10
611.718
 20
253.708
 11
609.795
 21
248.123
  0
LINE
  8
0
 10
609.795
 20
248.123
 11
607.678
 21
242.609
  0
LINE
  8
0
 10
607.678
 20
242.609
 11
605.37
 21
237.172
  0
LINE
  8
0
 10
605.37
 20
237.172
 11
602.874
 21
231.819
  0
LINE
  8
0
 10
602.874
 20
231.819
 11
600.192
 21
226.556
  0
LINE
  8
0
 10
600.192
 20
226.556
 11
597.329
 21
221.39
  0
LINE
  8
0
 10
597.329
 20
221.39
 11
595
 21
217.514
  0
LINE
  8
0
 10
595
 20
217.514
 11
595
 21
212
  0
LINE
  8
0
 10
595
 20
212
 11
600
 21
212
  0
LINE
  8
0
 10
600
 20
212
 11
600
 21
206
  0
LINE
  8
0
 10
600
 20
206
 11
610
 21
206
  0
LINE
  8
0
 10
610
 20
206
 11
610
 21
212
  0
LINE
  8
0
 10
580
 20
212
 11
584.987
 21
212
  0
LINE
  8
0
 10
584.987
 20
212
 11
587.851
 21
217.167
  0
LINE
  8
0
 10
587.851
 20
217.167
 11
590.85
 21
223.051
  0
LINE
  8
0
 10
590.85
 20
223.051
 11
593.641
 21
229.037
  0
LINE
  8
0
 10
593.641
 20
229.037
 11
596.222
 21
235.117
  0
LINE
  8
0
 10
596.222
 20
235.117
 11
598.589
 21
241.283
  0
LINE
  8
0
 10
598.589
 20
241.283
 11
600.739
 21
247.528
  0
LINE
  8
0
 10
600.739
 20
247.528
 11
602.67
 21
253.844
  0
LINE
  8
0
 10
602.67
 20
253.844
 11
604.379
 21
260.224
  0
LINE
  8
0
 10
604.379
 20
260.224
 11
605.865
 21
266.659
  0
LINE
  8
0
 10
605.865
 20
266.659
 11
607.125
 21
273.142
  0
LINE
  8
0
 10
607.125
 20
273.142
 11
608.159
 21
279.666
  0
LINE
  8
0
 10
608.159
 20
279.666
 11
608.963
 21
286.221
  0
LINE
  8
0
 10
608.963
 20
286.221
 11
609.539
 21
292.801
  0
LINE
  8
0
 10
609.539
 20
292.801
 11
609.885
 21
299.396
  0
LINE
  8
0
 10
609.885
 20
299.396
 11
610
 21
306
  0
LINE
  8
0
 10
610
 20
306
 11
609.728
 21
321.593
  0
LINE
  8
0
 10
609.728
 20
321.593
 11
608.912
 21
337.167
  0
LINE
  8
0
 10
608.912
 20
337.167
 11
607.552
 21
352.703
  0
LINE
  8
0
 10
607.552
 20
352.703
 11
605.652
 21
368.183
  0
LINE
  8
0
 10
605.652
 20
368.183
 11
603.212
 21
383.586
  0
LINE
  8
0
 10
603.212
 20
383.586
 11
600.236
 21
398.895
  0
LINE
  8
0
 10
600.236
 20
398.895
 11
599.981
 21
400
  0
LINE
  8
0
 10
599.981
 20
400
 11
595
 21
400
  0
LINE
  8
0
 10
595
 20
400
 11
595
 21
406
  0
LINE
  8
0
 10
595
 20
406
 11
585
 21
406
  0
LINE
  8
0
 10
585
 20
406
 11
585
 21
400
  0
LINE
  8
0
 10
585
 20
400
 11
580
 21
400
  0
LINE
  8
0
 10
580
 20
400
 11
580
 21
397.653
  0
LINE
  8
0
 10
580
 20
397.653
 11
580.673
 21
394.737
  0
LINE
  8
0
 10
580.673
 20
394.737
 11
583.516
 21
380.113
  0
LINE
  8
0
 10
583.516
 20
380.113
 11
585.846
 21
365.399
  0
LINE
  8
0
 10
585.846
 20
365.399
 11
587.662
 21
350.613
  0
LINE
  8
0
 10
587.662
 20
350.613
 11
588.96
 21
335.772
  0
LINE
  8
0
 10
588.96
 20
335.772
 11
589.74
 21
320.895
  0
LINE
  8
0
 10
589.74
 20
320.895
 11
590
 21
306
  0
LINE
  8
0
 10
590
 20
306
 11
589.897
 21
300.094
  0
LINE
  8
0
 10
589.897
 20
300.094
 11
589.588
 21
294.196
  0
LINE
  8
0
 10
589.588
 20
294.196
 11
589.073
 21
288.312
  0
LINE
  8
0
 10
589.073
 20
288.312
 11
588.353
 21
282.449
  0
LINE
  8
0
 10
588.353
 20
282.449
 11
587.429
 21
276.615
  0
LINE
  8
0
 10
587.429
 20
276.615
 11
586.302
 21
270.817
  0
LINE
  8
0
 10
586.302
 20
270.817
 11
584.973
 21
265.062
  0
LINE
  8
0
 10
584.973
 20
265.062
 11
583.445
 21
259.357
  0
LINE
  8
0
 10
583.445
 20
259.357
 11
581.718
 21
253.708
  0
LINE
  8
0
 10
581.718
 20
253.708
 11
579.795
 21
248.123
  0
LINE
  8
0
 10
579.795
 20
248.123
 11
577.678
 21
242.609
  0
LINE
  8
0
 10
577.678
 20
242.609
 11
575.37
 21
237.172
  0
LINE
  8
0
 10
575.37
 20
237.172
 11
572.874
 21
231.819
  0
LINE
  8
0
 10
572.874
 20
231.819
 11
570.192
 21
226.556
  0
LINE
  8
0
 10
570.192
 20
226.556
 11
567.329
 21
221.39
  0
LINE
  8
0
 10
567.329
 20
221.39
 11
565
 21
217.514
  0
LINE
  8
0
 10
565
 20
217.514
 11
565
 21
212
  0
LINE
  8
0
 10
565
 20
212
 11
570
 21
212
  0
LINE
  8
0
 10
570
 20
212
 11
570
 21
206
  0
LINE
  8
0
 10
570
 20
206
 11
580
 21
206
  0
LINE
  8
0
 10
580
 20
206
 11
580
 21
212
  0
LINE
  8
0
 10
550
 20
212
 11
554.987
 21
212
  0
LINE
  8
0
 10
554.987
 20
212
 11
557.851
 21
217.167
  0
LINE
  8
0
 10
557.851
 20
217.167
 11
560.85
 21
223.051
  0
LINE
  8
0
 10
560.85
 20
223.051
 11
563.641
 21
229.037
  0
LINE
  8
0
 10
563.641
 20
229.037
 11
566.222
 21
235.117
  0
LINE
  8
0
 10
566.222
 20
235.117
 11
568.589
 21
241.283
  0
LINE
  8
0
 10
568.589
 20
241.283
 11
570.739
 21
247.528
  0
LINE
  8
0
 10
570.739
 20
247.528
 11
572.67
 21
253.844
  0
LINE
  8
0
 10
572.67
 20
253.844
 11
574.379
 21
260.224
  0
LINE
  8
0
 10
574.379
 20
260.224
 11
575.865
 21
266.659
  0
LINE
  8
0
 10
575.865
 20
266.659
 11
577.125
 21
273.142
  0
LINE
  8
0
 10
577.125
 20
273.142
 11
578.159
 21
279.666
  0
LINE
  8
0
 10
578.159
 20
279.666
 11
578.963
 21
286.221
  0
LINE
  8
0
 10
578.963
 20
286.221
 11
579.539
 21
292.801
  0
LINE
  8
0
 10
579.539
 20
292.801
 11
579.885
 21
299.396
  0
LINE
  8
0
 10
579.885
 20
299.396
 11
580
 21
306
  0
LINE
  8
0
 10
580
 20
306
 11
579.728
 21
321.593
  0
LINE
  8
0
 10
579.728
 20
321.593
 11
578.912
 21
337.167
  0
LINE
  8
0
 10
578.912
 20
337.167
 11
577.552
 21
352.703
  0
LINE
  8
0
 10
577.552
 20
352.703
 11
575.652
 21
368.183
  0
LINE
  8
0
 10
575.652
 20
368.183
 11
573.212
 21
383.586
  0
LINE
  8
0
 10
573.212
 20
383.586
 11
570.236
 21
398.895
  0
LINE
  8
0
 10
570.236
 20
398.895
 11
569.981
 21
400
  0
LINE
  8
0
 10
569.981
 20
400
 11
565
 21
400
  0
LINE
  8
0
 10
565
 20
400
 11
565
 21
406
  0
LINE
  8
0
 10
565
 20
406
 11
555
 21
406
  0
LINE
  8
0
 10
555
 20
406
 11
555
 21
400
  0
LINE
  8
0
 10
555
 20
400
 11
550
 21
400
  0
LINE
  8
0
 10
550
 20
400
 11
550
 21
397.653
  0
LINE
  8
0
 10
550
 20
397.653
 11
550.673
 21
394.737
  0
LINE
  8
0
 10
550.673
 20
394.737
 11
553.516
 21
380.113
  0
LINE
  8
0
 10
553.516
 20
380.113
 11
555.846
 21
365.399
  0
LINE
  8
0
 10
555.846
 20
365.399
 11
557.662
 21
350.613
  0
LINE
  8
0
 10
557.662
 20
350.613
 11
558.96
 21
335.772
  0
LINE
  8
0
 10
558.96
 20
335.772
 11
559.74
 21
320.895
  0
LINE
  8
0
 10
559.74
 20
320.895
 11
560
 21
306
  0
LINE
  8
0
 10
560
 20
306
 11
559.897
 21
300.094
  0
LINE
  8
0
 10
559.897
 20
300.094
 11
559.588
 21
294.196
  0
LINE
  8
0
 10
559.588
 20
294.196
 11
559.073
 21
288.312
  0
LINE
  8
0
 10
559.073
 20
288.312
 11
558.353
 21
282.449
  0
LINE
  8
0
 10
558.353
 20
282.449
 11
557.429
 21
276.615
  0
LINE
  8
0
 10
557.429
 20
276.615
 11
556.302
 21
270.817
  0
LINE
  8
0
 10
556.302
 20
270.817
 11
554.973
 21
265.062
  0
LINE
  8
0
 10
554.973
 20
265.062
 11
553.445
 21
259.357
  0
LINE
  8
0
 10
553.445
 20
259.357
 11
551.718
 21
253.708
  0
LINE
  8
0
 10
551.718
 20
253.708
 11
549.795
 21
248.123
  0
LINE
  8
0
 10
549.795
 20
248.123
 11
547.678
 21
242.609
  0
LINE
  8
0
 10
547.678
 20
242.609
 11
545.37
 21
237.172
  0
LINE
  8
0
 10
545.37
 20
237.172
 11
542.874
 21
231.819
  0
LINE
  8
0
 10
542.874
 20
231.819
 11
540.192
 21
226.556
  0
LINE
  8
0
 10
540.192
 20
226.556
 11
537.329
 21
221.39
  0
LINE
  8
0
 10
537.329
 20
221.39
 11
535
 21
217.514
  0
LINE
  8
0
 10
535
 20
217.514
 11
535
 21
212
  0
LINE
  8
0
 10
535
 20
212
 11
540
 21
212
  0
LINE
  8
0
 10
540
 20
212
 11
540
 21
206
  0
LINE
  8
0
 10
540
 20
206
 11
550
 21
206
  0
LINE
  8
0
 10
550
 20
206
 11
550
 21
212
  0
LINE
  8
0
 10
520
 20
212
 11
524.987
 21
212
  0
LINE
  8
0
 10
524.987
 20
212
 11
527.851
 21
217.167
  0
LINE
  8
0
 10
527.851
 20
217.167
 11
530.85
 21
223.051
  0
LINE
  8
0
 10
530.85
 20
223.051
 11
533.641
 21
229.037
  0
LINE
  8
0
 10
533.641
 20
229.037
 11
536.222
 21
235.117
  0
LINE
  8
0
 10
536.222
 20
235.117
 11
538.589
 21
241.283
  0
LINE
  8
0
 10
538.589
 20
241.283
 11
540.739
 21
247.528
  0
LINE
  8
0
 10
540.739
 20
247.528
 11
542.67
 21
253.844
  0
LINE
  8
0
 10
542.67
 20
253.844
 11
544.379
 21
260.224
  0
LINE
  8
0
 10
544.379
 20
260.224
 11
545.865
 21
266.659
  0
LINE
  8
0
 10
545.865
 20
266.659
 11
547.125
 21
273.142
  0
LINE
  8
0
 10
547.125
 20
273.142
 11
548.159
 21
279.666
  0
LINE
  8
0
 10
548.159
 20
279.666
 11
548.963
 21
286.221
  0
LINE
  8
0
 10
548.963
 20
286.221
 11
549.539
 21
292.801
  0
LINE
  8
0
 10
549.539
 20
292.801
 11
549.885
 21
299.396
  0
LINE
  8
0
 10
549.885
 20
299.396
 11
550
 21
306
  0
LINE
  8
0
 10
550
 20
306
 11
549.728
 21
321.593
  0
LINE
  8
0
 10
549.728
 20
321.593
 11
548.912
 21
337.167
  0
LINE
  8
0
 10
548.912
 20
337.167
 11
547.552
 21
352.703
  0
LINE
  8
0
 10
547.552
 20
352.703
 11
545.652
 21
368.183
  0
LINE
  8
0
 10
545.652
 20
368.183
 11
543.212
 21
383.586
  0
LINE
  8
0
 10
543.212
 20
383.586
 11
540.236
 21
398.895
  0
LINE
  8
0
 10
540.236
 20
398.895
 11
539.981
 21
400
  0
LINE
  8
0
 10
539.981
 20
400
 11
535
 21
400
  0
LINE
  8
0
 10
535
 20
400
 11
535
 21
406
  0
LINE
  8
0
 10
535
 20
406
 11
525
 21
406
  0
LINE
  8
0
 10
525
 20
406
 11
525
 21
400
  0
LINE
  8
0
 10
525
 20
400
 11
520
 21
400
  0
LINE
  8
0
 10
520
 20
400
 11
520
 21
397.653
  0
LINE
  8
0
 10
520
 20
397.653
 11
520.673
 21
394.737
  0
LINE
  8
0
 10
520.673
 20
394.737
 11
523.516
 21
380.113
  0
LINE
  8
0
 10
523.516
 20
380.113
 11
525.846
 21
365.399
  0
LINE
  8
0
 10
525.846
 20
365.399
 11
527.662
 21
350.613
  0
LINE
  8
0
 10
527.662
 20
350.613
 11
528.96
 21
335.772
  0
LINE
  8
0
 10
528.96
 20
335.772
 11
529.74
 21
320.895
  0
LINE
  8
0
 10
529.74
 20
320.895
 11
530
 21
306
  0
LINE
  8
0
 10
530
 20
306
 11
529.897
 21
300.094
  0
LINE
  8
0
 10
529.897
 20
300.094
 11
529.588
 21
294.196
  0
LINE
  8
0
 10
529.588
 20
294.196
 11
529.073
 21
288.312
  0
LINE
  8
0
 10
529.073
 20
288.312
 11
528.353
 21
282.449
  0
LINE
  8
0
 10
528.353
 20
282.449
 11
527.429
 21
276.615
  0
LINE
  8
0
 10
527.429
 20
276.615
 11
526.302
 21
270.817
  0
LINE
  8
0
 10
526.302
 20
270.817
 11
524.973
 21
265.062
  0
LINE
  8
0
 10
524.973
 20
265.062
 11
523.445
 21
259.357
  0
LINE
  8
0
 10
523.445
 20
259.357
 11
521.718
 21
253.708
  0
LINE
  8
0
 10
521.718
 20
253.708
 11
519.795
 21
248.123
  0
LINE
  8
0
 10
519.795
 20
248.123
 11
517.678
 21
242.609
  0
LINE
  8
0
 10
517.678
 20
242.609
 11
515.37
 21
237.172
  0
LINE
  8
0
 10
515.37
 20
237.172
 11
512.874
 21
231.819
  0
LINE
  8
0
 10
512.874
 20
231.819
 11
510.192
 21
226.556
  0
LINE
  8
0
 10
510.192
 20
226.556
 11
507.329
 21
221.39
  0
LINE
  8
0
 10
507.329
 20
221.39
 11
505
 21
217.514
  0
LINE
  8
0
 10
505
 20
217.514
 11
505
 21
212
  0
LINE
  8
0
 10
505
 20
212
 11
510
 21
212
  0
LINE
  8
0
 10
510
 20
212
 11
510
 21
206
  0
LINE
  8
0
 10
510
 20
206
 11
520
 21
206
  0
LINE
  8
0
 10
520
 20
206
 11
520
 21
212
  0
LINE
  8
0
 10
490
 20
212
 11
494.987
 21
212
  0
LINE
  8
0
 10
494.987
 20
212
 11
497.851
 21
217.167
  0
LINE
  8
0
 10
497.851
 20
217.167
 11
500.85
 21
223.051
  0
LINE
  8
0
 10
500.85
 20
223.051
 11
503.641
 21
229.037
  0
LINE
  8
0
 10
503.641
 20
229.037
 11
506.222
 21
235.117
  0
LINE
  8
0
 10
506.222
 20
235.117
 11
508.589
 21
241.283
  0
LINE
  8
0
 10
508.589
 20
241.283
 11
510.739
 21
247.528
  0
LINE
  8
0
 10
510.739
 20
247.528
 11
512.67
 21
253.844
  0
LINE
  8
0
 10
512.67
 20
253.844
 11
514.379
 21
260.224
  0
LINE
  8
0
 10
514.379
 20
260.224
 11
515.865
 21
266.659
  0
LINE
  8
0
 10
515.865
 20
266.659
 11
517.125
 21
273.142
  0
LINE
  8
0
 10
517.125
 20
273.142
 11
518.159
 21
279.666
  0
LINE
  8
0
 10
518.159
 20
279.666
 11
518.963
 21
286.221
  0
LINE
  8
0
 10
518.963
 20
286.221
 11
519.539
 21
292.801
  0
LINE
  8
0
 10
519.539
 20
292.801
 11
519.885
 21
299.396
  0
LINE
  8
0
 10
519.885
 20
299.396
 11
520
 21
306
  0
LINE
  8
0
 10
520
 20
306
 11
519.728
 21
321.593
  0
LINE
  8
0
 10
519.728
 20
321.593
 11
518.912
 21
337.167
  0
LINE
  8
0
 10
518.912
 20
337.167
 11
517.552
 21
352.703
  0
LINE
  8
0
 10
517.552
 20
352.703
 11
515.652
 21
368.183
  0
LINE
  8
0
 10
515.652
 20
368.183
 11
513.212
 21
383.586
  0
LINE
  8
0
 10
513.212
 20
383.586
 11
510.236
 21
398.895
  0
LINE
  8
0
 10
510.236
 20
398.895
 11
509.981
 21
400
  0
LINE
  8
0
 10
509.981
 20
400
 11
505
 21
400
  0
LINE
  8
0
 10
505
 20
400
 11
505
 21
406
  0
LINE
  8
0
 10
505
 20
406
 11
495
 21
406
  0
LINE
  8
0
 10
495
 20
406
 11
495
 21
400
  0
LINE
  8
0
 10
495
 20
400
 11
490
 21
400
  0
LINE
  8
0
 10
490
 20
400
 11
490
 21
397.653
  0
LINE
  8
0
 10
490
 20
397.653
 11
490.673
 21
394.737
  0
LINE
  8
0
 10
490.673
 20
394.737
 11
493.516
 21
380.113
  0
LINE
  8
0
 10
493.516
 20
380.113
 11
495.846
 21
365.399
  0
LINE
  8
0
 10
495.846
 20
365.399
 11
497.662
 21
350.613
  0
LINE
  8
0
 10
497.662
 20
350.613
 11
498.96
 21
335.772
  0
LINE
  8
0
 10
498.96
 20
335.772
 11
499.74
 21
320.895
  0
LINE
  8
0
 10
499.74
 20
320.895
 11
500
 21
306
  0
LINE
  8
0
 10
500
 20
306
 11
499.897
 21
300.094
  0
LINE
  8
0
 10
499.897
 20
300.094
 11
499.588
 21
294.196
  0
LINE
  8
0
 10
499.588
 20
294.196
 11
499.073
 21
288.312
  0
LINE
  8
0
 10
499.073
 20
288.312
 11
498.353
 21
282.449
  0
LINE
  8
0
 10
498.353
 20
282.449
 11
497.429
 21
276.615
  0
LINE
  8
0
 10
497.429
 20
276.615
 11
496.302
 21
270.817
  0
LINE
  8
0
 10
496.302
 20
270.817
 11
494.973
 21
265.062
  0
LINE
  8
0
 10
494.973
 20
265.062
 11
493.445
 21
259.357
  0
LINE
  8
0
 10
493.445
 20
259.357
 11
491.718
 21
253.708
  0
LINE
  8
0
 10
491.718
 20
253.708
 11
489.795
 21
248.123
  0
LINE
  8
0
 10
489.795
 20
248.123
 11
487.678
 21
242.609
  0
LINE
  8
0
 10
487.678
 20
242.609
 11
485.37
 21
237.172
  0
LINE
  8
0
 10
485.37
 20
237.172
 11
482.874
 21
231.819
  0
LINE
  8
0
 10
482.874
 20
231.819
 11
480.192
 21
226.556
  0
LINE
  8
0
 10
480.192
 20
226.556
 11
477.329
 21
221.39
  0
LINE
  8
0
 10
477.329
 20
221.39
 11
475
 21
217.514
  0
LINE
  8
0
 10
475
 20
217.514
 11
475
 21
212
  0
LINE
  8
0
 10
475
 20
212
 11
480
 21
212
  0
LINE
  8
0
 10
480
 20
212
 11
480
 21
206
  0
LINE
  8
0
 10
480
 20
206
 11
490
 21
206
  0
LINE
  8
0
 10
490
 20
206
 11
490
 21
212
  0
LINE
  8
0
 10
460
 20
212
 11
464.987
 21
212
  0
LINE
  8
0
 10
464.987
 20
212
 11
467.851
 21
217.167
  0
LINE
  8
0
 10
467.851
 20
217.167
 11
470.85
 21
223.051
  0
LINE
  8
0
 10
470.85
 20
223.051
 11
473.641
 21
229.037
  0
LINE
  8
0
 10
473.641
 20
229.037
 11
476.222
 21
235.117
  0
LINE
  8
0
 10
476.222
 20
235.117
 11
478.589
 21
241.283
  0
LINE
  8
0
 10
478.589
 20
241.283
 11
480.739
 21
247.528
  0
LINE
  8
0
 10
480.739
 20
247.528
 11
482.67
 21
253.844
  0
LINE
  8
0
 10
482.67
 20
253.844
 11
484.379
 21
260.224
  0
LINE
  8
0
 10
484.379
 20
260.224
 11
485.865
 21
266.659
  0
LINE
  8
0
 10
485.865
 20
266.659
 11
487.125
 21
273.142
  0
LINE
  8
0
 10
487.125
 20
273.142
 11
488.159
 21
279.666
  0
LINE
  8
0
 10
488.159
 20
279.666
 11
488.963
 21
286.221
  0
LINE
  8
0
 10
488.963
 20
286.221
 11
489.539
 21
292.801
  0
LINE
  8
0
 10
489.539
 20
292.801
 11
489.885
 21
299.396
  0
LINE
  8
0
 10
489.885
 20
299.396
 11
490
 21
306
  0
LINE
  8
0
 10
490
 20
306
 11
489.728
 21
321.593
  0
LINE
  8
0
 10
489.728
 20
321.593
 11
488.912
 21
337.167
  0
LINE
  8
0
 10
488.912
 20
337.167
 11
487.552
 21
352.703
  0
LINE
  8
0
 10
487.552
 20
352.703
 11
485.652
 21
368.183
  0
LINE
  8
0
 10
485.652
 20
368.183
 11
483.212
 21
383.586
  0
LINE
  8
0
 10
483.212
 20
383.586
 11
480.236
 21
398.895
  0
LINE
  8
0
 10
480.236
 20
398.895
 11
479.981
 21
400
  0
LINE
  8
0
 10
479.981
 20
400
 11
475
 21
400
  0
LINE
  8
0
 10
475
 20
400
 11
475
 21
406
  0
LINE
  8
0
 10
475
 20
406
 11
465
 21
406
  0
LINE
  8
0
 10
465
 20
406
 11
465
 21
400
  0
LINE
  8
0
 10
465
 20
400
 11
460
 21
400
  0
LINE
  8
0
 10
460
 20
400
 11
460
 21
397.653
  0
LINE
  8
0
 10
460
 20
397.653
 11
460.673
 21
394.737
  0
LINE
  8
0
 10
460.673
 20
394.737
 11
463.516
 21
380.113
  0
LINE
  8
0
 10
463.516
 20
380.113
 11
465.846
 21
365.399
  0
LINE
  8
0
 10
465.846
 20
365.399
 11
467.662
 21
350.613
  0
LINE
  8
0
 10
467.662
 20
350.613
 11
468.96
 21
335.772
  0
LINE
  8
0
 10
468.96
 20
335.772
 11
469.74
 21
320.895
  0
LINE
  8
0
 10
469.74
 20
320.895
 11
470
 21
306
  0
LINE
  8
0
 10
470
 20
306
 11
469.897
 21
300.094
  0
LINE
  8
0
 10
469.897
 20
300.094
 11
469.588
 21
294.196
  0
LINE
  8
0
 10
469.588
 20
294.196
 11
469.073
 21
288.312
  0
LINE
  8
0
 10
469.073
 20
288.312
 11
468.353
 21
282.449
  0
LINE
  8
0
 10
468.353
 20
282.449
 11
467.429
 21
276.615
  0
LINE
  8
0
 10
467.429
 20
276.615
 11
466.302
 21
270.817
  0
LINE
  8
0
 10
466.302
 20
270.817
 11
464.973
 21
265.062
  0
LINE
  8
0
 10
464.973
 20
265.062
 11
463.445
 21
259.357
  0
LINE
  8
0
 10
463.445
 20
259.357
 11
461.718
 21
253.708
  0
LINE
  8
0
 10
461.718
 20
253.708
 11
459.795
 21
248.123
  0
LINE
  8
0
 10
459.795
 20
248.123
 11
457.678
 21
242.609
  0
LINE
  8
0
 10
457.678
 20
242.609
 11
455.37
 21
237.172
  0
LINE
  8
0
 10
455.37
 20
237.172
 11
452.874
 21
231.819
  0
LINE
  8
0
 10
452.874
 20
231.819
 11
450.192
 21
226.556
  0
LINE
  8
0
 10
450.192
 20
226.556
 11
447.329
 21
221.39
  0
LINE
  8
0
 10
447.329
 20
221.39
 11
445
 21
217.514
  0
LINE
  8
0
 10
445
 20
217.514
 11
445
 21
212
  0
LINE
  8
0
 10
445
 20
212
 11
450
 21
212
  0
LINE
  8
0
 10
450
 20
212
 11
450
 21
206
  0
LINE
  8
0
 10
450
 20
206
 11
460
 21
206
  0
LINE
  8
0
 10
460
 20
206
 11
460
 21
212
  0
LINE
  8
0
 10
400
 20
212
 11
404.987
 21
212
  0
LINE
  8
0
 10
404.987
 20
212
 11
407.851
 21
217.167
  0
LINE
  8
0
 10
407.851
 20
217.167
 11
410.85
 21
223.051
  0
LINE
  8
0
 10
410.85
 20
223.051
 11
413.641
 21
229.037
  0
LINE
  8
0
 10
413.641
 20
229.037
 11
416.222
 21
235.117
  0
LINE
  8
0
 10
416.222
 20
235.117
 11
418.589
 21
241.283
  0
LINE
  8
0
 10
418.589
 20
241.283
 11
420.739
 21
247.528
  0
LINE
  8
0
 10
420.739
 20
247.528
 11
422.67
 21
253.844
  0
LINE
  8
0
 10
422.67
 20
253.844
 11
424.379
 21
260.224
  0
LINE
  8
0
 10
424.379
 20
260.224
 11
425.865
 21
266.659
  0
LINE
  8
0
 10
425.865
 20
266.659
 11
427.125
 21
273.142
  0
LINE
  8
0
 10
427.125
 20
273.142
 11
428.159
 21
279.666
  0
LINE
  8
0
 10
428.159
 20
279.666
 11
428.963
 21
286.221
  0
LINE
  8
0
 10
428.963
 20
286.221
 11
429.539
 21
292.801
  0
LINE
  8
0
 10
429.539
 20
292.801
 11
429.885
 21
299.396
  0
LINE
  8
0
 10
429.885
 20
299.396
 11
430
 21
306
  0
LINE
  8
0
 10
430
 20
306
 11
429.728
 21
321.593
  0
LINE
  8
0
 10
429.728
 20
321.593
 11
428.912
 21
337.167
  0
LINE
  8
0
 10
428.912
 20
337.167
 11
427.552
 21
352.703
  0
LINE
  8
0
 10
427.552
 20
352.703
 11
425.652
 21
368.183
  0
LINE
  8
0
 10
425.652
 20
368.183
 11
423.212
 21
383.586
  0
LINE
  8
0
 10
423.212
 20
383.586
 11
420.236
 21
398.895
  0
LINE
  8
0
 10
420.236
 20
398.895
 11
419.981
 21
400
  0
LINE
  8
0
 10
419.981
 20
400
 11
415
 21
400
  0
LINE
  8
0
 10
415
 20
400
 11
415
 21
406
  0
LINE
  8
0
 10
415
 20
406
 11
405
 21
406
  0
LINE
  8
0
 10
405
 20
406
 11
405
 21
400
  0
LINE
  8
0
 10
405
 20
400
 11
400
 21
400
  0
LINE
  8
0
 10
400
 20
400
 11
400
 21
397.653
  0
LINE
  8
0
 10
400
 20
397.653
 11
400.673
 21
394.737
  0
LINE
  8
0
 10
400.673
 20
394.737
 11
403.516
 21
380.113
  0
LINE
  8
0
 10
403.516
 20
380.113
 11
405.846
 21
365.399
  0
LINE
  8
0
 10
405.846
 20
365.399
 11
407.662
 21
350.613
  0
LINE
  8
0
 10
407.662
 20
350.613
 11
408.96
 21
335.772
  0
LINE
  8
0
 10
408.96
 20
335.772
 11
409.74
 21
320.895
  0
LINE
  8
0
 10
409.74
 20
320.895
 11
410
 21
306
  0
LINE
  8
0
 10
410
 20
306
 11
409.897
 21
300.094
  0
LINE
  8
0
 10
409.897
 20
300.094
 11
409.588
 21
294.196
  0
LINE
  8
0
 10
409.588
 20
294.196
 11
409.073
 21
288.312
  0
LINE
  8
0
 10
409.073
 20
288.312
 11
408.353
 21
282.449
  0
LINE
  8
0
 10
408.353
 20
282.449
 11
407.429
 21
276.615
  0
LINE
  8
0
 10
407.429
 20
276.615
 11
406.302
 21
270.817
  0
LINE
  8
0
 10
406.302
 20
270.817
 11
404.973
 21
265.062
  0
LINE
  8
0
 10
404.973
 20
265.062
 11
403.445
 21
259.357
  0
LINE
  8
0
 10
403.445
 20
259.357
 11
401.718
 21
253.708
  0
LINE
  8
0
 10
401.718
 20
253.708
 11
399.795
 21
248.123
  0
LINE
  8
0
 10
399.795
 20
248.123
 11
397.678
 21
242.609
  0
LINE
  8
0
 10
397.678
 20
242.609
 11
395.37
 21
237.172
  0
LINE
  8
0
 10
395.37
 20
237.172
 11
392.874
 21
231.819
  0
LINE
  8
0
 10
392.874
 20
231.819
 11
390.192
 21
226.556
  0
LINE
  8
0
 10
390.192
 20
226.556
 11
387.329
 21
221.39
  0
LINE
  8
0
 10
387.329
 20
221.39
 11
385
 21
217.514
  0
LINE
  8
0
 10
385
 20
217.514
 11
385
 21
212
  0
LINE
  8
0
 10
385
 20
212
 11
390
 21
212
  0
LINE
  8
0
 10
390
 20
212
 11
390
 21
206
  0
LINE
  8
0
 10
390
 20
206
 11
400
 21
206
  0
LINE
  8
0
 10
400
 20
206
 11
400
 21
212
  0
LINE
  8
0
 10
370
 20
212
 11
374.987
 21
212
  0
LINE
  8
0
 10
374.987
 20
212
 11
377.851
 21
217.167
  0
LINE
  8
0
 10
377.851
 20
217.167
 11
380.85
 21
223.051
  0
LINE
  8
0
 10
380.85
 20
223.051
 11
383.641
 21
229.037
  0
LINE
  8
0
 10
383.641
 20
229.037
 11
386.222
 21
235.117
  0
LINE
  8
0
 10
386.222
 20
235.117
 11
388.589
 21
241.283
  0
LINE
  8
0
 10
388.589
 20
241.283
 11
390.739
 21
247.528
  0
LINE
  8
0
 10
390.739
 20
247.528
 11
392.67
 21
253.844
  0
LINE
  8
0
 10
392.67
 20
253.844
 11
394.379
 21
260.224
  0
LINE
  8
0
 10
394.379
 20
260.224
 11
395.865
 21
266.659
  0
LINE
  8
0
 10
395.865
 20
266.659
 11
397.125
 21
273.142
  0
LINE
  8
0
 10
397.125
 20
273.142
 11
398.159
 21
279.666
  0
LINE
  8
0
 10
398.159
 20
279.666
 11
398.963
 21
286.221
  0
LINE
  8
0
 10
398.963
 20
286.221
 11
399.539
 21
292.801
  0
LINE
  8
0
 10
399.539
 20
292.801
 11
399.885
 21
299.396
  0
LINE
  8
0
 10
399.885
 20
299.396
 11
400
 21
306
  0
LINE
  8
0
 10
400
 20
306
 11
399.728
 21
321.593
  0
LINE
  8
0
 10
399.728
 20
321.593
 11
398.912
 21
337.167
  0
LINE
  8
0
 10
398.912
 20
337.167
 11
397.552
 21
352.703
  0
LINE
  8
0
 10
397.552
 20
352.703
 11
395.652
 21
368.183
  0
LINE
  8
0
 10
395.652
 20
368.183
 11
393.212
 21
383.586
  0
LINE
  8
0
 10
393.212
 20
383.586
 11
390.236
 21
398.895
  0
LINE
  8
0
 10
390.236
 20
398.895
 11
389.981
 21
400
  0
LINE
  8
0
 10
389.981
 20
400
 11
385
 21
400
  0
LINE
  8
0
 10
385
 20
400
 11
385
 21
406
  0
LINE
  8
0
 10
385
 20
406
 11
375
 21
406
  0
LINE
  8
0
 10
375
 20
406
 11
375
 21
400
  0
LINE
  8
0
 10
375
 20
400
 11
370
 21
400
  0
LINE
  8
0
 10
370
 20
400
 11
370
 21
397.653
  0
LINE
  8
0
 10
370
 20
397.653
 11
370.673
 21
394.737
  0
LINE
  8
0
 10
370.673
 20
394.737
 11
373.516
 21
380.113
  0
LINE
  8
0
 10
373.516
 20
380.113
 11
375.846
 21
365.399
  0
LINE
  8
0
 10
375.846
 20
365.399
 11
377.662
 21
350.613
  0
LINE
  8
0
 10
377.662
 20
350.613
 11
378.96
 21
335.772
  0
LINE
  8
0
 10
378.96
 20
335.772
 11
379.74
 21
320.895
  0
LINE
  8
0
 10
379.74
 20
320.895
 11
380
 21
306
  0
LINE
  8
0
 10
380
 20
306
 11
379.897
 21
300.094
  0
LINE
  8
0
 10
379.897
 20
300.094
 11
379.588
 21
294.196
  0
LINE
  8
0
 10
379.588
 20
294.196
 11
379.073
 21
288.312
  0
LINE
  8
0
 10
379.073
 20
288.312
 11
378.353
 21
282.449
  0
LINE
  8
0
 10
378.353
 20
282.449
 11
377.429
 21
276.615
  0
LINE
  8
0
 10
377.429
 20
276.615
 11
376.302
 21
270.817
  0
LINE
  8
0
 10
376.302
 20
270.817
 11
374.973
 21
265.062
  0
LINE
  8
0
 10
374.973
 20
265.062
 11
373.445
 21
259.357
  0
LINE
  8
0
 10
373.445
 20
259.357
 11
371.718
 21
253.708
  0
LINE
  8
0
 10
371.718
 20
253.708
 11
369.795
 21
248.123
  0
LINE
  8
0
 10
369.795
 20
248.123
 11
367.678
 21
242.609
  0
LINE
  8
0
 10
367.678
 20
242.609
 11
365.37
 21
237.172
  0
LINE
  8
0
 10
365.37
 20
237.172
 11
362.874
 21
231.819
  0
LINE
  8
0
 10
362.874
 20
231.819
 11
360.192
 21
226.556
  0
LINE
  8
0
 10
360.192
 20
226.556
 11
357.329
 21
221.39
  0
LINE
  8
0
 10
357.329
 20
221.39
 11
355
 21
217.514
  0
LINE
  8
0
 10
355
 20
217.514
 11
355
 21
212
  0
LINE
  8
0
 10
355
 20
212
 11
360
 21
212
  0
LINE
  8
0
 10
360
 20
212
 11
360
 21
206
  0
LINE
  8
0
 10
360
 20
206
 11
370
 21
206
  0
LINE
  8
0
 10
370
 20
206
 11
370
 21
212
  0
LINE
  8
0
 10
340
 20
212
 11
344.987
 21
212
  0
LINE
  8
0
 10
344.987
 20
212
 11
347.851
 21
217.167
  0
LINE
  8
0
 10
347.851
 20
217.167
 11
350.85
 21
223.051
  0
LINE
  8
0
 10
350.85
 20
223.051
 11
353.641
 21
229.037
  0
LINE
  8
0
 10
353.641
 20
229.037
 11
356.222
 21
235.117
  0
LINE
  8
0
 10
356.222
 20
235.117
 11
358.589
 21
241.283
  0
LINE
  8
0
 10
358.589
 20
241.283
 11
360.739
 21
247.528
  0
LINE
  8
0
 10
360.739
 20
247.528
 11
362.67
 21
253.844
  0
LINE
  8
0
 10
362.67
 20
253.844
 11
364.379
 21
260.224
  0
LINE
  8
0
 10
364.379
 20
260.224
 11
365.865
 21
266.659
  0
LINE
  8
0
 10
365.865
 20
266.659
 11
367.125
 21
273.142
  0
LINE
  8
0
 10
367.125
 20
273.142
 11
368.159
 21
279.666
  0
LINE
  8
0
 10
368.159
 20
279.666
 11
368.963
 21
286.221
  0
LINE
  8
0
 10
368.963
 20
286.221
 11
369.539
 21
292.801
  0
LINE
  8
0
 10
369.539
 20
292.801
 11
369.885
 21
299.396
  0
LINE
  8
0
 10
369.885
 20
299.396
 11
370
 21
306
  0
LINE
  8
0
 10
370
 20
306
 11
369.728
 21
321.593
  0
LINE
  8
0
 10
369.728
 20
321.593
 11
368.912
 21
337.167
  0
LINE
  8
0
 10
368.912
 20
337.167
 11
367.552
 21
352.703
  0
LINE
  8
0
 10
367.552
 20
352.703
 11
365.652
 21
368.183
  0
LINE
  8
0
 10
365.652
 20
368.183
 11
363.212
 21
383.586
  0
LINE
  8
0
 10
363.212
 20
383.586
 11
360.236
 21
398.895
  0
LINE
  8
0
 10
360.236
 20
398.895
 11
359.981
 21
400
  0
LINE
  8
0
 10
359.981
 20
400
 11
355
 21
400
  0
LINE
  8
0
 10
355
 20
400
 11
355
 21
406
  0
LINE
  8
0
 10
355
 20
406
 11
345
 21
406
  0
LINE
  8
0
 10
345
 20
406
 11
345
 21
400
  0
LINE
  8
0
 10
345
 20
400
 11
340
 21
400
  0
LINE
  8
0
 10
340
 20
400
 11
340
 21
397.653
  0
LINE
  8
0
 10
340
 20
397.653
 11
340.673
 21
394.737
  0
LINE
  8
0
 10
340.673
 20
394.737
 11
343.516
 21
380.113
  0
LINE
  8
0
 10
343.516
 20
380.113
 11
345.846
 21
365.399
  0
LINE
  8
0
 10
345.846
 20
365.399
 11
347.662
 21
350.613
  0
LINE
  8
0
 10
347.662
 20
350.613
 11
348.96
 21
335.772
  0
LINE
  8
0
 10
348.96
 20
335.772
 11
349.74
 21
320.895
  0
LINE
  8
0
 10
349.74
 20
320.895
 11
350
 21
306
  0
LINE
  8
0
 10
350
 20
306
 11
349.897
 21
300.094
  0
LINE
  8
0
 10
349.897
 20
300.094
 11
349.588
 21
294.196
  0
LINE
  8
0
 10
349.588
 20
294.196
 11
349.073
 21
288.312
  0
LINE
  8
0
 10
349.073
 20
288.312
 11
348.353
 21
282.449
  0
LINE
  8
0
 10
348.353
 20
282.449
 11
347.429
 21
276.615
  0
LINE
  8
0
 10
347.429
 20
276.615
 11
346.302
 21
270.817
  0
LINE
  8
0
 10
346.302
 20
270.817
 11
344.973
 21
265.062
  0
LINE
  8
0
 10
344.973
 20
265.062
 11
343.445
 21
259.357
  0
LINE
  8
0
 10
343.445
 20
259.357
 11
341.718
 21
253.708
  0
LINE
  8
0
 10
341.718
 20
253.708
 11
339.795
 21
248.123
  0
LINE
  8
0
 10
339.795
 20
248.123
 11
337.678
 21
242.609
  0
LINE
  8
0
 10
337.678
 20
242.609
 11
335.37
 21
237.172
  0
LINE
  8
0
 10
335.37
 20
237.172
 11
332.874
 21
231.819
  0
LINE
  8
0
 10
332.874
 20
231.819
 11
330.192
 21
226.556
  0
LINE
  8
0
 10
330.192
 20
226.556
 11
327.329
 21
221.39
  0
LINE
  8
0
 10
327.329
 20
221.39
 11
325
 21
217.514
  0
LINE
  8
0
 10
325
 20
217.514
 11
325
 21
212
  0
LINE
  8
0
 10
325
 20
212
 11
330
 21
212
  0
LINE
  8
0
 10
330
 20
212
 11
330
 21
206
  0
LINE
  8
0
 10
330
 20
206
 11
340
 21
206
  0
LINE
  8
0
 10
340
 20
206
 11
340
 21
212
  0
LINE
  8
0
 10
310
 20
212
 11
314.987
 21
212
  0
LINE
  8
0
 10
314.987
 20
212
 11
317.851
 21
217.167
  0
LINE
  8
0
 10
317.851
 20
217.167
 11
320.85
 21
223.051
  0
LINE
  8
0
 10
320.85
 20
223.051
 11
323.641
 21
229.037
  0
LINE
  8
0
 10
323.641
 20
229.037
 11
326.222
 21
235.117
  0
LINE
  8
0
 10
326.222
 20
235.117
 11
328.589
 21
241.283
  0
LINE
  8
0
 10
328.589
 20
241.283
 11
330.739
 21
247.528
  0
LINE
  8
0
 10
330.739
 20
247.528
 11
332.67
 21
253.844
  0
LINE
  8
0
 10
332.67
 20
253.844
 11
334.379
 21
260.224
  0
LINE
  8
0
 10
334.379
 20
260.224
 11
335.865
 21
266.659
  0
LINE
  8
0
 10
335.865
 20
266.659
 11
337.125
 21
273.142
  0
LINE
  8
0
 10
337.125
 20
273.142
 11
338.159
 21
279.666
  0
LINE
  8
0
 10
338.159
 20
279.666
 11
338.963
 21
286.221
  0
LINE
  8
0
 10
338.963
 20
286.221
 11
339.539
 21
292.801
  0
LINE
  8
0
 10
339.539
 20
292.801
 11
339.885
 21
299.396
  0
LINE
  8
0
 10
339.885
 20
299.396
 11
340
 21
306
  0
LINE
  8
0
 10
340
 20
306
 11
339.728
 21
321.593
  0
LINE
  8
0
 10
339.728
 20
321.593
 11
338.912
 21
337.167
  0
LINE
  8
0
 10
338.912
 20
337.167
 11
337.552
 21
352.703
  0
LINE
  8
0
 10
337.552
 20
352.703
 11
335.652
 21
368.183
  0
LINE
  8
0
 10
335.652
 20
368.183
 11
333.212
 21
383.586
  0
LINE
  8
0
 10
333.212
 20
383.586
 11
330.236
 21
398.895
  0
LINE
  8
0
 10
330.236
 20
398.895
 11
329.981
 21
400
  0
LINE
  8
0
 10
329.981
 20
400
 11
325
 21
400
  0
LINE
  8
0
 10
325
 20
400
 11
325
 21
406
  0
LINE
  8
0
 10
325
 20
406
 11
315
 21
406
  0
LINE
  8
0
 10
315
 20
406
 11
315
 21
400
  0
LINE
  8
0
 10
315
 20
400
 11
310
 21
400
  0
LINE
  8
0
 10
310
 20
400
 11
310
 21
397.653
  0
LINE
  8
0
 10
310
 20
397.653
 11
310.673
 21
394.737
  0
LINE
  8
0
 10
310.673
 20
394.737
 11
313.516
 21
380.113
  0
LINE
  8
0
 10
313.516
 20
380.113
 11
315.846
 21
365.399
  0
LINE
  8
0
 10
315.846
 20
365.399
 11
317.662
 21
350.613
  0
LINE
  8
0
 10
317.662
 20
350.613
 11
318.96
 21
335.772
  0
LINE
  8
0
 10
318.96
 20
335.772
 11
319.74
 21
320.895
  0
LINE
  8
0
 10
319.74
 20
320.895
 11
320
 21
306
  0
LINE
  8
0
 10
320
 20
306
 11
319.897
 21
300.094
  0
LINE
  8
0
 10
319.897
 20
300.094
 11
319.588
 21
294.196
  0
LINE
  8
0
 10
319.588
 20
294.196
 11
319.073
 21
288.312
  0
LINE
  8
0
 10
319.073
 20
288.312
 11
318.353
 21
282.449
  0
LINE
  8
0
 10
318.353
 20
282.449
 11
317.429
 21
276.615
  0
LINE
  8
0
 10
317.429
 20
276.615
 11
316.302
 21
270.817
  0
LINE
  8
0
 10
316.302
 20
270.817
 11
314.973
 21
265.062
  0
LINE
  8
0
 10
314.973
 20
265.062
 11
313.445
 21
259.357
  0
LINE
  8
0
 10
313.445
 20
259.357
 11
311.718
 21
253.708
  0
LINE
  8
0
 10
311.718
 20
253.708
 11
309.795
 21
248.123
  0
LINE
  8
0
 10
309.795
 20
248.123
 11
307.678
 21
242.609
  0
LINE
  8
0
 10
307.678
 20
242.609
 11
305.37
 21
237.172
  0
LINE
  8
0
 10
305.37
 20
237.172
 11
302.874
 21
231.819
  0
LINE
  8
0
 10
302.874
 20
231.819
 11
300.192
 21
226.556
  0
LINE
  8
0
 10
300.192
 20
226.556
 11
297.329
 21
221.39
  0
LINE
  8
0
 10
297.329
 20
221.39
 11
295
 21
217.514
  0
LINE
  8
0
 10
295
 20
217.514
 11
295
 21
212
  0
LINE
  8
0
 10
295
 20
212
 11
300
 21
212
  0
LINE
  8
0
 10
300
 20
212
 11
300
 21
206
  0
LINE
  8
0
 10
300
 20
206
 11
310
 21
206
  0
LINE
  8
0
 10
310
 20
206
 11
310
 21
212
  0
LINE
  8
0
 10
280
 20
212
 11
284.987
 21
212
  0
LINE
  8
0
 10
284.987
 20
212
 11
287.851
 21
217.167
  0
LINE
  8
0
 10
287.851
 20
217.167
 11
290.85
 21
223.051
  0
LINE
  8
0
 10
290.85
 20
223.051
 11
293.641
 21
229.037
  0
LINE
  8
0
 10
293.641
 20
229.037
 11
296.222
 21
235.117
  0
LINE
  8
0
 10
296.222
 20
235.117
 11
298.589
 21
241.283
  0
LINE
  8
0
 10
298.589
 20
241.283
 11
300.739
 21
247.528
  0
LINE
  8
0
 10
300.739
 20
247.528
 11
302.67
 21
253.844
  0
LINE
  8
0
 10
302.67
 20
253.844
 11
304.379
 21
260.224
  0
LINE
  8
0
 10
304.379
 20
260.224
 11
305.865
 21
266.659
  0
LINE
  8
0
 10
305.865
 20
266.659
 11
307.125
 21
273.142
  0
LINE
  8
0
 10
307.125
 20
273.142
 11
308.159
 21
279.666
  0
LINE
  8
0
 10
308.159
 20
279.666
 11
308.963
 21
286.221
  0
LINE
  8
0
 10
308.963
 20
286.221
 11
309.539
 21
292.801
  0
LINE
  8
0
 10
309.539
 20
292.801
 11
309.885
 21
299.396
  0
LINE
  8
0
 10
309.885
 20
299.396
 11
310
 21
306
  0
LINE
  8
0
 10
310
 20
306
 11
309.728
 21
321.593
  0
LINE
  8
0
 10
309.728
 20
321.593
 11
308.912
 21
337.167
  0
LINE
  8
0
 10
308.912
 20
337.167
 11
307.552
 21
352.703
  0
LINE
  8
0
 10
307.552
 20
352.703
 11
305.652
 21
368.183
  0
LINE
  8
0
 10
305.652
 20
368.183
 11
303.212
 21
383.586
  0
LINE
  8
0
 10
303.212
 20
383.586
 11
300.236
 21
398.895
  0
LINE
  8
0
 10
300.236
 20
398.895
 11
299.981
 21
400
  0
LINE
  8
0
 10
299.981
 20
400
 11
295
 21
400
  0
LINE
  8
0
 10
295
 20
400
 11
295
 21
406
  0
LINE
  8
0
 10
295
 20
406
 11
285
 21
406
  0
LINE
  8
0
 10
285
 20
406
 11
285
 21
400
  0
LINE
  8
0
 10
285
 20
400
 11
280
 21
400
  0
LINE
  8
0
 10
280
 20
400
 11
280
 21
397.653
  0
LINE
  8
0
 10
280
 20
397.653
 11
280.673
 21
394.737
  0
LINE
  8
0
 10
280.673
 20
394.737
 11
283.516
 21
380.113
  0
LINE
  8
0
 10
283.516
 20
380.113
 11
285.846
 21
365.399
  0
LINE
  8
0
 10
285.846
 20
365.399
 11
287.662
 21
350.613
  0
LINE
  8
0
 10
287.662
 20
350.613
 11
288.96
 21
335.772
  0
LINE
  8
0
 10
288.96
 20
335.772
 11
289.74
 21
320.895
  0
LINE
  8
0
 10
289.74
 20
320.895
 11
290
 21
306
  0
LINE
  8
0
 10
290
 20
306
 11
289.897
 21
300.094
  0
LINE
  8
0
 10
289.897
 20
300.094
 11
289.588
 21
294.196
  0
LINE
  8
0
 10
289.588
 20
294.196
 11
289.073
 21
288.312
  0
LINE
  8
0
 10
289.073
 20
288.312
 11
288.353
 21
282.449
  0
LINE
  8
0
 10
288.353
 20
282.449
 11
287.429
 21
276.615
  0
LINE
  8
0
 10
287.429
 20
276.615
 11
286.302
 21
270.817
  0
LINE
  8
0
 10
286.302
 20
270.817
 11
284.973
 21
265.062
  0
LINE
  8
0
 10
284.973
 20
265.062
 11
283.445
 21
259.357
  0
LINE
  8
0
 10
283.445
 20
259.357
 11
281.718
 21
253.708
  0
LINE
  8
0
 10
281.718
 20
253.708
 11
279.795
 21
248.123
  0
LINE
  8
0
 10
279.795
 20
248.123
 11
277.678
 21
242.609
  0
LINE
  8
0
 10
277.678
 20
242.609
 11
275.37
 21
237.172
  0
LINE
  8
0
 10
275.37
 20
237.172
 11
272.874
 21
231.819
  0
LINE
  8
0
 10
272.874
 20
231.819
 11
270.192
 21
226.556
  0
LINE
  8
0
 10
270.192
 20
226.556
 11
267.329
 21
221.39
  0
LINE
  8
0
 10
267.329
 20
221.39
 11
265
 21
217.514
  0
LINE
  8
0
 10
265
 20
217.514
 11
265
 21
212
  0
LINE
  8
0
 10
265
 20
212
 11
270
 21
212
  0
LINE
  8
0
 10
270
 20
212
 11
270
 21
206
  0
LINE
  8
0
 10
270
 20
206
 11
280
 21
206
  0
LINE
  8
0
 10
280
 20
206
 11
280
 21
212
  0
LINE
  8
0
 10
250
 20
212
 11
254.987
 21
212
  0
LINE
  8
0
 10
254.987
 20
212
 11
257.851
 21
217.167
  0
LINE
  8
0
 10
257.851
 20
217.167
 11
260.85
 21
223.051
  0
LINE
  8
0
 10
260.85
 20
223.051
 11
263.641
 21
229.037
  0
LINE
  8
0
 10
263.641
 20
229.037
 11
266.222
 21
235.117
  0
LINE
  8
0
 10
266.222
 20
235.117
 11
268.589
 21
241.283
  0
LINE
  8
0
 10
268.589
 20
241.283
 11
270.739
 21
247.528
  0
LINE
  8
0
 10
270.739
 20
247.528
 11
272.67
 21
253.844
  0
LINE
  8
0
 10
272.67
 20
253.844
 11
274.379
 21
260.224
  0
LINE
  8
0
 10
274.379
 20
260.224
 11
275.865
 21
266.659
  0
LINE
  8
0
 10
275.865
 20
266.659
 11
277.125
 21
273.142
  0
LINE
  8
0
 10
277.125
 20
273.142
 11
278.159
 21
279.666
  0
LINE
  8
0
 10
278.159
 20
279.666
 11
278.963
 21
286.221
  0
LINE
  8
0
 10
278.963
 20
286.221
 11
279.539
 21
292.801
  0
LINE
  8
0
 10
279.539
 20
292.801
 11
279.885
 21
299.396
  0
LINE
  8
0
 10
279.885
 20
299.396
 11
280
 21
306
  0
LINE
  8
0
 10
280
 20
306
 11
279.728
 21
321.593
  0
LINE
  8
0
 10
279.728
 20
321.593
 11
278.912
 21
337.167
  0
LINE
  8
0
 10
278.912
 20
337.167
 11
277.552
 21
352.703
  0
LINE
  8
0
 10
277.552
 20
352.703
 11
275.652
 21
368.183
  0
LINE
  8
0
 10
275.652
 20
368.183
 11
273.212
 21
383.586
  0
LINE
  8
0
 10
273.212
 20
383.586
 11
270.236
 21
398.895
  0
LINE
  8
0
 10
270.236
 20
398.895
 11
269.981
 21
400
  0
LINE
  8
0
 10
269.981
 20
400
 11
265
 21
400
  0
LINE
  8
0
 10
265
 20
400
 11
265
 21
406
  0
LINE
  8
0
 10
265
 20
406
 11
255
 21
406
  0
LINE
  8
0
 10
255
 20
406
 11
255
 21
400
  0
LINE
  8
0
 10
255
 20
400
 11
250
 21
400
  0
LINE
  8
0
 10
250
 20
400
 11
250
 21
397.653
  0
LINE
  8
0
 10
250
 20
397.653
 11
250.673
 21
394.737
  0
LINE
  8
0
 10
250.673
 20
394.737
 11
253.516
 21
380.113
  0
LINE
  8
0
 10
253.516
 20
380.113
 11
255.846
 21
365.399
  0
LINE
  8
0
 10
255.846
 20
365.399
 11
257.662
 21
350.613
  0
LINE
  8
0
 10
257.662
 20
350.613
 11
258.96
 21
335.772
  0
LINE
  8
0
 10
258.96
 20
335.772
 11
259.74
 21
320.895
  0
LINE
  8
0
 10
259.74
 20
320.895
 11
260
 21
306
  0
LINE
  8
0
 10
260
 20
306
 11
259.897
 21
300.094
  0
LINE
  8
0
 10
259.897
 20
300.094
 11
259.588
 21
294.196
  0
LINE
  8
0
 10
259.588
 20
294.196
 11
259.073
 21
288.312
  0
LINE
  8
0
 10
259.073
 20
288.312
 11
258.353
 21
282.449
  0
LINE
  8
0
 10
258.353
 20
282.449
 11
257.429
 21
276.615
  0
LINE
  8
0
 10
257.429
 20
276.615
 11
256.302
 21
270.817
  0
LINE
  8
0
 10
256.302
 20
270.817
 11
254.973
 21
265.062
  0
LINE
  8
0
 10
254.973
 20
265.062
 11
253.445
 21
259.357
  0
LINE
  8
0
 10
253.445
 20
259.357
 11
251.718
 21
253.708
  0
LINE
  8
0
 10
251.718
 20
253.708
 11
249.795
 21
248.123
  0
LINE
  8
0
 10
249.795
 20
248.123
 11
247.678
 21
242.609
  0
LINE
  8
0
 10
247.678
 20
242.609
 11
245.37
 21
237.172
  0
LINE
  8
0
 10
245.37
 20
237.172
 11
242.874
 21
231.819
  0
LINE
  8
0
 10
242.874
 20
231.819
 11
240.192
 21
226.556
  0
LINE
  8
0
 10
240.192
 20
226.556
 11
237.329
 21
221.39
  0
LINE
  8
0
 10
237.329
 20
221.39
 11
235
 21
217.514
  0
LINE
  8
0
 10
235
 20
217.514
 11
235
 21
212
  0
LINE
  8
0
 10
235
 20
212
 11
240
 21
212
  0
LINE
  8
0
 10
240
 20
212
 11
240
 21
206
  0
LINE
  8
0
 10
240
 20
206
 11
250
 21
206
  0
LINE
  8
0
 10
250
 20
206
 11
250
 21
212
  0
LINE
  8
0
 10
220
 20
212
 11
224.987
 21
212
  0
LINE
  8
0
 10
224.987
 20
212
 11
227.851
 21
217.167
  0
LINE
  8
0
 10
227.851
 20
217.167
 11
230.85
 21
223.051
  0
LINE
  8
0
 10
230.85
 20
223.051
 11
233.641
 21
229.037
  0
LINE
  8
0
 10
233.641
 20
229.037
 11
236.222
 21
235.117
  0
LINE
  8
0
 10
236.222
 20
235.117
 11
238.589
 21
241.283
  0
LINE
  8
0
 10
238.589
 20
241.283
 11
240.739
 21
247.528
  0
LINE
  8
0
 10
240.739
 20
247.528
 11
242.67
 21
253.844
  0
LINE
  8
0
 10
242.67
 20
253.844
 11
244.379
 21
260.224
  0
LINE
  8
0
 10
244.379
 20
260.224
 11
245.865
 21
266.659
  0
LINE
  8
0
 10
245.865
 20
266.659
 11
247.125
 21
273.142
  0
LINE
  8
0
 10
247.125
 20
273.142
 11
248.159
 21
279.666
  0
LINE
  8
0
 10
248.159
 20
279.666
 11
248.963
 21
286.221
  0
LINE
  8
0
 10
248.963
 20
286.221
 11
249.539
 21
292.801
  0
LINE
  8
0
 10
249.539
 20
292.801
 11
249.885
 21
299.396
  0
LINE
  8
0
 10
249.885
 20
299.396
 11
250
 21
306
  0
LINE
  8
0
 10
250
 20
306
 11
249.728
 21
321.593
  0
LINE
  8
0
 10
249.728
 20
321.593
 11
248.912
 21
337.167
  0
LINE
  8
0
 10
248.912
 20
337.167
 11
247.552
 21
352.703
  0
LINE
  8
0
 10
247.552
 20
352.703
 11
245.652
 21
368.183
  0
LINE
  8
0
 10
245.652
 20
368.183
 11
243.212
 21
383.586
  0
LINE
  8
0
 10
243.212
 20
383.586
 11
240.236
 21
398.895
  0
LINE
  8
0
 10
240.236
 20
398.895
 11
239.981
 21
400
  0
LINE
  8
0
 10
239.981
 20
400
 11
235
 21
400
  0
LINE
  8
0
 10
235
 20
400
 11
235
 21
406
  0
LINE
  8
0
 10
235
 20
406
 11
225
 21
406
  0
LINE
  8
0
 10
225
 20
406
 11
225
 21
400
  0
LINE
  8
0
 10
225
 20
400
 11
220
 21
400
  0
LINE
  8
0
 10
220
 20
400
 11
220
 21
397.653
  0
LINE
  8
0
 10
220
 20
397.653
 11
220.673
 21
394.737
  0
LINE
  8
0
 10
220.673
 20
394.737
 11
223.516
 21
380.113
  0
LINE
  8
0
 10
223.516
 20
380.113
 11
225.846
 21
365.399
  0
LINE
  8
0
 10
225.846
 20
365.399
 11
227.662
 21
350.613
  0
LINE
  8
0
 10
227.662
 20
350.613
 11
228.96
 21
335.772
  0
LINE
  8
0
 10
228.96
 20
335.772
 11
229.74
 21
320.895
  0
LINE
  8
0
 10
229.74
 20
320.895
 11
230
 21
306
  0
LINE
  8
0
 10
230
 20
306
 11
229.897
 21
300.094
  0
LINE
  8
0
 10
229.897
 20
300.094
 11
229.588
 21
294.196
  0
LINE
  8
0
 10
229.588
 20
294.196
 11
229.073
 21
288.312
  0
LINE
  8
0
 10
229.073
 20
288.312
 11
228.353
 21
282.449
  0
LINE
  8
0
 10
228.353
 20
282.449
 11
227.429
 21
276.615
  0
LINE
  8
0
 10
227.429
 20
276.615
 11
226.302
 21
270.817
  0
LINE
  8
0
 10
226.302
 20
270.817
 11
224.973
 21
265.062
  0
LINE
  8
0
 10
224.973
 20
265.062
 11
223.445
 21
259.357
  0
LINE
  8
0
 10
223.445
 20
259.357
 11
221.718
 21
253.708
  0
LINE
  8
0
 10
221.718
 20
253.708
 11
219.795
 21
248.123
  0
LINE
  8
0
 10
219.795
 20
248.123
 11
217.678
 21
242.609
  0
LINE
  8
0
 10
217.678
 20
242.609
 11
215.37
 21
237.172
  0
LINE
  8
0
 10
215.37
 20
237.172
 11
212.874
 21
231.819
  0
LINE
  8
0
 10
212.874
 20
231.819
 11
210.192
 21
226.556
  0
LINE
  8
0
 10
210.192
 20
226.556
 11
207.329
 21
221.39
  0
LINE
  8
0
 10
207.329
 20
221.39
 11
205
 21
217.514
  0
LINE
  8
0
 10
205
 20
217.514
 11
205
 21
212
  0
LINE
  8
0
 10
205
 20
212
 11
210
 21
212
  0
LINE
  8
0
 10
210
 20
212
 11
210
 21
206
  0
LINE
  8
0
 10
210
 20
206
 11
220
 21
206
  0
LINE
  8
0
 10
220
 20
206
 11
220
 21
212
  0
LINE
  8
0
 10
190
 20
212
 11
194.987
 21
212
  0
LINE
  8
0
 10
194.987
 20
212
 11
197.851
 21
217.167
  0
LINE
  8
0
 10
197.851
 20
217.167
 11
200.85
 21
223.051
  0
LINE
  8
0
 10
200.85
 20
223.051
 11
203.641
 21
229.037
  0
LINE
  8
0
 10
203.641
 20
229.037
 11
206.222
 21
235.117
  0
LINE
  8
0
 10
206.222
 20
235.117
 11
208.589
 21
241.283
  0
LINE
  8
0
 10
208.589
 20
241.283
 11
210.739
 21
247.528
  0
LINE
  8
0
 10
210.739
 20
247.528
 11
212.67
 21
253.844
  0
LINE
  8
0
 10
212.67
 20
253.844
 11
214.379
 21
260.224
  0
LINE
  8
0
 10
214.379
 20
260.224
 11
215.865
 21
266.659
  0
LINE
  8
0
 10
215.865
 20
266.659
 11
217.125
 21
273.142
  0
LINE
  8
0
 10
217.125
 20
273.142
 11
218.159
 21
279.666
  0
LINE
  8
0
 10
218.159
 20
279.666
 11
218.963
 21
286.221
  0
LINE
  8
0
 10
218.963
 20
286.221
 11
219.539
 21
292.801
  0
LINE
  8
0
 10
219.539
 20
292.801
 11
219.885
 21
299.396
  0
LINE
  8
0
 10
219.885
 20
299.396
 11
220
 21
306
  0
LINE
  8
0
 10
220
 20
306
 11
219.728
 21
321.593
  0
LINE
  8
0
 10
219.728
 20
321.593
 11
218.912
 21
337.167
  0
LINE
  8
0
 10
218.912
 20
337.167
 11
217.552
 21
352.703
  0
LINE
  8
0
 10
217.552
 20
352.703
 11
215.652
 21
368.183
  0
LINE
  8
0
 10
215.652
 20
368.183
 11
213.212
 21
383.586
  0
LINE
  8
0
 10
213.212
 20
383.586
 11
210.236
 21
398.895
  0
LINE
  8
0
 10
210.236
 20
398.895
 11
209.981
 21
400
  0
LINE
  8
0
 10
209.981
 20
400
 11
205
 21
400
  0
LINE
  8
0
 10
205
 20
400
 11
205
 21
406
  0
LINE
  8
0
 10
205
 20
406
 11
195
 21
406
  0
LINE
  8
0
 10
195
 20
406
 11
195
 21
400
  0
LINE
  8
0
 10
195
 20
400
 11
190
 21
400
  0
LINE
  8
0
 10
190
 20
400
 11
190
 21
397.653
  0
LINE
  8
0
 10
190
 20
397.653
 11
190.673
 21
394.737
  0
LINE
  8
0
 10
190.673
 20
394.737
 11
193.516
 21
380.113
  0
LINE
  8
0
 10
193.516
 20
380.113
 11
195.846
 21
365.399
  0
LINE
  8
0
 10
195.846
 20
365.399
 11
197.662
 21
350.613
  0
LINE
  8
0
 10
197.662
 20
350.613
 11
198.96
 21
335.772
  0
LINE
  8
0
 10
198.96
 20
335.772
 11
199.74
 21
320.895
  0
LINE
  8
0
 10
199.74
 20
320.895
 11
200
 21
306
  0
LINE
  8
0
 10
200
 20
306
 11
199.897
 21
300.094
  0
LINE
  8
0
 10
199.897
 20
300.094
 11
199.588
 21
294.196
  0
LINE
  8
0
 10
199.588
 20
294.196
 11
199.073
 21
288.312
  0
LINE
  8
0
 10
199.073
 20
288.312
 11
198.353
 21
282.449
  0
LINE
  8
0
 10
198.353
 20
282.449
 11
197.429
 21
276.615
  0
LINE
  8
0
 10
197.429
 20
276.615
 11
196.302
 21
270.817
  0
LINE
  8
0
 10
196.302
 20
270.817
 11
194.973
 21
265.062
  0
LINE
  8
0
 10
194.973
 20
265.062
 11
193.445
 21
259.357
  0
LINE
  8
0
 10
193.445
 20
259.357
 11
191.718
 21
253.708
  0
LINE
  8
0
 10
191.718
 20
253.708
 11
189.795
 21
248.123
  0
LINE
  8
0
 10
189.795
 20
248.123
 11
187.678
 21
242.609
  0
LINE
  8
0
 10
187.678
 20
242.609
 11
185.37
 21
237.172
  0
LINE
  8
0
 10
185.37
 20
237.172
 11
182.874
 21
231.819
  0
LINE
  8
0
 10
182.874
 20
231.819
 11
180.192
 21
226.556
  0
LINE
  8
0
 10
180.192
 20
226.556
 11
177.329
 21
221.39
  0
LINE
  8
0
 10
177.329
 20
221.39
 11
175
 21
217.514
  0
LINE
  8
0
 10
175
 20
217.514
 11
175
 21
212
  0
LINE
  8
0
 10
175
 20
212
 11
180
 21
212
  0
LINE
  8
0
 10
180
 20
212
 11
180
 21
206
  0
LINE
  8
0
 10
180
 20
206
 11
190
 21
206
  0
LINE
  8
0
 10
190
 20
206
 11
190
 21
212
  0
LINE
  8
0
 10
160
 20
212
 11
164.987
 21
212
  0
LINE
  8
0
 10
164.987
 20
212
 11
167.851
 21
217.167
  0
LINE
  8
0
 10
167.851
 20
217.167
 11
170.85
 21
223.051
  0
LINE
  8
0
 10
170.85
 20
223.051
 11
173.641
 21
229.037
  0
LINE
  8
0
 10
173.641
 20
229.037
 11
176.222
 21
235.117
  0
LINE
  8
0
 10
176.222
 20
235.117
 11
178.589
 21
241.283
  0
LINE
  8
0
 10
178.589
 20
241.283
 11
180.739
 21
247.528
  0
LINE
  8
0
 10
180.739
 20
247.528
 11
182.67
 21
253.844
  0
LINE
  8
0
 10
182.67
 20
253.844
 11
184.379
 21
260.224
  0
LINE
  8
0
 10
184.379
 20
260.224
 11
185.865
 21
266.659
  0
LINE
  8
0
 10
185.865
 20
266.659
 11
187.125
 21
273.142
  0
LINE
  8
0
 10
187.125
 20
273.142
 11
188.159
 21
279.666
  0
LINE
  8
0
 10
188.159
 20
279.666
 11
188.963
 21
286.221
  0
LINE
  8
0
 10
188.963
 20
286.221
 11
189.539
 21
292.801
  0
LINE
  8
0
 10
189.539
 20
292.801
 11
189.885
 21
299.396
  0
LINE
  8
0
 10
189.885
 20
299.396
 11
190
 21
306
  0
LINE
  8
0
 10
190
 20
306
 11
189.728
 21
321.593
  0
LINE
  8
0
 10
189.728
 20
321.593
 11
188.912
 21
337.167
  0
LINE
  8
0
 10
188.912
 20
337.167
 11
187.552
 21
352.703
  0
LINE
  8
0
 10
187.552
 20
352.703
 11
185.652
 21
368.183
  0
LINE
  8
0
 10
185.652
 20
368.183
 11
183.212
 21
383.586
  0
LINE
  8
0
 10
183.212
 20
383.586
 11
180.236
 21
398.895
  0
LINE
  8
0
 10
180.236
 20
398.895
 11
179.981
 21
400
  0
LINE
  8
0
 10
179.981
 20
400
 11
175
 21
400
  0
LINE
  8
0
 10
175
 20
400
 11
175
 21
406
  0
LINE
  8
0
 10
175
 20
406
 11
165
 21
406
  0
LINE
  8
0
 10
165
 20
406
 11
165
 21
400
  0
LINE
  8
0
 10
165
 20
400
 11
160
 21
400
  0
LINE
  8
0
 10
160
 20
400
 11
160
 21
397.653
  0
LINE
  8
0
 10
160
 20
397.653
 11
160.673
 21
394.737
  0
LINE
  8
0
 10
160.673
 20
394.737
 11
163.516
 21
380.113
  0
LINE
  8
0
 10
163.516
 20
380.113
 11
165.846
 21
365.399
  0
LINE
  8
0
 10
165.846
 20
365.399
 11
167.662
 21
350.613
  0
LINE
  8
0
 10
167.662
 20
350.613
 11
168.96
 21
335.772
  0
LINE
  8
0
 10
168.96
 20
335.772
 11
169.74
 21
320.895
  0
LINE
  8
0
 10
169.74
 20
320.895
 11
170
 21
306
  0
LINE
  8
0
 10
170
 20
306
 11
169.897
 21
300.094
  0
LINE
  8
0
 10
169.897
 20
300.094
 11
169.588
 21
294.196
  0
LINE
  8
0
 10
169.588
 20
294.196
 11
169.073
 21
288.312
  0
LINE
  8
0
 10
169.073
 20
288.312
 11
168.353
 21
282.449
  0
LINE
  8
0
 10
168.353
 20
282.449
 11
167.429
 21
276.615
  0
LINE
  8
0
 10
167.429
 20
276.615
 11
166.302
 21
270.817
  0
LINE
  8
0
 10
166.302
 20
270.817
 11
164.973
 21
265.062
  0
LINE
  8
0
 10
164.973
 20
265.062
 11
163.445
 21
259.357
  0
LINE
  8
0
 10
163.445
 20
259.357
 11
161.718
 21
253.708
  0
LINE
  8
0
 10
161.718
 20
253.708
 11
159.795
 21
248.123
  0
LINE
  8
0
 10
159.795
 20
248.123
 11
157.678
 21
242.609
  0
LINE
  8
0
 10
157.678
 20
242.609
 11
155.37
 21
237.172
  0
LINE
  8
0
 10
155.37
 20
237.172
 11
152.874
 21
231.819
  0
LINE
  8
0
 10
152.874
 20
231.819
 11
150.192
 21
226.556
  0
LINE
  8
0
 10
150.192
 20
226.556
 11
147.329
 21
221.39
  0
LINE
  8
0
 10
147.329
 20
221.39
 11
145
 21
217.514
  0
LINE
  8
0
 10
145
 20
217.514
 11
145
 21
212
  0
LINE
  8
0
 10
145
 20
212
 11
150
 21
212
  0
LINE
  8
0
 10
150
 20
212
 11
150
 21
206
  0
LINE
  8
0
 10
150
 20
206
 11
160
 21
206
  0
LINE
  8
0
 10
160
 20
206
 11
160
 21
212
  0
LINE
  8
0
 10
130
 20
212
 11
134.987
 21
212
  0
LINE
  8
0
 10
134.987
 20
212
 11
137.851
 21
217.167
  0
LINE
  8
0
 10
137.851
 20
217.167
 11
140.85
 21
223.051
  0
LINE
  8
0
 10
140.85
 20
223.051
 11
143.641
 21
229.037
  0
LINE
  8
0
 10
143.641
 20
229.037
 11
146.222
 21
235.117
  0
LINE
  8
0
 10
146.222
 20
235.117
 11
148.589
 21
241.283
  0
LINE
  8
0
 10
148.589
 20
241.283
 11
150.739
 21
247.528
  0
LINE
  8
0
 10
150.739
 20
247.528
 11
152.67
 21
253.844
  0
LINE
  8
0
 10
152.67
 20
253.844
 11
154.379
 21
260.224
  0
LINE
  8
0
 10
154.379
 20
260.224
 11
155.865
 21
266.659
  0
LINE
  8
0
 10
155.865
 20
266.659
 11
157.125
 21
273.142
  0
LINE
  8
0
 10
157.125
 20
273.142
 11
158.159
 21
279.666
  0
LINE
  8
0
 10
158.159
 20
279.666
 11
158.963
 21
286.221
  0
LINE
  8
0
 10
158.963
 20
286.221
 11
159.539
 21
292.801
  0
LINE
  8
0
 10
159.539
 20
292.801
 11
159.885
 21
299.396
  0
LINE
  8
0
 10
159.885
 20
299.396
 11
160
 21
306
  0
LINE
  8
0
 10
160
 20
306
 11
159.728
 21
321.593
  0
LINE
  8
0
 10
159.728
 20
321.593
 11
158.912
 21
337.167
  0
LINE
  8
0
 10
158.912
 20
337.167
 11
157.552
 21
352.703
  0
LINE
  8
0
 10
157.552
 20
352.703
 11
155.652
 21
368.183
  0
LINE
  8
0
 10
155.652
 20
368.183
 11
153.212
 21
383.586
  0
LINE
  8
0
 10
153.212
 20
383.586
 11
150.236
 21
398.895
  0
LINE
  8
0
 10
150.236
 20
398.895
 11
149.981
 21
400
  0
LINE
  8
0
 10
149.981
 20
400
 11
145
 21
400
  0
LINE
  8
0
 10
145
 20
400
 11
145
 21
406
  0
LINE
  8
0
 10
145
 20
406
 11
135
 21
406
  0
LINE
  8
0
 10
135
 20
406
 11
135
 21
400
  0
LINE
  8
0
 10
135
 20
400
 11
130
 21
400
  0
LINE
  8
0
 10
130
 20
400
 11
130
 21
397.653
  0
LINE
  8
0
 10
130
 20
397.653
 11
130.673
 21
394.737
  0
LINE
  8
0
 10
130.673
 20
394.737
 11
133.516
 21
380.113
  0
LINE
  8
0
 10
133.516
 20
380.113
 11
135.846
 21
365.399
  0
LINE
  8
0
 10
135.846
 20
365.399
 11
137.662
 21
350.613
  0
LINE
  8
0
 10
137.662
 20
350.613
 11
138.96
 21
335.772
  0
LINE
  8
0
 10
138.96
 20
335.772
 11
139.74
 21
320.895
  0
LINE
  8
0
 10
139.74
 20
320.895
 11
140
 21
306
  0
LINE
  8
0
 10
140
 20
306
 11
139.897
 21
300.094
  0
LINE
  8
0
 10
139.897
 20
300.094
 11
139.588
 21
294.196
  0
LINE
  8
0
 10
139.588
 20
294.196
 11
139.073
 21
288.312
  0
LINE
  8
0
 10
139.073
 20
288.312
 11
138.353
 21
282.449
  0
LINE
  8
0
 10
138.353
 20
282.449
 11
137.429
 21
276.615
  0
LINE
  8
0
 10
137.429
 20
276.615
 11
136.302
 21
270.817
  0
LINE
  8
0
 10
136.302
 20
270.817
 11
134.973
 21
265.062
  0
LINE
  8
0
 10
134.973
 20
265.062
 11
133.445
 21
259.357
  0
LINE
  8
0
 10
133.445
 20
259.357
 11
131.718
 21
253.708
  0
LINE
  8
0
 10
131.718
 20
253.708
 11
129.795
 21
248.123
  0
LINE
  8
0
 10
129.795
 20
248.123
 11
127.678
 21
242.609
  0
LINE
  8
0
 10
127.678
 20
242.609
 11
125.37
 21
237.172
  0
LINE
  8
0
 10
125.37
 20
237.172
 11
122.874
 21
231.819
  0
LINE
  8
0
 10
122.874
 20
231.819
 11
120.192
 21
226.556
  0
LINE
  8
0
 10
120.192
 20
226.556
 11
117.329
 21
221.39
  0
LINE
  8
0
 10
117.329
 20
221.39
 11
115
 21
217.514
  0
LINE
  8
0
 10
115
 20
217.514
 11
115
 21
212
  0
LINE
  8
0
 10
115
 20
212
 11
120
 21
212
  0
LINE
  8
0
 10
120
 20
212
 11
120
 21
206
  0
LINE
  8
0
 10
120
 20
206
 11
130
 21
206
  0
LINE
  8
0
 10
130
 20
206
 11
130
 21
212
  0
LINE
  8
0
 10
100
 20
212
 11
104.987
 21
212
  0
LINE
  8
0
 10
104.987
 20
212
 11
107.851
 21
217.167
  0
LINE
  8
0
 10
107.851
 20
217.167
 11
110.85
 21
223.051
  0
LINE
  8
0
 10
110.85
 20
223.051
 11
113.641
 21
229.037
  0
LINE
  8
0
 10
113.641
 20
229.037
 11
116.222
 21
235.117
  0
LINE
  8
0
 10
116.222
 20
235.117
 11
118.589
 21
241.283
  0
LINE
  8
0
 10
118.589
 20
241.283
 11
120.739
 21
247.528
  0
LINE
  8
0
 10
120.739
 20
247.528
 11
122.67
 21
253.844
  0
LINE
  8
0
 10
122.67
 20
253.844
 11
124.379
 21
260.224
  0
LINE
  8
0
 10
124.379
 20
260.224
 11
125.865
 21
266.659
  0
LINE
  8
0
 10
125.865
 20
266.659
 11
127.125
 21
273.142
  0
LINE
  8
0
 10
127.125
 20
273.142
 11
128.159
 21
279.666
  0
LINE
  8
0
 10
128.159
 20
279.666
 11
128.963
 21
286.221
  0
LINE
  8
0
 10
128.963
 20
286.221
 11
129.539
 21
292.801
  0
LINE
  8
0
 10
129.539
 20
292.801
 11
129.885
 21
299.396
  0
LINE
  8
0
 10
129.885
 20
299.396
 11
130
 21
306
  0
LINE
  8
0
 10
130
 20
306
 11
129.728
 21
321.593
  0
LINE
  8
0
 10
129.728
 20
321.593
 11
128.912
 21
337.167
  0
LINE
  8
0
 10
128.912
 20
337.167
 11
127.552
 21
352.703
  0
LINE
  8
0
 10
127.552
 20
352.703
 11
125.652
 21
368.183
  0
LINE
  8
0
 10
125.652
 20
368.183
 11
123.212
 21
383.586
  0
LINE
  8
0
 10
123.212
 20
383.586
 11
120.236
 21
398.895
  0
LINE
  8
0
 10
120.236
 20
398.895
 11
119.981
 21
400
  0
LINE
  8
0
 10
119.981
 20
400
 11
115
 21
400
  0
LINE
  8
0
 10
115
 20
400
 11
115
 21
406
  0
LINE
  8
0
 10
115
 20
406
 11
105
 21
406
  0
LINE
  8
0
 10
105
 20
406
 11
105
 21
400
  0
LINE
  8
0
 10
105
 20
400
 11
100
 21
400
  0
LINE
  8
0
 10
100
 20
400
 11
100
 21
397.653
  0
LINE
  8
0
 10
100
 20
397.653
 11
100.673
 21
394.737
  0
LINE
  8
0
 10
100.673
 20
394.737
 11
103.516
 21
380.113
  0
LINE
  8
0
 10
103.516
 20
380.113
 11
105.846
 21
365.399
  0
LINE
  8
0
 10
105.846
 20
365.399
 11
107.662
 21
350.613
  0
LINE
  8
0
 10
107.662
 20
350.613
 11
108.96
 21
335.772
  0
LINE
  8
0
 10
108.96
 20
335.772
 11
109.74
 21
320.895
  0
LINE
  8
0
 10
109.74
 20
320.895
 11
110
 21
306
  0
LINE
  8
0
 10
110
 20
306
 11
109.897
 21
300.094
  0
LINE
  8
0
 10
109.897
 20
300.094
 11
109.588
 21
294.196
  0
LINE
  8
0
 10
109.588
 20
294.196
 11
109.073
 21
288.312
  0
LINE
  8
0
 10
109.073
 20
288.312
 11
108.353
 21
282.449
  0
LINE
  8
0
 10
108.353
 20
282.449
 11
107.429
 21
276.615
  0
LINE
  8
0
 10
107.429
 20
276.615
 11
106.302
 21
270.817
  0
LINE
  8
0
 10
106.302
 20
270.817
 11
104.973
 21
265.062
  0
LINE
  8
0
 10
104.973
 20
265.062
 11
103.445
 21
259.357
  0
LINE
  8
0
 10
103.445
 20
259.357
 11
101.718
 21
253.708
  0
LINE
  8
0
 10
101.718
 20
253.708
 11
99.7948
 21
248.123
  0
LINE
  8
0
 10
99.7948
 20
248.123
 11
97.678
 21
242.609
  0
LINE
  8
0
 10
97.678
 20
242.609
 11
95.3701
 21
237.172
  0
LINE
  8
0
 10
95.3701
 20
237.172
 11
92.8739
 21
231.819
  0
LINE
  8
0
 10
92.8739
 20
231.819
 11
90.1924
 21
226.556
  0
LINE
  8
0
 10
90.1924
 20
226.556
 11
87.3288
 21
221.39
  0
LINE
  8
0
 10
87.3288
 20
221.39
 11
85
 21
217.514
  0
LINE
  8
0
 10
85
 20
217.514
 11
85
 21
212
  0
LINE
  8
0
 10
85
 20
212
 11
90
 21
212
  0
LINE
  8
0
 10
90
 20
212
 11
90
 21
206
  0
LINE
  8
0
 10
90
 20
206
 11
100
 21
206
  0
LINE
  8
0
 10
100
 20
206
 11
100
 21
212
  0
LINE
  8
0
 10
93.1409
 20
10.0548
 11
96.2781
 21
10.2192
  0
LINE
  8
0
 10
96.2781
 20
10.2192
 11
99.4075
 21
10.493
  0
LINE
  8
0
 10
99.4075
 20
10.493
 11
102.526
 21
10.8759
  0
LINE
  8
0
 10
102.526
 20
10.8759
 11
105.628
 21
11.3673
  0
LINE
  8
0
 10
105.628
 20
11.3673
 11
108.712
 21
11.9667
  0
LINE
  8
0
 10
108.712
 20
11.9667
 11
111.773
 21
12.6734
  0
LINE
  8
0
 10
111.773
 20
12.6734
 11
114.807
 21
13.4865
  0
LINE
  8
0
 10
114.807
 20
13.4865
 11
117.812
 21
14.4049
  0
LINE
  8
0
 10
117.812
 20
14.4049
 11
120.782
 21
15.4277
  0
LINE
  8
0
 10
120.782
 20
15.4277
 11
123.715
 21
16.5535
  0
LINE
  8
0
 10
123.715
 20
16.5535
 11
126.606
 21
17.7809
  0
LINE
  8
0
 10
126.606
 20
17.7809
 11
129.453
 21
19.1086
  0
LINE
  8
0
 10
129.453
 20
19.1086
 11
132.252
 21
20.5347
  0
LINE
  8
0
 10
132.252
 20
20.5347
 11
135
 21
22.0577
  0
LINE
  8
0
 10
135
 20
22.0577
 11
137.693
 21
23.6757
  0
LINE
  8
0
 10
137.693
 20
23.6757
 11
140.327
 21
25.3866
  0
LINE
  8
0
 10
140.327
 20
25.3866
 11
142.901
 21
27.1885
  0
LINE
  8
0
 10
142.901
 20
27.1885
 11
145.41
 21
29.079
  0
LINE
  8
0
 10
145.41
 20
29.079
 11
147.851
 21
31.056
  0
LINE
  8
0
 10
147.851
 20
31.056
 11
150.222
 21
33.117
  0
LINE
  8
0
 10
150.222
 20
33.117
 11
152.519
 21
35.2594
  0
LINE
  8
0
 10
152.519
 20
35.2594
 11
154.741
 21
37.4808
  0
LINE
  8
0
 10
154.741
 20
37.4808
 11
156.883
 21
39.7783
  0
LINE
  8
0
 10
156.883
 20
39.7783
 11
158.944
 21
42.1491
  0
LINE
  8
0
 10
158.944
 20
42.1491
 11
160.921
 21
44.5905
  0
LINE
  8
0
 10
160.921
 20
44.5905
 11
162.812
 21
47.0993
  0
LINE
  8
0
 10
162.812
 20
47.0993
 11
164.613
 21
49.6727
  0
LINE
  8
0
 10
164.613
 20
49.6727
 11
166.324
 21
52.3073
  0
LINE
  8
0
 10
166.324
 20
52.3073
 11
167.942
 21
55
  0
LINE
  8
0
 10
167.942
 20
55
 11
169.465
 21
57.7476
  0
LINE
  8
0
 10
169.465
 20
57.7476
 11
170.891
 21
60.5466
  0
LINE
  8
0
 10
170.891
 20
60.5466
 11
172.219
 21
63.3937
  0
LINE
  8
0
 10
172.219
 20
63.3937
 11
173.447
 21
66.2854
  0
LINE
  8
0
 10
173.447
 20
66.2854
 11
174.572
 21
69.2182
  0
LINE
  8
0
 10
174.572
 20
69.2182
 11
175.595
 21
72.1885
  0
LINE
  8
0
 10
175.595
 20
72.1885
 11
176.514
 21
75.1926
  0
LINE
  8
0
 10
176.514
 20
75.1926
 11
177.327
 21
78.227
  0
LINE
  8
0
 10
177.327
 20
78.227
 11
178.033
 21
81.2879
  0
LINE
  8
0
 10
178.033
 20
81.2879
 11
178.633
 21
84.3717
  0
LINE
  8
0
 10
178.633
 20
84.3717
 11
179.124
 21
87.4744
  0
LINE
  8
0
 10
179.124
 20
87.4744
 11
179.507
 21
90.5925
  0
LINE
  8
0
 10
179.507
 20
90.5925
 11
179.781
 21
93.7219
  0
LINE
  8
0
 10
179.781
 20
93.7219
 11
179.945
 21
96.8591
  0
LINE
  8
0
 10
179.945
 20
96.8591
 11
180
 21
100
  0
LINE
  8
0
 10
180
 20
100
 11
179.945
 21
103.141
  0
LINE
  8
0
 10
179.945
 20
103.141
 11
179.781
 21
106.278
  0
LINE
  8
0
 10
179.781
 20
106.278
 11
179.507
 21
109.408
  0
LINE
  8
0
 10
179.507
 20
109.408
 11
179.124
 21
112.526
  0
LINE
  8
0
 10
179.124
 20
112.526
 11
178.633
 21
115.628
  0
LINE
  8
0
 10
178.633
 20
115.628
 11
178.033
 21
118.712
  0
LINE
  8
0
 10
178.033
 20
118.712
 11
177.327
 21
121.773
  0
LINE
  8
0
 10
177.327
 20
121.773
 11
176.514
 21
124.807
  0
LINE
  8
0
 10
176.514
 20
124.807
 11
175.595
 21
127.812
  0
LINE
  8
0
 10
175.595
 20
127.812
 11
174.572
 21
130.782
  0
LINE
  8
0
 10
174.572
 20
130.782
 11
173.447
 21
133.715
  0
LINE
  8
0
 10
173.447
 20
133.715
 11
172.219
 21
136.606
  0
LINE
  8
0
 10
172.219
 20
136.606
 11
170.891
 21
139.453
  0
LINE
  8
0
 10
170.891
 20
139.453
 11
169.465
 21
142.252
  0
LINE
  8
0
 10
169.465
 20
142.252
 11
167.942
 21
145
  0
LINE
  8
0
 10
167.942
 20
145
 11
166.324
 21
147.693
  0
LINE
  8
0
 10
166.324
 20
147.693
 11
164.613
 21
150.327
  0
LINE
  8
0
 10
164.613
 20
150.327
 11
162.812
 21
152.901
  0
LINE
  8
0
 10
162.812
 20
152.901
 11
160.921
 21
155.41
  0
LINE
  8
0
 10
160.921
 20
155.41
 11
158.944
 21
157.851
  0
LINE
  8
0
 10
158.944
 20
157.851
 11
156.883
 21
160.222
  0
LINE
  8
0
 10
156.883
 20
160.222
 11
154.741
 21
162.519
  0
LINE
  8
0
 10
154.741
 20
162.519
 11
152.519
 21
164.741
  0
LINE
  8
0
 10
152.519
 20
164.741
 11
150.222
 21
166.883
  0
LINE
  8
0
 10
150.222
 20
166.883
 11
147.851
 21
168.944
  0
LINE
  8
0
 10
147.851
 20
168.944
 11
145.41
 21
170.921
  0
LINE
  8
0
 10
145.41
 20
170.921
 11
142.901
 21
172.812
  0
LINE
  8
0
 10
142.901
 20
172.812
 11
140.327
 21
174.613
  0
LINE
  8
0
 10
140.327
 20
174.613
 11
137.693
 21
176.324
  0
LINE
  8
0
 10
137.693
 20
176.324
 11
135
 21
177.942
  0
LINE
  8
0
 10
135
 20
177.942
 11
132.252
 21
179.465
  0
LINE
  8
0
 10
132.252
 20
179.465
 11
129.453
 21
180.891
  0
LINE
  8
0
 10
129.453
 20
180.891
 11
126.606
 21
182.219
  0
LINE
  8
0
 10
126.606
 20
182.219
 11
123.715
 21
183.447
  0
LINE
  8
0
 10
123.715
 20
183.447
 11
120.782
 21
184.572
  0
LINE
  8
0
 10
120.782
 20
184.572
 11
117.812
 21
185.595
  0
LINE
  8
0
 10
117.812
 20
185.595
 11
114.807
 21
186.514
  0
LINE
  8
0
 10
114.807
 20
186.514
 11
111.773
 21
187.327
  0
LINE
  8
0
 10
111.773
 20
187.327
 11
108.712
 21
188.033
  0
LINE
  8
0
 10
108.712
 20
188.033
 11
105.628
 21
188.633
  0
LINE
  8
0
 10
105.628
 20
188.633
 11
102.526
 21
189.124
  0
LINE
  8
0
 10
102.526
 20
189.124
 11
99.4075
 21
189.507
  0
LINE
  8
0
 10
99.4075
 20
189.507
 11
96.2781
 21
189.781
  0
LINE
  8
0
 10
96.2781
 20
189.781
 11
93.1409
 21
189.945
  0
LINE
  8
0
 10
93.1409
 20
189.945
 11
90
 21
190
  0
LINE
  8
0
 10
90
 20
190
 11
86.8591
 21
189.945
  0
LINE
  8
0
 10
86.8591
 20
189.945
 11
83.7219
 21
189.781
  0
LINE
  8
0
 10
83.7219
 20
189.781
 11
80.5925
 21
189.507
  0
LINE
  8
0
 10
80.5925
 20
189.507
 11
77.4744
 21
189.124
  0
LINE
  8
0
 10
77.4744
 20
189.124
 11
74.3717
 21
188.633
  0
LINE
  8
0
 10
74.3717
 20
188.633
 11
71.2879
 21
188.033
  0
LINE
  8
0
 10
71.2879
 20
188.033
 11
68.227
 21
187.327
  0
LINE
  8
0
 10
68.227
 20
187.327
 11
65.1926
 21
186.514
  0
LINE
  8
0
 10
65.1926
 20
186.514
 11
62.1885
 21
185.595
  0
LINE
  8
0
 10
62.1885
 20
185.595
 11
59.2182
 21
184.572
  0
LINE
  8
0
 10
59.2182
 20
184.572
 11
56.2854
 21
183.447
  0
LINE
  8
0
 10
56.2854
 20
183.447
 11
53.3937
 21
182.219
  0
LINE
  8
0
 10
53.3937
 20
182.219
 11
50.5466
 21
180.891
  0
LINE
  8
0
 10
50.5466
 20
180.891
 11
47.7476
 21
179.465
  0
LINE
  8
0
 10
47.7476
 20
179.465
 11
45
 21
177.942
  0
LINE
  8
0
 10
45
 20
177.942
 11
42.3073
 21
176.324
  0
LINE
  8
0
 10
42.3073
 20
176.324
 11
39.6727
 21
174.613
  0
LINE
  8
0
 10
39.6727
 20
174.613
 11
37.0993
 21
172.812
  0
LINE
  8
0
 10
37.0993
 20
172.812
 11
34.5905
 21
170.921
  0
LINE
  8
0
 10
34.5905
 20
170.921
 11
32.1491
 21
168.944
  0
LINE
  8
0
 10
32.1491
 20
168.944
 11
29.7783
 21
166.883
  0
LINE
  8
0
 10
29.7783
 20
166.883
 11
27.4808
 21
164.741
  0
LINE
  8
0
 10
27.4808
 20
164.741
 11
25.2594
 21
162.519
  0
LINE
  8
0
 10
25.2594
 20
162.519
 11
23.117
 21
160.222
  0
LINE
  8
0
 10
23.117
 20
160.222
 11
21.056
 21
157.851
  0
LINE
  8
0
 10
21.056
 20
157.851
 11
19.079
 21
155.41
  0
LINE
  8
0
 10
19.079
 20
155.41
 11
17.1885
 21
152.901
  0
LINE
  8
0
 10
17.1885
 20
152.901
 11
15.3866
 21
150.327
  0
LINE
  8
0
 10
15.3866
 20
150.327
 11
13.6757
 21
147.693
  0
LINE
  8
0
 10
13.6757
 20
147.693
 11
12.0577
 21
145
  0
LINE
  8
0
 10
12.0577
 20
145
 11
10.5347
 21
142.252
  0
LINE
  8
0
 10
10.5347
 20
142.252
 11
9.10855
 21
139.453
  0
LINE
  8
0
 10
9.10855
 20
139.453
 11
7.78091
 21
136.606
  0
LINE
  8
0
 10
7.78091
 20
136.606
 11
6.55347
 21
133.715
  0
LINE
  8
0
 10
6.55347
 20
133.715
 11
5.42767
 21
130.782
  0
LINE
  8
0
 10
5.42767
 20
130.782
 11
4.40492
 21
127.812
  0
LINE
  8
0
 10
4.40492
 20
127.812
 11
3.48645
 21
124.807
  0
LINE
  8
0
 10
3.48645
 20
124.807
 11
2.67339
 21
121.773
  0
LINE
  8
0
 10
2.67339
 20
121.773
 11
1.96672
 21
118.712
  0
LINE
  8
0
 10
1.96672
 20
118.712
 11
1.36731
 21
115.628
  0
LINE
  8
0
 10
1.36731
 20
115.628
 11
0.875885
 21
112.526
  0
LINE
  8
0
 10
0.875885
 20
112.526
 11
0.493042
 21
109.408
  0
LINE
  8
0
 10
0.493042
 20
109.408
 11
0.219238
 21
106.278
  0
LINE
  8
0
 10
0.219238
 20
106.278
 11
0.0548401
 21
103.141
  0
LINE
  8
0
 10
0.0548401
 20
103.141
 11
0
 21
100
  0
LINE
  8
0
 10
0
 20
100
 11
0.0548401
 21
96.8591
  0
LINE
  8
0
 10
0.0548401
 20
96.8591
 11
0.219238
 21
93.7219
  0
LINE
  8
0
 10
0.219238
 20
93.7219
 11
0.493042
 21
90.5925
  0
LINE
  8
0
 10
0.493042
 20
90.5925
 11
0.875885
 21
87.4744
  0
LINE
  8
0
 10
0.875885
 20
87.4744
 11
1.36731
 21
84.3717
  0
LINE
  8
0
 10
1.36731
 20
84.3717
 11
1.96672
 21
81.2879
  0
LINE
  8
0
 10
1.96672
 20
81.2879
 11
2.67339
 21
78.227
  0
LINE
  8
0
 10
2.67339
 20
78.227
 11
3.48645
 21
75.1926
  0
LINE
  8
0
 10
3.48645
 20
75.1926
 11
4.40492
 21
72.1885
  0
LINE
  8
0
 10
4.40492
 20
72.1885
 11
5.42767
 21
69.2182
  0
LINE
  8
0
 10
5.42767
 20
69.2182
 11
6.55347
 21
66.2854
  0
LINE
  8
0
 10
6.55347
 20
66.2854
 11
7.78091
 21
63.3937
  0
LINE
  8
0
 10
7.78091
 20
63.3937
 11
9.10855
 21
60.5466
  0
LINE
  8
0
 10
9.10855
 20
60.5466
 11
10.5347
 21
57.7476
  0
LINE
  8
0
 10
10.5347
 20
57.7476
 11
12.0577
 21
55
  0
LINE
  8
0
 10
12.0577
 20
55
 11
13.6757
 21
52.3073
  0
LINE
  8
0
 10
13.6757
 20
52.3073
 11
15.3866
 21
49.6727
  0
LINE
  8
0
 10
15.3866
 20
49.6727
 11
17.1885
 21
47.0993
  0
LINE
  8
0
 10
17.1885
 20
47.0993
 11
19.079
 21
44.5905
  0
LINE
  8
0
 10
19.079
 20
44.5905
 11
21.056
 21
42.1491
  0
LINE
  8
0
 10
21.056
 20
42.1491
 11
23.117
 21
39.7783
  0
LINE
  8
0
 10
23.117
 20
39.7783
 11
25.2594
 21
37.4808
  0
LINE
  8
0
 10
25.2594
 20
37.4808
 11
27.4808
 21
35.2594
  0
LINE
  8
0
 10
27.4808
 20
35.2594
 11
29.7783
 21
33.117
  0
LINE
  8
0
 10
29.7783
 20
33.117
 11
32.1491
 21
31.056
  0
LINE
  8
0
 10
32.1491
 20
31.056
 11
34.5905
 21
29.079
  0
LINE
  8
0
 10
34.5905
 20
29.079
 11
37.0993
 21
27.1885
  0
LINE
  8
0
 10
37.0993
 20
27.1885
 11
39.6727
 21
25.3866
  0
LINE
  8
0
 10
39.6727
 20
25.3866
 11
42.3073
 21
23.6757
  0
LINE
  8
0
 10
42.3073
 20
23.6757
 11
45
 21
22.0577
  0
LINE
  8
0
 10
45
 20
22.0577
 11
47.7476
 21
20.5347
  0
LINE
  8
0
 10
47.7476
 20
20.5347
 11
50.5466
 21
19.1086
  0
LINE
  8
0
 10
50.5466
 20
19.1086
 11
53.3937
 21
17.7809
  0
LINE
  8
0
 10
53.3937
 20
17.7809
 11
56.2854
 21
16.5535
  0
LINE
  8
0
 10
56.2854
 20
16.5535
 11
59.2182
 21
15.4277
  0
LINE
  8
0
 10
59.2182
 20
15.4277
 11
62.1885
 21
14.4049
  0
LINE
  8
0
 10
62.1885
 20
14.4049
 11
65.1926
 21
13.4865
  0
LINE
  8
0
 10
65.1926
 20
13.4865
 11
68.227
 21
12.6734
  0
LINE
  8
0
 10
68.227
 20
12.6734
 11
71.2879
 21
11.9667
  0
LINE
  8
0
 10
71.2879
 20
11.9667
 11
74.3717
 21
11.3673
  0
LINE
  8
0
 10
74.3717
 20
11.3673
 11
77.4744
 21
10.8759
  0
LINE
  8
0
 10
77.4744
 20
10.8759
 11
80.5925
 21
10.493
  0
LINE
  8
0
 10
80.5925
 20
10.493
 11
83.7219
 21
10.2192
  0
LINE
  8
0
 10
83.7219
 20
10.2192
 11
86.8591
 21
10.0548
  0
LINE
  8
0
 10
86.8591
 20
10.0548
 11
90
 21
10
  0
LINE
  8
0
 10
90
 20
10
 11
93.1409
 21
10.0548
  0
LINE
  8
0
 10
87
 20
175
 11
87
 21
185
  0
LINE
  8
0
 10
87
 20
185
 11
93
 21
185
  0
LINE
  8
0
 10
93
 20
185
 11
93
 21
175
  0
LINE
  8
0
 10
93
 20
175
 11
87
 21
175
  0
LINE
  8
0
 10
106.514
 20
173.221
 11
109.102
 21
182.88
  0
LINE
  8
0
 10
109.102
 20
182.88
 11
114.897
 21
181.327
  0
LINE
  8
0
 10
114.897
 20
181.327
 11
112.309
 21
171.668
  0
LINE
  8
0
 10
112.309
 20
171.668
 11
106.514
 21
173.221
  0
LINE
  8
0
 10
65.1026
 20
181.327
 11
70.8982
 21
182.88
  0
LINE
  8
0
 10
70.8982
 20
182.88
 11
73.4864
 21
173.221
  0
LINE
  8
0
 10
73.4864
 20
173.221
 11
67.6908
 21
171.668
  0
LINE
  8
0
 10
67.6908
 20
171.668
 11
65.1026
 21
181.327
  0
LINE
  8
0
 10
124.902
 20
166.452
 11
129.902
 21
175.112
  0
LINE
  8
0
 10
129.902
 20
175.112
 11
135.098
 21
172.112
  0
LINE
  8
0
 10
135.098
 20
172.112
 11
130.098
 21
163.452
  0
LINE
  8
0
 10
130.098
 20
163.452
 11
124.902
 21
166.452
  0
LINE
  8
0
 10
44.9019
 20
172.112
 11
50.0981
 21
175.112
  0
LINE
  8
0
 10
50.0981
 20
175.112
 11
55.0981
 21
166.452
  0
LINE
  8
0
 10
55.0981
 20
166.452
 11
49.9019
 21
163.452
  0
LINE
  8
0
 10
49.9019
 20
163.452
 11
44.9019
 21
172.112
  0
LINE
  8
0
 10
140.912
 20
155.154
 11
147.983
 21
162.225
  0
LINE
  8
0
 10
147.983
 20
162.225
 11
152.225
 21
157.983
  0
LINE
  8
0
 10
152.225
 20
157.983
 11
145.154
 21
150.912
  0
LINE
  8
0
 10
145.154
 20
150.912
 11
140.912
 21
155.154
  0
LINE
  8
0
 10
27.7746
 20
157.983
 11
32.0173
 21
162.225
  0
LINE
  8
0
 10
32.0173
 20
162.225
 11
39.0883
 21
155.154
  0
LINE
  8
0
 10
39.0883
 20
155.154
 11
34.8457
 21
150.912
  0
LINE
  8
0
 10
34.8457
 20
150.912
 11
27.7746
 21
157.983
  0
LINE
  8
0
 10
153.452
 20
140.098
 11
162.112
 21
145.098
  0
LINE
  8
0
 10
162.112
 20
145.098
 11
165.112
 21
139.902
  0
LINE
  8
0
 10
165.112
 20
139.902
 11
156.452
 21
134.902
  0
LINE
  8
0
 10
156.452
 20
134.902
 11
153.452
 21
140.098
  0
LINE
  8
0
 10
14.8878
 20
139.902
 11
17.8878
 21
145.098
  0
LINE
  8
0
 10
17.8878
 20
145.098
 11
26.5481
 21
140.098
  0
LINE
  8
0
 10
26.5481
 20
140.098
 11
23.5481
 21
134.902
  0
LINE
  8
0
 10
23.5481
 20
134.902
 11
14.8878
 21
139.902
  0
LINE
  8
0
 10
67
 20
125
 11
67
 21
135
  0
LINE
  8
0
 10
67
 20
135
 11
73
 21
135
  0
LINE
  8
0
 10
73
 20
135
 11
73
 21
125
  0
LINE
  8
0
 10
73
 20
125
 11
67
 21
125
  0
LINE
  8
0
 10
107
 20
125
 11
107
 21
135
  0
LINE
  8
0
 10
107
 20
135
 11
113
 21
135
  0
LINE
  8
0
 10
113
 20
135
 11
113
 21
125
  0
LINE
  8
0
 10
113
 20
125
 11
107
 21
125
  0
LINE
  8
0
 10
161.668
 20
122.309
 11
171.327
 21
124.897
  0
LINE
  8
0
 10
171.327
 20
124.897
 11
172.88
 21
119.102
  0
LINE
  8
0
 10
172.88
 20
119.102
 11
163.221
 21
116.514
  0
LINE
  8
0
 10
163.221
 20
116.514
 11
161.668
 21
122.309
  0
LINE
  8
0
 10
7.11986
 20
119.102
 11
8.67278
 21
124.897
  0
LINE
  8
0
 10
8.67278
 20
124.897
 11
18.332
 21
122.309
  0
LINE
  8
0
 10
18.332
 20
122.309
 11
16.7791
 21
116.514
  0
LINE
  8
0
 10
16.7791
 20
116.514
 11
7.11986
 21
119.102
  0
LINE
  8
0
 10
55
 20
117
 11
55
 21
123
  0
LINE
  8
0
 10
55
 20
123
 11
65
 21
123
  0
LINE
  8
0
 10
65
 20
123
 11
65
 21
117
  0
LINE
  8
0
 10
65
 20
117
 11
55
 21
117
  0
LINE
  8
0
 10
85
 20
117
 11
85
 21
123
  0
LINE
  8
0
 10
85
 20
123
 11
95
 21
123
  0
LINE
  8
0
 10
95
 20
123
 11
95
 21
117
  0
LINE
  8
0
 10
95
 20
117
 11
85
 21
117
  0
LINE
  8
0
 10
115
 20
117
 11
115
 21
123
  0
LINE
  8
0
 10
115
 20
123
 11
125
 21
123
  0
LINE
  8
0
 10
125
 20
123
 11
125
 21
117
  0
LINE
  8
0
 10
125
 20
117
 11
115
 21
117
  0
LINE
  8
0
 10
89.5045
 20
94.0205
 11
88.5271
 21
94.1836
  0
LINE
  8
0
 10
88.5271
 20
94.1836
 11
87.5898
 21
94.5054
  0
LINE
  8
0
 10
87.5898
 20
94.5054
 11
86.7183
 21
94.977
  0
LINE
  8
0
 10
86.7183
 20
94.977
 11
85.9363
 21
95.5857
  0
LINE
  8
0
 10
85.9363
 20
95.5857
 11
85.2652
 21
96.3147
  0
LINE
  8
0
 10
85.2652
 20
96.3147
 11
84.7232
 21
97.1443
  0
LINE
  8
0
 10
84.7232
 20
97.1443
 11
84.3251
 21
98.0518
  0
LINE
  8
0
 10
84.3251
 20
98.0518
 11
84.0818
 21
99.0124
  0
LINE
  8
0
 10
84.0818
 20
99.0124
 11
84
 21
100
  0
LINE
  8
0
 10
84
 20
100
 11
84.0818
 21
100.988
  0
LINE
  8
0
 10
84.0818
 20
100.988
 11
84.3251
 21
101.948
  0
LINE
  8
0
 10
84.3251
 20
101.948
 11
84.7232
 21
102.856
  0
LINE
  8
0
 10
84.7232
 20
102.856
 11
85.2652
 21
103.685
  0
LINE
  8
0
 10
85.2652
 20
103.685
 11
85.9363
 21
104.414
  0
LINE
  8
0
 10
85.9363
 20
104.414
 11
86.7183
 21
105.023
  0
LINE
  8
0
 10
86.7183
 20
105.023
 11
87.5898
 21
105.495
  0
LINE
  8
0
 10
87.5898
 20
105.495
 11
88.5271
 21
105.816
  0
LINE
  8
0
 10
88.5271
 20
105.816
 11
89.5045
 21
105.979
  0
LINE
  8
0
 10
89.5045
 20
105.979
 11
90.4955
 21
105.979
  0
LINE
  8
0
 10
90.4955
 20
105.979
 11
91.4729
 21
105.816
  0
LINE
  8
0
 10
91.4729
 20
105.816
 11
92.4102
 21
105.495
  0
LINE
  8
0
 10
92.4102
 20
105.495
 11
93.2817
 21
105.023
  0
LINE
  8
0
 10
93.2817
 20
105.023
 11
94.0637
 21
104.414
  0
LINE
  8
0
 10
94.0637
 20
104.414
 11
94.7348
 21
103.685
  0
LINE
  8
0
 10
94.7348
 20
103.685
 11
95.2768
 21
102.856
  0
LINE
  8
0
 10
95.2768
 20
102.856
 11
95.6749
 21
101.948
  0
LINE
  8
0
 10
95.6749
 20
101.948
 11
95.9182
 21
100.988
  0
LINE
  8
0
 10
95.9182
 20
100.988
 11
96
 21
100
  0
LINE
  8
0
 10
96
 20
100
 11
95.9182
 21
99.0124
  0
LINE
  8
0
 10
95.9182
 20
99.0124
 11
95.6749
 21
98.0518
  0
LINE
  8
0
 10
95.6749
 20
98.0518
 11
95.2768
 21
97.1443
  0
LINE
  8
0
 10
95.2768
 20
97.1443
 11
94.7348
 21
96.3147
  0
LINE
  8
0
 10
94.7348
 20
96.3147
 11
94.0637
 21
95.5857
  0
LINE
  8
0
 10
94.0637
 20
95.5857
 11
93.2817
 21
94.977
  0
LINE
  8
0
 10
93.2817
 20
94.977
 11
92.4102
 21
94.5054
  0
LINE
  8
0
 10
92.4102
 20
94.5054
 11
91.4729
 21
94.1836
  0
LINE
  8
0
 10
91.4729
 20
94.1836
 11
90.4955
 21
94.0205
  0
LINE
  8
0
 10
90.4955
 20
94.0205
 11
89.5045
 21
94.0205
  0
LINE
  8
0
 10
67
 20
95
 11
67
 21
105
  0
LINE
  8
0
 10
67
 20
105
 11
73
 21
105
  0
LINE
  8
0
 10
73
 20
105
 11
73
 21
95
  0
LINE
  8
0
 10
73
 20
95
 11
67
 21
95
  0
LINE
  8
0
 10
107
 20
95
 11
107
 21
105
  0
LINE
  8
0
 10
107
 20
105
 11
113
 21
105
  0
LINE
  8
0
 10
113
 20
105
 11
113
 21
95
  0
LINE
  8
0
 10
113
 20
95
 11
107
 21
95
  0
LINE
  8
0
 10
165
 20
97
 11
165
 21
103
  0
LINE
  8
0
 10
165
 20
103
 11
175
 21
103
  0
LINE
  8
0
 10
175
 20
103
 11
175
 21
97
  0
LINE
  8
0
 10
175
 20
97
 11
165
 21
97
  0
LINE
  8
0
 10
5
 20
97
 11
5
 21
103
  0
LINE
  8
0
 10
5
 20
103
 11
15
 21
103
  0
LINE
  8
0
 10
15
 20
103
 11
15
 21
97
  0
LINE
  8
0
 10
15
 20
97
 11
5
 21
97
  0
LINE
  8
0
 10
161.668
 20
77.6908
 11
163.221
 21
83.4864
  0
LINE
  8
0
 10
163.221
 20
83.4864
 11
172.88
 21
80.8982
  0
LINE
  8
0
 10
172.88
 20
80.8982
 11
171.327
 21
75.1026
  0
LINE
  8
0
 10
171.327
 20
75.1026
 11
161.668
 21
77.6908
  0
LINE
  8
0
 10
7.11986
 20
80.8982
 11
16.7791
 21
83.4864
  0
LINE
  8
0
 10
16.7791
 20
83.4864
 11
18.332
 21
77.6908
  0
LINE
  8
0
 10
18.332
 20
77.6908
 11
8.67278
 21
75.1026
  0
LINE
  8
0
 10
8.67278
 20
75.1026
 11
7.11986
 21
80.8982
  0
LINE
  8
0
 10
55
 20
77
 11
55
 21
83
  0
LINE
  8
0
 10
55
 20
83
 11
65
 21
83
  0
LINE
  8
0
 10
65
 20
83
 11
65
 21
77
  0
LINE
  8
0
 10
65
 20
77
 11
55
 21
77
  0
LINE
  8
0
 10
115
 20
77
 11
115
 21
83
  0
LINE
  8
0
 10
115
 20
83
 11
125
 21
83
  0
LINE
  8
0
 10
125
 20
83
 11
125
 21
77
  0
LINE
  8
0
 10
125
 20
77
 11
115
 21
77
  0
LINE
  8
0
 10
85
 20
77
 11
85
 21
83
  0
LINE
  8
0
 10
85
 20
83
 11
95
 21
83
  0
LINE
  8
0
 10
95
 20
83
 11
95
 21
77
  0
LINE
  8
0
 10
95
 20
77
 11
85
 21
77
  0
LINE
  8
0
 10
107
 20
65
 11
107
 21
75
  0
LINE
  8
0
 10
107
 20
75
 11
113
 21
75
  0
LINE
  8
0
 10
113
 20
75
 11
113
 21
65
  0
LINE
  8
0
 10
113
 20
65
 11
107
 21
65
  0
LINE
  8
0
 10
67
 20
65
 11
67
 21
75
  0
LINE
  8
0
 10
67
 20
75
 11
73
 21
75
  0
LINE
  8
0
 10
73
 20
75
 11
73
 21
65
  0
LINE
  8
0
 10
73
 20
65
 11
67
 21
65
  0
LINE
  8
0
 10
153.452
 20
59.9019
 11
156.452
 21
65.0981
  0
LINE
  8
0
 10
156.452
 20
65.0981
 11
165.112
 21
60.0981
  0
LINE
  8
0
 10
165.112
 20
60.0981
 11
162.112
 21
54.9019
  0
LINE
  8
0
 10
162.112
 20
54.9019
 11
153.452
 21
59.9019
  0
LINE
  8
0
 10
14.8878
 20
60.0981
 11
23.5481
 21
65.0981
  0
LINE
  8
0
 10
23.5481
 20
65.0981
 11
26.5481
 21
59.9019
  0
LINE
  8
0
 10
26.5481
 20
59.9019
 11
17.8878
 21
54.9019
  0
LINE
  8
0
 10
17.8878
 20
54.9019
 11
14.8878
 21
60.0981
  0
LINE
  8
0
 10
27.7746
 20
42.0173
 11
34.8457
 21
49.0883
  0
LINE
  8
0
 10
34.8457
 20
49.0883
 11
39.0883
 21
44.8457
  0
LINE
  8
0
 10
39.0883
 20
44.8457
 11
32.0173
 21
37.7746
  0
LINE
  8
0
 10
32.0173
 20
37.7746
 11
27.7746
 21
42.0173
  0
LINE
  8
0
 10
140.912
 20
44.8457
 11
145.154
 21
49.0883
  0
LINE
  8
0
 10
145.154
 20
49.0883
 11
152.225
 21
42.0173
  0
LINE
  8
0
 10
152.225
 20
42.0173
 11
147.983
 21
37.7746
  0
LINE
  8
0
 10
147.983
 20
37.7746
 11
140.912
 21
44.8457
  0
LINE
  8
0
 10
44.9019
 20
27.8878
 11
49.9019
 21
36.5481
  0
LINE
  8
0
 10
49.9019
 20
36.5481
 11
55.0981
 21
33.5481
  0
LINE
  8
0
 10
55.0981
 20
33.5481
 11
50.0981
 21
24.8878
  0
LINE
  8
0
 10
50.0981
 20
24.8878
 11
44.9019
 21
27.8878
  0
LINE
  8
0
 10
124.902
 20
33.5481
 11
130.098
 21
36.5481
  0
LINE
  8
0
 10
130.098
 20
36.5481
 11
135.098
 21
27.8878
  0
LINE
  8
0
 10
135.098
 20
27.8878
 11
129.902
 21
24.8878
  0
LINE
  8
0
 10
129.902
 20
24.8878
 11
124.902
 21
33.5481
  0
LINE
  8
0
 10
106.514
 20
26.7791
 11
112.309
 21
28.332
  0
LINE
  8
0
 10
112.309
 20
28.332
 11
114.897
 21
18.6728
  0
LINE
  8
0
 10
114.897
 20
18.6728
 11
109.102
 21
17.1199
  0
LINE
  8
0
 10
109.102
 20
17.1199
 11
106.514
 21
26.7791
  0
LINE
  8
0
 10
65.1026
 20
18.6728
 11
67.6908
 21
28.332
  0
LINE
  8
0
 10
67.6908
 20
28.332
 11
73.4864
 21
26.7791
  0
LINE
  8
0
 10
73.4864
 20
26.7791
 11
70.8982
 21
17.1199
  0
LINE
  8
0
 10
70.8982
 20
17.1199
 11
65.1026
 21
18.6728
  0
LINE
  8
0
 10
87
 20
15
 11
87
 21
25
  0
LINE
  8
0
 10
87
 20
25
 11
93
 21
25
  0
LINE
  8
0
 10
93
 20
25
 11
93
 21
15
  0
LINE
  8
0
 10
93
 20
15
 11
87
 21
15
  0
LINE
  8
0
 10
735
 20
0
 11
737
 21
0
  0
LINE
  8
0
 10
737
 20
0
 11
737
 21
89
  0
LINE
  8
0
 10
737
 20
89
 11
743
 21
89
  0
LINE
  8
0
 10
743
 20
89
 11
743
 21
0
  0
LINE
  8
0
 10
743
 20
0
 11
755
 21
0
  0
LINE
  8
0
 10
755
 20
0
 11
755
 21
-6
  0
LINE
  8
0
 10
755
 20
-6
 11
765
 21
-6
  0
LINE
  8
0
 10
765
 20
-6
 11
765
 21
0
  0
LINE
  8
0
 10
765
 20
0
 11
777
 21
0
  0
LINE
  8
0
 10
777
 20
0
 11
777
 21
88
  0
LINE
  8
0
 10
777
 20
88
 11
783
 21
88
  0
LINE
  8
0
 10
783
 20
88
 11
783
 21
0
  0
LINE
  8
0
 10
783
 20
0
 11
785
 21
0
  0
LINE
  8
0
 10
785
 20
0
 11
785
 21
-6
  0
LINE
  8
0
 10
785
 20
-6
 11
795
 21
-6
  0
LINE
  8
0
 10
795
 20
-6
 11
795
 21
0
  0
LINE
  8
0
 10
795
 20
0
 11
800
 21
0
  0
LINE
  8
0
 10
800
 20
0
 11
800
 21
176
  0
LINE
  8
0
 10
800
 20
176
 11
795
 21
176
  0
LINE
  8
0
 10
795
 20
176
 11
795
 21
182
  0
LINE
  8
0
 10
795
 20
182
 11
785
 21
182
  0
LINE
  8
0
 10
785
 20
182
 11
785
 21
176
  0
LINE
  8
0
 10
785
 20
176
 11
765
 21
176
  0
LINE
  8
0
 10
765
 20
176
 11
765
 21
182
  0
LINE
  8
0
 10
765
 20
182
 11
755
 21
182
  0
LINE
  8
0
 10
755
 20
182
 11
755
 21
176
  0
LINE
  8
0
 10
755
 20
176
 11
735
 21
176
  0
LINE
  8
0
 10
735
 20
176
 11
735
 21
182
  0
LINE
  8
0
 10
735
 20
182
 11
725
 21
182
  0
LINE
  8
0
 10
725
 20
182
 11
725
 21
176
  0
LINE
  8
0
 10
725
 20
176
 11
720
 21
176
  0
LINE
  8
0
 10
720
 20
176
 11
720
 21
0
  0
LINE
  8
0
 10
720
 20
0
 11
725
 21
0
  0
LINE
  8
0
 10
725
 20
0
 11
725
 21
-6
  0
LINE
  8
0
 10
725
 20
-6
 11
735
 21
-6
  0
LINE
  8
0
 10
735
 20
-6
 11
735
 21
0
  0
LINE
  8
0
 10
820
 20
0
 11
822
 21
0
  0
LINE
  8
0
 10
822
 20
0
 11
822
 21
89
  0
LINE
  8
0
 10
822
 20
89
 11
828
 21
89
  0
LINE
  8
0
 10
828
 20
89
 11
828
 21
0
  0
LINE
  8
0
 10
828
 20
0
 11
840
 21
0
  0
LINE
  8
0
 10
840
 20
0
 11
840
 21
-6
  0
LINE
  8
0
 10
840
 20
-6
 11
850
 21
-6
  0
LINE
  8
0
 10
850
 20
-6
 11
850
 21
0
  0
LINE
  8
0
 10
850
 20
0
 11
862
 21
0
  0
LINE
  8
0
 10
862
 20
0
 11
862
 21
88
  0
LINE
  8
0
 10
862
 20
88
 11
868
 21
88
  0
LINE
  8
0
 10
868
 20
88
 11
868
 21
0
  0
LINE
  8
0
 10
868
 20
0
 11
870
 21
0
  0
LINE
  8
0
 10
870
 20
0
 11
870
 21
-6
  0
LINE
  8
0
 10
870
 20
-6
 11
880
 21
-6
  0
LINE
  8
0
 10
880
 20
-6
 11
880
 21
0
  0
LINE
  8
0
 10
880
 20
0
 11
885
 21
0
  0
LINE
  8
0
 10
885
 20
0
 11
885
 21
176
  0
LINE
  8
0
 10
885
 20
176
 11
880
 21
176
  0
LINE
  8
0
 10
880
 20
176
 11
880
 21
182
  0
LINE
  8
0
 10
880
 20
182
 11
870
 21
182
  0
LINE
  8
0
 10
870
 20
182
 11
870
 21
176
  0
LINE
  8
0
 10
870
 20
176
 11
850
 21
176
  0
LINE
  8
0
 10
850
 20
176
 11
850
 21
182
  0
LINE
  8
0
 10
850
 20
182
 11
840
 21
182
  0
LINE
  8
0
 10
840
 20
182
 11
840
 21
176
  0
LINE
  8
0
 10
840
 20
176
 11
820
 21
176
  0
LINE
  8
0
 10
820
 20
176
 11
820
 21
182
  0
LINE
  8
0
 10
820
 20
182
 11
810
 21
182
  0
LINE
  8
0
 10
810
 20
182
 11
810
 21
176
  0
LINE
  8
0
 10
810
 20
176
 11
805
 21
176
  0
LINE
  8
0
 10
805
 20
176
 11
805
 21
0
  0
LINE
  8
0
 10
805
 20
0
 11
810
 21
0
  0
LINE
  8
0
 10
810
 20
0
 11
810
 21
-6
  0
LINE
  8
0
 10
810
 20
-6
 11
820
 21
-6
  0
LINE
  8
0
 10
820
 20
-6
 11
820
 21
0
  0
LINE
  8
0
 10
565
 20
0
 11
567
 21
0
  0
LINE
  8
0
 10
567
 20
0
 11
567
 21
89
  0
LINE
  8
0
 10
567
 20
89
 11
573
 21
89
  0
LINE
  8
0
 10
573
 20
89
 11
573
 21
0
  0
LINE
  8
0
 10
573
 20
0
 11
585
 21
0
  0
LINE
  8
0
 10
585
 20
0
 11
585
 21
-6
  0
LINE
  8
0
 10
585
 20
-6
 11
595
 21
-6
  0
LINE
  8
0
 10
595
 20
-6
 11
595
 21
0
  0
LINE
  8
0
 10
595
 20
0
 11
607
 21
0
  0
LINE
  8
0
 10
607
 20
0
 11
607
 21
88
  0
LINE
  8
0
 10
607
 20
88
 11
613
 21
88
  0
LINE
  8
0
 10
613
 20
88
 11
613
 21
0
  0
LINE
  8
0
 10
613
 20
0
 11
615
 21
0
  0
LINE
  8
0
 10
615
 20
0
 11
615
 21
-6
  0
LINE
  8
0
 10
615
 20
-6
 11
625
 21
-6
  0
LINE
  8
0
 10
625
 20
-6
 11
625
 21
0
  0
LINE
  8
0
 10
625
 20
0
 11
630
 21
0
  0
LINE
  8
0
 10
630
 20
0
 11
630
 21
176
  0
LINE
  8
0
 10
630
 20
176
 11
625
 21
176
  0
LINE
  8
0
 10
625
 20
176
 11
625
 21
182
  0
LINE
  8
0
 10
625
 20
182
 11
615
 21
182
  0
LINE
  8
0
 10
615
 20
182
 11
615
 21
176
  0
LINE
  8
0
 10
615
 20
176
 11
595
 21
176
  0
LINE
  8
0
 10
595
 20
176
 11
595
 21
182
  0
LINE
  8
0
 10
595
 20
182
 11
585
 21
182
  0
LINE
  8
0
 10
585
 20
182
 11
585
 21
176
  0
LINE
  8
0
 10
585
 20
176
 11
565
 21
176
  0
LINE
  8
0
 10
565
 20
176
 11
565
 21
182
  0
LINE
  8
0
 10
565
 20
182
 11
555
 21
182
  0
LINE
  8
0
 10
555
 20
182
 11
555
 21
176
  0
LINE
  8
0
 10
555
 20
176
 11
550
 21
176
  0
LINE
  8
0
 10
550
 20
176
 11
550
 21
0
  0
LINE
  8
0
 10
550
 20
0
 11
555
 21
0
  0
LINE
  8
0
 10
555
 20
0
 11
555
 21
-6
  0
LINE
  8
0
 10
555
 20
-6
 11
565
 21
-6
  0
LINE
  8
0
 10
565
 20
-6
 11
565
 21
0
  0
LINE
  8
0
 10
650
 20
0
 11
652
 21
0
  0
LINE
  8
0
 10
652
 20
0
 11
652
 21
89
  0
LINE
  8
0
 10
652
 20
89
 11
658
 21
89
  0
LINE
  8
0
 10
658
 20
89
 11
658
 21
0
  0
LINE
  8
0
 10
658
 20
0
 11
670
 21
0
  0
LINE
  8
0
 10
670
 20
0
 11
670
 21
-6
  0
LINE
  8
0
 10
670
 20
-6
 11
680
 21
-6
  0
LINE
  8
0
 10
680
 20
-6
 11
680
 21
0
  0
LINE
  8
0
 10
680
 20
0
 11
692
 21
0
  0
LINE
  8
0
 10
692
 20
0
 11
692
 21
88
  0
LINE
  8
0
 10
692
 20
88
 11
698
 21
88
  0
LINE
  8
0
 10
698
 20
88
 11
698
 21
0
  0
LINE
  8
0
 10
698
 20
0
 11
700
 21
0
  0
LINE
  8
0
 10
700
 20
0
 11
700
 21
-6
  0
LINE
  8
0
 10
700
 20
-6
 11
710
 21
-6
  0
LINE
  8
0
 10
710
 20
-6
 11
710
 21
0
  0
LINE
  8
0
 10
710
 20
0
 11
715
 21
0
  0
LINE
  8
0
 10
715
 20
0
 11
715
 21
176
  0
LINE
  8
0
 10
715
 20
176
 11
710
 21
176
  0
LINE
  8
0
 10
710
 20
176
 11
710
 21
182
  0
LINE
  8
0
 10
710
 20
182
 11
700
 21
182
  0
LINE
  8
0
 10
700
 20
182
 11
700
 21
176
  0
LINE
  8
0
 10
700
 20
176
 11
680
 21
176
  0
LINE
  8
0
 10
680
 20
176
 11
680
 21
182
  0
LINE
  8
0
 10
680
 20
182
 11
670
 21
182
  0
LINE
  8
0
 10
670
 20
182
 11
670
 21
176
  0
LINE
  8
0
 10
670
 20
176
 11
650
 21
176
  0
LINE
  8
0
 10
650
 20
176
 11
650
 21
182
  0
LINE
  8
0
 10
650
 20
182
 11
640
 21
182
  0
LINE
  8
0
 10
640
 20
182
 11
640
 21
176
  0
LINE
  8
0
 10
640
 20
176
 11
635
 21
176
  0
LINE
  8
0
 10
635
 20
176
 11
635
 21
0
  0
LINE
  8
0
 10
635
 20
0
 11
640
 21
0
  0
LINE
  8
0
 10
640
 20
0
 11
640
 21
-6
  0
LINE
  8
0
 10
640
 20
-6
 11
650
 21
-6
  0
LINE
  8
0
 10
650
 20
-6
 11
650
 21
0
  0
LINE
  8
0
 10
262.617
 20
25.0457
 11
265.232
 21
25.1827
  0
LINE
  8
0
 10
265.232
 20
25.1827
 11
267.84
 21
25.4109
  0
LINE
  8
0
 10
267.84
 20
25.4109
 11
270.438
 21
25.7299
  0
LINE
  8
0
 10
270.438
 20
25.7299
 11
273.024
 21
26.1394
  0
LINE
  8
0
 10
273.024
 20
26.1394
 11
275.593
 21
26.6389
  0
LINE
  8
0
 10
275.593
 20
26.6389
 11
278.144
 21
27.2278
  0
LINE
  8
0
 10
278.144
 20
27.2278
 11
280.673
 21
27.9054
  0
LINE
  8
0
 10
280.673
 20
27.9054
 11
283.176
 21
28.6708
  0
LINE
  8
0
 10
283.176
 20
28.6708
 11
285.652
 21
29.5231
  0
LINE
  8
0
 10
285.652
 20
29.5231
 11
288.095
 21
30.4612
  0
LINE
  8
0
 10
288.095
 20
30.4612
 11
290.505
 21
31.4841
  0
LINE
  8
0
 10
290.505
 20
31.4841
 11
292.878
 21
32.5905
  0
LINE
  8
0
 10
292.878
 20
32.5905
 11
295.21
 21
33.7789
  0
LINE
  8
0
 10
295.21
 20
33.7789
 11
297.5
 21
35.0481
  0
LINE
  8
0
 10
297.5
 20
35.0481
 11
299.744
 21
36.3964
  0
LINE
  8
0
 10
299.744
 20
36.3964
 11
301.939
 21
37.8222
  0
LINE
  8
0
 10
301.939
 20
37.8222
 11
304.084
 21
39.3237
  0
LINE
  8
0
 10
304.084
 20
39.3237
 11
306.175
 21
40.8992
  0
LINE
  8
0
 10
306.175
 20
40.8992
 11
308.209
 21
42.5467
  0
LINE
  8
0
 10
308.209
 20
42.5467
 11
310.185
 21
44.2641
  0
LINE
  8
0
 10
310.185
 20
44.2641
 11
312.099
 21
46.0495
  0
LINE
  8
0
 10
312.099
 20
46.0495
 11
313.95
 21
47.9006
  0
LINE
  8
0
 10
313.95
 20
47.9006
 11
315.736
 21
49.8152
  0
LINE
  8
0
 10
315.736
 20
49.8152
 11
317.453
 21
51.7909
  0
LINE
  8
0
 10
317.453
 20
51.7909
 11
319.101
 21
53.8254
  0
LINE
  8
0
 10
319.101
 20
53.8254
 11
320.676
 21
55.9161
  0
LINE
  8
0
 10
320.676
 20
55.9161
 11
322.178
 21
58.0605
  0
LINE
  8
0
 10
322.178
 20
58.0605
 11
323.604
 21
60.2561
  0
LINE
  8
0
 10
323.604
 20
60.2561
 11
324.952
 21
62.5
  0
LINE
  8
0
 10
324.952
 20
62.5
 11
326.221
 21
64.7896
  0
LINE
  8
0
 10
326.221
 20
64.7896
 11
327.41
 21
67.1222
  0
LINE
  8
0
 10
327.41
 20
67.1222
 11
328.516
 21
69.4948
  0
LINE
  8
0
 10
328.516
 20
69.4948
 11
329.539
 21
71.9045
  0
LINE
  8
0
 10
329.539
 20
71.9045
 11
330.477
 21
74.3485
  0
LINE
  8
0
 10
330.477
 20
74.3485
 11
331.329
 21
76.8237
  0
LINE
  8
0
 10
331.329
 20
76.8237
 11
332.095
 21
79.3272
  0
LINE
  8
0
 10
332.095
 20
79.3272
 11
332.772
 21
81.8559
  0
LINE
  8
0
 10
332.772
 20
81.8559
 11
333.361
 21
84.4066
  0
LINE
  8
0
 10
333.361
 20
84.4066
 11
333.861
 21
86.9764
  0
LINE
  8
0
 10
333.861
 20
86.9764
 11
334.27
 21
89.562
  0
LINE
  8
0
 10
334.27
 20
89.562
 11
334.589
 21
92.1604
  0
LINE
  8
0
 10
334.589
 20
92.1604
 11
334.817
 21
94.7683
  0
LINE
  8
0
 10
334.817
 20
94.7683
 11
334.954
 21
97.3825
  0
LINE
  8
0
 10
334.954
 20
97.3825
 11
335
 21
100
  0
LINE
  8
0
 10
335
 20
100
 11
334.954
 21
102.617
  0
LINE
  8
0
 10
334.954
 20
102.617
 11
334.817
 21
105.232
  0
LINE
  8
0
 10
334.817
 20
105.232
 11
334.589
 21
107.84
  0
LINE
  8
0
 10
334.589
 20
107.84
 11
334.27
 21
110.438
  0
LINE
  8
0
 10
334.27
 20
110.438
 11
333.861
 21
113.024
  0
LINE
  8
0
 10
333.861
 20
113.024
 11
333.361
 21
115.593
  0
LINE
  8
0
 10
333.361
 20
115.593
 11
332.772
 21
118.144
  0
LINE
  8
0
 10
332.772
 20
118.144
 11
332.095
 21
120.673
  0
LINE
  8
0
 10
332.095
 20
120.673
 11
331.329
 21
123.176
  0
LINE
  8
0
 10
331.329
 20
123.176
 11
330.477
 21
125.652
  0
LINE
  8
0
 10
330.477
 20
125.652
 11
329.539
 21
128.095
  0
LINE
  8
0
 10
329.539
 20
128.095
 11
328.516
 21
130.505
  0
LINE
  8
0
 10
328.516
 20
130.505
 11
327.41
 21
132.878
  0
LINE
  8
0
 10
327.41
 20
132.878
 11
326.221
 21
135.21
  0
LINE
  8
0
 10
326.221
 20
135.21
 11
324.952
 21
137.5
  0
LINE
  8
0
 10
324.952
 20
137.5
 11
323.604
 21
139.744
  0
LINE
  8
0
 10
323.604
 20
139.744
 11
322.178
 21
141.939
  0
LINE
  8
0
 10
322.178
 20
141.939
 11
320.676
 21
144.084
  0
LINE
  8
0
 10
320.676
 20
144.084
 11
319.101
 21
146.175
  0
LINE
  8
0
 10
319.101
 20
146.175
 11
317.453
 21
148.209
  0
LINE
  8
0
 10
317.453
 20
148.209
 11
315.736
 21
150.185
  0
LINE
  8
0
 10
315.736
 20
150.185
 11
313.95
 21
152.099
  0
LINE
  8
0
 10
313.95
 20
152.099
 11
312.099
 21
153.95
  0
LINE
  8
0
 10
312.099
 20
153.95
 11
310.185
 21
155.736
  0
LINE
  8
0
 10
310.185
 20
155.736
 11
308.209
 21
157.453
  0
LINE
  8
0
 10
308.209
 20
157.453
 11
306.175
 21
159.101
  0
LINE
  8
0
 10
306.175
 20
159.101
 11
304.084
 21
160.676
  0
LINE
  8
0
 10
304.084
 20
160.676
 11
301.939
 21
162.178
  0
LINE
  8
0
 10
301.939
 20
162.178
 11
299.744
 21
163.604
  0
LINE
  8
0
 10
299.744
 20
163.604
 11
297.5
 21
164.952
  0
LINE
  8
0
 10
297.5
 20
164.952
 11
295.21
 21
166.221
  0
LINE
  8
0
 10
295.21
 20
166.221
 11
292.878
 21
167.41
  0
LINE
  8
0
 10
292.878
 20
167.41
 11
290.505
 21
168.516
  0
LINE
  8
0
 10
290.505
 20
168.516
 11
288.095
 21
169.539
  0
LINE
  8
0
 10
288.095
 20
169.539
 11
285.652
 21
170.477
  0
LINE
  8
0
 10
285.652
 20
170.477
 11
283.176
 21
171.329
  0
LINE
  8
0
 10
283.176
 20
171.329
 11
280.673
 21
172.095
  0
LINE
  8
0
 10
280.673
 20
172.095
 11
278.144
 21
172.772
  0
LINE
  8
0
 10
278.144
 20
172.772
 11
275.593
 21
173.361
  0
LINE
  8
0
 10
275.593
 20
173.361
 11
273.024
 21
173.861
  0
LINE
  8
0
 10
273.024
 20
173.861
 11
270.438
 21
174.27
  0
LINE
  8
0
 10
270.438
 20
174.27
 11
267.84
 21
174.589
  0
LINE
  8
0
 10
267.84
 20
174.589
 11
265.232
 21
174.817
  0
LINE
  8
0
 10
265.232
 20
174.817
 11
262.617
 21
174.954
  0
LINE
  8
0
 10
262.617
 20
174.954
 11
260
 21
175
  0
LINE
  8
0
 10
260
 20
175
 11
257.383
 21
174.954
  0
LINE
  8
0
 10
257.383
 20
174.954
 11
254.768
 21
174.817
  0
LINE
  8
0
 10
254.768
 20
174.817
 11
252.16
 21
174.589
  0
LINE
  8
0
 10
252.16
 20
174.589
 11
249.562
 21
174.27
  0
LINE
  8
0
 10
249.562
 20
174.27
 11
246.976
 21
173.861
  0
LINE
  8
0
 10
246.976
 20
173.861
 11
244.407
 21
173.361
  0
LINE
  8
0
 10
244.407
 20
173.361
 11
241.856
 21
172.772
  0
LINE
  8
0
 10
241.856
 20
172.772
 11
239.327
 21
172.095
  0
LINE
  8
0
 10
239.327
 20
172.095
 11
236.824
 21
171.329
  0
LINE
  8
0
 10
236.824
 20
171.329
 11
234.348
 21
170.477
  0
LINE
  8
0
 10
234.348
 20
170.477
 11
231.905
 21
169.539
  0
LINE
  8
0
 10
231.905
 20
169.539
 11
229.495
 21
168.516
  0
LINE
  8
0
 10
229.495
 20
168.516
 11
227.122
 21
167.41
  0
LINE
  8
0
 10
227.122
 20
167.41
 11
224.79
 21
166.221
  0
LINE
  8
0
 10
224.79
 20
166.221
 11
222.5
 21
164.952
  0
LINE
  8
0
 10
222.5
 20
164.952
 11
220.256
 21
163.604
  0
LINE
  8
0
 10
220.256
 20
163.604
 11
218.061
 21
162.178
  0
LINE
  8
0
 10
218.061
 20
162.178
 11
215.916
 21
160.676
  0
LINE
  8
0
 10
215.916
 20
160.676
 11
213.825
 21
159.101
  0
LINE
  8
0
 10
213.825
 20
159.101
 11
211.791
 21
157.453
  0
LINE
  8
0
 10
211.791
 20
157.453
 11
209.815
 21
155.736
  0
LINE
  8
0
 10
209.815
 20
155.736
 11
207.901
 21
153.95
  0
LINE
  8
0
 10
207.901
 20
153.95
 11
206.05
 21
152.099
  0
LINE
  8
0
 10
206.05
 20
152.099
 11
204.264
 21
150.185
  0
LINE
  8
0
 10
204.264
 20
150.185
 11
202.547
 21
148.209
  0
LINE
  8
0
 10
202.547
 20
148.209
 11
200.899
 21
146.175
  0
LINE
  8
0
 10
200.899
 20
146.175
 11
199.324
 21
144.084
  0
LINE
  8
0
 10
199.324
 20
144.084
 11
197.822
 21
141.939
  0
LINE
  8
0
 10
197.822
 20
141.939
 11
196.396
 21
139.744
  0
LINE
  8
0
 10
196.396
 20
139.744
 11
195.048
 21
137.5
  0
LINE
  8
0
 10
195.048
 20
137.5
 11
193.779
 21
135.21
  0
LINE
  8
0
 10
193.779
 20
135.21
 11
192.59
 21
132.878
  0
LINE
  8
0
 10
192.59
 20
132.878
 11
191.484
 21
130.505
  0
LINE
  8
0
 10
191.484
 20
130.505
 11
190.461
 21
128.095
  0
LINE
  8
0
 10
190.461
 20
128.095
 11
189.523
 21
125.652
  0
LINE
  8
0
 10
189.523
 20
125.652
 11
188.671
 21
123.176
  0
LINE
  8
0
 10
188.671
 20
123.176
 11
187.905
 21
120.673
  0
LINE
  8
0
 10
187.905
 20
120.673
 11
187.228
 21
118.144
  0
LINE
  8
0
 10
187.228
 20
118.144
 11
186.639
 21
115.593
  0
LINE
  8
0
 10
186.639
 20
115.593
 11
186.139
 21
113.024
  0
LINE
  8
0
 10
186.139
 20
113.024
 11
185.73
 21
110.438
  0
LINE
  8
0
 10
185.73
 20
110.438
 11
185.411
 21
107.84
  0
LINE
  8
0
 10
185.411
 20
107.84
 11
185.183
 21
105.232
  0
LINE
  8
0
 10
185.183
 20
105.232
 11
185.046
 21
102.617
  0
LINE
  8
0
 10
185.046
 20
102.617
 11
185
 21
100
  0
LINE
  8
0
 10
185
 20
100
 11
185.046
 21
97.3825
  0
LINE
  8
0
 10
185.046
 20
97.3825
 11
185.183
 21
94.7683
  0
LINE
  8
0
 10
185.183
 20
94.7683
 11
185.411
 21
92.1604
  0
LINE
  8
0
 10
185.411
 20
92.1604
 11
185.73
 21
89.562
  0
LINE
  8
0
 10
185.73
 20
89.562
 11
186.139
 21
86.9764
  0
LINE
  8
0
 10
186.139
 20
86.9764
 11
186.639
 21
84.4066
  0
LINE
  8
0
 10
186.639
 20
84.4066
 11
187.228
 21
81.8559
  0
LINE
  8
0
 10
187.228
 20
81.8559
 11
187.905
 21
79.3272
  0
LINE
  8
0
 10
187.905
 20
79.3272
 11
188.671
 21
76.8237
  0
LINE
  8
0
 10
188.671
 20
76.8237
 11
189.523
 21
74.3485
  0
LINE
  8
0
 10
189.523
 20
74.3485
 11
190.461
 21
71.9045
  0
LINE
  8
0
 10
190.461
 20
71.9045
 11
191.484
 21
69.4948
  0
LINE
  8
0
 10
191.484
 20
69.4948
 11
192.59
 21
67.1222
  0
LINE
  8
0
 10
192.59
 20
67.1222
 11
193.779
 21
64.7896
  0
LINE
  8
0
 10
193.779
 20
64.7896
 11
195.048
 21
62.5
  0
LINE
  8
0
 10
195.048
 20
62.5
 11
196.396
 21
60.2561
  0
LINE
  8
0
 10
196.396
 20
60.2561
 11
197.822
 21
58.0605
  0
LINE
  8
0
 10
197.822
 20
58.0605
 11
199.324
 21
55.9161
  0
LINE
  8
0
 10
199.324
 20
55.9161
 11
200.899
 21
53.8254
  0
LINE
  8
0
 10
200.899
 20
53.8254
 11
202.547
 21
51.7909
  0
LINE
  8
0
 10
202.547
 20
51.7909
 11
204.264
 21
49.8152
  0
LINE
  8
0
 10
204.264
 20
49.8152
 11
206.05
 21
47.9006
  0
LINE
  8
0
 10
206.05
 20
47.9006
 11
207.901
 21
46.0495
  0
LINE
  8
0
 10
207.901
 20
46.0495
 11
209.815
 21
44.2641
  0
LINE
  8
0
 10
209.815
 20
44.2641
 11
211.791
 21
42.5467
  0
LINE
  8
0
 10
211.791
 20
42.5467
 11
213.825
 21
40.8992
  0
LINE
  8
0
 10
213.825
 20
40.8992
 11
215.916
 21
39.3237
  0
LINE
  8
0
 10
215.916
 20
39.3237
 11
218.061
 21
37.8222
  0
LINE
  8
0
 10
218.061
 20
37.8222
 11
220.256
 21
36.3964
  0
LINE
  8
0
 10
220.256
 20
36.3964
 11
222.5
 21
35.0481
  0
LINE
  8
0
 10
222.5
 20
35.0481
 11
224.79
 21
33.7789
  0
LINE
  8
0
 10
224.79
 20
33.7789
 11
227.122
 21
32.5905
  0
LINE
  8
0
 10
227.122
 20
32.5905
 11
229.495
 21
31.4841
  0
LINE
  8
0
 10
229.495
 20
31.4841
 11
231.905
 21
30.4612
  0
LINE
  8
0
 10
231.905
 20
30.4612
 11
234.348
 21
29.5231
  0
LINE
  8
0
 10
234.348
 20
29.5231
 11
236.824
 21
28.6708
  0
LINE
  8
0
 10
236.824
 20
28.6708
 11
239.327
 21
27.9054
  0
LINE
  8
0
 10
239.327
 20
27.9054
 11
241.856
 21
27.2278
  0
LINE
  8
0
 10
241.856
 20
27.2278
 11
244.407
 21
26.6389
  0
LINE
  8
0
 10
244.407
 20
26.6389
 11
246.976
 21
26.1394
  0
LINE
  8
0
 10
246.976
 20
26.1394
 11
249.562
 21
25.7299
  0
LINE
  8
0
 10
249.562
 20
25.7299
 11
252.16
 21
25.4109
  0
LINE
  8
0
 10
252.16
 20
25.4109
 11
254.768
 21
25.1827
  0
LINE
  8
0
 10
254.768
 20
25.1827
 11
257.383
 21
25.0457
  0
LINE
  8
0
 10
257.383
 20
25.0457
 11
260
 21
25
  0
LINE
  8
0
 10
260
 20
25
 11
262.617
 21
25.0457
  0
LINE
  8
0
 10
257
 20
160
 11
257
 21
170
  0
LINE
  8
0
 10
257
 20
170
 11
263
 21
170
  0
LINE
  8
0
 10
263
 20
170
 11
263
 21
160
  0
LINE
  8
0
 10
263
 20
160
 11
257
 21
160
  0
LINE
  8
0
 10
272.631
 20
158.732
 11
275.22
 21
168.391
  0
LINE
  8
0
 10
275.22
 20
168.391
 11
281.015
 21
166.838
  0
LINE
  8
0
 10
281.015
 20
166.838
 11
278.427
 21
157.179
  0
LINE
  8
0
 10
278.427
 20
157.179
 11
272.631
 21
158.732
  0
LINE
  8
0
 10
238.985
 20
166.838
 11
244.78
 21
168.391
  0
LINE
  8
0
 10
244.78
 20
168.391
 11
247.369
 21
158.732
  0
LINE
  8
0
 10
247.369
 20
158.732
 11
241.573
 21
157.179
  0
LINE
  8
0
 10
241.573
 20
157.179
 11
238.985
 21
166.838
  0
LINE
  8
0
 10
222.402
 20
159.122
 11
227.598
 21
162.122
  0
LINE
  8
0
 10
227.598
 20
162.122
 11
232.598
 21
153.462
  0
LINE
  8
0
 10
232.598
 20
153.462
 11
227.402
 21
150.462
  0
LINE
  8
0
 10
227.402
 20
150.462
 11
222.402
 21
159.122
  0
LINE
  8
0
 10
287.402
 20
153.462
 11
292.402
 21
162.122
  0
LINE
  8
0
 10
292.402
 20
162.122
 11
297.598
 21
159.122
  0
LINE
  8
0
 10
297.598
 20
159.122
 11
292.598
 21
150.462
  0
LINE
  8
0
 10
292.598
 20
150.462
 11
287.402
 21
153.462
  0
LINE
  8
0
 10
208.381
 20
147.376
 11
212.624
 21
151.619
  0
LINE
  8
0
 10
212.624
 20
151.619
 11
219.695
 21
144.548
  0
LINE
  8
0
 10
219.695
 20
144.548
 11
215.452
 21
140.305
  0
LINE
  8
0
 10
215.452
 20
140.305
 11
208.381
 21
147.376
  0
LINE
  8
0
 10
300.305
 20
144.548
 11
307.376
 21
151.619
  0
LINE
  8
0
 10
307.376
 20
151.619
 11
311.619
 21
147.376
  0
LINE
  8
0
 10
311.619
 20
147.376
 11
304.548
 21
140.305
  0
LINE
  8
0
 10
304.548
 20
140.305
 11
300.305
 21
144.548
  0
LINE
  8
0
 10
259.291
 20
136.13
 11
258.503
 21
136.674
  0
LINE
  8
0
 10
258.503
 20
136.674
 11
258.058
 21
137.521
  0
LINE
  8
0
 10
258.058
 20
137.521
 11
258.058
 21
138.479
  0
LINE
  8
0
 10
258.058
 20
138.479
 11
258.503
 21
139.326
  0
LINE
  8
0
 10
258.503
 20
139.326
 11
259.291
 21
139.87
  0
LINE
  8
0
 10
259.291
 20
139.87
 11
260.241
 21
139.985
  0
LINE
  8
0
 10
260.241
 20
139.985
 11
261.136
 21
139.646
  0
LINE
  8
0
 10
261.136
 20
139.646
 11
261.771
 21
138.929
  0
LINE
  8
0
 10
261.771
 20
138.929
 11
262
 21
138
  0
LINE
  8
0
 10
262
 20
138
 11
261.771
 21
137.071
  0
LINE
  8
0
 10
261.771
 20
137.071
 11
261.136
 21
136.354
  0
LINE
  8
0
 10
261.136
 20
136.354
 11
260.241
 21
136.015
  0
LINE
  8
0
 10
260.241
 20
136.015
 11
259.291
 21
136.13
  0
LINE
  8
0
 10
310.462
 20
132.598
 11
319.122
 21
137.598
  0
LINE
  8
0
 10
319.122
 20
137.598
 11
322.122
 21
132.402
  0
LINE
  8
0
 10
322.122
 20
132.402
 11
313.462
 21
127.402
  0
LINE
  8
0
 10
313.462
 20
127.402
 11
310.462
 21
132.598
  0
LINE
  8
0
 10
197.878
 20
132.402
 11
200.878
 21
137.598
  0
LINE
  8
0
 10
200.878
 20
137.598
 11
209.538
 21
132.598
  0
LINE
  8
0
 10
209.538
 20
132.598
 11
206.538
 21
127.402
  0
LINE
  8
0
 10
206.538
 20
127.402
 11
197.878
 21
132.402
  0
LINE
  8
0
 10
317.179
 20
118.427
 11
326.838
 21
121.015
  0
LINE
  8
0
 10
326.838
 20
121.015
 11
328.391
 21
115.22
  0
LINE
  8
0
 10
328.391
 20
115.22
 11
318.732
 21
112.631
  0
LINE
  8
0
 10
318.732
 20
112.631
 11
317.179
 21
118.427
  0
LINE
  8
0
 10
191.609
 20
115.22
 11
193.162
 21
121.015
  0
LINE
  8
0
 10
193.162
 20
121.015
 11
202.821
 21
118.427
  0
LINE
  8
0
 10
202.821
 20
118.427
 11
201.268
 21
112.631
  0
LINE
  8
0
 10
201.268
 20
112.631
 11
191.609
 21
115.22
  0
LINE
  8
0
 10
245
 20
85
 11
245
 21
115
  0
LINE
  8
0
 10
245
 20
115
 11
275
 21
115
  0
LINE
  8
0
 10
275
 20
115
 11
275
 21
85
  0
LINE
  8
0
 10
275
 20
85
 11
245
 21
85
  0
LINE
  8
0
 10
320
 20
97
 11
320
 21
103
  0
LINE
  8
0
 10
320
 20
103
 11
330
 21
103
  0
LINE
  8
0
 10
330
 20
103
 11
330
 21
97
  0
LINE
  8
0
 10
330
 20
97
 11
320
 21
97
  0
LINE
  8
0
 10
190
 20
97
 11
190
 21
103
  0
LINE
  8
0
 10
190
 20
103
 11
200
 21
103
  0
LINE
  8
0
 10
200
 20
103
 11
200
 21
97
  0
LINE
  8
0
 10
200
 20
97
 11
190
 21
97
  0
LINE
  8
0
 10
221.291
 20
98.13
 11
220.503
 21
98.6738
  0
LINE
  8
0
 10
220.503
 20
98.6738
 11
220.058
 21
99.5214
  0
LINE
  8
0
 10
220.058
 20
99.5214
 11
220.058
 21
100.479
  0
LINE
  8
0
 10
220.058
 20
100.479
 11
220.503
 21
101.326
  0
LINE
  8
0
 10
220.503
 20
101.326
 11
221.291
 21
101.87
  0
LINE
  8
0
 10
221.291
 20
101.87
 11
222.241
 21
101.985
  0
LINE
  8
0
 10
222.241
 20
101.985
 11
223.136
 21
101.646
  0
LINE
  8
0
 10
223.136
 20
101.646
 11
223.771
 21
100.929
  0
LINE
  8
0
 10
223.771
 20
100.929
 11
224
 21
100
  0
LINE
  8
0
 10
224
 20
100
 11
223.771
 21
99.0706
  0
LINE
  8
0
 10
223.771
 20
99.0706
 11
223.136
 21
98.354
  0
LINE
  8
0
 10
223.136
 20
98.354
 11
222.241
 21
98.0146
  0
LINE
  8
0
 10
222.241
 20
98.0146
 11
221.291
 21
98.13
  0
LINE
  8
0
 10
297.291
 20
98.13
 11
296.503
 21
98.6738
  0
LINE
  8
0
 10
296.503
 20
98.6738
 11
296.058
 21
99.5214
  0
LINE
  8
0
 10
296.058
 20
99.5214
 11
296.058
 21
100.479
  0
LINE
  8
0
 10
296.058
 20
100.479
 11
296.503
 21
101.326
  0
LINE
  8
0
 10
296.503
 20
101.326
 11
297.291
 21
101.87
  0
LINE
  8
0
 10
297.291
 20
101.87
 11
298.241
 21
101.985
  0
LINE
  8
0
 10
298.241
 20
101.985
 11
299.136
 21
101.646
  0
LINE
  8
0
 10
299.136
 20
101.646
 11
299.771
 21
100.929
  0
LINE
  8
0
 10
299.771
 20
100.929
 11
300
 21
100
  0
LINE
  8
0
 10
300
 20
100
 11
299.771
 21
99.0706
  0
LINE
  8
0
 10
299.771
 20
99.0706
 11
299.136
 21
98.354
  0
LINE
  8
0
 10
299.136
 20
98.354
 11
298.241
 21
98.0146
  0
LINE
  8
0
 10
298.241
 20
98.0146
 11
297.291
 21
98.13
  0
LINE
  8
0
 10
317.179
 20
81.5731
 11
318.732
 21
87.3686
  0
LINE
  8
0
 10
318.732
 20
87.3686
 11
328.391
 21
84.7805
  0
LINE
  8
0
 10
328.391
 20
84.7805
 11
326.838
 21
78.9849
  0
LINE
  8
0
 10
326.838
 20
78.9849
 11
317.179
 21
81.5731
  0
LINE
  8
0
 10
191.609
 20
84.7805
 11
201.268
 21
87.3686
  0
LINE
  8
0
 10
201.268
 20
87.3686
 11
202.821
 21
81.5731
  0
LINE
  8
0
 10
202.821
 20
81.5731
 11
193.162
 21
78.9849
  0
LINE
  8
0
 10
193.162
 20
78.9849
 11
191.609
 21
84.7805
  0
LINE
  8
0
 10
310.462
 20
67.4019
 11
313.462
 21
72.5981
  0
LINE
  8
0
 10
313.462
 20
72.5981
 11
322.122
 21
67.5981
  0
LINE
  8
0
 10
322.122
 20
67.5981
 11
319.122
 21
62.4019
  0
LINE
  8
0
 10
319.122
 20
62.4019
 11
310.462
 21
67.4019
  0
LINE
  8
0
 10
197.878
 20
67.5981
 11
206.538
 21
72.5981
  0
LINE
  8
0
 10
206.538
 20
72.5981
 11
209.538
 21
67.4019
  0
LINE
  8
0
 10
209.538
 20
67.4019
 11
200.878
 21
62.4019
  0
LINE
  8
0
 10
200.878
 20
62.4019
 11
197.878
 21
67.5981
  0
LINE
  8
0
 10
259.291
 20
60.13
 11
258.503
 21
60.6738
  0
LINE
  8
0
 10
258.503
 20
60.6738
 11
258.058
 21
61.5214
  0
LINE
  8
0
 10
258.058
 20
61.5214
 11
258.058
 21
62.4786
  0
LINE
  8
0
 10
258.058
 20
62.4786
 11
258.503
 21
63.3262
  0
LINE
  8
0
 10
258.503
 20
63.3262
 11
259.291
 21
63.87
  0
LINE
  8
0
 10
259.291
 20
63.87
 11
260.241
 21
63.9854
  0
LINE
  8
0
 10
260.241
 20
63.9854
 11
261.136
 21
63.646
  0
LINE
  8
0
 10
261.136
 20
63.646
 11
261.771
 21
62.9295
  0
LINE
  8
0
 10
261.771
 20
62.9295
 11
262
 21
62
  0
LINE
  8
0
 10
262
 20
62
 11
261.771
 21
61.0706
  0
LINE
  8
0
 10
261.771
 20
61.0706
 11
261.136
 21
60.354
  0
LINE
  8
0
 10
261.136
 20
60.354
 11
260.241
 21
60.0146
  0
LINE
  8
0
 10
260.241
 20
60.0146
 11
259.291
 21
60.13
  0
LINE
  8
0
 10
300.305
 20
55.4523
 11
304.548
 21
59.6949
  0
LINE
  8
0
 10
304.548
 20
59.6949
 11
311.619
 21
52.6239
  0
LINE
  8
0
 10
311.619
 20
52.6239
 11
307.376
 21
48.3812
  0
LINE
  8
0
 10
307.376
 20
48.3812
 11
300.305
 21
55.4523
  0
LINE
  8
0
 10
208.381
 20
52.6239
 11
215.452
 21
59.6949
  0
LINE
  8
0
 10
215.452
 20
59.6949
 11
219.695
 21
55.4523
  0
LINE
  8
0
 10
219.695
 20
55.4523
 11
212.624
 21
48.3812
  0
LINE
  8
0
 10
212.624
 20
48.3812
 11
208.381
 21
52.6239
  0
LINE
  8
0
 10
287.402
 20
46.5385
 11
292.598
 21
49.5385
  0
LINE
  8
0
 10
292.598
 20
49.5385
 11
297.598
 21
40.8782
  0
LINE
  8
0
 10
297.598
 20
40.8782
 11
292.402
 21
37.8782
  0
LINE
  8
0
 10
292.402
 20
37.8782
 11
287.402
 21
46.5385
  0
LINE
  8
0
 10
222.402
 20
40.8782
 11
227.402
 21
49.5385
  0
LINE
  8
0
 10
227.402
 20
49.5385
 11
232.598
 21
46.5385
  0
LINE
  8
0
 10
232.598
 20
46.5385
 11
227.598
 21
37.8782
  0
LINE
  8
0
 10
227.598
 20
37.8782
 11
222.402
 21
40.8782
  0
LINE
  8
0
 10
238.985
 20
33.1617
 11
241.573
 21
42.8209
  0
LINE
  8
0
 10
241.573
 20
42.8209
 11
247.369
 21
41.268
  0
LINE
  8
0
 10
247.369
 20
41.268
 11
244.78
 21
31.6087
  0
LINE
  8
0
 10
244.78
 20
31.6087
 11
238.985
 21
33.1617
  0
LINE
  8
0
 10
272.631
 20
41.268
 11
278.427
 21
42.8209
  0
LINE
  8
0
 10
278.427
 20
42.8209
 11
281.015
 21
33.1617
  0
LINE
  8
0
 10
281.015
 20
33.1617
 11
275.22
 21
31.6087
  0
LINE
  8
0
 10
275.22
 20
31.6087
 11
272.631
 21
41.268
  0
LINE
  8
0
 10
257
 20
30
 11
257
 21
40
  0
LINE
  8
0
 10
257
 20
40
 11
263
 21
40
  0
LINE
  8
0
 10
263
 20
40
 11
263
 21
30
  0
LINE
  8
0
 10
263
 20
30
 11
257
 21
30
  0
LINE
  8
0
 10
501.57
 20
50.0274
 11
503.139
 21
50.1096
  0
LINE
  8
0
 10
503.139
 20
50.1096
 11
504.704
 21
50.2465
  0
LINE
  8
0
 10
504.704
 20
50.2465
 11
506.263
 21
50.4379
  0
LINE
  8
0
 10
506.263
 20
50.4379
 11
507.814
 21
50.6837
  0
LINE
  8
0
 10
507.814
 20
50.6837
 11
509.356
 21
50.9834
  0
LINE
  8
0
 10
509.356
 20
50.9834
 11
510.886
 21
51.3367
  0
LINE
  8
0
 10
510.886
 20
51.3367
 11
512.404
 21
51.7432
  0
LINE
  8
0
 10
512.404
 20
51.7432
 11
513.906
 21
52.2025
  0
LINE
  8
0
 10
513.906
 20
52.2025
 11
515.391
 21
52.7138
  0
LINE
  8
0
 10
515.391
 20
52.7138
 11
516.857
 21
53.2767
  0
LINE
  8
0
 10
516.857
 20
53.2767
 11
518.303
 21
53.8905
  0
LINE
  8
0
 10
518.303
 20
53.8905
 11
519.727
 21
54.5543
  0
LINE
  8
0
 10
519.727
 20
54.5543
 11
521.126
 21
55.2674
  0
LINE
  8
0
 10
521.126
 20
55.2674
 11
522.5
 21
56.0289
  0
LINE
  8
0
 10
522.5
 20
56.0289
 11
523.846
 21
56.8378
  0
LINE
  8
0
 10
523.846
 20
56.8378
 11
525.164
 21
57.6933
  0
LINE
  8
0
 10
525.164
 20
57.6933
 11
526.45
 21
58.5942
  0
LINE
  8
0
 10
526.45
 20
58.5942
 11
527.705
 21
59.5395
  0
LINE
  8
0
 10
527.705
 20
59.5395
 11
528.925
 21
60.528
  0
LINE
  8
0
 10
528.925
 20
60.528
 11
530.111
 21
61.5585
  0
LINE
  8
0
 10
530.111
 20
61.5585
 11
531.26
 21
62.6297
  0
LINE
  8
0
 10
531.26
 20
62.6297
 11
532.37
 21
63.7404
  0
LINE
  8
0
 10
532.37
 20
63.7404
 11
533.442
 21
64.8891
  0
LINE
  8
0
 10
533.442
 20
64.8891
 11
534.472
 21
66.0746
  0
LINE
  8
0
 10
534.472
 20
66.0746
 11
535.46
 21
67.2952
  0
LINE
  8
0
 10
535.46
 20
67.2952
 11
536.406
 21
68.5497
  0
LINE
  8
0
 10
536.406
 20
68.5497
 11
537.307
 21
69.8363
  0
LINE
  8
0
 10
537.307
 20
69.8363
 11
538.162
 21
71.1536
  0
LINE
  8
0
 10
538.162
 20
71.1536
 11
538.971
 21
72.5
  0
LINE
  8
0
 10
538.971
 20
72.5
 11
539.733
 21
73.8738
  0
LINE
  8
0
 10
539.733
 20
73.8738
 11
540.446
 21
75.2733
  0
LINE
  8
0
 10
540.446
 20
75.2733
 11
541.11
 21
76.6969
  0
LINE
  8
0
 10
541.11
 20
76.6969
 11
541.723
 21
78.1427
  0
LINE
  8
0
 10
541.723
 20
78.1427
 11
542.286
 21
79.6091
  0
LINE
  8
0
 10
542.286
 20
79.6091
 11
542.798
 21
81.0942
  0
LINE
  8
0
 10
542.798
 20
81.0942
 11
543.257
 21
82.5963
  0
LINE
  8
0
 10
543.257
 20
82.5963
 11
543.663
 21
84.1135
  0
LINE
  8
0
 10
543.663
 20
84.1135
 11
544.017
 21
85.644
  0
LINE
  8
0
 10
544.017
 20
85.644
 11
544.316
 21
87.1858
  0
LINE
  8
0
 10
544.316
 20
87.1858
 11
544.562
 21
88.7372
  0
LINE
  8
0
 10
544.562
 20
88.7372
 11
544.753
 21
90.2962
  0
LINE
  8
0
 10
544.753
 20
90.2962
 11
544.89
 21
91.861
  0
LINE
  8
0
 10
544.89
 20
91.861
 11
544.973
 21
93.4295
  0
LINE
  8
0
 10
544.973
 20
93.4295
 11
545
 21
95
  0
LINE
  8
0
 10
545
 20
95
 11
545
 21
105
  0
LINE
  8
0
 10
545
 20
105
 11
544.973
 21
106.57
  0
LINE
  8
0
 10
544.973
 20
106.57
 11
544.89
 21
108.139
  0
LINE
  8
0
 10
544.89
 20
108.139
 11
544.753
 21
109.704
  0
LINE
  8
0
 10
544.753
 20
109.704
 11
544.562
 21
111.263
  0
LINE
  8
0
 10
544.562
 20
111.263
 11
544.316
 21
112.814
  0
LINE
  8
0
 10
544.316
 20
112.814
 11
544.017
 21
114.356
  0
LINE
  8
0
 10
544.017
 20
114.356
 11
543.663
 21
115.886
  0
LINE
  8
0
 10
543.663
 20
115.886
 11
543.257
 21
117.404
  0
LINE
  8
0
 10
543.257
 20
117.404
 11
542.798
 21
118.906
  0
LINE
  8
0
 10
542.798
 20
118.906
 11
542.286
 21
120.391
  0
LINE
  8
0
 10
542.286
 20
120.391
 11
541.723
 21
121.857
  0
LINE
  8
0
 10
541.723
 20
121.857
 11
541.11
 21
123.303
  0
LINE
  8
0
 10
541.11
 20
123.303
 11
540.446
 21
124.727
  0
LINE
  8
0
 10
540.446
 20
124.727
 11
539.733
 21
126.126
  0
LINE
  8
0
 10
539.733
 20
126.126
 11
538.971
 21
127.5
  0
LINE
  8
0
 10
538.971
 20
127.5
 11
538.162
 21
128.846
  0
LINE
  8
0
 10
538.162
 20
128.846
 11
537.307
 21
130.164
  0
LINE
  8
0
 10
537.307
 20
130.164
 11
536.406
 21
131.45
  0
LINE
  8
0
 10
536.406
 20
131.45
 11
535.46
 21
132.705
  0
LINE
  8
0
 10
535.46
 20
132.705
 11
534.472
 21
133.925
  0
LINE
  8
0
 10
534.472
 20
133.925
 11
533.442
 21
135.111
  0
LINE
  8
0
 10
533.442
 20
135.111
 11
532.37
 21
136.26
  0
LINE
  8
0
 10
532.37
 20
136.26
 11
531.26
 21
137.37
  0
LINE
  8
0
 10
531.26
 20
137.37
 11
530.111
 21
138.442
  0
LINE
  8
0
 10
530.111
 20
138.442
 11
528.925
 21
139.472
  0
LINE
  8
0
 10
528.925
 20
139.472
 11
527.705
 21
140.46
  0
LINE
  8
0
 10
527.705
 20
140.46
 11
526.45
 21
141.406
  0
LINE
  8
0
 10
526.45
 20
141.406
 11
525.164
 21
142.307
  0
LINE
  8
0
 10
525.164
 20
142.307
 11
523.846
 21
143.162
  0
LINE
  8
0
 10
523.846
 20
143.162
 11
522.5
 21
143.971
  0
LINE
  8
0
 10
522.5
 20
143.971
 11
521.126
 21
144.733
  0
LINE
  8
0
 10
521.126
 20
144.733
 11
519.727
 21
145.446
  0
LINE
  8
0
 10
519.727
 20
145.446
 11
518.303
 21
146.11
  0
LINE
  8
0
 10
518.303
 20
146.11
 11
516.857
 21
146.723
  0
LINE
  8
0
 10
516.857
 20
146.723
 11
515.391
 21
147.286
  0
LINE
  8
0
 10
515.391
 20
147.286
 11
513.906
 21
147.798
  0
LINE
  8
0
 10
513.906
 20
147.798
 11
512.404
 21
148.257
  0
LINE
  8
0
 10
512.404
 20
148.257
 11
510.886
 21
148.663
  0
LINE
  8
0
 10
510.886
 20
148.663
 11
509.356
 21
149.017
  0
LINE
  8
0
 10
509.356
 20
149.017
 11
507.814
 21
149.316
  0
LINE
  8
0
 10
507.814
 20
149.316
 11
506.263
 21
149.562
  0
LINE
  8
0
 10
506.263
 20
149.562
 11
504.704
 21
149.753
  0
LINE
  8
0
 10
504.704
 20
149.753
 11
503.139
 21
149.89
  0
LINE
  8
0
 10
503.139
 20
149.89
 11
501.57
 21
149.973
  0
LINE
  8
0
 10
501.57
 20
149.973
 11
500
 21
150
  0
LINE
  8
0
 10
500
 20
150
 11
490
 21
150
  0
LINE
  8
0
 10
490
 20
150
 11
488.43
 21
149.973
  0
LINE
  8
0
 10
488.43
 20
149.973
 11
486.861
 21
149.89
  0
LINE
  8
0
 10
486.861
 20
149.89
 11
485.296
 21
149.753
  0
LINE
  8
0
 10
485.296
 20
149.753
 11
483.737
 21
149.562
  0
LINE
  8
0
 10
483.737
 20
149.562
 11
482.186
 21
149.316
  0
LINE
  8
0
 10
482.186
 20
149.316
 11
480.644
 21
149.017
  0
LINE
  8
0
 10
480.644
 20
149.017
 11
479.114
 21
148.663
  0
LINE
  8
0
 10
479.114
 20
148.663
 11
477.596
 21
148.257
  0
LINE
  8
0
 10
477.596
 20
148.257
 11
476.094
 21
147.798
  0
LINE
  8
0
 10
476.094
 20
147.798
 11
474.609
 21
147.286
  0
LINE
  8
0
 10
474.609
 20
147.286
 11
473.143
 21
146.723
  0
LINE
  8
0
 10
473.143
 20
146.723
 11
471.697
 21
146.11
  0
LINE
  8
0
 10
471.697
 20
146.11
 11
470.273
 21
145.446
  0
LINE
  8
0
 10
470.273
 20
145.446
 11
468.874
 21
144.733
  0
LINE
  8
0
 10
468.874
 20
144.733
 11
467.5
 21
143.971
  0
LINE
  8
0
 10
467.5
 20
143.971
 11
466.154
 21
143.162
  0
LINE
  8
0
 10
466.154
 20
143.162
 11
464.836
 21
142.307
  0
LINE
  8
0
 10
464.836
 20
142.307
 11
463.55
 21
141.406
  0
LINE
  8
0
 10
463.55
 20
141.406
 11
462.295
 21
140.46
  0
LINE
  8
0
 10
462.295
 20
140.46
 11
461.075
 21
139.472
  0
LINE
  8
0
 10
461.075
 20
139.472
 11
459.889
 21
138.442
  0
LINE
  8
0
 10
459.889
 20
138.442
 11
458.74
 21
137.37
  0
LINE
  8
0
 10
458.74
 20
137.37
 11
457.63
 21
136.26
  0
LINE
  8
0
 10
457.63
 20
136.26
 11
456.558
 21
135.111
  0
LINE
  8
0
 10
456.558
 20
135.111
 11
455.528
 21
133.925
  0
LINE
  8
0
 10
455.528
 20
133.925
 11
454.54
 21
132.705
  0
LINE
  8
0
 10
454.54
 20
132.705
 11
453.594
 21
131.45
  0
LINE
  8
0
 10
453.594
 20
131.45
 11
452.693
 21
130.164
  0
LINE
  8
0
 10
452.693
 20
130.164
 11
451.838
 21
128.846
  0
LINE
  8
0
 10
451.838
 20
128.846
 11
451.029
 21
127.5
  0
LINE
  8
0
 10
451.029
 20
127.5
 11
450.267
 21
126.126
  0
LINE
  8
0
 10
450.267
 20
126.126
 11
449.554
 21
124.727
  0
LINE
  8
0
 10
449.554
 20
124.727
 11
448.89
 21
123.303
  0
LINE
  8
0
 10
448.89
 20
123.303
 11
448.277
 21
121.857
  0
LINE
  8
0
 10
448.277
 20
121.857
 11
447.714
 21
120.391
  0
LINE
  8
0
 10
447.714
 20
120.391
 11
447.202
 21
118.906
  0
LINE
  8
0
 10
447.202
 20
118.906
 11
446.743
 21
117.404
  0
LINE
  8
0
 10
446.743
 20
117.404
 11
446.337
 21
115.886
  0
LINE
  8
0
 10
446.337
 20
115.886
 11
445.983
 21
114.356
  0
LINE
  8
0
 10
445.983
 20
114.356
 11
445.684
 21
112.814
  0
LINE
  8
0
 10
445.684
 20
112.814
 11
445.438
 21
111.263
  0
LINE
  8
0
 10
445.438
 20
111.263
 11
445.247
 21
109.704
  0
LINE
  8
0
 10
445.247
 20
109.704
 11
445.11
 21
108.139
  0
LINE
  8
0
 10
445.11
 20
108.139
 11
445.027
 21
106.57
  0
LINE
  8
0
 10
445.027
 20
106.57
 11
445
 21
105
  0
LINE
  8
0
 10
445
 20
105
 11
445
 21
95
  0
LINE
  8
0
 10
445
 20
95
 11
445.027
 21
93.4295
  0
LINE
  8
0
 10
445.027
 20
93.4295
 11
445.11
 21
91.861
  0
LINE
  8
0
 10
445.11
 20
91.861
 11
445.247
 21
90.2962
  0
LINE
  8
0
 10
445.247
 20
90.2962
 11
445.438
 21
88.7372
  0
LINE
  8
0
 10
445.438
 20
88.7372
 11
445.684
 21
87.1858
  0
LINE
  8
0
 10
445.684
 20
87.1858
 11
445.983
 21
85.644
  0
LINE
  8
0
 10
445.983
 20
85.644
 11
446.337
 21
84.1135
  0
LINE
  8
0
 10
446.337
 20
84.1135
 11
446.743
 21
82.5963
  0
LINE
  8
0
 10
446.743
 20
82.5963
 11
447.202
 21
81.0942
  0
LINE
  8
0
 10
447.202
 20
81.0942
 11
447.714
 21
79.6091
  0
LINE
  8
0
 10
447.714
 20
79.6091
 11
448.277
 21
78.1427
  0
LINE
  8
0
 10
448.277
 20
78.1427
 11
448.89
 21
76.6969
  0
LINE
  8
0
 10
448.89
 20
76.6969
 11
449.554
 21
75.2733
  0
LINE
  8
0
 10
449.554
 20
75.2733
 11
450.267
 21
73.8738
  0
LINE
  8
0
 10
450.267
 20
73.8738
 11
451.029
 21
72.5
  0
LINE
  8
0
 10
451.029
 20
72.5
 11
451.838
 21
71.1536
  0
LINE
  8
0
 10
451.838
 20
71.1536
 11
452.693
 21
69.8363
  0
LINE
  8
0
 10
452.693
 20
69.8363
 11
453.594
 21
68.5497
  0
LINE
  8
0
 10
453.594
 20
68.5497
 11
454.54
 21
67.2952
  0
LINE
  8
0
 10
454.54
 20
67.2952
 11
455.528
 21
66.0746
  0
LINE
  8
0
 10
455.528
 20
66.0746
 11
456.558
 21
64.8891
  0
LINE
  8
0
 10
456.558
 20
64.8891
 11
457.63
 21
63.7404
  0
LINE
  8
0
 10
457.63
 20
63.7404
 11
458.74
 21
62.6297
  0
LINE
  8
0
 10
458.74
 20
62.6297
 11
459.889
 21
61.5585
  0
LINE
  8
0
 10
459.889
 20
61.5585
 11
461.075
 21
60.528
  0
LINE
  8
0
 10
461.075
 20
60.528
 11
462.295
 21
59.5395
  0
LINE
  8
0
 10
462.295
 20
59.5395
 11
463.55
 21
58.5942
  0
LINE
  8
0
 10
463.55
 20
58.5942
 11
464.836
 21
57.6933
  0
LINE
  8
0
 10
464.836
 20
57.6933
 11
466.154
 21
56.8378
  0
LINE
  8
0
 10
466.154
 20
56.8378
 11
467.5
 21
56.0289
  0
LINE
  8
0
 10
467.5
 20
56.0289
 11
468.874
 21
55.2674
  0
LINE
  8
0
 10
468.874
 20
55.2674
 11
470.273
 21
54.5543
  0
LINE
  8
0
 10
470.273
 20
54.5543
 11
471.697
 21
53.8905
  0
LINE
  8
0
 10
471.697
 20
53.8905
 11
473.143
 21
53.2767
  0
LINE
  8
0
 10
473.143
 20
53.2767
 11
474.609
 21
52.7138
  0
LINE
  8
0
 10
474.609
 20
52.7138
 11
476.094
 21
52.2025
  0
LINE
  8
0
 10
476.094
 20
52.2025
 11
477.596
 21
51.7432
  0
LINE
  8
0
 10
477.596
 20
51.7432
 11
479.114
 21
51.3367
  0
LINE
  8
0
 10
479.114
 20
51.3367
 11
480.644
 21
50.9834
  0
LINE
  8
0
 10
480.644
 20
50.9834
 11
482.186
 21
50.6837
  0
LINE
  8
0
 10
482.186
 20
50.6837
 11
483.737
 21
50.4379
  0
LINE
  8
0
 10
483.737
 20
50.4379
 11
485.296
 21
50.2465
  0
LINE
  8
0
 10
485.296
 20
50.2465
 11
486.861
 21
50.1096
  0
LINE
  8
0
 10
486.861
 20
50.1096
 11
488.43
 21
50.0274
  0
LINE
  8
0
 10
488.43
 20
50.0274
 11
490
 21
50
  0
LINE
  8
0
 10
490
 20
50
 11
500
 21
50
  0
LINE
  8
0
 10
500
 20
50
 11
501.57
 21
50.0274
  0
LINE
  8
0
 10
494.291
 20
136.13
 11
493.503
 21
136.674
  0
LINE
  8
0
 10
493.503
 20
136.674
 11
493.058
 21
137.521
  0
LINE
  8
0
 10
493.058
 20
137.521
 11
493.058
 21
138.479
  0
LINE
  8
0
 10
493.058
 20
138.479
 11
493.503
 21
139.326
  0
LINE
  8
0
 10
493.503
 20
139.326
 11
494.291
 21
139.87
  0
LINE
  8
0
 10
494.291
 20
139.87
 11
495.241
 21
139.985
  0
LINE
  8
0
 10
495.241
 20
139.985
 11
496.136
 21
139.646
  0
LINE
  8
0
 10
496.136
 20
139.646
 11
496.771
 21
138.929
  0
LINE
  8
0
 10
496.771
 20
138.929
 11
497
 21
138
  0
LINE
  8
0
 10
497
 20
138
 11
496.771
 21
137.071
  0
LINE
  8
0
 10
496.771
 20
137.071
 11
496.136
 21
136.354
  0
LINE
  8
0
 10
496.136
 20
136.354
 11
495.241
 21
136.015
  0
LINE
  8
0
 10
495.241
 20
136.015
 11
494.291
 21
136.13
  0
LINE
  8
0
 10
512
 20
125
 11
512
 21
135
  0
LINE
  8
0
 10
512
 20
135
 11
518
 21
135
  0
LINE
  8
0
 10
518
 20
135
 11
518
 21
125
  0
LINE
  8
0
 10
518
 20
125
 11
512
 21
125
  0
LINE
  8
0
 10
472
 20
125
 11
472
 21
135
  0
LINE
  8
0
 10
472
 20
135
 11
478
 21
135
  0
LINE
  8
0
 10
478
 20
135
 11
478
 21
125
  0
LINE
  8
0
 10
478
 20
125
 11
472
 21
125
  0
LINE
  8
0
 10
460
 20
117
 11
460
 21
123
  0
LINE
  8
0
 10
460
 20
123
 11
470
 21
123
  0
LINE
  8
0
 10
470
 20
123
 11
470
 21
117
  0
LINE
  8
0
 10
470
 20
117
 11
460
 21
117
  0
LINE
  8
0
 10
490
 20
117
 11
490
 21
123
  0
LINE
  8
0
 10
490
 20
123
 11
500
 21
123
  0
LINE
  8
0
 10
500
 20
123
 11
500
 21
117
  0
LINE
  8
0
 10
500
 20
117
 11
490
 21
117
  0
LINE
  8
0
 10
520
 20
117
 11
520
 21
123
  0
LINE
  8
0
 10
520
 20
123
 11
530
 21
123
  0
LINE
  8
0
 10
530
 20
123
 11
530
 21
117
  0
LINE
  8
0
 10
530
 20
117
 11
520
 21
117
  0
LINE
  8
0
 10
494.505
 20
94.0205
 11
493.527
 21
94.1836
  0
LINE
  8
0
 10
493.527
 20
94.1836
 11
492.59
 21
94.5054
  0
LINE
  8
0
 10
492.59
 20
94.5054
 11
491.718
 21
94.977
  0
LINE
  8
0
 10
491.718
 20
94.977
 11
490.936
 21
95.5857
  0
LINE
  8
0
 10
490.936
 20
95.5857
 11
490.265
 21
96.3147
  0
LINE
  8
0
 10
490.265
 20
96.3147
 11
489.723
 21
97.1443
  0
LINE
  8
0
 10
489.723
 20
97.1443
 11
489.325
 21
98.0518
  0
LINE
  8
0
 10
489.325
 20
98.0518
 11
489.082
 21
99.0124
  0
LINE
  8
0
 10
489.082
 20
99.0124
 11
489
 21
100
  0
LINE
  8
0
 10
489
 20
100
 11
489.082
 21
100.988
  0
LINE
  8
0
 10
489.082
 20
100.988
 11
489.325
 21
101.948
  0
LINE
  8
0
 10
489.325
 20
101.948
 11
489.723
 21
102.856
  0
LINE
  8
0
 10
489.723
 20
102.856
 11
490.265
 21
103.685
  0
LINE
  8
0
 10
490.265
 20
103.685
 11
490.936
 21
104.414
  0
LINE
  8
0
 10
490.936
 20
104.414
 11
491.718
 21
105.023
  0
LINE
  8
0
 10
491.718
 20
105.023
 11
492.59
 21
105.495
  0
LINE
  8
0
 10
492.59
 20
105.495
 11
493.527
 21
105.816
  0
LINE
  8
0
 10
493.527
 20
105.816
 11
494.505
 21
105.979
  0
LINE
  8
0
 10
494.505
 20
105.979
 11
495.495
 21
105.979
  0
LINE
  8
0
 10
495.495
 20
105.979
 11
496.473
 21
105.816
  0
LINE
  8
0
 10
496.473
 20
105.816
 11
497.41
 21
105.495
  0
LINE
  8
0
 10
497.41
 20
105.495
 11
498.282
 21
105.023
  0
LINE
  8
0
 10
498.282
 20
105.023
 11
499.064
 21
104.414
  0
LINE
  8
0
 10
499.064
 20
104.414
 11
499.735
 21
103.685
  0
LINE
  8
0
 10
499.735
 20
103.685
 11
500.277
 21
102.856
  0
LINE
  8
0
 10
500.277
 20
102.856
 11
500.675
 21
101.948
  0
LINE
  8
0
 10
500.675
 20
101.948
 11
500.918
 21
100.988
  0
LINE
  8
0
 10
500.918
 20
100.988
 11
501
 21
100
  0
LINE
  8
0
 10
501
 20
100
 11
500.918
 21
99.0124
  0
LINE
  8
0
 10
500.918
 20
99.0124
 11
500.675
 21
98.0518
  0
LINE
  8
0
 10
500.675
 20
98.0518
 11
500.277
 21
97.1443
  0
LINE
  8
0
 10
500.277
 20
97.1443
 11
499.735
 21
96.3147
  0
LINE
  8
0
 10
499.735
 20
96.3147
 11
499.064
 21
95.5857
  0
LINE
  8
0
 10
499.064
 20
95.5857
 11
498.282
 21
94.977
  0
LINE
  8
0
 10
498.282
 20
94.977
 11
497.41
 21
94.5054
  0
LINE
  8
0
 10
497.41
 20
94.5054
 11
496.473
 21
94.1836
  0
LINE
  8
0
 10
496.473
 20
94.1836
 11
495.495
 21
94.0205
  0
LINE
  8
0
 10
495.495
 20
94.0205
 11
494.505
 21
94.0205
  0
LINE
  8
0
 10
512
 20
95
 11
512
 21
105
  0
LINE
  8
0
 10
512
 20
105
 11
518
 21
105
  0
LINE
  8
0
 10
518
 20
105
 11
518
 21
95
  0
LINE
  8
0
 10
518
 20
95
 11
512
 21
95
  0
LINE
  8
0
 10
472
 20
95
 11
472
 21
105
  0
LINE
  8
0
 10
472
 20
105
 11
478
 21
105
  0
LINE
  8
0
 10
478
 20
105
 11
478
 21
95
  0
LINE
  8
0
 10
478
 20
95
 11
472
 21
95
  0
LINE
  8
0
 10
532.291
 20
98.13
 11
531.503
 21
98.6738
  0
LINE
  8
0
 10
531.503
 20
98.6738
 11
531.058
 21
99.5214
  0
LINE
  8
0
 10
531.058
 20
99.5214
 11
531.058
 21
100.479
  0
LINE
  8
0
 10
531.058
 20
100.479
 11
531.503
 21
101.326
  0
LINE
  8
0
 10
531.503
 20
101.326
 11
532.291
 21
101.87
  0
LINE
  8
0
 10
532.291
 20
101.87
 11
533.241
 21
101.985
  0
LINE
  8
0
 10
533.241
 20
101.985
 11
534.136
 21
101.646
  0
LINE
  8
0
 10
534.136
 20
101.646
 11
534.771
 21
100.929
  0
LINE
  8
0
 10
534.771
 20
100.929
 11
535
 21
100
  0
LINE
  8
0
 10
535
 20
100
 11
534.771
 21
99.0706
  0
LINE
  8
0
 10
534.771
 20
99.0706
 11
534.136
 21
98.354
  0
LINE
  8
0
 10
534.136
 20
98.354
 11
533.241
 21
98.0146
  0
LINE
  8
0
 10
533.241
 20
98.0146
 11
532.291
 21
98.13
  0
LINE
  8
0
 10
456.291
 20
98.13
 11
455.503
 21
98.6738
  0
LINE
  8
0
 10
455.503
 20
98.6738
 11
455.058
 21
99.5214
  0
LINE
  8
0
 10
455.058
 20
99.5214
 11
455.058
 21
100.479
  0
LINE
  8
0
 10
455.058
 20
100.479
 11
455.503
 21
101.326
  0
LINE
  8
0
 10
455.503
 20
101.326
 11
456.291
 21
101.87
  0
LINE
  8
0
 10
456.291
 20
101.87
 11
457.241
 21
101.985
  0
LINE
  8
0
 10
457.241
 20
101.985
 11
458.136
 21
101.646
  0
LINE
  8
0
 10
458.136
 20
101.646
 11
458.771
 21
100.929
  0
LINE
  8
0
 10
458.771
 20
100.929
 11
459
 21
100
  0
LINE
  8
0
 10
459
 20
100
 11
458.771
 21
99.0706
  0
LINE
  8
0
 10
458.771
 20
99.0706
 11
458.136
 21
98.354
  0
LINE
  8
0
 10
458.136
 20
98.354
 11
457.241
 21
98.0146
  0
LINE
  8
0
 10
457.241
 20
98.0146
 11
456.291
 21
98.13
  0
LINE
  8
0
 10
490
 20
77
 11
490
 21
83
  0
LINE
  8
0
 10
490
 20
83
 11
500
 21
83
  0
LINE
  8
0
 10
500
 20
83
 11
500
 21
77
  0
LINE
  8
0
 10
500
 20
77
 11
490
 21
77
  0
LINE
  8
0
 10
460
 20
77
 11
460
 21
83
  0
LINE
  8
0
 10
460
 20
83
 11
470
 21
83
  0
LINE
  8
0
 10
470
 20
83
 11
470
 21
77
  0
LINE
  8
0
 10
470
 20
77
 11
460
 21
77
  0
LINE
  8
0
 10
520
 20
77
 11
520
 21
83
  0
LINE
  8
0
 10
520
 20
83
 11
530
 21
83
  0
LINE
  8
0
 10
530
 20
83
 11
530
 21
77
  0
LINE
  8
0
 10
530
 20
77
 11
520
 21
77
  0
LINE
  8
0
 10
512
 20
65
 11
512
 21
75
  0
LINE
  8
0
 10
512
 20
75
 11
518
 21
75
  0
LINE
  8
0
 10
518
 20
75
 11
518
 21
65
  0
LINE
  8
0
 10
518
 20
65
 11
512
 21
65
  0
LINE
  8
0
 10
472
 20
65
 11
472
 21
75
  0
LINE
  8
0
 10
472
 20
75
 11
478
 21
75
  0
LINE
  8
0
 10
478
 20
75
 11
478
 21
65
  0
LINE
  8
0
 10
478
 20
65
 11
472
 21
65
  0
LINE
  8
0
 10
494.291
 20
60.13
 11
493.503
 21
60.6738
  0
LINE
  8
0
 10
493.503
 20
60.6738
 11
493.058
 21
61.5214
  0
LINE
  8
0
 10
493.058
 20
61.5214
 11
493.058
 21
62.4786
  0
LINE
  8
0
 10
493.058
 20
62.4786
 11
493.503
 21
63.3262
  0
LINE
  8
0
 10
493.503
 20
63.3262
 11
494.291
 21
63.87
  0
LINE
  8
0
 10
494.291
 20
63.87
 11
495.241
 21
63.9854
  0
LINE
  8
0
 10
495.241
 20
63.9854
 11
496.136
 21
63.646
  0
LINE
  8
0
 10
496.136
 20
63.646
 11
496.771
 21
62.9295
  0
LINE
  8
0
 10
496.771
 20
62.9295
 11
497
 21
62
  0
LINE
  8
0
 10
497
 20
62
 11
496.771
 21
61.0706
  0
LINE
  8
0
 10
496.771
 20
61.0706
 11
496.136
 21
60.354
  0
LINE
  8
0
 10
496.136
 20
60.354
 11
495.241
 21
60.0146
  0
LINE
  8
0
 10
495.241
 20
60.0146
 11
494.291
 21
60.13
  0
LINE
  8
0
 10
396.57
 20
50.0274
 11
398.139
 21
50.1096
  0
LINE
  8
0
 10
398.139
 20
50.1096
 11
399.704
 21
50.2465
  0
LINE
  8
0
 10
399.704
 20
50.2465
 11
401.263
 21
50.4379
  0
LINE
  8
0
 10
401.263
 20
50.4379
 11
402.814
 21
50.6837
  0
LINE
  8
0
 10
402.814
 20
50.6837
 11
404.356
 21
50.9834
  0
LINE
  8
0
 10
404.356
 20
50.9834
 11
405.886
 21
51.3367
  0
LINE
  8
0
 10
405.886
 20
51.3367
 11
407.404
 21
51.7432
  0
LINE
  8
0
 10
407.404
 20
51.7432
 11
408.906
 21
52.2025
  0
LINE
  8
0
 10
408.906
 20
52.2025
 11
410.391
 21
52.7138
  0
LINE
  8
0
 10
410.391
 20
52.7138
 11
411.857
 21
53.2767
  0
LINE
  8
0
 10
411.857
 20
53.2767
 11
413.303
 21
53.8905
  0
LINE
  8
0
 10
413.303
 20
53.8905
 11
414.727
 21
54.5543
  0
LINE
  8
0
 10
414.727
 20
54.5543
 11
416.126
 21
55.2674
  0
LINE
  8
0
 10
416.126
 20
55.2674
 11
417.5
 21
56.0289
  0
LINE
  8
0
 10
417.5
 20
56.0289
 11
418.846
 21
56.8378
  0
LINE
  8
0
 10
418.846
 20
56.8378
 11
420.164
 21
57.6933
  0
LINE
  8
0
 10
420.164
 20
57.6933
 11
421.45
 21
58.5942
  0
LINE
  8
0
 10
421.45
 20
58.5942
 11
422.705
 21
59.5395
  0
LINE
  8
0
 10
422.705
 20
59.5395
 11
423.925
 21
60.528
  0
LINE
  8
0
 10
423.925
 20
60.528
 11
425.111
 21
61.5585
  0
LINE
  8
0
 10
425.111
 20
61.5585
 11
426.26
 21
62.6297
  0
LINE
  8
0
 10
426.26
 20
62.6297
 11
427.37
 21
63.7404
  0
LINE
  8
0
 10
427.37
 20
63.7404
 11
428.442
 21
64.8891
  0
LINE
  8
0
 10
428.442
 20
64.8891
 11
429.472
 21
66.0746
  0
LINE
  8
0
 10
429.472
 20
66.0746
 11
430.46
 21
67.2952
  0
LINE
  8
0
 10
430.46
 20
67.2952
 11
431.406
 21
68.5497
  0
LINE
  8
0
 10
431.406
 20
68.5497
 11
432.307
 21
69.8363
  0
LINE
  8
0
 10
432.307
 20
69.8363
 11
433.162
 21
71.1536
  0
LINE
  8
0
 10
433.162
 20
71.1536
 11
433.971
 21
72.5
  0
LINE
  8
0
 10
433.971
 20
72.5
 11
434.733
 21
73.8738
  0
LINE
  8
0
 10
434.733
 20
73.8738
 11
435.446
 21
75.2733
  0
LINE
  8
0
 10
435.446
 20
75.2733
 11
436.11
 21
76.6969
  0
LINE
  8
0
 10
436.11
 20
76.6969
 11
436.723
 21
78.1427
  0
LINE
  8
0
 10
436.723
 20
78.1427
 11
437.286
 21
79.6091
  0
LINE
  8
0
 10
437.286
 20
79.6091
 11
437.798
 21
81.0942
  0
LINE
  8
0
 10
437.798
 20
81.0942
 11
438.257
 21
82.5963
  0
LINE
  8
0
 10
438.257
 20
82.5963
 11
438.663
 21
84.1135
  0
LINE
  8
0
 10
438.663
 20
84.1135
 11
439.017
 21
85.644
  0
LINE
  8
0
 10
439.017
 20
85.644
 11
439.316
 21
87.1858
  0
LINE
  8
0
 10
439.316
 20
87.1858
 11
439.562
 21
88.7372
  0
LINE
  8
0
 10
439.562
 20
88.7372
 11
439.753
 21
90.2962
  0
LINE
  8
0
 10
439.753
 20
90.2962
 11
439.89
 21
91.861
  0
LINE
  8
0
 10
439.89
 20
91.861
 11
439.973
 21
93.4295
  0
LINE
  8
0
 10
439.973
 20
93.4295
 11
440
 21
95
  0
LINE
  8
0
 10
440
 20
95
 11
440
 21
105
  0
LINE
  8
0
 10
440
 20
105
 11
439.973
 21
106.57
  0
LINE
  8
0
 10
439.973
 20
106.57
 11
439.89
 21
108.139
  0
LINE
  8
0
 10
439.89
 20
108.139
 11
439.753
 21
109.704
  0
LINE
  8
0
 10
439.753
 20
109.704
 11
439.562
 21
111.263
  0
LINE
  8
0
 10
439.562
 20
111.263
 11
439.316
 21
112.814
  0
LINE
  8
0
 10
439.316
 20
112.814
 11
439.017
 21
114.356
  0
LINE
  8
0
 10
439.017
 20
114.356
 11
438.663
 21
115.886
  0
LINE
  8
0
 10
438.663
 20
115.886
 11
438.257
 21
117.404
  0
LINE
  8
0
 10
438.257
 20
117.404
 11
437.798
 21
118.906
  0
LINE
  8
0
 10
437.798
 20
118.906
 11
437.286
 21
120.391
  0
LINE
  8
0
 10
437.286
 20
120.391
 11
436.723
 21
121.857
  0
LINE
  8
0
 10
436.723
 20
121.857
 11
436.11
 21
123.303
  0
LINE
  8
0
 10
436.11
 20
123.303
 11
435.446
 21
124.727
  0
LINE
  8
0
 10
435.446
 20
124.727
 11
434.733
 21
126.126
  0
LINE
  8
0
 10
434.733
 20
126.126
 11
433.971
 21
127.5
  0
LINE
  8
0
 10
433.971
 20
127.5
 11
433.162
 21
128.846
  0
LINE
  8
0
 10
433.162
 20
128.846
 11
432.307
 21
130.164
  0
LINE
  8
0
 10
432.307
 20
130.164
 11
431.406
 21
131.45
  0
LINE
  8
0
 10
431.406
 20
131.45
 11
430.46
 21
132.705
  0
LINE
  8
0
 10
430.46
 20
132.705
 11
429.472
 21
133.925
  0
LINE
  8
0
 10
429.472
 20
133.925
 11
428.442
 21
135.111
  0
LINE
  8
0
 10
428.442
 20
135.111
 11
427.37
 21
136.26
  0
LINE
  8
0
 10
427.37
 20
136.26
 11
426.26
 21
137.37
  0
LINE
  8
0
 10
426.26
 20
137.37
 11
425.111
 21
138.442
  0
LINE
  8
0
 10
425.111
 20
138.442
 11
423.925
 21
139.472
  0
LINE
  8
0
 10
423.925
 20
139.472
 11
422.705
 21
140.46
  0
LINE
  8
0
 10
422.705
 20
140.46
 11
421.45
 21
141.406
  0
LINE
  8
0
 10
421.45
 20
141.406
 11
420.164
 21
142.307
  0
LINE
  8
0
 10
420.164
 20
142.307
 11
418.846
 21
143.162
  0
LINE
  8
0
 10
418.846
 20
143.162
 11
417.5
 21
143.971
  0
LINE
  8
0
 10
417.5
 20
143.971
 11
416.126
 21
144.733
  0
LINE
  8
0
 10
416.126
 20
144.733
 11
414.727
 21
145.446
  0
LINE
  8
0
 10
414.727
 20
145.446
 11
413.303
 21
146.11
  0
LINE
  8
0
 10
413.303
 20
146.11
 11
411.857
 21
146.723
  0
LINE
  8
0
 10
411.857
 20
146.723
 11
410.391
 21
147.286
  0
LINE
  8
0
 10
410.391
 20
147.286
 11
408.906
 21
147.798
  0
LINE
  8
0
 10
408.906
 20
147.798
 11
407.404
 21
148.257
  0
LINE
  8
0
 10
407.404
 20
148.257
 11
405.886
 21
148.663
  0
LINE
  8
0
 10
405.886
 20
148.663
 11
404.356
 21
149.017
  0
LINE
  8
0
 10
404.356
 20
149.017
 11
402.814
 21
149.316
  0
LINE
  8
0
 10
402.814
 20
149.316
 11
401.263
 21
149.562
  0
LINE
  8
0
 10
401.263
 20
149.562
 11
399.704
 21
149.753
  0
LINE
  8
0
 10
399.704
 20
149.753
 11
398.139
 21
149.89
  0
LINE
  8
0
 10
398.139
 20
149.89
 11
396.57
 21
149.973
  0
LINE
  8
0
 10
396.57
 20
149.973
 11
395
 21
150
  0
LINE
  8
0
 10
395
 20
150
 11
385
 21
150
  0
LINE
  8
0
 10
385
 20
150
 11
383.43
 21
149.973
  0
LINE
  8
0
 10
383.43
 20
149.973
 11
381.861
 21
149.89
  0
LINE
  8
0
 10
381.861
 20
149.89
 11
380.296
 21
149.753
  0
LINE
  8
0
 10
380.296
 20
149.753
 11
378.737
 21
149.562
  0
LINE
  8
0
 10
378.737
 20
149.562
 11
377.186
 21
149.316
  0
LINE
  8
0
 10
377.186
 20
149.316
 11
375.644
 21
149.017
  0
LINE
  8
0
 10
375.644
 20
149.017
 11
374.114
 21
148.663
  0
LINE
  8
0
 10
374.114
 20
148.663
 11
372.596
 21
148.257
  0
LINE
  8
0
 10
372.596
 20
148.257
 11
371.094
 21
147.798
  0
LINE
  8
0
 10
371.094
 20
147.798
 11
369.609
 21
147.286
  0
LINE
  8
0
 10
369.609
 20
147.286
 11
368.143
 21
146.723
  0
LINE
  8
0
 10
368.143
 20
146.723
 11
366.697
 21
146.11
  0
LINE
  8
0
 10
366.697
 20
146.11
 11
365.273
 21
145.446
  0
LINE
  8
0
 10
365.273
 20
145.446
 11
363.874
 21
144.733
  0
LINE
  8
0
 10
363.874
 20
144.733
 11
362.5
 21
143.971
  0
LINE
  8
0
 10
362.5
 20
143.971
 11
361.154
 21
143.162
  0
LINE
  8
0
 10
361.154
 20
143.162
 11
359.836
 21
142.307
  0
LINE
  8
0
 10
359.836
 20
142.307
 11
358.55
 21
141.406
  0
LINE
  8
0
 10
358.55
 20
141.406
 11
357.295
 21
140.46
  0
LINE
  8
0
 10
357.295
 20
140.46
 11
356.075
 21
139.472
  0
LINE
  8
0
 10
356.075
 20
139.472
 11
354.889
 21
138.442
  0
LINE
  8
0
 10
354.889
 20
138.442
 11
353.74
 21
137.37
  0
LINE
  8
0
 10
353.74
 20
137.37
 11
352.63
 21
136.26
  0
LINE
  8
0
 10
352.63
 20
136.26
 11
351.558
 21
135.111
  0
LINE
  8
0
 10
351.558
 20
135.111
 11
350.528
 21
133.925
  0
LINE
  8
0
 10
350.528
 20
133.925
 11
349.54
 21
132.705
  0
LINE
  8
0
 10
349.54
 20
132.705
 11
348.594
 21
131.45
  0
LINE
  8
0
 10
348.594
 20
131.45
 11
347.693
 21
130.164
  0
LINE
  8
0
 10
347.693
 20
130.164
 11
346.838
 21
128.846
  0
LINE
  8
0
 10
346.838
 20
128.846
 11
346.029
 21
127.5
  0
LINE
  8
0
 10
346.029
 20
127.5
 11
345.267
 21
126.126
  0
LINE
  8
0
 10
345.267
 20
126.126
 11
344.554
 21
124.727
  0
LINE
  8
0
 10
344.554
 20
124.727
 11
343.89
 21
123.303
  0
LINE
  8
0
 10
343.89
 20
123.303
 11
343.277
 21
121.857
  0
LINE
  8
0
 10
343.277
 20
121.857
 11
342.714
 21
120.391
  0
LINE
  8
0
 10
342.714
 20
120.391
 11
342.202
 21
118.906
  0
LINE
  8
0
 10
342.202
 20
118.906
 11
341.743
 21
117.404
  0
LINE
  8
0
 10
341.743
 20
117.404
 11
341.337
 21
115.886
  0
LINE
  8
0
 10
341.337
 20
115.886
 11
340.983
 21
114.356
  0
LINE
  8
0
 10
340.983
 20
114.356
 11
340.684
 21
112.814
  0
LINE
  8
0
 10
340.684
 20
112.814
 11
340.438
 21
111.263
  0
LINE
  8
0
 10
340.438
 20
111.263
 11
340.247
 21
109.704
  0
LINE
  8
0
 10
340.247
 20
109.704
 11
340.11
 21
108.139
  0
LINE
  8
0
 10
340.11
 20
108.139
 11
340.027
 21
106.57
  0
LINE
  8
0
 10
340.027
 20
106.57
 11
340
 21
105
  0
LINE
  8
0
 10
340
 20
105
 11
340
 21
95
  0
LINE
  8
0
 10
340
 20
95
 11
340.027
 21
93.4295
  0
LINE
  8
0
 10
340.027
 20
93.4295
 11
340.11
 21
91.861
  0
LINE
  8
0
 10
340.11
 20
91.861
 11
340.247
 21
90.2962
  0
LINE
  8
0
 10
340.247
 20
90.2962
 11
340.438
 21
88.7372
  0
LINE
  8
0
 10
340.438
 20
88.7372
 11
340.684
 21
87.1858
  0
LINE
  8
0
 10
340.684
 20
87.1858
 11
340.983
 21
85.644
  0
LINE
  8
0
 10
340.983
 20
85.644
 11
341.337
 21
84.1135
  0
LINE
  8
0
 10
341.337
 20
84.1135
 11
341.743
 21
82.5963
  0
LINE
  8
0
 10
341.743
 20
82.5963
 11
342.202
 21
81.0942
  0
LINE
  8
0
 10
342.202
 20
81.0942
 11
342.714
 21
79.6091
  0
LINE
  8
0
 10
342.714
 20
79.6091
 11
343.277
 21
78.1427
  0
LINE
  8
0
 10
343.277
 20
78.1427
 11
343.89
 21
76.6969
  0
LINE
  8
0
 10
343.89
 20
76.6969
 11
344.554
 21
75.2733
  0
LINE
  8
0
 10
344.554
 20
75.2733
 11
345.267
 21
73.8738
  0
LINE
  8
0
 10
345.267
 20
73.8738
 11
346.029
 21
72.5
  0
LINE
  8
0
 10
346.029
 20
72.5
 11
346.838
 21
71.1536
  0
LINE
  8
0
 10
346.838
 20
71.1536
 11
347.693
 21
69.8363
  0
LINE
  8
0
 10
347.693
 20
69.8363
 11
348.594
 21
68.5497
  0
LINE
  8
0
 10
348.594
 20
68.5497
 11
349.54
 21
67.2952
  0
LINE
  8
0
 10
349.54
 20
67.2952
 11
350.528
 21
66.0746
  0
LINE
  8
0
 10
350.528
 20
66.0746
 11
351.558
 21
64.8891
  0
LINE
  8
0
 10
351.558
 20
64.8891
 11
352.63
 21
63.7404
  0
LINE
  8
0
 10
352.63
 20
63.7404
 11
353.74
 21
62.6297
  0
LINE
  8
0
 10
353.74
 20
62.6297
 11
354.889
 21
61.5585
  0
LINE
  8
0
 10
354.889
 20
61.5585
 11
356.075
 21
60.528
  0
LINE
  8
0
 10
356.075
 20
60.528
 11
357.295
 21
59.5395
  0
LINE
  8
0
 10
357.295
 20
59.5395
 11
358.55
 21
58.5942
  0
LINE
  8
0
 10
358.55
 20
58.5942
 11
359.836
 21
57.6933
  0
LINE
  8
0
 10
359.836
 20
57.6933
 11
361.154
 21
56.8378
  0
LINE
  8
0
 10
361.154
 20
56.8378
 11
362.5
 21
56.0289
  0
LINE
  8
0
 10
362.5
 20
56.0289
 11
363.874
 21
55.2674
  0
LINE
  8
0
 10
363.874
 20
55.2674
 11
365.273
 21
54.5543
  0
LINE
  8
0
 10
365.273
 20
54.5543
 11
366.697
 21
53.8905
  0
LINE
  8
0
 10
366.697
 20
53.8905
 11
368.143
 21
53.2767
  0
LINE
  8
0
 10
368.143
 20
53.2767
 11
369.609
 21
52.7138
  0
LINE
  8
0
 10
369.609
 20
52.7138
 11
371.094
 21
52.2025
  0
LINE
  8
0
 10
371.094
 20
52.2025
 11
372.596
 21
51.7432
  0
LINE
  8
0
 10
372.596
 20
51.7432
 11
374.114
 21
51.3367
  0
LINE
  8
0
 10
374.114
 20
51.3367
 11
375.644
 21
50.9834
  0
LINE
  8
0
 10
375.644
 20
50.9834
 11
377.186
 21
50.6837
  0
LINE
  8
0
 10
377.186
 20
50.6837
 11
378.737
 21
50.4379
  0
LINE
  8
0
 10
378.737
 20
50.4379
 11
380.296
 21
50.2465
  0
LINE
  8
0
 10
380.296
 20
50.2465
 11
381.861
 21
50.1096
  0
LINE
  8
0
 10
381.861
 20
50.1096
 11
383.43
 21
50.0274
  0
LINE
  8
0
 10
383.43
 20
50.0274
 11
385
 21
50
  0
LINE
  8
0
 10
385
 20
50
 11
395
 21
50
  0
LINE
  8
0
 10
395
 20
50
 11
396.57
 21
50.0274
  0
LINE
  8
0
 10
389.291
 20
136.13
 11
388.503
 21
136.674
  0
LINE
  8
0
 10
388.503
 20
136.674
 11
388.058
 21
137.521
  0
LINE
  8
0
 10
388.058
 20
137.521
 11
388.058
 21
138.479
  0
LINE
  8
0
 10
388.058
 20
138.479
 11
388.503
 21
139.326
  0
LINE
  8
0
 10
388.503
 20
139.326
 11
389.291
 21
139.87
  0
LINE
  8
0
 10
389.291
 20
139.87
 11
390.241
 21
139.985
  0
LINE
  8
0
 10
390.241
 20
139.985
 11
391.136
 21
139.646
  0
LINE
  8
0
 10
391.136
 20
139.646
 11
391.771
 21
138.929
  0
LINE
  8
0
 10
391.771
 20
138.929
 11
392
 21
138
  0
LINE
  8
0
 10
392
 20
138
 11
391.771
 21
137.071
  0
LINE
  8
0
 10
391.771
 20
137.071
 11
391.136
 21
136.354
  0
LINE
  8
0
 10
391.136
 20
136.354
 11
390.241
 21
136.015
  0
LINE
  8
0
 10
390.241
 20
136.015
 11
389.291
 21
136.13
  0
LINE
  8
0
 10
375
 20
85
 11
375
 21
115
  0
LINE
  8
0
 10
375
 20
115
 11
405
 21
115
  0
LINE
  8
0
 10
405
 20
115
 11
405
 21
85
  0
LINE
  8
0
 10
405
 20
85
 11
375
 21
85
  0
LINE
  8
0
 10
427.291
 20
98.13
 11
426.503
 21
98.6738
  0
LINE
  8
0
 10
426.503
 20
98.6738
 11
426.058
 21
99.5214
  0
LINE
  8
0
 10
426.058
 20
99.5214
 11
426.058
 21
100.479
  0
LINE
  8
0
 10
426.058
 20
100.479
 11
426.503
 21
101.326
  0
LINE
  8
0
 10
426.503
 20
101.326
 11
427.291
 21
101.87
  0
LINE
  8
0
 10
427.291
 20
101.87
 11
428.241
 21
101.985
  0
LINE
  8
0
 10
428.241
 20
101.985
 11
429.136
 21
101.646
  0
LINE
  8
0
 10
429.136
 20
101.646
 11
429.771
 21
100.929
  0
LINE
  8
0
 10
429.771
 20
100.929
 11
430
 21
100
  0
LINE
  8
0
 10
430
 20
100
 11
429.771
 21
99.0706
  0
LINE
  8
0
 10
429.771
 20
99.0706
 11
429.136
 21
98.354
  0
LINE
  8
0
 10
429.136
 20
98.354
 11
428.241
 21
98.0146
  0
LINE
  8
0
 10
428.241
 20
98.0146
 11
427.291
 21
98.13
  0
LINE
  8
0
 10
351.291
 20
98.13
 11
350.503
 21
98.6738
  0
LINE
  8
0
 10
350.503
 20
98.6738
 11
350.058
 21
99.5214
  0
LINE
  8
0
 10
350.058
 20
99.5214
 11
350.058
 21
100.479
  0
LINE
  8
0
 10
350.058
 20
100.479
 11
350.503
 21
101.326
  0
LINE
  8
0
 10
350.503
 20
101.326
 11
351.291
 21
101.87
  0
LINE
  8
0
 10
351.291
 20
101.87
 11
352.241
 21
101.985
  0
LINE
  8
0
 10
352.241
 20
101.985
 11
353.136
 21
101.646
  0
LINE
  8
0
 10
353.136
 20
101.646
 11
353.771
 21
100.929
  0
LINE
  8
0
 10
353.771
 20
100.929
 11
354
 21
100
  0
LINE
  8
0
 10
354
 20
100
 11
353.771
 21
99.0706
  0
LINE
  8
0
 10
353.771
 20
99.0706
 11
353.136
 21
98.354
  0
LINE
  8
0
 10
353.136
 20
98.354
 11
352.241
 21
98.0146
  0
LINE
  8
0
 10
352.241
 20
98.0146
 11
351.291
 21
98.13
  0
LINE
  8
0
 10
389.291
 20
60.13
 11
388.503
 21
60.6738
  0
LINE
  8
0
 10
388.503
 20
60.6738
 11
388.058
 21
61.5214
  0
LINE
  8
0
 10
388.058
 20
61.5214
 11
388.058
 21
62.4786
  0
LINE
  8
0
 10
388.058
 20
62.4786
 11
388.503
 21
63.3262
  0
LINE
  8
0
 10
388.503
 20
63.3262
 11
389.291
 21
63.87
  0
LINE
  8
0
 10
389.291
 20
63.87
 11
390.241
 21
63.9854
  0
LINE
  8
0
 10
390.241
 20
63.9854
 11
391.136
 21
63.646
  0
LINE
  8
0
 10
391.136
 20
63.646
 11
391.771
 21
62.9295
  0
LINE
  8
0
 10
391.771
 20
62.9295
 11
392
 21
62
  0
LINE
  8
0
 10
392
 20
62
 11
391.771
 21
61.0706
  0
LINE
  8
0
 10
391.771
 20
61.0706
 11
391.136
 21
60.354
  0
LINE
  8
0
 10
391.136
 20
60.354
 11
390.241
 21
60.0146
  0
LINE
  8
0
 10
390.241
 20
60.0146
 11
389.291
 21
60.13
  0
ENDSEC
  0
SECTION
  2
OBJECTS
  0
DICTIONARY
  0
ENDSEC
  0
EOF
