  0
SECTION
  2
HEADER
  9
$ACADVER
  1
AC1009
  9
$DWGCODEPAGE
  3
ansi_1252
  9
$INSBASE
 10
0.0
 20
0.0
 30
0.0
  9
$EXTMIN
 10
1954.25698706291
 20
3962.301774272411
 30
0.0
  9
$EXTMAX
 10
2372.132775268793
 20
4566.209553115079
 30
0.0
  9
$LIMMIN
 10
0.0
 20
0.0
  9
$LIMMAX
 10
12.0
 20
9.0
  9
$ORTHOMODE
 70
     0
  9
$REGENMODE
 70
     1
  9
$FILLMODE
 70
     1
  9
$QTEXTMODE
 70
     0
  9
$MIRRTEXT
 70
     1
  9
$DRAGMODE
 70
     2
  9
$LTSCALE
 40
1.0
  9
$OSMODE
 70
    37
  9
$ATTMODE
 70
     1
  9
$TEXTSIZE
 40
0.2
  9
$TRACEWID
 40
0.05
  9
$TEXTSTYLE
  7
STANDARD
  9
$CLAYER
  8
0
  9
$CELTYPE
  6
BYLAYER
  9
$CECOLOR
 62
   256
  9
$DIMSCALE
 40
1.0
  9
$DIMASZ
 40
0.18
  9
$DIMEXO
 40
0.0625
  9
$DIMDLI
 40
0.38
  9
$DIMRND
 40
0.0
  9
$DIMDLE
 40
0.0
  9
$DIMEXE
 40
0.18
  9
$DIMTP
 40
0.0
  9
$DIMTM
 40
0.0
  9
$DIMTXT
 40
0.18
  9
$DIMCEN
 40
0.09
  9
$DIMTSZ
 40
0.0
  9
$DIMTOL
 70
     0
  9
$DIMLIM
 70
     0
  9
$DIMTIH
 70
     1
  9
$DIMTOH
 70
     1
  9
$DIMSE1
 70
     0
  9
$DIMSE2
 70
     0
  9
$DIMTAD
 70
     0
  9
$DIMZIN
 70
     0
  9
$DIMBLK
  1

  9
$DIMASO
 70
     1
  9
$DIMSHO
 70
     1
  9
$DIMPOST
  1

  9
$DIMAPOST
  1

  9
$DIMALT
 70
     0
  9
$DIMALTD
 70
     2
  9
$DIMALTF
 40
25.4
  9
$DIMLFAC
 40
1.0
  9
$DIMTOFL
 70
     0
  9
$DIMTVP
 40
0.0
  9
$DIMTIX
 70
     0
  9
$DIMSOXD
 70
     0
  9
$DIMSAH
 70
     0
  9
$DIMBLK1
  1

  9
$DIMBLK2
  1

  9
$DIMSTYLE
  2
STANDARD
  9
$DIMCLRD
 70
     0
  9
$DIMCLRE
 70
     0
  9
$DIMCLRT
 70
     0
  9
$DIMTFAC
 40
1.0
  9
$DIMGAP
 40
0.09
  9
$LUNITS
 70
     2
  9
$LUPREC
 70
     4
  9
$SKETCHINC
 40
0.1
  9
$FILLETRAD
 40
0.5
  9
$AUNITS
 70
     0
  9
$AUPREC
 70
     0
  9
$MENU
  1
.
  9
$ELEVATION
 40
0.0
  9
$PELEVATION
 40
0.0
  9
$THICKNESS
 40
0.0
  9
$LIMCHECK
 70
     0
  9
$CHAMFERA
 40
0.0
  9
$CHAMFERB
 40
0.0
  9
$SKPOLY
 70
     0
  9
$TDCREATE
 40
2454910.5
  9
$TDUPDATE
 40
2457873.751535289
  9
$TDINDWG
 40
0.0000000116
  9
$TDUSRTIMER
 40
0.0000000116
  9
$USRTIMER
 70
     1
  9
$ANGBASE
 50
0.0
  9
$ANGDIR
 70
     0
  9
$PDMODE
 70
     0
  9
$PDSIZE
 40
0.0
  9
$PLINEWID
 40
0.0
  9
$COORDS
 70
     1
  9
$SPLFRAME
 70
     0
  9
$SPLINETYPE
 70
     6
  9
$SPLINESEGS
 70
     8
  9
$ATTDIA
 70
     0
  9
$ATTREQ
 70
     1
  9
$HANDLING
 70
     1
  9
$HANDSEED
  5
167
  9
$SURFTAB1
 70
     6
  9
$SURFTAB2
 70
     6
  9
$SURFTYPE
 70
     6
  9
$SURFU
 70
     6
  9
$SURFV
 70
     6
  9
$UCSNAME
  2

  9
$UCSORG
 10
0.0
 20
0.0
 30
0.0
  9
$UCSXDIR
 10
1.0
 20
0.0
 30
0.0
  9
$UCSYDIR
 10
0.0
 20
1.0
 30
0.0
  9
$PUCSNAME
  2

  9
$PUCSORG
 10
0.0
 20
0.0
 30
0.0
  9
$PUCSXDIR
 10
1.0
 20
0.0
 30
0.0
  9
$PUCSYDIR
 10
0.0
 20
1.0
 30
0.0
  9
$USERI1
 70
     0
  9
$USERI2
 70
     0
  9
$USERI3
 70
     0
  9
$USERI4
 70
     0
  9
$USERI5
 70
     0
  9
$USERR1
 40
0.0
  9
$USERR2
 40
0.0
  9
$USERR3
 40
0.0
  9
$USERR4
 40
0.0
  9
$USERR5
 40
0.0
  9
$WORLDVIEW
 70
     1
  9
$SHADEDGE
 70
     3
  9
$SHADEDIF
 70
    70
  9
$TILEMODE
 70
     1
  9
$MAXACTVP
 70
    64
  9
$PLIMCHECK
 70
     0
  9
$PEXTMIN
 10
1.000000000000000E+20
 20
1.000000000000000E+20
 30
1.000000000000000E+20
  9
$PEXTMAX
 10
-1.000000000000000E+20
 20
-1.000000000000000E+20
 30
-1.000000000000000E+20
  9
$PLIMMIN
 10
0.0
 20
0.0
  9
$PLIMMAX
 10
12.0
 20
9.0
  9
$UNITMODE
 70
     0
  9
$VISRETAIN
 70
     1
  9
$PLINEGEN
 70
     0
  9
$PSLTSCALE
 70
     1
  0
ENDSEC
  0
SECTION
  2
TABLES
  0
TABLE
  2
VPORT
 70
     1
  0
VPORT
  2
*ACTIVE
 70
     0
 10
0.0
 20
0.0
 11
1.0
 21
1.0
 12
10.42990654205607
 22
4.5
 13
0.0
 23
0.0
 14
0.5
 24
0.5
 15
0.5
 25
0.5
 16
0.0
 26
0.0
 36
1.0
 17
0.0
 27
0.0
 37
0.0
 40
9.0
 41
1.972972972850329
 42
50.0
 43
0.0
 44
0.0
 50
0.0
 51
0.0
 71
     0
 72
   100
 73
     1
 74
     3
 75
     0
 76
     0
 77
     0
 78
     0
  0
ENDTAB
  0
TABLE
  2
LTYPE
 70
     2
  0
LTYPE
  2
CONTINUOUS
 70
     0
  3
Solid line
 72
    65
 73
     0
 40
0.0
  0
LTYPE
  2
CONTINUOUS2
 70
     0
  3
Solid Line
 72
    65
 73
     0
 40
0.0
  0
ENDTAB
  0
TABLE
  2
LAYER
 70
     1
  0
LAYER
  2
0
 70
     0
 62
     7
  6
CONTINUOUS
  0
ENDTAB
  0
TABLE
  2
STYLE
 70
     1
  0
STYLE
  2
STANDARD
 70
     0
 40
0.0
 41
1.0
 50
0.0
 71
     0
 42
0.2
  3
txt
  4

  0
ENDTAB
  0
TABLE
  2
VIEW
 70
     0
  0
ENDTAB
  0
TABLE
  2
UCS
 70
     0
  0
ENDTAB
  0
TABLE
  2
APPID
 70
     1
  0
APPID
  2
ACAD
 70
     0
  0
ENDTAB
  0
TABLE
  2
DIMSTYLE
 70
     1
  0
DIMSTYLE
  2
STANDARD
 70
     0
  3

  4

  5

  6

  7

 40
1.0
 41
0.18
 42
0.0625
 43
0.38
 44
0.18
 45
0.0
 46
0.0
 47
0.0
 48
0.0
140
0.18
141
0.09
142
0.0
143
25.4
144
1.0
145
0.0
146
1.0
147
0.09
 71
     0
 72
     0
 73
     1
 74
     1
 75
     0
 76
     0
 77
     0
 78
     0
170
     0
171
     2
172
     0
173
     0
174
     0
175
     0
176
     0
177
     0
178
     0
  0
ENDTAB
  0
ENDSEC
  0
SECTION
  2
BLOCKS
  0
BLOCK
  8
0
  2
$MODEL_SPACE
 70
     0
 10
0.0
 20
0.0
 30
0.0
  3
$MODEL_SPACE
  1

  0
ENDBLK
  5
21
  8
0
  0
BLOCK
 67
     1
  8
0
  2
$PAPER_SPACE
 70
     0
 10
0.0
 20
0.0
 30
0.0
  3
$PAPER_SPACE
  1

  0
ENDBLK
  5
1D
 67
     1
  8
0
  0
ENDSEC
  0
SECTION
  2
ENTITIES
  0
POLYLINE
  5
6F
  8
0
 66
     1
 10
0.0
 20
0.0
 30
0.0
 70
     1
  0
VERTEX
  5
94
  8
0
 10
2258.923184377968
 20
4167.167315798687
 30
0.0
 42
0.4142135623730951
  0
VERTEX
  5
95
  8
0
 10
2188.174943621694
 20
4096.419075042413
 30
0.0
 42
0.4142135623730951
  0
VERTEX
  5
96
  8
0
 10
2258.923184377968
 20
4025.670834286139
 30
0.0
 42
0.4142135623730951
  0
VERTEX
  5
97
  8
0
 10
2329.671425134242
 20
4096.419075042413
 30
0.0
 42
0.4142135623730951
  0
SEQEND
  5
149
  8
0
  0
POLYLINE
  5
70
  8
0
 66
     1
 10
0.0
 20
0.0
 30
0.0
 70
     1
  0
VERTEX
  5
98
  8
0
 10
2236.806478717922
 20
4448.602693407389
 30
0.0
 42
0.4142135623730951
  0
VERTEX
  5
99
  8
0
 10
2177.981477481307
 20
4389.777692170774
 30
0.0
 42
0.4142135623730951
  0
VERTEX
  5
9A
  8
0
 10
2236.806478717922
 20
4330.952690934158
 30
0.0
 42
0.4142135623730951
  0
VERTEX
  5
9B
  8
0
 10
2295.631479954537
 20
4389.777692170774
 30
0.0
 42
0.4142135623730951
  0
SEQEND
  5
14A
  8
0
  0
POLYLINE
  5
71
  8
0
 66
     1
 10
0.0
 20
0.0
 30
0.0
 70
     1
  0
VERTEX
  5
9C
  8
0
 10
2003.884981032713
 20
4263.832591169673
 30
0.0
 42
0.4142135623730951
  0
VERTEX
  5
9D
  8
0
 10
1976.119135510262
 20
4236.066745647222
 30
0.0
 42
0.4142135623730951
  0
VERTEX
  5
9E
  8
0
 10
2003.884981032713
 20
4208.300900124771
 30
0.0
 42
0.4142135623730951
  0
VERTEX
  5
9F
  8
0
 10
2031.650826555164
 20
4236.066745647222
 30
0.0
 42
0.4142135623730951
  0
SEQEND
  5
14B
  8
0
  0
POLYLINE
  5
72
  8
0
 66
     1
 10
0.0
 20
0.0
 30
0.0
 70
     1
  0
VERTEX
  5
A0
  8
0
 10
1999.84970481246
 20
4330.783184310308
 30
0.0
 42
0.4142135623730951
  0
VERTEX
  5
A1
  8
0
 10
1972.083859290009
 20
4303.017338787857
 30
0.0
 42
0.4142135623730951
  0
VERTEX
  5
A2
  8
0
 10
1999.84970481246
 20
4275.251493265406
 30
0.0
 42
0.4142135623730951
  0
VERTEX
  5
A3
  8
0
 10
2027.615550334911
 20
4303.017338787857
 30
0.0
 42
0.4142135623730951
  0
SEQEND
  5
14C
  8
0
  0
POLYLINE
  5
73
  8
0
 66
     1
 10
0.0
 20
0.0
 30
0.0
 70
     1
  0
VERTEX
  5
A4
  8
0
 10
2029.827775462491
 20
4389.445344965799
 30
0.0
 42
0.4142135623730951
  0
VERTEX
  5
A5
  8
0
 10
2002.06192994004
 20
4361.679499443348
 30
0.0
 42
0.4142135623730951
  0
VERTEX
  5
A6
  8
0
 10
2029.827775462491
 20
4333.913653920897
 30
0.0
 42
0.4142135623730951
  0
VERTEX
  5
A7
  8
0
 10
2057.593620984942
 20
4361.679499443348
 30
0.0
 42
0.4142135623730951
  0
SEQEND
  5
14D
  8
0
  0
POLYLINE
  5
74
  8
0
 66
     1
 10
0.0
 20
0.0
 30
0.0
 70
     1
  0
VERTEX
  5
A8
  8
0
 10
2081.224333178875
 20
4431.495755495113
 30
0.0
 42
0.4142135623730951
  0
VERTEX
  5
A9
  8
0
 10
2053.458487656424
 20
4403.729909972662
 30
0.0
 42
0.4142135623730951
  0
VERTEX
  5
AA
  8
0
 10
2081.224333178875
 20
4375.964064450211
 30
0.0
 42
0.4142135623730951
  0
VERTEX
  5
AB
  8
0
 10
2108.990178701326
 20
4403.729909972662
 30
0.0
 42
0.4142135623730951
  0
SEQEND
  5
14E
  8
0
  0
POLYLINE
  5
75
  8
0
 66
     1
 10
0.0
 20
0.0
 30
0.0
 70
     1
  0
VERTEX
  5
AC
  8
0
 10
2101.160696090829
 20
4496.122013018728
 30
0.0
 42
0.4142135623730951
  0
VERTEX
  5
AD
  8
0
 10
2073.394850568378
 20
4468.356167496277
 30
0.0
 42
0.4142135623730951
  0
VERTEX
  5
AE
  8
0
 10
2101.160696090829
 20
4440.590321973826
 30
0.0
 42
0.4142135623730951
  0
VERTEX
  5
AF
  8
0
 10
2128.92654161328
 20
4468.356167496277
 30
0.0
 42
0.4142135623730951
  0
SEQEND
  5
14F
  8
0
  0
POLYLINE
  5
76
  8
0
 66
     1
 10
0.0
 20
0.0
 30
0.0
 70
     1
  0
VERTEX
  5
B0
  8
0
 10
2137.686186002026
 20
4554.73399608019
 30
0.0
 42
0.4142135623730951
  0
VERTEX
  5
B1
  8
0
 10
2109.920340479575
 20
4526.968150557739
 30
0.0
 42
0.4142135623730951
  0
VERTEX
  5
B2
  8
0
 10
2137.686186002026
 20
4499.202305035288
 30
0.0
 42
0.4142135623730951
  0
VERTEX
  5
B3
  8
0
 10
2165.452031524477
 20
4526.968150557739
 30
0.0
 42
0.4142135623730951
  0
SEQEND
  5
150
  8
0
  0
POLYLINE
  5
77
  8
0
 66
     1
 10
0.0
 20
0.0
 30
0.0
 70
     1
  0
VERTEX
  5
B4
  8
0
 10
2030.746365786244
 20
4199.451288610121
 30
0.0
 42
0.4142135623730951
  0
VERTEX
  5
B5
  8
0
 10
2002.980520263793
 20
4171.68544308767
 30
0.0
 42
0.4142135623730951
  0
VERTEX
  5
B6
  8
0
 10
2030.746365786244
 20
4143.919597565219
 30
0.0
 42
0.4142135623730951
  0
VERTEX
  5
B7
  8
0
 10
2058.512211308695
 20
4171.68544308767
 30
0.0
 42
0.4142135623730951
  0
SEQEND
  5
151
  8
0
  0
POLYLINE
  5
78
  8
0
 66
     1
 10
0.0
 20
0.0
 30
0.0
 70
     1
  0
VERTEX
  5
B8
  8
0
 10
2086.391351970921
 20
4151.259020991859
 30
0.0
 42
0.4142135623730951
  0
VERTEX
  5
B9
  8
0
 10
2058.62550644847
 20
4123.493175469408
 30
0.0
 42
0.4142135623730951
  0
VERTEX
  5
BA
  8
0
 10
2086.391351970921
 20
4095.727329946957
 30
0.0
 42
0.4142135623730951
  0
VERTEX
  5
BB
  8
0
 10
2114.157197493372
 20
4123.493175469408
 30
0.0
 42
0.4142135623730951
  0
SEQEND
  5
152
  8
0
  0
POLYLINE
  5
79
  8
0
 66
     1
 10
0.0
 20
0.0
 30
0.0
 70
     1
  0
VERTEX
  5
BC
  8
0
 10
2137.540435311607
 20
4099.748501261863
 30
0.0
 42
0.4142135623730951
  0
VERTEX
  5
BD
  8
0
 10
2109.774589789156
 20
4071.982655739412
 30
0.0
 42
0.4142135623730951
  0
VERTEX
  5
BE
  8
0
 10
2137.540435311607
 20
4044.216810216961
 30
0.0
 42
0.4142135623730951
  0
VERTEX
  5
BF
  8
0
 10
2165.306280834058
 20
4071.982655739412
 30
0.0
 42
0.4142135623730951
  0
SEQEND
  5
153
  8
0
  0
POLYLINE
  5
7A
  8
0
 66
     1
 10
0.0
 20
0.0
 30
0.0
 70
     1
  0
VERTEX
  5
C0
  8
0
 10
2183.534453428857
 20
4041.026251672737
 30
0.0
 42
0.4142135623730951
  0
VERTEX
  5
C1
  8
0
 10
2155.768607906406
 20
4013.260406150286
 30
0.0
 42
0.4142135623730951
  0
VERTEX
  5
C2
  8
0
 10
2183.534453428857
 20
3985.494560627835
 30
0.0
 42
0.4142135623730951
  0
VERTEX
  5
C3
  8
0
 10
2211.300298951308
 20
4013.260406150286
 30
0.0
 42
0.4142135623730951
  0
SEQEND
  5
154
  8
0
  0
POLYLINE
  5
7B
  8
0
 66
     1
 10
0.0
 20
0.0
 30
0.0
 70
     1
  0
VERTEX
  5
C4
  8
0
 10
2137.705654933063
 20
4172.772195030177
 30
0.0
 42
-0.1500159751050927
  0
VERTEX
  5
C5
  8
0
 10
2148.146505345498
 20
4197.919402258843
 30
0.0
 42
-0.3175407294828735
  0
VERTEX
  5
C6
  8
0
 10
2121.942034280288
 20
4222.044384735115
 30
0.0
 42
-0.2445630667370719
  0
VERTEX
  5
C7
  8
0
 10
2091.643170088732
 20
4201.803934504828
 30
0.0
 42
0.8529124560870758
  0
VERTEX
  5
C8
  8
0
 10
2105.769033490961
 20
4180.745695274167
 30
0.0
 42
0.820094687526586
  0
VERTEX
  5
C9
  8
0
 10
2104.302354294011
 20
4189.02251470478
 30
0.0
 42
-0.4910201253398863
  0
VERTEX
  5
CA
  8
0
 10
2121.482668851236
 20
4199.319276576341
 30
0.0
 42
-0.4910201253399268
  0
VERTEX
  5
CB
  8
0
 10
2127.113668806741
 20
4180.097456869927
 30
0.0
 42
0.8070879073241566
  0
SEQEND
  5
155
  8
0
  0
POLYLINE
  5
7C
  8
0
 66
     1
 10
0.0
 20
0.0
 30
0.0
 70
     1
  0
VERTEX
  5
CC
  8
0
 10
2080.031047481625
 20
4181.207641886827
 30
0.0
 42
-0.2329224784003129
  0
VERTEX
  5
CD
  8
0
 10
2076.400417311347
 20
4194.922314344261
 30
0.0
 42
0.6432984025034308
  0
VERTEX
  5
CE
  8
0
 10
2070.14716235472
 20
4185.946802961609
 30
0.0
 42
0.3282949411770829
  0
SEQEND
  5
156
  8
0
  0
POLYLINE
  5
7D
  8
0
 66
     1
 10
0.0
 20
0.0
 30
0.0
 70
     1
  0
VERTEX
  5
CF
  8
0
 10
2168.531008727824
 20
4165.864014319156
 30
0.0
 42
-0.4298921923777074
  0
VERTEX
  5
D0
  8
0
 10
2176.754535787226
 20
4184.398707805523
 30
0.0
 42
-0.4298921923777924
  0
VERTEX
  5
D1
  8
0
 10
2194.825427437947
 20
4175.200657203459
 30
0.0
 42
0.6877847084250681
  0
VERTEX
  5
D2
  8
0
 10
2212.939344546849
 20
4179.674465731274
 30
0.0
 42
-0.2539816793166552
  0
VERTEX
  5
D3
  8
0
 10
2192.098593570871
 20
4208.267921629125
 30
0.0
 42
0.2739005803617364
  0
VERTEX
  5
D4
  8
0
 10
2154.702090905998
 20
4185.1208273327
 30
0.0
 42
0.5707044973692279
  0
SEQEND
  5
157
  8
0
  0
POLYLINE
  5
7E
  8
0
 66
     1
 10
0.0
 20
0.0
 30
0.0
 70
     1
  0
VERTEX
  5
D5
  8
0
 10
2237.701398608799
 20
4011.343861218365
 30
0.0
 42
0.7831144384237351
  0
VERTEX
  5
D6
  8
0
 10
2226.610731654743
 20
3984.862072370677
 30
0.0
 42
0.2369210530822664
  0
VERTEX
  5
D7
  8
0
 10
2330.311967227882
 20
3993.757189415383
 30
0.0
 42
0.8639258003546141
  0
VERTEX
  5
D8
  8
0
 10
2311.777248998557
 20
4018.650220224802
 30
0.0
 42
-0.2249302329468316
  0
SEQEND
  5
158
  8
0
  0
POLYLINE
  5
7F
  8
0
 66
     1
 10
0.0
 20
0.0
 30
0.0
 70
     1
  0
VERTEX
  5
D9
  8
0
 10
2199.328845644365
 20
4491.329088970905
 30
0.0
 42
0.8420658987315646
  0
VERTEX
  5
DA
  8
0
 10
2209.021887906223
 20
4466.160794274909
 30
0.0
 42
-0.188699517628126
  0
VERTEX
  5
DB
  8
0
 10
2278.811792191598
 20
4453.714957256544
 30
0.0
 42
0.4393269966144719
  0
VERTEX
  5
DC
  8
0
 10
2293.523211205395
 20
4455.830641880103
 30
0.0
 42
0.4393269966144377
  0
VERTEX
  5
DD
  8
0
 10
2290.166558017274
 20
4470.309414279742
 30
0.0
 42
0.2227260246850995
  0
SEQEND
  5
159
  8
0
  0
POLYLINE
  5
80
  8
0
 66
     1
 10
0.0
 20
0.0
 30
0.0
 70
     1
  0
VERTEX
  5
DE
  8
0
 10
2097.702919256608
 20
4164.974040411518
 30
0.0
 42
-0.3901691801544361
  0
VERTEX
  5
DF
  8
0
 10
2136.784815918194
 20
4155.020134933773
 30
0.0
 42
0.1767309580587252
  0
VERTEX
  5
E0
  8
0
 10
2157.768417956559
 20
4145.590127690277
 30
0.0
 42
0.2305708722461932
  0
VERTEX
  5
E1
  8
0
 10
2146.752020968807
 20
4110.489520899114
 30
0.0
 42
0.1305480266730385
  0
VERTEX
  5
E2
  8
0
 10
2131.801242980921
 20
4114.156739550432
 30
0.0
 42
0.5003139474388625
  0
SEQEND
  5
15A
  8
0
  0
POLYLINE
  5
81
  8
0
 66
     1
 10
0.0
 20
0.0
 30
0.0
 70
     1
  0
VERTEX
  5
E3
  8
0
 10
2119.801457859419
 20
4237.503154013743
 30
0.0
 42
0.3794015580723568
  0
VERTEX
  5
E4
  8
0
 10
2080.473659848529
 20
4240.146945321576
 30
0.0
 42
0.5731482739738811
  0
VERTEX
  5
E5
  8
0
 10
2082.695934992737
 20
4220.875921400912
 30
0.0
 42
0.5731482739737972
  0
VERTEX
  5
E6
  8
0
 10
2098.41873864196
 20
4232.238329384052
 30
0.0
 42
-0.452588098889924
  0
VERTEX
  5
E7
  8
0
 10
2093.011796433158
 20
4214.687306619053
 30
0.0
 42
-0.2054994500352347
  0
VERTEX
  5
E8
  8
0
 10
2041.38137292431
 20
4208.885207218716
 30
0.0
 42
0.2972817628701157
  0
VERTEX
  5
E9
  8
0
 10
2044.930517629433
 20
4251.505922208105
 30
0.0
 42
0.433183317033384
  0
VERTEX
  5
EA
  8
0
 10
2083.696236483898
 20
4262.56706919586
 30
0.0
 42
0.1585788257218244
  0
VERTEX
  5
EB
  8
0
 10
2099.123441109457
 20
4280.343919139359
 30
0.0
 42
0.2127268852745555
  0
VERTEX
  5
EC
  8
0
 10
2142.656148440388
 20
4267.025769254714
 30
0.0
 42
-0.4125899781232298
  0
VERTEX
  5
ED
  8
0
 10
2178.676830742601
 20
4230.804744160972
 30
0.0
 42
-0.4467367742101919
  0
VERTEX
  5
EE
  8
0
 10
2161.317331161965
 20
4208.894617222322
 30
0.0
 42
-0.4467367742102466
  0
VERTEX
  5
EF
  8
0
 10
2141.44043500799
 20
4228.549511967446
 30
0.0
 42
0.5195126339862277
  0
VERTEX
  5
F0
  8
0
 10
2158.537082795207
 20
4221.761620569493
 30
0.0
 42
0.5195126339862759
  0
VERTEX
  5
F1
  8
0
 10
2159.12925587031
 20
4240.146945321579
 30
0.0
 42
0.3794015580723787
  0
SEQEND
  5
15B
  8
0
  0
POLYLINE
  5
82
  8
0
 66
     1
 10
0.0
 20
0.0
 30
0.0
 70
     1
  0
VERTEX
  5
F2
  8
0
 10
2176.549012807362
 20
4134.459670313707
 30
0.0
 42
0.1631513854826824
  0
VERTEX
  5
F3
  8
0
 10
2169.076789733814
 20
4101.208666668845
 30
0.0
 42
-0.6754415412732409
  0
SEQEND
  5
15C
  8
0
  0
POLYLINE
  5
83
  8
0
 66
     1
 10
0.0
 20
0.0
 30
0.0
 70
     1
  0
VERTEX
  5
F4
  8
0
 10
2206.408435412613
 20
4207.815127483201
 30
0.0
 42
0.1837628343051446
  0
VERTEX
  5
F5
  8
0
 10
2247.083825615269
 20
4178.851249640071
 30
0.0
 42
0.3968768487163419
  0
VERTEX
  5
F6
  8
0
 10
2251.628075318393
 20
4186.867545714715
 30
0.0
 42
-0.9859658865307871
  0
VERTEX
  5
F7
  8
0
 10
2247.956495299249
 20
4195.893303679834
 30
0.0
 42
0.7199616310532789
  0
VERTEX
  5
F8
  8
0
 10
2242.731483946668
 20
4203.085693778849
 30
0.0
 42
-0.9585402362737271
  0
VERTEX
  5
F9
  8
0
 10
2228.966002884938
 20
4223.54860874086
 30
0.0
 42
0.900508462904381
  0
SEQEND
  5
15D
  8
0
  0
POLYLINE
  5
84
  8
0
 66
     1
 10
0.0
 20
0.0
 30
0.0
 70
     1
  0
VERTEX
  5
FA
  8
0
 10
2103.852911949817
 20
4365.725119703155
 30
0.0
 42
0.1279895115567231
  0
VERTEX
  5
FB
  8
0
 10
2102.284449891509
 20
4369.750434364647
 30
0.0
 42
0.5678581068464833
  0
VERTEX
  5
FC
  8
0
 10
2112.797554300286
 20
4430.776438018706
 30
0.0
 42
-0.4852805736286633
  0
VERTEX
  5
FD
  8
0
 10
2147.184892685421
 20
4422.119547044915
 30
0.0
 42
0.2137162326465477
  0
VERTEX
  5
FE
  8
0
 10
2150.509465483209
 20
4365.221205121157
 30
0.0
 42
0.0944753920521401
  0
SEQEND
  5
15E
  8
0
  0
POLYLINE
  5
85
  8
0
 66
     1
 10
0.0
 20
0.0
 30
0.0
 70
     1
  0
VERTEX
  5
FF
  8
0
 10
2091.047681173708
 20
4366.52832914596
 30
0.0
 42
0.2102053878433887
  0
VERTEX
  5
100
  8
0
 10
2094.712160062995
 20
4361.968377049296
 30
0.0
 42
0.1422622161205742
  0
VERTEX
  5
101
  8
0
 10
2077.431560543417
 20
4351.988117986421
 30
0.0
 42
-0.503488527293492
  0
VERTEX
  5
102
  8
0
 10
2075.160796741739
 20
4367.352534071504
 30
0.0
 42
0.2304337918162697
  0
SEQEND
  5
15F
  8
0
  0
POLYLINE
  5
86
  8
0
 66
     1
 10
0.0
 20
0.0
 30
0.0
 70
     1
  0
VERTEX
  5
103
  8
0
 10
2262.732112083865
 20
4272.25053997802
 30
0.0
 42
0.2335214155251516
  0
VERTEX
  5
104
  8
0
 10
2285.421642219444
 20
4243.575585733127
 30
0.0
 42
0.0819898565407818
  0
VERTEX
  5
105
  8
0
 10
2254.901222776196
 20
4222.520542966984
 30
0.0
 42
0.2089280223337871
  0
VERTEX
  5
106
  8
0
 10
2246.066411234271
 20
4235.15356862667
 30
0.0
 42
0.2061683500388071
  0
SEQEND
  5
160
  8
0
  0
POLYLINE
  5
87
  8
0
 66
     1
 10
0.0
 20
0.0
 30
0.0
  0
VERTEX
  5
107
  8
0
 10
2182.148666684291
 20
4288.892251633571
 30
0.0
 42
-0.4194291634201179
  0
VERTEX
  5
108
  8
0
 10
2226.866540592718
 20
4294.649998819434
 30
0.0
 42
-0.4194291634201296
  0
VERTEX
  5
109
  8
0
 10
2231.828591999857
 20
4249.836854036021
 30
0.0
 42
-0.2007782140492282
  0
VERTEX
  5
10A
  8
0
 10
2196.150734974557
 20
4229.851277889863
 30
0.0
 42
0.1855818630957313
  0
VERTEX
  5
10B
  8
0
 10
2190.327875231407
 20
4250.597257754286
 30
0.0
  0
VERTEX
  5
10C
  8
0
 10
2194.594936597835
 20
4253.778401512325
 30
0.0
 42
0.754634243924736
  0
VERTEX
  5
10D
  8
0
 10
2221.129233899707
 20
4274.322573413579
 30
0.0
 42
0.7546342439247407
  0
VERTEX
  5
10E
  8
0
 10
2187.74950658679
 20
4270.869207384963
 30
0.0
 42
-0.4072954181699293
  0
VERTEX
  5
10F
  8
0
 10
2182.148667936254
 20
4288.892254084499
 30
0.0
  0
SEQEND
  5
161
  8
0
  0
POLYLINE
  5
88
  8
0
 66
     1
 10
0.0
 20
0.0
 30
0.0
 70
     1
  0
VERTEX
  5
110
  8
0
 10
2080.787436164104
 20
4292.816477681213
 30
0.0
 42
0.2285746430680724
  0
VERTEX
  5
111
  8
0
 10
2044.939808274334
 20
4295.203132858184
 30
0.0
 42
0.2407501889888296
  0
VERTEX
  5
112
  8
0
 10
2041.056318704887
 20
4324.141278012165
 30
0.0
 42
0.1164976132464694
  0
VERTEX
  5
113
  8
0
 10
2062.238634027231
 20
4330.697272722951
 30
0.0
 42
0.0973091763331989
  0
SEQEND
  5
162
  8
0
  0
POLYLINE
  5
89
  8
0
 66
     1
 10
0.0
 20
0.0
 30
0.0
 70
     1
  0
VERTEX
  5
114
  8
0
 10
2175.5301190243
 20
4334.187811972381
 30
0.0
 42
-0.6797537806879664
  0
VERTEX
  5
115
  8
0
 10
2123.48997043027
 20
4309.528498900547
 30
0.0
 42
-0.8619075162977883
  0
VERTEX
  5
116
  8
0
 10
2149.547499091217
 20
4333.629396520604
 30
0.0
 42
0.3672492557615588
  0
VERTEX
  5
117
  8
0
 10
2102.948144703645
 20
4349.325991495416
 30
0.0
 42
0.3888852715937224
  0
VERTEX
  5
118
  8
0
 10
2091.414245210671
 20
4318.580533514553
 30
0.0
 42
0.4444653500373084
  0
VERTEX
  5
119
  8
0
 10
2167.506552393038
 20
4290.351819571633
 30
0.0
 42
-0.2269967863522303
  0
VERTEX
  5
11A
  8
0
 10
2199.638632434617
 20
4319.474485813832
 30
0.0
 42
-0.3716569707685845
  0
SEQEND
  5
163
  8
0
  0
POLYLINE
  5
8A
  8
0
 66
     1
 10
0.0
 20
0.0
 30
0.0
  0
VERTEX
  5
11B
  8
0
 10
2162.882474155039
 20
4490.899911868548
 30
0.0
 42
-0.1502021889961018
  0
VERTEX
  5
11C
  8
0
 10
2134.811175225168
 20
4490.779940966609
 30
0.0
 42
-0.1963041875977425
  0
VERTEX
  5
11D
  8
0
 10
2143.307677105249
 20
4470.231687300908
 30
0.0
 42
0.4922211370839724
  0
VERTEX
  5
11E
  8
0
 10
2155.177334022022
 20
4453.216860699884
 30
0.0
 42
-0.4711578847699713
  0
VERTEX
  5
11F
  8
0
 10
2176.789741109694
 20
4474.005378115538
 30
0.0
 42
0.448746694449449
  0
VERTEX
  5
120
  8
0
 10
2162.88246969849
 20
4490.899910478007
 30
0.0
  0
SEQEND
  5
164
  8
0
  0
POLYLINE
  5
8B
  8
0
 66
     1
 10
0.0
 20
0.0
 30
0.0
 70
     1
  0
VERTEX
  5
121
  8
0
 10
2256.397963422894
 20
4318.660468181661
 30
0.0
 42
0.4402167602206487
  0
VERTEX
  5
122
  8
0
 10
2245.891744166337
 20
4320.341154837325
 30
0.0
 42
0.4402167602206797
  0
VERTEX
  5
123
  8
0
 10
2245.140464572321
 20
4309.727911710317
 30
0.0
 42
-0.1266596494813647
  0
VERTEX
  5
124
  8
0
 10
2261.49379338807
 20
4281.849522913956
 30
0.0
 42
0.3752836109714819
  0
SEQEND
  5
165
  8
0
  0
POLYLINE
  5
8C
  8
0
 66
     1
 10
0.0
 20
0.0
 30
0.0
 70
     1
  0
VERTEX
  5
125
  8
0
 10
2310.26322893586
 20
4241.362367501232
 30
0.0
 42
0.9971440633391145
  0
VERTEX
  5
126
  8
0
 10
2288.666458103324
 20
4266.03459916788
 30
0.0
 42
-0.3738792623572173
  0
VERTEX
  5
127
  8
0
 10
2279.02559537652
 20
4294.218230853322
 30
0.0
 42
0.4244631694920545
  0
VERTEX
  5
128
  8
0
 10
2324.334709518561
 20
4289.221489929449
 30
0.0
 42
-0.364964577637821
  0
VERTEX
  5
129
  8
0
 10
2306.050542821217
 20
4322.667638882707
 30
0.0
 42
0.5254173809147916
  0
VERTEX
  5
12A
  8
0
 10
2339.186545097044
 20
4314.007036745064
 30
0.0
 42
-0.2076445595878942
  0
VERTEX
  5
12B
  8
0
 10
2327.41517965277
 20
4350.367487481606
 30
0.0
 42
0.0488386586160918
  0
VERTEX
  5
12C
  8
0
 10
2323.273978245405
 20
4398.723303701477
 30
0.0
 42
0.2825635002045244
  0
VERTEX
  5
12D
  8
0
 10
2306.609934326122
 20
4481.85870049224
 30
0.0
 42
0.1631164654489275
  0
VERTEX
  5
12E
  8
0
 10
2211.045058980041
 20
4511.827762942413
 30
0.0
 42
-0.2262764807721127
  0
VERTEX
  5
12F
  8
0
 10
2188.552289317711
 20
4520.896569695807
 30
0.0
 42
0.0608431502614322
  0
VERTEX
  5
130
  8
0
 10
2172.632813484655
 20
4543.830827931192
 30
0.0
 42
0.415988657253744
  0
VERTEX
  5
131
  8
0
 10
2118.717145156085
 20
4561.972109864763
 30
0.0
 42
0.4159886572537281
  0
VERTEX
  5
132
  8
0
 10
2100.902747548577
 20
4507.947553972176
 30
0.0
 42
0.7520458386763736
  0
VERTEX
  5
133
  8
0
 10
2068.770075746202
 20
4443.767996615376
 30
0.0
 42
0.4505243515949487
  0
VERTEX
  5
134
  8
0
 10
2037.827494132637
 20
4403.952926611927
 30
0.0
 42
0.707205790141865
  0
VERTEX
  5
135
  8
0
 10
1990.878374048929
 20
4345.258594345971
 30
0.0
 42
0.7782371435456783
  0
VERTEX
  5
136
  8
0
 10
1975.047351838541
 20
4273.782589322343
 30
0.0
 42
0.5915865886088254
  0
VERTEX
  5
137
  8
0
 10
1988.683059752034
 20
4199.505308580799
 30
0.0
 42
0.6985137902195445
  0
VERTEX
  5
138
  8
0
 10
2044.410478219191
 20
4135.128237312411
 30
0.0
 42
0.5761791787730547
  0
VERTEX
  5
139
  8
0
 10
2091.461144459933
 20
4082.065316647477
 30
0.0
 42
0.508535289771826
  0
VERTEX
  5
13A
  8
0
 10
2139.495198834416
 20
4030.110373369279
 30
0.0
 42
0.6961614191231917
  0
VERTEX
  5
13B
  8
0
 10
2214.333710571366
 20
3979.715442750864
 30
0.0
 42
0.2999224077191204
  0
VERTEX
  5
13C
  8
0
 10
2342.437264819697
 20
3983.405680545916
 30
0.0
 42
0.4818524117936281
  0
VERTEX
  5
13D
  8
0
 10
2349.54703438986
 20
4018.703456306459
 30
0.0
 42
0.8468554640862319
  0
VERTEX
  5
13E
  8
0
 10
2355.110651284705
 20
4065.075969777979
 30
0.0
 42
0.1478136707866397
  0
VERTEX
  5
13F
  8
0
 10
2364.341025034771
 20
4086.437948575637
 30
0.0
 42
0.221257940629439
  0
VERTEX
  5
140
  8
0
 10
2330.255986654131
 20
4145.267721701158
 30
0.0
 42
-0.2122980783247767
  0
VERTEX
  5
141
  8
0
 10
2318.403549977277
 20
4182.552433601374
 30
0.0
 42
-0.2271163319110298
  0
VERTEX
  5
142
  8
0
 10
2285.990797777915
 20
4175.156090669442
 30
0.0
 42
-0.3840413385654003
  0
VERTEX
  5
143
  8
0
 10
2307.023811844907
 20
4198.404253034499
 30
0.0
 42
0.3559778045985347
  0
VERTEX
  5
144
  8
0
 10
2270.215578613027
 20
4190.540927333584
 30
0.0
 42
-0.4500345025111253
  0
VERTEX
  5
145
  8
0
 10
2286.897907941721
 20
4223.387267769415
 30
0.0
 42
0.5541143392763818
  0
VERTEX
  5
146
  8
0
 10
2312.954124393214
 20
4213.691040982454
 30
0.0
 42
0.5541143392763751
  0
SEQEND
  5
166
  8
0
  0
ENDSEC
  0
EOF
