  0
SECTION
  2
HEADER
  9
$ACADVER
  1
AC1021
  9
$ACADMAINTVER
 70
    25
  9
$DWGCODEPAGE
  3
ANSI_1251
  9
$INSBASE
 10
0.0
 20
0.0
 30
0.0
  9
$EXTMIN
 10
-672.3282
 20
-314.5377
 30
0.0
  9
$EXTMAX
 10
557.8718
 20
580.6975
 30
0.0
  9
$LIMMIN
 10
0.0
 20
0.0
  9
$LIMMAX
 10
12.0
 20
9.0
  9
$ORTHOMODE
 70
     0
  9
$REGENMODE
 70
     1
  9
$FILLMODE
 70
     1
  9
$QTEXTMODE
 70
     0
  9
$MIRRTEXT
 70
     1
  9
$LTSCALE
 40
1.0
  9
$ATTMODE
 70
     1
  9
$TEXTSIZE
 40
0.2
  9
$TRACEWID
 40
0.05
  9
$TEXTSTYLE
  7
Standard
  9
$CLAYER
  8
0
  9
$CELTYPE
  6
ByLayer
  9
$CECOLOR
 62
   256
  9
$CELTSCALE
 40
1.0
  9
$DISPSILH
 70
     0
  9
$DIMSCALE
 40
1.0
  9
$DIMASZ
 40
0.18
  9
$DIMEXO
 40
0.0625
  9
$DIMDLI
 40
0.38
  9
$DIMRND
 40
0.0
  9
$DIMDLE
 40
0.0
  9
$DIMEXE
 40
0.18
  9
$DIMTP
 40
0.0
  9
$DIMTM
 40
0.0
  9
$DIMTXT
 40
0.18
  9
$DIMCEN
 40
0.09
  9
$DIMTSZ
 40
0.0
  9
$DIMTOL
 70
     0
  9
$DIMLIM
 70
     0
  9
$DIMTIH
 70
     1
  9
$DIMTOH
 70
     1
  9
$DIMSE1
 70
     0
  9
$DIMSE2
 70
     0
  9
$DIMTAD
 70
     0
  9
$DIMZIN
 70
     0
  9
$DIMBLK
  1

  9
$DIMASO
 70
     1
  9
$DIMSHO
 70
     1
  9
$DIMPOST
  1

  9
$DIMAPOST
  1

  9
$DIMALT
 70
     0
  9
$DIMALTD
 70
     2
  9
$DIMALTF
 40
25.4
  9
$DIMLFAC
 40
1.0
  9
$DIMTOFL
 70
     0
  9
$DIMTVP
 40
0.0
  9
$DIMTIX
 70
     0
  9
$DIMSOXD
 70
     0
  9
$DIMSAH
 70
     0
  9
$DIMBLK1
  1

  9
$DIMBLK2
  1

  9
$DIMSTYLE
  2
Standard
  9
$DIMCLRD
 70
     0
  9
$DIMCLRE
 70
     0
  9
$DIMCLRT
 70
     0
  9
$DIMTFAC
 40
1.0
  9
$DIMGAP
 40
0.09
  9
$DIMJUST
 70
     0
  9
$DIMSD1
 70
     0
  9
$DIMSD2
 70
     0
  9
$DIMTOLJ
 70
     1
  9
$DIMTZIN
 70
     0
  9
$DIMALTZ
 70
     0
  9
$DIMALTTZ
 70
     0
  9
$DIMUPT
 70
     0
  9
$DIMDEC
 70
     4
  9
$DIMTDEC
 70
     4
  9
$DIMALTU
 70
     2
  9
$DIMALTTD
 70
     2
  9
$DIMTXSTY
  7
Standard
  9
$DIMAUNIT
 70
     0
  9
$DIMADEC
 70
     0
  9
$DIMALTRND
 40
0.0
  9
$DIMAZIN
 70
     0
  9
$DIMDSEP
 70
    46
  9
$DIMATFIT
 70
     3
  9
$DIMFRAC
 70
     0
  9
$DIMLDRBLK
  1

  9
$DIMLUNIT
 70
     2
  9
$DIMLWD
 70
    -2
  9
$DIMLWE
 70
    -2
  9
$DIMTMOVE
 70
     0
  9
$DIMFXL
 40
1.0
  9
$DIMFXLON
 70
     0
  9
$DIMJOGANG
 40
0.7853981633974483
  9
$DIMTFILL
 70
     0
  9
$DIMTFILLCLR
 70
     0
  9
$DIMARCSYM
 70
     0
  9
$DIMLTYPE
  6

  9
$DIMLTEX1
  6

  9
$DIMLTEX2
  6

  9
$LUNITS
 70
     2
  9
$LUPREC
 70
     4
  9
$SKETCHINC
 40
0.1
  9
$FILLETRAD
 40
0.5
  9
$AUNITS
 70
     0
  9
$AUPREC
 70
     0
  9
$MENU
  1
.
  9
$ELEVATION
 40
0.0
  9
$PELEVATION
 40
0.0
  9
$THICKNESS
 40
0.0
  9
$LIMCHECK
 70
     0
  9
$CHAMFERA
 40
0.5
  9
$CHAMFERB
 40
0.5
  9
$CHAMFERC
 40
1.0
  9
$CHAMFERD
 40
0.0
  9
$SKPOLY
 70
     0
  9
$TDCREATE
 40
2459090.450344143
  9
$TDUCREATE
 40
2459090.325344143
  9
$TDUPDATE
 40
2459090.450344329
  9
$TDUUPDATE
 40
2459090.325344329
  9
$TDINDWG
 40
0.0000000116
  9
$TDUSRTIMER
 40
0.0000000116
  9
$USRTIMER
 70
     1
  9
$ANGBASE
 50
0.0
  9
$ANGDIR
 70
     0
  9
$PDMODE
 70
     0
  9
$PDSIZE
 40
0.0
  9
$PLINEWID
 40
0.0
  9
$SPLFRAME
 70
     0
  9
$SPLINETYPE
 70
     6
  9
$SPLINESEGS
 70
     8
  9
$HANDSEED
  5
82
  9
$SURFTAB1
 70
     6
  9
$SURFTAB2
 70
     6
  9
$SURFTYPE
 70
     6
  9
$SURFU
 70
     6
  9
$SURFV
 70
     6
  9
$UCSBASE
  2

  9
$UCSNAME
  2

  9
$UCSORG
 10
0.0
 20
0.0
 30
0.0
  9
$UCSXDIR
 10
1.0
 20
0.0
 30
0.0
  9
$UCSYDIR
 10
0.0
 20
1.0
 30
0.0
  9
$UCSORTHOREF
  2

  9
$UCSORTHOVIEW
 70
     0
  9
$UCSORGTOP
 10
0.0
 20
0.0
 30
0.0
  9
$UCSORGBOTTOM
 10
0.0
 20
0.0
 30
0.0
  9
$UCSORGLEFT
 10
0.0
 20
0.0
 30
0.0
  9
$UCSORGRIGHT
 10
0.0
 20
0.0
 30
0.0
  9
$UCSORGFRONT
 10
0.0
 20
0.0
 30
0.0
  9
$UCSORGBACK
 10
0.0
 20
0.0
 30
0.0
  9
$PUCSBASE
  2

  9
$PUCSNAME
  2

  9
$PUCSORG
 10
0.0
 20
0.0
 30
0.0
  9
$PUCSXDIR
 10
1.0
 20
0.0
 30
0.0
  9
$PUCSYDIR
 10
0.0
 20
1.0
 30
0.0
  9
$PUCSORTHOREF
  2

  9
$PUCSORTHOVIEW
 70
     0
  9
$PUCSORGTOP
 10
0.0
 20
0.0
 30
0.0
  9
$PUCSORGBOTTOM
 10
0.0
 20
0.0
 30
0.0
  9
$PUCSORGLEFT
 10
0.0
 20
0.0
 30
0.0
  9
$PUCSORGRIGHT
 10
0.0
 20
0.0
 30
0.0
  9
$PUCSORGFRONT
 10
0.0
 20
0.0
 30
0.0
  9
$PUCSORGBACK
 10
0.0
 20
0.0
 30
0.0
  9
$USERI1
 70
     0
  9
$USERI2
 70
     0
  9
$USERI3
 70
     0
  9
$USERI4
 70
     0
  9
$USERI5
 70
     0
  9
$USERR1
 40
0.0
  9
$USERR2
 40
0.0
  9
$USERR3
 40
0.0
  9
$USERR4
 40
0.0
  9
$USERR5
 40
0.0
  9
$WORLDVIEW
 70
     1
  9
$SHADEDGE
 70
     3
  9
$SHADEDIF
 70
    70
  9
$TILEMODE
 70
     1
  9
$MAXACTVP
 70
    64
  9
$PINSBASE
 10
0.0
 20
0.0
 30
0.0
  9
$PLIMCHECK
 70
     0
  9
$PEXTMIN
 10
1.000000000000000E+20
 20
1.000000000000000E+20
 30
1.000000000000000E+20
  9
$PEXTMAX
 10
-1.000000000000000E+20
 20
-1.000000000000000E+20
 30
-1.000000000000000E+20
  9
$PLIMMIN
 10
0.0
 20
0.0
  9
$PLIMMAX
 10
12.0
 20
9.0
  9
$UNITMODE
 70
     0
  9
$VISRETAIN
 70
     1
  9
$PLINEGEN
 70
     0
  9
$PSLTSCALE
 70
     1
  9
$TREEDEPTH
 70
  3020
  9
$CMLSTYLE
  2
Standard
  9
$CMLJUST
 70
     0
  9
$CMLSCALE
 40
1.0
  9
$PROXYGRAPHICS
 70
     1
  9
$MEASUREMENT
 70
     0
  9
$CELWEIGHT
370
    -1
  9
$ENDCAPS
280
     0
  9
$JOINSTYLE
280
     0
  9
$LWDISPLAY
290
     0
  9
$INSUNITS
 70
     4
  9
$HYPERLINKBASE
  1

  9
$STYLESHEET
  1

  9
$XEDIT
290
     1
  9
$CEPSNTYPE
380
     0
  9
$PSTYLEMODE
290
     1
  9
$FINGERPRINTGUID
  2
{B462C766-808F-40CA-9AA5-85C0A9A32E71}
  9
$VERSIONGUID
  2
{FAEB1C32-E019-11D5-929B-00C0DF256EC4}
  9
$EXTNAMES
290
     1
  9
$PSVPSCALE
 40
0.0
  9
$OLESTARTUP
290
     0
  9
$SORTENTS
280
   127
  9
$INDEXCTL
280
     0
  9
$HIDETEXT
280
     1
  9
$XCLIPFRAME
290
     0
  9
$HALOGAP
280
     0
  9
$OBSCOLOR
 70
   257
  9
$OBSLTYPE
280
     0
  9
$INTERSECTIONDISPLAY
280
     0
  9
$INTERSECTIONCOLOR
 70
   257
  9
$DIMASSOC
280
     2
  9
$PROJECTNAME
  1

  9
$CAMERADISPLAY
290
     0
  9
$LENSLENGTH
 40
50.0
  9
$CAMERAHEIGHT
 40
0.0
  9
$STEPSPERSEC
 40
2.0
  9
$STEPSIZE
 40
6.0
  9
$3DDWFPREC
 40
2.0
  9
$PSOLWIDTH
 40
0.25
  9
$PSOLHEIGHT
 40
4.0
  9
$LOFTANG1
 40
1.570796326794897
  9
$LOFTANG2
 40
1.570796326794897
  9
$LOFTMAG1
 40
0.0
  9
$LOFTMAG2
 40
0.0
  9
$LOFTPARAM
 70
     7
  9
$LOFTNORMALS
280
     1
  9
$LATITUDE
 40
37.795
  9
$LONGITUDE
 40
-122.394
  9
$NORTHDIRECTION
 40
0.0
  9
$TIMEZONE
 70
 -8000
  9
$LIGHTGLYPHDISPLAY
280
     1
  9
$TILEMODELIGHTSYNCH
280
     1
  9
$SOLIDHIST
280
     1
  9
$SHOWHIST
280
     1
  9
$DWFFRAME
280
     2
  9
$DGNFRAME
280
     2
  9
$REALWORLDSCALE
290
     1
  9
$INTERFERECOLOR
 62
   256
  9
$CSHADOW
280
     0
  9
$SHADOWPLANELOCATION
 40
0.0
  0
ENDSEC
  0
SECTION
  2
CLASSES
  0
CLASS
  1
ACDBDICTIONARYWDFLT
  2
AcDbDictionaryWithDefault
  3
ObjectDBX Classes
 90
        0
 91
        4
280
     0
281
     0
  0
CLASS
  1
VISUALSTYLE
  2
AcDbVisualStyle
  3
ObjectDBX Classes
 90
     4095
 91
        4
280
     0
281
     0
  0
CLASS
  1
MATERIAL
  2
AcDbMaterial
  3
ObjectDBX Classes
 90
     1153
 91
        4
280
     0
281
     0
  0
ENDSEC
  0
SECTION
  2
TABLES
  0
TABLE
  2
VPORT
  5
8
330
0
100
AcDbSymbolTable
 70
     1
  0
VPORT
  5
29
330
8
100
AcDbSymbolTableRecord
100
AcDbViewportTableRecord
  2
*Active
 70
     0
 10
0.0
 20
0.0
 11
1.0
 21
1.0
 12
10.42990654205607
 22
4.5
 13
0.0
 23
0.0
 14
0.5
 24
0.5
 15
0.5
 25
0.5
 16
0.0
 26
0.0
 36
1.0
 17
0.0
 27
0.0
 37
0.0
 40
9.0
 41
1.972972972850329
 42
50.0
 43
0.0
 44
0.0
 50
0.0
 51
0.0
 71
     0
 72
   100
 73
     1
 74
     3
 75
     0
 76
     0
 77
     0
 78
     0
281
     0
 65
     1
110
0.0
120
0.0
130
0.0
111
1.0
121
0.0
131
0.0
112
0.0
122
1.0
132
0.0
 79
     0
146
0.0
 60
     3
 61
     5
292
     1
282
     1
141
0.0
142
0.0
 63
   250
  0
ENDTAB
  0
TABLE
  2
LTYPE
  5
5
330
0
100
AcDbSymbolTable
 70
     1
  0
LTYPE
  5
14
330
5
100
AcDbSymbolTableRecord
100
AcDbLinetypeTableRecord
  2
ByBlock
 70
     0
  3

 72
    65
 73
     0
 40
0.0
  0
LTYPE
  5
15
330
5
100
AcDbSymbolTableRecord
100
AcDbLinetypeTableRecord
  2
ByLayer
 70
     0
  3

 72
    65
 73
     0
 40
0.0
  0
LTYPE
  5
16
330
5
100
AcDbSymbolTableRecord
100
AcDbLinetypeTableRecord
  2
Continuous
 70
     0
  3
Solid line
 72
    65
 73
     0
 40
0.0
  0
ENDTAB
  0
TABLE
  2
LAYER
  5
2
330
0
100
AcDbSymbolTable
 70
     2
  0
LAYER
  5
10
330
2
100
AcDbSymbolTableRecord
100
AcDbLayerTableRecord
  2
0
 70
     0
 62
     7
  6
Continuous
370
    -3
390
F
347
3E
  0
LAYER
  5
40
330
2
100
AcDbSymbolTableRecord
100
AcDbLayerTableRecord
  2
layer 1
 70
     0
 62
     7
  6
Continuous
370
    -3
390
F
347
3E
  0
ENDTAB
  0
TABLE
  2
STYLE
  5
3
330
0
100
AcDbSymbolTable
 70
     1
  0
STYLE
  5
11
330
3
100
AcDbSymbolTableRecord
100
AcDbTextStyleTableRecord
  2
Standard
 70
     0
 40
0.0
 41
1.0
 50
0.0
 71
     0
 42
0.2
  3
txt
  4

  0
ENDTAB
  0
TABLE
  2
VIEW
  5
6
330
0
100
AcDbSymbolTable
 70
     0
  0
ENDTAB
  0
TABLE
  2
UCS
  5
7
330
0
100
AcDbSymbolTable
 70
     0
  0
ENDTAB
  0
TABLE
  2
APPID
  5
9
330
0
100
AcDbSymbolTable
 70
     2
  0
APPID
  5
12
330
9
100
AcDbSymbolTableRecord
100
AcDbRegAppTableRecord
  2
ACAD
 70
     0
  0
APPID
  5
3F
330
9
100
AcDbSymbolTableRecord
100
AcDbRegAppTableRecord
  2
ODA
 70
     0
  0
ENDTAB
  0
TABLE
  2
DIMSTYLE
  5
A
330
0
100
AcDbSymbolTable
 70
     1
100
AcDbDimStyleTable
  0
DIMSTYLE
105
27
330
A
100
AcDbSymbolTableRecord
100
AcDbDimStyleTableRecord
  2
Standard
 70
     0
178
     0
340
11
  0
ENDTAB
  0
TABLE
  2
BLOCK_RECORD
  5
1
330
0
100
AcDbSymbolTable
 70
     1
  0
BLOCK_RECORD
  5
1F
330
1
100
AcDbSymbolTableRecord
100
AcDbBlockTableRecord
  2
*Model_Space
340
22
 70
     0
280
     1
281
     0
  0
BLOCK_RECORD
  5
1B
330
1
100
AcDbSymbolTableRecord
100
AcDbBlockTableRecord
  2
*Paper_Space
340
1E
 70
     0
280
     1
281
     0
  0
BLOCK_RECORD
  5
23
330
1
100
AcDbSymbolTableRecord
100
AcDbBlockTableRecord
  2
*Paper_Space0
340
26
 70
     0
280
     1
281
     0
  0
ENDTAB
  0
ENDSEC
  0
SECTION
  2
BLOCKS
  0
BLOCK
  5
20
330
1F
100
AcDbEntity
  8
0
100
AcDbBlockBegin
  2
*Model_Space
 70
     0
 10
0.0
 20
0.0
 30
0.0
  3
*Model_Space
  1

  0
ENDBLK
  5
21
330
1F
100
AcDbEntity
  8
0
100
AcDbBlockEnd
  0
BLOCK
  5
1C
330
1B
100
AcDbEntity
 67
     1
  8
0
100
AcDbBlockBegin
  2
*Paper_Space
 70
     0
 10
0.0
 20
0.0
 30
0.0
  3
*Paper_Space
  1

  0
ENDBLK
  5
1D
330
1B
100
AcDbEntity
 67
     1
  8
0
100
AcDbBlockEnd
  0
BLOCK
  5
24
330
23
100
AcDbEntity
  8
0
100
AcDbBlockBegin
  2
*Paper_Space0
 70
     0
 10
0.0
 20
0.0
 30
0.0
  3
*Paper_Space0
  1

  0
ENDBLK
  5
25
330
23
100
AcDbEntity
  8
0
100
AcDbBlockEnd
  0
ENDSEC
  0
SECTION
  2
ENTITIES
  0
SPLINE
  5
41
330
1F
100
AcDbEntity
  8
layer 1
 62
   250
370
    20
100
AcDbSpline
210
0.0
220
0.0
230
1.0
 70
    11
 71
     3
 72
    20
 73
    16
 74
     0
 42
0.0000000001
 43
0.0000000001
 12
1.0
 22
0.0
 32
0.0
 13
1.0
 23
0.0
 33
0.0
 40
0.0
 40
0.0
 40
0.0
 40
0.0
 40
0.2
 40
0.2
 40
0.2
 40
0.2
 40
0.4
 40
0.4
 40
0.4
 40
0.4
 40
0.6
 40
0.6
 40
0.6
 40
0.6
 40
1.0
 40
1.0
 40
1.0
 40
1.0
 10
114.9326
 20
457.8705
 30
0.0
 10
114.9326
 20
457.8705
 30
0.0
 10
114.9326
 20
580.5975
 30
0.0
 10
114.9326
 20
580.5975
 30
0.0
 10
114.9326
 20
580.5975
 30
0.0
 10
114.9326
 20
580.5975
 30
0.0
 10
550.9326
 20
580.5975
 30
0.0
 10
550.9326
 20
580.5975
 30
0.0
 10
550.9326
 20
580.5975
 30
0.0
 10
550.9326
 20
580.5975
 30
0.0
 10
550.9326
 20
457.8705
 30
0.0
 10
550.9326
 20
457.8705
 30
0.0
 10
550.9326
 20
457.8705
 30
0.0
 10
550.9326
 20
457.8705
 30
0.0
 10
114.9326
 20
457.8705
 30
0.0
 10
114.9326
 20
457.8705
 30
0.0
  0
SPLINE
  5
42
330
1F
100
AcDbEntity
  8
layer 1
 62
   250
370
    20
100
AcDbSpline
210
0.0
220
0.0
230
1.0
 70
    11
 71
     3
 72
    20
 73
    16
 74
     0
 42
0.0000000001
 43
0.0000000001
 12
1.0
 22
0.0
 32
0.0
 13
1.0
 23
0.0
 33
0.0
 40
0.0
 40
0.0
 40
0.0
 40
0.0
 40
0.2
 40
0.2
 40
0.2
 40
0.2
 40
0.4
 40
0.4
 40
0.4
 40
0.4
 40
0.6
 40
0.6
 40
0.6
 40
0.6
 40
1.0
 40
1.0
 40
1.0
 40
1.0
 10
-346.5007
 20
449.4039
 30
0.0
 10
-346.5007
 20
449.4039
 30
0.0
 10
-346.5007
 20
572.1309
 30
0.0
 10
-346.5007
 20
572.1309
 30
0.0
 10
-346.5007
 20
572.1309
 30
0.0
 10
-346.5007
 20
572.1309
 30
0.0
 10
89.4993
 20
572.1309
 30
0.0
 10
89.4993
 20
572.1309
 30
0.0
 10
89.4993
 20
572.1309
 30
0.0
 10
89.4993
 20
572.1309
 30
0.0
 10
89.4993
 20
449.4039
 30
0.0
 10
89.4993
 20
449.4039
 30
0.0
 10
89.4993
 20
449.4039
 30
0.0
 10
89.4993
 20
449.4039
 30
0.0
 10
-346.5007
 20
449.4039
 30
0.0
 10
-346.5007
 20
449.4039
 30
0.0
  0
SPLINE
  5
43
330
1F
100
AcDbEntity
  8
layer 1
 62
   250
370
    20
100
AcDbSpline
210
0.0
220
0.0
230
1.0
 70
    11
 71
     3
 72
    36
 73
    32
 74
     0
 42
0.0000000001
 43
0.0000000001
 12
1.0
 22
0.0
 32
0.0
 13
1.0
 23
0.0
 33
0.0
 40
0.0
 40
0.0
 40
0.0
 40
0.0
 40
0.1111111111111111
 40
0.1111111111111111
 40
0.1111111111111111
 40
0.1111111111111111
 40
0.2222222222222222
 40
0.2222222222222222
 40
0.2222222222222222
 40
0.2222222222222222
 40
0.3333333333333333
 40
0.3333333333333333
 40
0.3333333333333333
 40
0.3333333333333333
 40
0.4444444444444444
 40
0.4444444444444444
 40
0.4444444444444444
 40
0.4444444444444444
 40
0.5555555555555556
 40
0.5555555555555556
 40
0.5555555555555556
 40
0.5555555555555556
 40
0.6666666666666666
 40
0.6666666666666666
 40
0.6666666666666666
 40
0.6666666666666666
 40
0.7777777777777778
 40
0.7777777777777778
 40
0.7777777777777778
 40
0.7777777777777778
 40
1.0
 40
1.0
 40
1.0
 40
1.0
 10
-575.3365
 20
311.9331
 30
0.0
 10
-575.3365
 20
311.9331
 30
0.0
 10
-575.3365
 20
341.9332
 30
0.0
 10
-575.3365
 20
341.9332
 30
0.0
 10
-575.3365
 20
341.9332
 30
0.0
 10
-575.3365
 20
347.4331
 30
0.0
 10
-570.8365
 20
351.9331
 30
0.0
 10
-565.3365
 20
351.9331
 30
0.0
 10
-565.3365
 20
351.9331
 30
0.0
 10
-565.3365
 20
351.9331
 30
0.0
 10
-485.3365
 20
351.9331
 30
0.0
 10
-485.3365
 20
351.9331
 30
0.0
 10
-485.3365
 20
351.9331
 30
0.0
 10
-479.8365
 20
351.9331
 30
0.0
 10
-475.3365
 20
347.4331
 30
0.0
 10
-475.3365
 20
341.9332
 30
0.0
 10
-475.3365
 20
341.9332
 30
0.0
 10
-475.3365
 20
341.9332
 30
0.0
 10
-475.3365
 20
311.9331
 30
0.0
 10
-475.3365
 20
311.9331
 30
0.0
 10
-475.3365
 20
311.9331
 30
0.0
 10
-475.3365
 20
306.4331
 30
0.0
 10
-479.8365
 20
301.9331
 30
0.0
 10
-485.3365
 20
301.9331
 30
0.0
 10
-485.3365
 20
301.9331
 30
0.0
 10
-485.3365
 20
301.9331
 30
0.0
 10
-565.3365
 20
301.9331
 30
0.0
 10
-565.3365
 20
301.9331
 30
0.0
 10
-565.3365
 20
301.9331
 30
0.0
 10
-570.8365
 20
301.9331
 30
0.0
 10
-575.3365
 20
306.4331
 30
0.0
 10
-575.3365
 20
311.9331
 30
0.0
  0
SPLINE
  5
44
330
1F
100
AcDbEntity
  8
layer 1
 62
   250
370
    20
100
AcDbSpline
210
0.0
220
0.0
230
1.0
 70
     8
 71
     3
 72
    56
 73
    52
 74
     0
 42
0.0000000001
 43
0.0000000001
 12
1.0
 22
0.0
 32
0.0
 13
1.0
 23
0.0
 33
0.0
 40
0.0
 40
0.0
 40
0.0
 40
0.0
 40
0.0714285714285714
 40
0.0714285714285714
 40
0.0714285714285714
 40
0.0714285714285714
 40
0.1428571428571428
 40
0.1428571428571428
 40
0.1428571428571428
 40
0.1428571428571428
 40
0.2142857142857143
 40
0.2142857142857143
 40
0.2142857142857143
 40
0.2142857142857143
 40
0.2857142857142857
 40
0.2857142857142857
 40
0.2857142857142857
 40
0.2857142857142857
 40
0.3571428571428572
 40
0.3571428571428572
 40
0.3571428571428572
 40
0.3571428571428572
 40
0.4285714285714285
 40
0.4285714285714285
 40
0.4285714285714285
 40
0.4285714285714285
 40
0.5
 40
0.5
 40
0.5
 40
0.5
 40
0.5714285714285714
 40
0.5714285714285714
 40
0.5714285714285714
 40
0.5714285714285714
 40
0.6428571428571429
 40
0.6428571428571429
 40
0.6428571428571429
 40
0.6428571428571429
 40
0.7142857142857143
 40
0.7142857142857143
 40
0.7142857142857143
 40
0.7142857142857143
 40
0.7857142857142857
 40
0.7857142857142857
 40
0.7857142857142857
 40
0.7857142857142857
 40
0.8571428571428571
 40
0.8571428571428571
 40
0.8571428571428571
 40
0.8571428571428571
 40
1.0
 40
1.0
 40
1.0
 40
1.0
 10
-667.0257
 20
396.428
 30
0.0
 10
-667.0257
 20
396.428
 30
0.0
 10
-669.9676
 20
396.428
 30
0.0
 10
-669.9676
 20
396.428
 30
0.0
 10
-669.9676
 20
396.428
 30
0.0
 10
-669.9676
 20
396.428
 30
0.0
 10
-669.9676
 20
355.5189
 30
0.0
 10
-669.9676
 20
355.5189
 30
0.0
 10
-669.9676
 20
355.5189
 30
0.0
 10
-669.9676
 20
355.5189
 30
0.0
 10
-667.0257
 20
355.5189
 30
0.0
 10
-667.0257
 20
355.5189
 30
0.0
 10
-667.0257
 20
355.5189
 30
0.0
 10
-667.0257
 20
355.5189
 30
0.0
 10
-667.0257
 20
314.6098
 30
0.0
 10
-667.0257
 20
314.6098
 30
0.0
 10
-667.0257
 20
314.6098
 30
0.0
 10
-667.0257
 20
314.6098
 30
0.0
 10
-669.9676
 20
314.6098
 30
0.0
 10
-669.9676
 20
314.6098
 30
0.0
 10
-669.9676
 20
314.6098
 30
0.0
 10
-669.9676
 20
314.6098
 30
0.0
 10
-669.9676
 20
273.7007
 30
0.0
 10
-669.9676
 20
273.7007
 30
0.0
 10
-669.9676
 20
273.7007
 30
0.0
 10
-669.9676
 20
273.7007
 30
0.0
 10
-365.9676
 20
273.7007
 30
0.0
 10
-365.9676
 20
273.7007
 30
0.0
 10
-365.9676
 20
273.7007
 30
0.0
 10
-365.9676
 20
273.7007
 30
0.0
 10
-365.9676
 20
314.6098
 30
0.0
 10
-365.9676
 20
314.6098
 30
0.0
 10
-365.9676
 20
314.6098
 30
0.0
 10
-365.9676
 20
314.6098
 30
0.0
 10
-368.9095
 20
314.6098
 30
0.0
 10
-368.9095
 20
314.6098
 30
0.0
 10
-368.9095
 20
314.6098
 30
0.0
 10
-368.9095
 20
314.6098
 30
0.0
 10
-368.9095
 20
355.5189
 30
0.0
 10
-368.9095
 20
355.5189
 30
0.0
 10
-368.9095
 20
355.5189
 30
0.0
 10
-368.9095
 20
355.5189
 30
0.0
 10
-365.9676
 20
355.5189
 30
0.0
 10
-365.9676
 20
355.5189
 30
0.0
 10
-365.9676
 20
355.5189
 30
0.0
 10
-365.9676
 20
355.5189
 30
0.0
 10
-365.9676
 20
396.428
 30
0.0
 10
-365.9676
 20
396.428
 30
0.0
 10
-365.9676
 20
396.428
 30
0.0
 10
-365.9676
 20
396.428
 30
0.0
 10
-368.9095
 20
396.428
 30
0.0
 10
-368.9095
 20
396.428
 30
0.0
  0
SPLINE
  5
45
330
1F
100
AcDbEntity
  8
layer 1
 62
   250
370
    20
100
AcDbSpline
210
0.0
220
0.0
230
1.0
 70
    24
 71
     3
 72
     8
 73
     4
 74
     0
 42
0.0000000001
 43
0.0000000001
 12
1.0
 22
0.0
 32
0.0
 13
1.0
 23
0.0
 33
0.0
 40
0.0
 40
0.0
 40
0.0
 40
0.0
 40
1.0
 40
1.0
 40
1.0
 40
1.0
 10
-365.9676
 20
396.428
 30
0.0
 10
-365.9676
 20
396.428
 30
0.0
 10
-669.9676
 20
396.428
 30
0.0
 10
-669.9676
 20
396.428
 30
0.0
  0
SPLINE
  5
46
330
1F
100
AcDbEntity
  8
layer 1
 62
   250
370
    20
100
AcDbSpline
210
0.0
220
0.0
230
1.0
 70
    11
 71
     3
 72
    20
 73
    16
 74
     0
 42
0.0000000001
 43
0.0000000001
 12
1.0
 22
0.0
 32
0.0
 13
1.0
 23
0.0
 33
0.0
 40
0.0
 40
0.0
 40
0.0
 40
0.0
 40
0.2
 40
0.2
 40
0.2
 40
0.2
 40
0.4
 40
0.4
 40
0.4
 40
0.4
 40
0.6
 40
0.6
 40
0.6
 40
0.6
 40
1.0
 40
1.0
 40
1.0
 40
1.0
 10
132.5067
 20
358.2543
 30
0.0
 10
132.5067
 20
358.2543
 30
0.0
 10
135.5067
 20
358.2543
 30
0.0
 10
135.5067
 20
358.2543
 30
0.0
 10
135.5067
 20
358.2543
 30
0.0
 10
135.5067
 20
358.2543
 30
0.0
 10
135.5067
 20
402.54
 30
0.0
 10
135.5067
 20
402.54
 30
0.0
 10
135.5067
 20
402.54
 30
0.0
 10
135.5067
 20
402.54
 30
0.0
 10
132.5067
 20
402.54
 30
0.0
 10
132.5067
 20
402.54
 30
0.0
 10
132.5067
 20
402.54
 30
0.0
 10
132.5067
 20
402.54
 30
0.0
 10
132.5067
 20
358.2543
 30
0.0
 10
132.5067
 20
358.2543
 30
0.0
  0
SPLINE
  5
47
330
1F
100
AcDbEntity
  8
layer 1
 62
   250
370
    20
100
AcDbSpline
210
0.0
220
0.0
230
1.0
 70
    11
 71
     3
 72
    20
 73
    16
 74
     0
 42
0.0000000001
 43
0.0000000001
 12
1.0
 22
0.0
 32
0.0
 13
1.0
 23
0.0
 33
0.0
 40
0.0
 40
0.0
 40
0.0
 40
0.0
 40
0.2
 40
0.2
 40
0.2
 40
0.2
 40
0.4
 40
0.4
 40
0.4
 40
0.4
 40
0.6
 40
0.6
 40
0.6
 40
0.6
 40
1.0
 40
1.0
 40
1.0
 40
1.0
 10
132.5067
 20
269.6828
 30
0.0
 10
132.5067
 20
269.6828
 30
0.0
 10
135.5067
 20
269.6828
 30
0.0
 10
135.5067
 20
269.6828
 30
0.0
 10
135.5067
 20
269.6828
 30
0.0
 10
135.5067
 20
269.6828
 30
0.0
 10
135.5067
 20
313.9686
 30
0.0
 10
135.5067
 20
313.9686
 30
0.0
 10
135.5067
 20
313.9686
 30
0.0
 10
135.5067
 20
313.9686
 30
0.0
 10
132.5067
 20
313.9686
 30
0.0
 10
132.5067
 20
313.9686
 30
0.0
 10
132.5067
 20
313.9686
 30
0.0
 10
132.5067
 20
313.9686
 30
0.0
 10
132.5067
 20
269.6828
 30
0.0
 10
132.5067
 20
269.6828
 30
0.0
  0
SPLINE
  5
48
330
1F
100
AcDbEntity
  8
layer 1
 62
   250
370
    20
100
AcDbSpline
210
0.0
220
0.0
230
1.0
 70
    11
 71
     3
 72
    20
 73
    16
 74
     0
 42
0.0000000001
 43
0.0000000001
 12
1.0
 22
0.0
 32
0.0
 13
1.0
 23
0.0
 33
0.0
 40
0.0
 40
0.0
 40
0.0
 40
0.0
 40
0.2
 40
0.2
 40
0.2
 40
0.2
 40
0.4
 40
0.4
 40
0.4
 40
0.4
 40
0.6
 40
0.6
 40
0.6
 40
0.6
 40
1.0
 40
1.0
 40
1.0
 40
1.0
 10
132.5067
 20
181.1114
 30
0.0
 10
132.5067
 20
181.1114
 30
0.0
 10
135.5067
 20
181.1114
 30
0.0
 10
135.5067
 20
181.1114
 30
0.0
 10
135.5067
 20
181.1114
 30
0.0
 10
135.5067
 20
181.1114
 30
0.0
 10
135.5067
 20
225.3971
 30
0.0
 10
135.5067
 20
225.3971
 30
0.0
 10
135.5067
 20
225.3971
 30
0.0
 10
135.5067
 20
225.3971
 30
0.0
 10
132.5067
 20
225.3971
 30
0.0
 10
132.5067
 20
225.3971
 30
0.0
 10
132.5067
 20
225.3971
 30
0.0
 10
132.5067
 20
225.3971
 30
0.0
 10
132.5067
 20
181.1114
 30
0.0
 10
132.5067
 20
181.1114
 30
0.0
  0
SPLINE
  5
49
330
1F
100
AcDbEntity
  8
layer 1
 62
   250
370
    20
100
AcDbSpline
210
0.0
220
0.0
230
1.0
 70
    11
 71
     3
 72
   180
 73
   176
 74
     0
 42
0.0000000001
 43
0.0000000001
 12
1.0
 22
0.0
 32
0.0
 13
1.0
 23
0.0
 33
0.0
 40
0.0
 40
0.0
 40
0.0
 40
0.0
 40
0.0222222222222222
 40
0.0222222222222222
 40
0.0222222222222222
 40
0.0222222222222222
 40
0.0444444444444444
 40
0.0444444444444444
 40
0.0444444444444444
 40
0.0444444444444444
 40
0.0666666666666667
 40
0.0666666666666667
 40
0.0666666666666667
 40
0.0666666666666667
 40
0.0888888888888889
 40
0.0888888888888889
 40
0.0888888888888889
 40
0.0888888888888889
 40
0.1111111111111111
 40
0.1111111111111111
 40
0.1111111111111111
 40
0.1111111111111111
 40
0.1333333333333333
 40
0.1333333333333333
 40
0.1333333333333333
 40
0.1333333333333333
 40
0.1555555555555556
 40
0.1555555555555556
 40
0.1555555555555556
 40
0.1555555555555556
 40
0.1777777777777778
 40
0.1777777777777778
 40
0.1777777777777778
 40
0.1777777777777778
 40
0.2
 40
0.2
 40
0.2
 40
0.2
 40
0.2222222222222222
 40
0.2222222222222222
 40
0.2222222222222222
 40
0.2222222222222222
 40
0.2444444444444444
 40
0.2444444444444444
 40
0.2444444444444444
 40
0.2444444444444444
 40
0.2666666666666667
 40
0.2666666666666667
 40
0.2666666666666667
 40
0.2666666666666667
 40
0.2888888888888889
 40
0.2888888888888889
 40
0.2888888888888889
 40
0.2888888888888889
 40
0.3111111111111111
 40
0.3111111111111111
 40
0.3111111111111111
 40
0.3111111111111111
 40
0.3333333333333333
 40
0.3333333333333333
 40
0.3333333333333333
 40
0.3333333333333333
 40
0.3555555555555556
 40
0.3555555555555556
 40
0.3555555555555556
 40
0.3555555555555556
 40
0.3777777777777778
 40
0.3777777777777778
 40
0.3777777777777778
 40
0.3777777777777778
 40
0.4
 40
0.4
 40
0.4
 40
0.4
 40
0.4222222222222222
 40
0.4222222222222222
 40
0.4222222222222222
 40
0.4222222222222222
 40
0.4444444444444444
 40
0.4444444444444444
 40
0.4444444444444444
 40
0.4444444444444444
 40
0.4666666666666667
 40
0.4666666666666667
 40
0.4666666666666667
 40
0.4666666666666667
 40
0.4888888888888889
 40
0.4888888888888889
 40
0.4888888888888889
 40
0.4888888888888889
 40
0.5111111111111111
 40
0.5111111111111111
 40
0.5111111111111111
 40
0.5111111111111111
 40
0.5333333333333333
 40
0.5333333333333333
 40
0.5333333333333333
 40
0.5333333333333333
 40
0.5555555555555556
 40
0.5555555555555556
 40
0.5555555555555556
 40
0.5555555555555556
 40
0.5777777777777777
 40
0.5777777777777777
 40
0.5777777777777777
 40
0.5777777777777777
 40
0.6
 40
0.6
 40
0.6
 40
0.6
 40
0.6222222222222222
 40
0.6222222222222222
 40
0.6222222222222222
 40
0.6222222222222222
 40
0.6444444444444445
 40
0.6444444444444445
 40
0.6444444444444445
 40
0.6444444444444445
 40
0.6666666666666666
 40
0.6666666666666666
 40
0.6666666666666666
 40
0.6666666666666666
 40
0.6888888888888889
 40
0.6888888888888889
 40
0.6888888888888889
 40
0.6888888888888889
 40
0.7111111111111111
 40
0.7111111111111111
 40
0.7111111111111111
 40
0.7111111111111111
 40
0.7333333333333333
 40
0.7333333333333333
 40
0.7333333333333333
 40
0.7333333333333333
 40
0.7555555555555555
 40
0.7555555555555555
 40
0.7555555555555555
 40
0.7555555555555555
 40
0.7777777777777778
 40
0.7777777777777778
 40
0.7777777777777778
 40
0.7777777777777778
 40
0.8
 40
0.8
 40
0.8
 40
0.8
 40
0.8222222222222222
 40
0.8222222222222222
 40
0.8222222222222222
 40
0.8222222222222222
 40
0.8444444444444444
 40
0.8444444444444444
 40
0.8444444444444444
 40
0.8444444444444444
 40
0.8666666666666667
 40
0.8666666666666667
 40
0.8666666666666667
 40
0.8666666666666667
 40
0.8888888888888888
 40
0.8888888888888888
 40
0.8888888888888888
 40
0.8888888888888888
 40
0.9111111111111111
 40
0.9111111111111111
 40
0.9111111111111111
 40
0.9111111111111111
 40
0.9333333333333333
 40
0.9333333333333333
 40
0.9333333333333333
 40
0.9333333333333333
 40
0.9555555555555556
 40
0.9555555555555556
 40
0.9555555555555556
 40
0.9555555555555556
 40
1.0
 40
1.0
 40
1.0
 40
1.0
 10
552.5067
 20
136.8257
 30
0.0
 10
552.5067
 20
136.8257
 30
0.0
 10
511.5976
 20
136.8257
 30
0.0
 10
511.5976
 20
136.8257
 30
0.0
 10
511.5976
 20
136.8257
 30
0.0
 10
511.5976
 20
136.8257
 30
0.0
 10
511.5976
 20
139.8257
 30
0.0
 10
511.5976
 20
139.8257
 30
0.0
 10
511.5976
 20
139.8257
 30
0.0
 10
511.5976
 20
139.8257
 30
0.0
 10
470.6885
 20
139.8257
 30
0.0
 10
470.6885
 20
139.8257
 30
0.0
 10
470.6885
 20
139.8257
 30
0.0
 10
470.6885
 20
139.8257
 30
0.0
 10
470.6885
 20
136.8257
 30
0.0
 10
470.6885
 20
136.8257
 30
0.0
 10
470.6885
 20
136.8257
 30
0.0
 10
470.6885
 20
136.8257
 30
0.0
 10
429.7794
 20
136.8257
 30
0.0
 10
429.7794
 20
136.8257
 30
0.0
 10
429.7794
 20
136.8257
 30
0.0
 10
429.7794
 20
136.8257
 30
0.0
 10
429.7794
 20
139.8257
 30
0.0
 10
429.7794
 20
139.8257
 30
0.0
 10
429.7794
 20
139.8257
 30
0.0
 10
429.7794
 20
139.8257
 30
0.0
 10
388.8703
 20
139.8257
 30
0.0
 10
388.8703
 20
139.8257
 30
0.0
 10
388.8703
 20
139.8257
 30
0.0
 10
388.8703
 20
139.8257
 30
0.0
 10
388.8703
 20
136.8257
 30
0.0
 10
388.8703
 20
136.8257
 30
0.0
 10
388.8703
 20
136.8257
 30
0.0
 10
388.8703
 20
136.8257
 30
0.0
 10
347.9612
 20
136.8257
 30
0.0
 10
347.9612
 20
136.8257
 30
0.0
 10
347.9612
 20
136.8257
 30
0.0
 10
347.9612
 20
136.8257
 30
0.0
 10
347.9612
 20
139.8257
 30
0.0
 10
347.9612
 20
139.8257
 30
0.0
 10
347.9612
 20
139.8257
 30
0.0
 10
347.9612
 20
139.8257
 30
0.0
 10
307.0522
 20
139.8257
 30
0.0
 10
307.0522
 20
139.8257
 30
0.0
 10
307.0522
 20
139.8257
 30
0.0
 10
307.0522
 20
139.8257
 30
0.0
 10
307.0522
 20
136.8257
 30
0.0
 10
307.0522
 20
136.8257
 30
0.0
 10
307.0522
 20
136.8257
 30
0.0
 10
307.0522
 20
136.8257
 30
0.0
 10
266.1431
 20
136.8257
 30
0.0
 10
266.1431
 20
136.8257
 30
0.0
 10
266.1431
 20
136.8257
 30
0.0
 10
266.1431
 20
136.8257
 30
0.0
 10
266.1431
 20
139.8257
 30
0.0
 10
266.1431
 20
139.8257
 30
0.0
 10
266.1431
 20
139.8257
 30
0.0
 10
266.1431
 20
139.8257
 30
0.0
 10
225.234
 20
139.8257
 30
0.0
 10
225.234
 20
139.8257
 30
0.0
 10
225.234
 20
139.8257
 30
0.0
 10
225.234
 20
139.8257
 30
0.0
 10
225.234
 20
136.8257
 30
0.0
 10
225.234
 20
136.8257
 30
0.0
 10
225.234
 20
136.8257
 30
0.0
 10
225.234
 20
136.8257
 30
0.0
 10
184.3249
 20
136.8257
 30
0.0
 10
184.3249
 20
136.8257
 30
0.0
 10
184.3249
 20
136.8257
 30
0.0
 10
184.3249
 20
136.8257
 30
0.0
 10
184.3249
 20
139.8257
 30
0.0
 10
184.3249
 20
139.8257
 30
0.0
 10
184.3249
 20
139.8257
 30
0.0
 10
184.3249
 20
139.8257
 30
0.0
 10
143.4158
 20
139.8257
 30
0.0
 10
143.4158
 20
139.8257
 30
0.0
 10
143.4158
 20
139.8257
 30
0.0
 10
143.4158
 20
139.8257
 30
0.0
 10
143.4158
 20
136.8257
 30
0.0
 10
143.4158
 20
136.8257
 30
0.0
 10
143.4158
 20
136.8257
 30
0.0
 10
143.4158
 20
136.8257
 30
0.0
 10
102.5067
 20
136.8257
 30
0.0
 10
102.5067
 20
136.8257
 30
0.0
 10
102.5067
 20
136.8257
 30
0.0
 10
102.5067
 20
136.8257
 30
0.0
 10
102.5067
 20
446.8257
 30
0.0
 10
102.5067
 20
446.8257
 30
0.0
 10
102.5067
 20
446.8257
 30
0.0
 10
102.5067
 20
446.8257
 30
0.0
 10
143.4158
 20
446.8257
 30
0.0
 10
143.4158
 20
446.8257
 30
0.0
 10
143.4158
 20
446.8257
 30
0.0
 10
143.4158
 20
446.8257
 30
0.0
 10
143.4158
 20
443.8257
 30
0.0
 10
143.4158
 20
443.8257
 30
0.0
 10
143.4158
 20
443.8257
 30
0.0
 10
143.4158
 20
443.8257
 30
0.0
 10
184.3249
 20
443.8257
 30
0.0
 10
184.3249
 20
443.8257
 30
0.0
 10
184.3249
 20
443.8257
 30
0.0
 10
184.3249
 20
443.8257
 30
0.0
 10
184.3249
 20
446.8257
 30
0.0
 10
184.3249
 20
446.8257
 30
0.0
 10
184.3249
 20
446.8257
 30
0.0
 10
184.3249
 20
446.8257
 30
0.0
 10
225.234
 20
446.8257
 30
0.0
 10
225.234
 20
446.8257
 30
0.0
 10
225.234
 20
446.8257
 30
0.0
 10
225.234
 20
446.8257
 30
0.0
 10
225.234
 20
443.8257
 30
0.0
 10
225.234
 20
443.8257
 30
0.0
 10
225.234
 20
443.8257
 30
0.0
 10
225.234
 20
443.8257
 30
0.0
 10
266.1431
 20
443.8257
 30
0.0
 10
266.1431
 20
443.8257
 30
0.0
 10
266.1431
 20
443.8257
 30
0.0
 10
266.1431
 20
443.8257
 30
0.0
 10
266.1431
 20
446.8257
 30
0.0
 10
266.1431
 20
446.8257
 30
0.0
 10
266.1431
 20
446.8257
 30
0.0
 10
266.1431
 20
446.8257
 30
0.0
 10
307.0522
 20
446.8257
 30
0.0
 10
307.0522
 20
446.8257
 30
0.0
 10
307.0522
 20
446.8257
 30
0.0
 10
307.0522
 20
446.8257
 30
0.0
 10
307.0522
 20
443.8257
 30
0.0
 10
307.0522
 20
443.8257
 30
0.0
 10
307.0522
 20
443.8257
 30
0.0
 10
307.0522
 20
443.8257
 30
0.0
 10
347.9612
 20
443.8257
 30
0.0
 10
347.9612
 20
443.8257
 30
0.0
 10
347.9612
 20
443.8257
 30
0.0
 10
347.9612
 20
443.8257
 30
0.0
 10
347.9612
 20
446.8257
 30
0.0
 10
347.9612
 20
446.8257
 30
0.0
 10
347.9612
 20
446.8257
 30
0.0
 10
347.9612
 20
446.8257
 30
0.0
 10
388.8703
 20
446.8257
 30
0.0
 10
388.8703
 20
446.8257
 30
0.0
 10
388.8703
 20
446.8257
 30
0.0
 10
388.8703
 20
446.8257
 30
0.0
 10
388.8703
 20
443.8257
 30
0.0
 10
388.8703
 20
443.8257
 30
0.0
 10
388.8703
 20
443.8257
 30
0.0
 10
388.8703
 20
443.8257
 30
0.0
 10
429.7794
 20
443.8257
 30
0.0
 10
429.7794
 20
443.8257
 30
0.0
 10
429.7794
 20
443.8257
 30
0.0
 10
429.7794
 20
443.8257
 30
0.0
 10
429.7794
 20
446.8257
 30
0.0
 10
429.7794
 20
446.8257
 30
0.0
 10
429.7794
 20
446.8257
 30
0.0
 10
429.7794
 20
446.8257
 30
0.0
 10
470.6885
 20
446.8257
 30
0.0
 10
470.6885
 20
446.8257
 30
0.0
 10
470.6885
 20
446.8257
 30
0.0
 10
470.6885
 20
446.8257
 30
0.0
 10
470.6885
 20
443.8257
 30
0.0
 10
470.6885
 20
443.8257
 30
0.0
 10
470.6885
 20
443.8257
 30
0.0
 10
470.6885
 20
443.8257
 30
0.0
 10
511.5976
 20
443.8257
 30
0.0
 10
511.5976
 20
443.8257
 30
0.0
 10
511.5976
 20
443.8257
 30
0.0
 10
511.5976
 20
443.8257
 30
0.0
 10
511.5976
 20
446.8257
 30
0.0
 10
511.5976
 20
446.8257
 30
0.0
 10
511.5976
 20
446.8257
 30
0.0
 10
511.5976
 20
446.8257
 30
0.0
 10
552.5067
 20
446.8257
 30
0.0
 10
552.5067
 20
446.8257
 30
0.0
 10
552.5067
 20
446.8257
 30
0.0
 10
552.5067
 20
446.8257
 30
0.0
 10
552.5067
 20
136.8257
 30
0.0
 10
552.5067
 20
136.8257
 30
0.0
  0
SPLINE
  5
4A
330
1F
100
AcDbEntity
  8
layer 1
 62
   250
370
    20
100
AcDbSpline
210
0.0
220
0.0
230
1.0
 70
    11
 71
     3
 72
    36
 73
    32
 74
     0
 42
0.0000000001
 43
0.0000000001
 12
1.0
 22
0.0
 32
0.0
 13
1.0
 23
0.0
 33
0.0
 40
0.0
 40
0.0
 40
0.0
 40
0.0
 40
0.1111111111111111
 40
0.1111111111111111
 40
0.1111111111111111
 40
0.1111111111111111
 40
0.2222222222222222
 40
0.2222222222222222
 40
0.2222222222222222
 40
0.2222222222222222
 40
0.3333333333333333
 40
0.3333333333333333
 40
0.3333333333333333
 40
0.3333333333333333
 40
0.4444444444444444
 40
0.4444444444444444
 40
0.4444444444444444
 40
0.4444444444444444
 40
0.5555555555555556
 40
0.5555555555555556
 40
0.5555555555555556
 40
0.5555555555555556
 40
0.6666666666666666
 40
0.6666666666666666
 40
0.6666666666666666
 40
0.6666666666666666
 40
0.7777777777777778
 40
0.7777777777777778
 40
0.7777777777777778
 40
0.7777777777777778
 40
1.0
 40
1.0
 40
1.0
 40
1.0
 10
514.2743
 20
349.1946
 30
0.0
 10
514.2743
 20
349.1946
 30
0.0
 10
484.2742
 20
349.1946
 30
0.0
 10
484.2742
 20
349.1946
 30
0.0
 10
484.2742
 20
349.1946
 30
0.0
 10
478.7743
 20
349.1946
 30
0.0
 10
474.2743
 20
344.6946
 30
0.0
 10
474.2743
 20
339.1946
 30
0.0
 10
474.2743
 20
339.1946
 30
0.0
 10
474.2743
 20
339.1946
 30
0.0
 10
474.2743
 20
259.1946
 30
0.0
 10
474.2743
 20
259.1946
 30
0.0
 10
474.2743
 20
259.1946
 30
0.0
 10
474.2743
 20
253.6946
 30
0.0
 10
478.7743
 20
249.1946
 30
0.0
 10
484.2742
 20
249.1946
 30
0.0
 10
484.2742
 20
249.1946
 30
0.0
 10
484.2742
 20
249.1946
 30
0.0
 10
514.2743
 20
249.1946
 30
0.0
 10
514.2743
 20
249.1946
 30
0.0
 10
514.2743
 20
249.1946
 30
0.0
 10
519.7743
 20
249.1946
 30
0.0
 10
524.2743
 20
253.6946
 30
0.0
 10
524.2743
 20
259.1946
 30
0.0
 10
524.2743
 20
259.1946
 30
0.0
 10
524.2743
 20
259.1946
 30
0.0
 10
524.2743
 20
339.1946
 30
0.0
 10
524.2743
 20
339.1946
 30
0.0
 10
524.2743
 20
339.1946
 30
0.0
 10
524.2743
 20
344.6946
 30
0.0
 10
519.7743
 20
349.1946
 30
0.0
 10
514.2743
 20
349.1946
 30
0.0
  0
SPLINE
  5
4B
330
1F
100
AcDbEntity
  8
layer 1
 62
   250
370
    20
100
AcDbSpline
210
0.0
220
0.0
230
1.0
 70
    11
 71
     3
 72
    36
 73
    32
 74
     0
 42
0.0000000001
 43
0.0000000001
 12
1.0
 22
0.0
 32
0.0
 13
1.0
 23
0.0
 33
0.0
 40
0.0
 40
0.0
 40
0.0
 40
0.0
 40
0.1111111111111111
 40
0.1111111111111111
 40
0.1111111111111111
 40
0.1111111111111111
 40
0.2222222222222222
 40
0.2222222222222222
 40
0.2222222222222222
 40
0.2222222222222222
 40
0.3333333333333333
 40
0.3333333333333333
 40
0.3333333333333333
 40
0.3333333333333333
 40
0.4444444444444444
 40
0.4444444444444444
 40
0.4444444444444444
 40
0.4444444444444444
 40
0.5555555555555556
 40
0.5555555555555556
 40
0.5555555555555556
 40
0.5555555555555556
 40
0.6666666666666666
 40
0.6666666666666666
 40
0.6666666666666666
 40
0.6666666666666666
 40
0.7777777777777778
 40
0.7777777777777778
 40
0.7777777777777778
 40
0.7777777777777778
 40
1.0
 40
1.0
 40
1.0
 40
1.0
 10
-316.8566
 20
349.5906
 30
0.0
 10
-316.8566
 20
349.5906
 30
0.0
 10
-286.8565
 20
349.5906
 30
0.0
 10
-286.8565
 20
349.5906
 30
0.0
 10
-286.8565
 20
349.5906
 30
0.0
 10
-281.3566
 20
349.5906
 30
0.0
 10
-276.8566
 20
345.0906
 30
0.0
 10
-276.8566
 20
339.5906
 30
0.0
 10
-276.8566
 20
339.5906
 30
0.0
 10
-276.8566
 20
339.5906
 30
0.0
 10
-276.8566
 20
259.5906
 30
0.0
 10
-276.8566
 20
259.5906
 30
0.0
 10
-276.8566
 20
259.5906
 30
0.0
 10
-276.8566
 20
254.0906
 30
0.0
 10
-281.3566
 20
249.5906
 30
0.0
 10
-286.8565
 20
249.5906
 30
0.0
 10
-286.8565
 20
249.5906
 30
0.0
 10
-286.8565
 20
249.5906
 30
0.0
 10
-316.8566
 20
249.5906
 30
0.0
 10
-316.8566
 20
249.5906
 30
0.0
 10
-316.8566
 20
249.5906
 30
0.0
 10
-322.3566
 20
249.5906
 30
0.0
 10
-326.8566
 20
254.0906
 30
0.0
 10
-326.8566
 20
259.5906
 30
0.0
 10
-326.8566
 20
259.5906
 30
0.0
 10
-326.8566
 20
259.5906
 30
0.0
 10
-326.8566
 20
339.5906
 30
0.0
 10
-326.8566
 20
339.5906
 30
0.0
 10
-326.8566
 20
339.5906
 30
0.0
 10
-326.8566
 20
345.0906
 30
0.0
 10
-322.3566
 20
349.5906
 30
0.0
 10
-316.8566
 20
349.5906
 30
0.0
  0
SPLINE
  5
4C
330
1F
100
AcDbEntity
  8
layer 1
 62
   250
370
    20
100
AcDbSpline
210
0.0
220
0.0
230
1.0
 70
    11
 71
     3
 72
    20
 73
    16
 74
     0
 42
0.0000000001
 43
0.0000000001
 12
1.0
 22
0.0
 32
0.0
 13
1.0
 23
0.0
 33
0.0
 40
0.0
 40
0.0
 40
0.0
 40
0.0
 40
0.2
 40
0.2
 40
0.2
 40
0.2
 40
0.4
 40
0.4
 40
0.4
 40
0.4
 40
0.6
 40
0.6
 40
0.6
 40
0.6
 40
1.0
 40
1.0
 40
1.0
 40
1.0
 10
64.911
 20
358.6503
 30
0.0
 10
64.911
 20
358.6503
 30
0.0
 10
61.911
 20
358.6503
 30
0.0
 10
61.911
 20
358.6503
 30
0.0
 10
61.911
 20
358.6503
 30
0.0
 10
61.911
 20
358.6503
 30
0.0
 10
61.911
 20
402.936
 30
0.0
 10
61.911
 20
402.936
 30
0.0
 10
61.911
 20
402.936
 30
0.0
 10
61.911
 20
402.936
 30
0.0
 10
64.911
 20
402.936
 30
0.0
 10
64.911
 20
402.936
 30
0.0
 10
64.911
 20
402.936
 30
0.0
 10
64.911
 20
402.936
 30
0.0
 10
64.911
 20
358.6503
 30
0.0
 10
64.911
 20
358.6503
 30
0.0
  0
SPLINE
  5
4D
330
1F
100
AcDbEntity
  8
layer 1
 62
   250
370
    20
100
AcDbSpline
210
0.0
220
0.0
230
1.0
 70
    11
 71
     3
 72
    20
 73
    16
 74
     0
 42
0.0000000001
 43
0.0000000001
 12
1.0
 22
0.0
 32
0.0
 13
1.0
 23
0.0
 33
0.0
 40
0.0
 40
0.0
 40
0.0
 40
0.0
 40
0.2
 40
0.2
 40
0.2
 40
0.2
 40
0.4
 40
0.4
 40
0.4
 40
0.4
 40
0.6
 40
0.6
 40
0.6
 40
0.6
 40
1.0
 40
1.0
 40
1.0
 40
1.0
 10
64.911
 20
270.0788
 30
0.0
 10
64.911
 20
270.0788
 30
0.0
 10
61.911
 20
270.0788
 30
0.0
 10
61.911
 20
270.0788
 30
0.0
 10
61.911
 20
270.0788
 30
0.0
 10
61.911
 20
270.0788
 30
0.0
 10
61.911
 20
314.3646
 30
0.0
 10
61.911
 20
314.3646
 30
0.0
 10
61.911
 20
314.3646
 30
0.0
 10
61.911
 20
314.3646
 30
0.0
 10
64.911
 20
314.3646
 30
0.0
 10
64.911
 20
314.3646
 30
0.0
 10
64.911
 20
314.3646
 30
0.0
 10
64.911
 20
314.3646
 30
0.0
 10
64.911
 20
270.0788
 30
0.0
 10
64.911
 20
270.0788
 30
0.0
  0
SPLINE
  5
4E
330
1F
100
AcDbEntity
  8
layer 1
 62
   250
370
    20
100
AcDbSpline
210
0.0
220
0.0
230
1.0
 70
    11
 71
     3
 72
    20
 73
    16
 74
     0
 42
0.0000000001
 43
0.0000000001
 12
1.0
 22
0.0
 32
0.0
 13
1.0
 23
0.0
 33
0.0
 40
0.0
 40
0.0
 40
0.0
 40
0.0
 40
0.2
 40
0.2
 40
0.2
 40
0.2
 40
0.4
 40
0.4
 40
0.4
 40
0.4
 40
0.6
 40
0.6
 40
0.6
 40
0.6
 40
1.0
 40
1.0
 40
1.0
 40
1.0
 10
64.911
 20
181.5074
 30
0.0
 10
64.911
 20
181.5074
 30
0.0
 10
61.911
 20
181.5074
 30
0.0
 10
61.911
 20
181.5074
 30
0.0
 10
61.911
 20
181.5074
 30
0.0
 10
61.911
 20
181.5074
 30
0.0
 10
61.911
 20
225.7931
 30
0.0
 10
61.911
 20
225.7931
 30
0.0
 10
61.911
 20
225.7931
 30
0.0
 10
61.911
 20
225.7931
 30
0.0
 10
64.911
 20
225.7931
 30
0.0
 10
64.911
 20
225.7931
 30
0.0
 10
64.911
 20
225.7931
 30
0.0
 10
64.911
 20
225.7931
 30
0.0
 10
64.911
 20
181.5074
 30
0.0
 10
64.911
 20
181.5074
 30
0.0
  0
SPLINE
  5
4F
330
1F
100
AcDbEntity
  8
layer 1
 62
   250
370
    20
100
AcDbSpline
210
0.0
220
0.0
230
1.0
 70
    11
 71
     3
 72
   180
 73
   176
 74
     0
 42
0.0000000001
 43
0.0000000001
 12
1.0
 22
0.0
 32
0.0
 13
1.0
 23
0.0
 33
0.0
 40
0.0
 40
0.0
 40
0.0
 40
0.0
 40
0.0222222222222222
 40
0.0222222222222222
 40
0.0222222222222222
 40
0.0222222222222222
 40
0.0444444444444444
 40
0.0444444444444444
 40
0.0444444444444444
 40
0.0444444444444444
 40
0.0666666666666667
 40
0.0666666666666667
 40
0.0666666666666667
 40
0.0666666666666667
 40
0.0888888888888889
 40
0.0888888888888889
 40
0.0888888888888889
 40
0.0888888888888889
 40
0.1111111111111111
 40
0.1111111111111111
 40
0.1111111111111111
 40
0.1111111111111111
 40
0.1333333333333333
 40
0.1333333333333333
 40
0.1333333333333333
 40
0.1333333333333333
 40
0.1555555555555556
 40
0.1555555555555556
 40
0.1555555555555556
 40
0.1555555555555556
 40
0.1777777777777778
 40
0.1777777777777778
 40
0.1777777777777778
 40
0.1777777777777778
 40
0.2
 40
0.2
 40
0.2
 40
0.2
 40
0.2222222222222222
 40
0.2222222222222222
 40
0.2222222222222222
 40
0.2222222222222222
 40
0.2444444444444444
 40
0.2444444444444444
 40
0.2444444444444444
 40
0.2444444444444444
 40
0.2666666666666667
 40
0.2666666666666667
 40
0.2666666666666667
 40
0.2666666666666667
 40
0.2888888888888889
 40
0.2888888888888889
 40
0.2888888888888889
 40
0.2888888888888889
 40
0.3111111111111111
 40
0.3111111111111111
 40
0.3111111111111111
 40
0.3111111111111111
 40
0.3333333333333333
 40
0.3333333333333333
 40
0.3333333333333333
 40
0.3333333333333333
 40
0.3555555555555556
 40
0.3555555555555556
 40
0.3555555555555556
 40
0.3555555555555556
 40
0.3777777777777778
 40
0.3777777777777778
 40
0.3777777777777778
 40
0.3777777777777778
 40
0.4
 40
0.4
 40
0.4
 40
0.4
 40
0.4222222222222222
 40
0.4222222222222222
 40
0.4222222222222222
 40
0.4222222222222222
 40
0.4444444444444444
 40
0.4444444444444444
 40
0.4444444444444444
 40
0.4444444444444444
 40
0.4666666666666667
 40
0.4666666666666667
 40
0.4666666666666667
 40
0.4666666666666667
 40
0.4888888888888889
 40
0.4888888888888889
 40
0.4888888888888889
 40
0.4888888888888889
 40
0.5111111111111111
 40
0.5111111111111111
 40
0.5111111111111111
 40
0.5111111111111111
 40
0.5333333333333333
 40
0.5333333333333333
 40
0.5333333333333333
 40
0.5333333333333333
 40
0.5555555555555556
 40
0.5555555555555556
 40
0.5555555555555556
 40
0.5555555555555556
 40
0.5777777777777777
 40
0.5777777777777777
 40
0.5777777777777777
 40
0.5777777777777777
 40
0.6
 40
0.6
 40
0.6
 40
0.6
 40
0.6222222222222222
 40
0.6222222222222222
 40
0.6222222222222222
 40
0.6222222222222222
 40
0.6444444444444445
 40
0.6444444444444445
 40
0.6444444444444445
 40
0.6444444444444445
 40
0.6666666666666666
 40
0.6666666666666666
 40
0.6666666666666666
 40
0.6666666666666666
 40
0.6888888888888889
 40
0.6888888888888889
 40
0.6888888888888889
 40
0.6888888888888889
 40
0.7111111111111111
 40
0.7111111111111111
 40
0.7111111111111111
 40
0.7111111111111111
 40
0.7333333333333333
 40
0.7333333333333333
 40
0.7333333333333333
 40
0.7333333333333333
 40
0.7555555555555555
 40
0.7555555555555555
 40
0.7555555555555555
 40
0.7555555555555555
 40
0.7777777777777778
 40
0.7777777777777778
 40
0.7777777777777778
 40
0.7777777777777778
 40
0.8
 40
0.8
 40
0.8
 40
0.8
 40
0.8222222222222222
 40
0.8222222222222222
 40
0.8222222222222222
 40
0.8222222222222222
 40
0.8444444444444444
 40
0.8444444444444444
 40
0.8444444444444444
 40
0.8444444444444444
 40
0.8666666666666667
 40
0.8666666666666667
 40
0.8666666666666667
 40
0.8666666666666667
 40
0.8888888888888888
 40
0.8888888888888888
 40
0.8888888888888888
 40
0.8888888888888888
 40
0.9111111111111111
 40
0.9111111111111111
 40
0.9111111111111111
 40
0.9111111111111111
 40
0.9333333333333333
 40
0.9333333333333333
 40
0.9333333333333333
 40
0.9333333333333333
 40
0.9555555555555556
 40
0.9555555555555556
 40
0.9555555555555556
 40
0.9555555555555556
 40
1.0
 40
1.0
 40
1.0
 40
1.0
 10
-355.089
 20
137.2217
 30
0.0
 10
-355.089
 20
137.2217
 30
0.0
 10
-314.1799
 20
137.2217
 30
0.0
 10
-314.1799
 20
137.2217
 30
0.0
 10
-314.1799
 20
137.2217
 30
0.0
 10
-314.1799
 20
137.2217
 30
0.0
 10
-314.1799
 20
140.2217
 30
0.0
 10
-314.1799
 20
140.2217
 30
0.0
 10
-314.1799
 20
140.2217
 30
0.0
 10
-314.1799
 20
140.2217
 30
0.0
 10
-273.2708
 20
140.2217
 30
0.0
 10
-273.2708
 20
140.2217
 30
0.0
 10
-273.2708
 20
140.2217
 30
0.0
 10
-273.2708
 20
140.2217
 30
0.0
 10
-273.2708
 20
137.2217
 30
0.0
 10
-273.2708
 20
137.2217
 30
0.0
 10
-273.2708
 20
137.2217
 30
0.0
 10
-273.2708
 20
137.2217
 30
0.0
 10
-232.3617
 20
137.2217
 30
0.0
 10
-232.3617
 20
137.2217
 30
0.0
 10
-232.3617
 20
137.2217
 30
0.0
 10
-232.3617
 20
137.2217
 30
0.0
 10
-232.3617
 20
140.2217
 30
0.0
 10
-232.3617
 20
140.2217
 30
0.0
 10
-232.3617
 20
140.2217
 30
0.0
 10
-232.3617
 20
140.2217
 30
0.0
 10
-191.4526
 20
140.2217
 30
0.0
 10
-191.4526
 20
140.2217
 30
0.0
 10
-191.4526
 20
140.2217
 30
0.0
 10
-191.4526
 20
140.2217
 30
0.0
 10
-191.4526
 20
137.2217
 30
0.0
 10
-191.4526
 20
137.2217
 30
0.0
 10
-191.4526
 20
137.2217
 30
0.0
 10
-191.4526
 20
137.2217
 30
0.0
 10
-150.5435
 20
137.2217
 30
0.0
 10
-150.5435
 20
137.2217
 30
0.0
 10
-150.5435
 20
137.2217
 30
0.0
 10
-150.5435
 20
137.2217
 30
0.0
 10
-150.5435
 20
140.2217
 30
0.0
 10
-150.5435
 20
140.2217
 30
0.0
 10
-150.5435
 20
140.2217
 30
0.0
 10
-150.5435
 20
140.2217
 30
0.0
 10
-109.6345
 20
140.2217
 30
0.0
 10
-109.6345
 20
140.2217
 30
0.0
 10
-109.6345
 20
140.2217
 30
0.0
 10
-109.6345
 20
140.2217
 30
0.0
 10
-109.6345
 20
137.2217
 30
0.0
 10
-109.6345
 20
137.2217
 30
0.0
 10
-109.6345
 20
137.2217
 30
0.0
 10
-109.6345
 20
137.2217
 30
0.0
 10
-68.7254
 20
137.2217
 30
0.0
 10
-68.7254
 20
137.2217
 30
0.0
 10
-68.7254
 20
137.2217
 30
0.0
 10
-68.7254
 20
137.2217
 30
0.0
 10
-68.7254
 20
140.2217
 30
0.0
 10
-68.7254
 20
140.2217
 30
0.0
 10
-68.7254
 20
140.2217
 30
0.0
 10
-68.7254
 20
140.2217
 30
0.0
 10
-27.8163
 20
140.2217
 30
0.0
 10
-27.8163
 20
140.2217
 30
0.0
 10
-27.8163
 20
140.2217
 30
0.0
 10
-27.8163
 20
140.2217
 30
0.0
 10
-27.8163
 20
137.2217
 30
0.0
 10
-27.8163
 20
137.2217
 30
0.0
 10
-27.8163
 20
137.2217
 30
0.0
 10
-27.8163
 20
137.2217
 30
0.0
 10
13.0928
 20
137.2217
 30
0.0
 10
13.0928
 20
137.2217
 30
0.0
 10
13.0928
 20
137.2217
 30
0.0
 10
13.0928
 20
137.2217
 30
0.0
 10
13.0928
 20
140.2217
 30
0.0
 10
13.0928
 20
140.2217
 30
0.0
 10
13.0928
 20
140.2217
 30
0.0
 10
13.0928
 20
140.2217
 30
0.0
 10
54.0019
 20
140.2217
 30
0.0
 10
54.0019
 20
140.2217
 30
0.0
 10
54.0019
 20
140.2217
 30
0.0
 10
54.0019
 20
140.2217
 30
0.0
 10
54.0019
 20
137.2217
 30
0.0
 10
54.0019
 20
137.2217
 30
0.0
 10
54.0019
 20
137.2217
 30
0.0
 10
54.0019
 20
137.2217
 30
0.0
 10
94.911
 20
137.2217
 30
0.0
 10
94.911
 20
137.2217
 30
0.0
 10
94.911
 20
137.2217
 30
0.0
 10
94.911
 20
137.2217
 30
0.0
 10
94.911
 20
447.2217
 30
0.0
 10
94.911
 20
447.2217
 30
0.0
 10
94.911
 20
447.2217
 30
0.0
 10
94.911
 20
447.2217
 30
0.0
 10
54.0019
 20
447.2217
 30
0.0
 10
54.0019
 20
447.2217
 30
0.0
 10
54.0019
 20
447.2217
 30
0.0
 10
54.0019
 20
447.2217
 30
0.0
 10
54.0019
 20
444.2217
 30
0.0
 10
54.0019
 20
444.2217
 30
0.0
 10
54.0019
 20
444.2217
 30
0.0
 10
54.0019
 20
444.2217
 30
0.0
 10
13.0928
 20
444.2217
 30
0.0
 10
13.0928
 20
444.2217
 30
0.0
 10
13.0928
 20
444.2217
 30
0.0
 10
13.0928
 20
444.2217
 30
0.0
 10
13.0928
 20
447.2217
 30
0.0
 10
13.0928
 20
447.2217
 30
0.0
 10
13.0928
 20
447.2217
 30
0.0
 10
13.0928
 20
447.2217
 30
0.0
 10
-27.8163
 20
447.2217
 30
0.0
 10
-27.8163
 20
447.2217
 30
0.0
 10
-27.8163
 20
447.2217
 30
0.0
 10
-27.8163
 20
447.2217
 30
0.0
 10
-27.8163
 20
444.2217
 30
0.0
 10
-27.8163
 20
444.2217
 30
0.0
 10
-27.8163
 20
444.2217
 30
0.0
 10
-27.8163
 20
444.2217
 30
0.0
 10
-68.7254
 20
444.2217
 30
0.0
 10
-68.7254
 20
444.2217
 30
0.0
 10
-68.7254
 20
444.2217
 30
0.0
 10
-68.7254
 20
444.2217
 30
0.0
 10
-68.7254
 20
447.2217
 30
0.0
 10
-68.7254
 20
447.2217
 30
0.0
 10
-68.7254
 20
447.2217
 30
0.0
 10
-68.7254
 20
447.2217
 30
0.0
 10
-109.6345
 20
447.2217
 30
0.0
 10
-109.6345
 20
447.2217
 30
0.0
 10
-109.6345
 20
447.2217
 30
0.0
 10
-109.6345
 20
447.2217
 30
0.0
 10
-109.6345
 20
444.2217
 30
0.0
 10
-109.6345
 20
444.2217
 30
0.0
 10
-109.6345
 20
444.2217
 30
0.0
 10
-109.6345
 20
444.2217
 30
0.0
 10
-150.5435
 20
444.2217
 30
0.0
 10
-150.5435
 20
444.2217
 30
0.0
 10
-150.5435
 20
444.2217
 30
0.0
 10
-150.5435
 20
444.2217
 30
0.0
 10
-150.5435
 20
447.2217
 30
0.0
 10
-150.5435
 20
447.2217
 30
0.0
 10
-150.5435
 20
447.2217
 30
0.0
 10
-150.5435
 20
447.2217
 30
0.0
 10
-191.4526
 20
447.2217
 30
0.0
 10
-191.4526
 20
447.2217
 30
0.0
 10
-191.4526
 20
447.2217
 30
0.0
 10
-191.4526
 20
447.2217
 30
0.0
 10
-191.4526
 20
444.2217
 30
0.0
 10
-191.4526
 20
444.2217
 30
0.0
 10
-191.4526
 20
444.2217
 30
0.0
 10
-191.4526
 20
444.2217
 30
0.0
 10
-232.3617
 20
444.2217
 30
0.0
 10
-232.3617
 20
444.2217
 30
0.0
 10
-232.3617
 20
444.2217
 30
0.0
 10
-232.3617
 20
444.2217
 30
0.0
 10
-232.3617
 20
447.2217
 30
0.0
 10
-232.3617
 20
447.2217
 30
0.0
 10
-232.3617
 20
447.2217
 30
0.0
 10
-232.3617
 20
447.2217
 30
0.0
 10
-273.2708
 20
447.2217
 30
0.0
 10
-273.2708
 20
447.2217
 30
0.0
 10
-273.2708
 20
447.2217
 30
0.0
 10
-273.2708
 20
447.2217
 30
0.0
 10
-273.2708
 20
444.2217
 30
0.0
 10
-273.2708
 20
444.2217
 30
0.0
 10
-273.2708
 20
444.2217
 30
0.0
 10
-273.2708
 20
444.2217
 30
0.0
 10
-314.1799
 20
444.2217
 30
0.0
 10
-314.1799
 20
444.2217
 30
0.0
 10
-314.1799
 20
444.2217
 30
0.0
 10
-314.1799
 20
444.2217
 30
0.0
 10
-314.1799
 20
447.2217
 30
0.0
 10
-314.1799
 20
447.2217
 30
0.0
 10
-314.1799
 20
447.2217
 30
0.0
 10
-314.1799
 20
447.2217
 30
0.0
 10
-355.089
 20
447.2217
 30
0.0
 10
-355.089
 20
447.2217
 30
0.0
 10
-355.089
 20
447.2217
 30
0.0
 10
-355.089
 20
447.2217
 30
0.0
 10
-355.089
 20
137.2217
 30
0.0
 10
-355.089
 20
137.2217
 30
0.0
  0
SPLINE
  5
50
330
1F
100
AcDbEntity
  8
layer 1
 62
   250
370
    20
100
AcDbSpline
210
0.0
220
0.0
230
1.0
 70
    11
 71
     3
 72
    20
 73
    16
 74
     0
 42
0.0000000001
 43
0.0000000001
 12
1.0
 22
0.0
 32
0.0
 13
1.0
 23
0.0
 33
0.0
 40
0.0
 40
0.0
 40
0.0
 40
0.0
 40
0.2
 40
0.2
 40
0.2
 40
0.2
 40
0.4
 40
0.4
 40
0.4
 40
0.4
 40
0.6
 40
0.6
 40
0.6
 40
0.6
 40
1.0
 40
1.0
 40
1.0
 40
1.0
 10
137.7718
 20
-232.6195
 30
0.0
 10
137.7718
 20
-232.6195
 30
0.0
 10
140.7718
 20
-232.6195
 30
0.0
 10
140.7718
 20
-232.6195
 30
0.0
 10
140.7718
 20
-232.6195
 30
0.0
 10
140.7718
 20
-232.6195
 30
0.0
 10
140.7718
 20
-273.5286
 30
0.0
 10
140.7718
 20
-273.5286
 30
0.0
 10
140.7718
 20
-273.5286
 30
0.0
 10
140.7718
 20
-273.5286
 30
0.0
 10
137.7718
 20
-273.5286
 30
0.0
 10
137.7718
 20
-273.5286
 30
0.0
 10
137.7718
 20
-273.5286
 30
0.0
 10
137.7718
 20
-273.5286
 30
0.0
 10
137.7718
 20
-232.6195
 30
0.0
 10
137.7718
 20
-232.6195
 30
0.0
  0
SPLINE
  5
51
330
1F
100
AcDbEntity
  8
layer 1
 62
   250
370
    20
100
AcDbSpline
210
0.0
220
0.0
230
1.0
 70
    11
 71
     3
 72
    20
 73
    16
 74
     0
 42
0.0000000001
 43
0.0000000001
 12
1.0
 22
0.0
 32
0.0
 13
1.0
 23
0.0
 33
0.0
 40
0.0
 40
0.0
 40
0.0
 40
0.0
 40
0.2
 40
0.2
 40
0.2
 40
0.2
 40
0.4
 40
0.4
 40
0.4
 40
0.4
 40
0.6
 40
0.6
 40
0.6
 40
0.6
 40
1.0
 40
1.0
 40
1.0
 40
1.0
 10
137.7718
 20
-150.8013
 30
0.0
 10
137.7718
 20
-150.8013
 30
0.0
 10
140.7718
 20
-150.8013
 30
0.0
 10
140.7718
 20
-150.8013
 30
0.0
 10
140.7718
 20
-150.8013
 30
0.0
 10
140.7718
 20
-150.8013
 30
0.0
 10
140.7718
 20
-191.7104
 30
0.0
 10
140.7718
 20
-191.7104
 30
0.0
 10
140.7718
 20
-191.7104
 30
0.0
 10
140.7718
 20
-191.7104
 30
0.0
 10
137.7718
 20
-191.7104
 30
0.0
 10
137.7718
 20
-191.7104
 30
0.0
 10
137.7718
 20
-191.7104
 30
0.0
 10
137.7718
 20
-191.7104
 30
0.0
 10
137.7718
 20
-150.8013
 30
0.0
 10
137.7718
 20
-150.8013
 30
0.0
  0
SPLINE
  5
52
330
1F
100
AcDbEntity
  8
layer 1
 62
   250
370
    20
100
AcDbSpline
210
0.0
220
0.0
230
1.0
 70
    11
 71
     3
 72
    20
 73
    16
 74
     0
 42
0.0000000001
 43
0.0000000001
 12
1.0
 22
0.0
 32
0.0
 13
1.0
 23
0.0
 33
0.0
 40
0.0
 40
0.0
 40
0.0
 40
0.0
 40
0.2
 40
0.2
 40
0.2
 40
0.2
 40
0.4
 40
0.4
 40
0.4
 40
0.4
 40
0.6
 40
0.6
 40
0.6
 40
0.6
 40
1.0
 40
1.0
 40
1.0
 40
1.0
 10
137.7718
 20
-68.9832
 30
0.0
 10
137.7718
 20
-68.9832
 30
0.0
 10
140.7718
 20
-68.9832
 30
0.0
 10
140.7718
 20
-68.9832
 30
0.0
 10
140.7718
 20
-68.9832
 30
0.0
 10
140.7718
 20
-68.9832
 30
0.0
 10
140.7718
 20
-109.8922
 30
0.0
 10
140.7718
 20
-109.8922
 30
0.0
 10
140.7718
 20
-109.8922
 30
0.0
 10
140.7718
 20
-109.8922
 30
0.0
 10
137.7718
 20
-109.8922
 30
0.0
 10
137.7718
 20
-109.8922
 30
0.0
 10
137.7718
 20
-109.8922
 30
0.0
 10
137.7718
 20
-109.8922
 30
0.0
 10
137.7718
 20
-68.9832
 30
0.0
 10
137.7718
 20
-68.9832
 30
0.0
  0
SPLINE
  5
53
330
1F
100
AcDbEntity
  8
layer 1
 62
   250
370
    20
100
AcDbSpline
210
0.0
220
0.0
230
1.0
 70
    11
 71
     3
 72
    20
 73
    16
 74
     0
 42
0.0000000001
 43
0.0000000001
 12
1.0
 22
0.0
 32
0.0
 13
1.0
 23
0.0
 33
0.0
 40
0.0
 40
0.0
 40
0.0
 40
0.0
 40
0.2
 40
0.2
 40
0.2
 40
0.2
 40
0.4
 40
0.4
 40
0.4
 40
0.4
 40
0.6
 40
0.6
 40
0.6
 40
0.6
 40
1.0
 40
1.0
 40
1.0
 40
1.0
 10
137.7718
 20
12.835
 30
0.0
 10
137.7718
 20
12.835
 30
0.0
 10
140.7718
 20
12.835
 30
0.0
 10
140.7718
 20
12.835
 30
0.0
 10
140.7718
 20
12.835
 30
0.0
 10
140.7718
 20
12.835
 30
0.0
 10
140.7718
 20
-28.0741
 30
0.0
 10
140.7718
 20
-28.0741
 30
0.0
 10
140.7718
 20
-28.0741
 30
0.0
 10
140.7718
 20
-28.0741
 30
0.0
 10
137.7718
 20
-28.0741
 30
0.0
 10
137.7718
 20
-28.0741
 30
0.0
 10
137.7718
 20
-28.0741
 30
0.0
 10
137.7718
 20
-28.0741
 30
0.0
 10
137.7718
 20
12.835
 30
0.0
 10
137.7718
 20
12.835
 30
0.0
  0
SPLINE
  5
54
330
1F
100
AcDbEntity
  8
layer 1
 62
   250
370
    20
100
AcDbSpline
210
0.0
220
0.0
230
1.0
 70
    11
 71
     3
 72
    20
 73
    16
 74
     0
 42
0.0000000001
 43
0.0000000001
 12
1.0
 22
0.0
 32
0.0
 13
1.0
 23
0.0
 33
0.0
 40
0.0
 40
0.0
 40
0.0
 40
0.0
 40
0.2
 40
0.2
 40
0.2
 40
0.2
 40
0.4
 40
0.4
 40
0.4
 40
0.4
 40
0.6
 40
0.6
 40
0.6
 40
0.6
 40
1.0
 40
1.0
 40
1.0
 40
1.0
 10
137.7718
 20
94.6532
 30
0.0
 10
137.7718
 20
94.6532
 30
0.0
 10
140.7718
 20
94.6532
 30
0.0
 10
140.7718
 20
94.6532
 30
0.0
 10
140.7718
 20
94.6532
 30
0.0
 10
140.7718
 20
94.6532
 30
0.0
 10
140.7718
 20
53.7441
 30
0.0
 10
140.7718
 20
53.7441
 30
0.0
 10
140.7718
 20
53.7441
 30
0.0
 10
140.7718
 20
53.7441
 30
0.0
 10
137.7718
 20
53.7441
 30
0.0
 10
137.7718
 20
53.7441
 30
0.0
 10
137.7718
 20
53.7441
 30
0.0
 10
137.7718
 20
53.7441
 30
0.0
 10
137.7718
 20
94.6532
 30
0.0
 10
137.7718
 20
94.6532
 30
0.0
  0
SPLINE
  5
55
330
1F
100
AcDbEntity
  8
layer 1
 62
   250
370
    20
100
AcDbSpline
210
0.0
220
0.0
230
1.0
 70
    11
 71
     3
 72
   180
 73
   176
 74
     0
 42
0.0000000001
 43
0.0000000001
 12
1.0
 22
0.0
 32
0.0
 13
1.0
 23
0.0
 33
0.0
 40
0.0
 40
0.0
 40
0.0
 40
0.0
 40
0.0222222222222222
 40
0.0222222222222222
 40
0.0222222222222222
 40
0.0222222222222222
 40
0.0444444444444444
 40
0.0444444444444444
 40
0.0444444444444444
 40
0.0444444444444444
 40
0.0666666666666667
 40
0.0666666666666667
 40
0.0666666666666667
 40
0.0666666666666667
 40
0.0888888888888889
 40
0.0888888888888889
 40
0.0888888888888889
 40
0.0888888888888889
 40
0.1111111111111111
 40
0.1111111111111111
 40
0.1111111111111111
 40
0.1111111111111111
 40
0.1333333333333333
 40
0.1333333333333333
 40
0.1333333333333333
 40
0.1333333333333333
 40
0.1555555555555556
 40
0.1555555555555556
 40
0.1555555555555556
 40
0.1555555555555556
 40
0.1777777777777778
 40
0.1777777777777778
 40
0.1777777777777778
 40
0.1777777777777778
 40
0.2
 40
0.2
 40
0.2
 40
0.2
 40
0.2222222222222222
 40
0.2222222222222222
 40
0.2222222222222222
 40
0.2222222222222222
 40
0.2444444444444444
 40
0.2444444444444444
 40
0.2444444444444444
 40
0.2444444444444444
 40
0.2666666666666667
 40
0.2666666666666667
 40
0.2666666666666667
 40
0.2666666666666667
 40
0.2888888888888889
 40
0.2888888888888889
 40
0.2888888888888889
 40
0.2888888888888889
 40
0.3111111111111111
 40
0.3111111111111111
 40
0.3111111111111111
 40
0.3111111111111111
 40
0.3333333333333333
 40
0.3333333333333333
 40
0.3333333333333333
 40
0.3333333333333333
 40
0.3555555555555556
 40
0.3555555555555556
 40
0.3555555555555556
 40
0.3555555555555556
 40
0.3777777777777778
 40
0.3777777777777778
 40
0.3777777777777778
 40
0.3777777777777778
 40
0.4
 40
0.4
 40
0.4
 40
0.4
 40
0.4222222222222222
 40
0.4222222222222222
 40
0.4222222222222222
 40
0.4222222222222222
 40
0.4444444444444444
 40
0.4444444444444444
 40
0.4444444444444444
 40
0.4444444444444444
 40
0.4666666666666667
 40
0.4666666666666667
 40
0.4666666666666667
 40
0.4666666666666667
 40
0.4888888888888889
 40
0.4888888888888889
 40
0.4888888888888889
 40
0.4888888888888889
 40
0.5111111111111111
 40
0.5111111111111111
 40
0.5111111111111111
 40
0.5111111111111111
 40
0.5333333333333333
 40
0.5333333333333333
 40
0.5333333333333333
 40
0.5333333333333333
 40
0.5555555555555556
 40
0.5555555555555556
 40
0.5555555555555556
 40
0.5555555555555556
 40
0.5777777777777777
 40
0.5777777777777777
 40
0.5777777777777777
 40
0.5777777777777777
 40
0.6
 40
0.6
 40
0.6
 40
0.6
 40
0.6222222222222222
 40
0.6222222222222222
 40
0.6222222222222222
 40
0.6222222222222222
 40
0.6444444444444445
 40
0.6444444444444445
 40
0.6444444444444445
 40
0.6444444444444445
 40
0.6666666666666666
 40
0.6666666666666666
 40
0.6666666666666666
 40
0.6666666666666666
 40
0.6888888888888889
 40
0.6888888888888889
 40
0.6888888888888889
 40
0.6888888888888889
 40
0.7111111111111111
 40
0.7111111111111111
 40
0.7111111111111111
 40
0.7111111111111111
 40
0.7333333333333333
 40
0.7333333333333333
 40
0.7333333333333333
 40
0.7333333333333333
 40
0.7555555555555555
 40
0.7555555555555555
 40
0.7555555555555555
 40
0.7555555555555555
 40
0.7777777777777778
 40
0.7777777777777778
 40
0.7777777777777778
 40
0.7777777777777778
 40
0.8
 40
0.8
 40
0.8
 40
0.8
 40
0.8222222222222222
 40
0.8222222222222222
 40
0.8222222222222222
 40
0.8222222222222222
 40
0.8444444444444444
 40
0.8444444444444444
 40
0.8444444444444444
 40
0.8444444444444444
 40
0.8666666666666667
 40
0.8666666666666667
 40
0.8666666666666667
 40
0.8666666666666667
 40
0.8888888888888888
 40
0.8888888888888888
 40
0.8888888888888888
 40
0.8888888888888888
 40
0.9111111111111111
 40
0.9111111111111111
 40
0.9111111111111111
 40
0.9111111111111111
 40
0.9333333333333333
 40
0.9333333333333333
 40
0.9333333333333333
 40
0.9333333333333333
 40
0.9555555555555556
 40
0.9555555555555556
 40
0.9555555555555556
 40
0.9555555555555556
 40
1.0
 40
1.0
 40
1.0
 40
1.0
 10
107.7718
 20
132.5623
 30
0.0
 10
107.7718
 20
132.5623
 30
0.0
 10
107.7718
 20
-311.4377
 30
0.0
 10
107.7718
 20
-311.4377
 30
0.0
 10
107.7718
 20
-311.4377
 30
0.0
 10
107.7718
 20
-311.4377
 30
0.0
 10
148.6809
 20
-311.4377
 30
0.0
 10
148.6809
 20
-311.4377
 30
0.0
 10
148.6809
 20
-311.4377
 30
0.0
 10
148.6809
 20
-311.4377
 30
0.0
 10
148.6809
 20
-314.4377
 30
0.0
 10
148.6809
 20
-314.4377
 30
0.0
 10
148.6809
 20
-314.4377
 30
0.0
 10
148.6809
 20
-314.4377
 30
0.0
 10
189.59
 20
-314.4377
 30
0.0
 10
189.59
 20
-314.4377
 30
0.0
 10
189.59
 20
-314.4377
 30
0.0
 10
189.59
 20
-314.4377
 30
0.0
 10
189.59
 20
-311.4377
 30
0.0
 10
189.59
 20
-311.4377
 30
0.0
 10
189.59
 20
-311.4377
 30
0.0
 10
189.59
 20
-311.4377
 30
0.0
 10
230.4991
 20
-311.4377
 30
0.0
 10
230.4991
 20
-311.4377
 30
0.0
 10
230.4991
 20
-311.4377
 30
0.0
 10
230.4991
 20
-311.4377
 30
0.0
 10
230.4991
 20
-314.4377
 30
0.0
 10
230.4991
 20
-314.4377
 30
0.0
 10
230.4991
 20
-314.4377
 30
0.0
 10
230.4991
 20
-314.4377
 30
0.0
 10
271.4082
 20
-314.4377
 30
0.0
 10
271.4082
 20
-314.4377
 30
0.0
 10
271.4082
 20
-314.4377
 30
0.0
 10
271.4082
 20
-314.4377
 30
0.0
 10
271.4082
 20
-311.4377
 30
0.0
 10
271.4082
 20
-311.4377
 30
0.0
 10
271.4082
 20
-311.4377
 30
0.0
 10
271.4082
 20
-311.4377
 30
0.0
 10
312.3173
 20
-311.4377
 30
0.0
 10
312.3173
 20
-311.4377
 30
0.0
 10
312.3173
 20
-311.4377
 30
0.0
 10
312.3173
 20
-311.4377
 30
0.0
 10
312.3173
 20
-314.4377
 30
0.0
 10
312.3173
 20
-314.4377
 30
0.0
 10
312.3173
 20
-314.4377
 30
0.0
 10
312.3173
 20
-314.4377
 30
0.0
 10
353.2263
 20
-314.4377
 30
0.0
 10
353.2263
 20
-314.4377
 30
0.0
 10
353.2263
 20
-314.4377
 30
0.0
 10
353.2263
 20
-314.4377
 30
0.0
 10
353.2263
 20
-311.4377
 30
0.0
 10
353.2263
 20
-311.4377
 30
0.0
 10
353.2263
 20
-311.4377
 30
0.0
 10
353.2263
 20
-311.4377
 30
0.0
 10
394.1354
 20
-311.4377
 30
0.0
 10
394.1354
 20
-311.4377
 30
0.0
 10
394.1354
 20
-311.4377
 30
0.0
 10
394.1354
 20
-311.4377
 30
0.0
 10
394.1354
 20
-314.4377
 30
0.0
 10
394.1354
 20
-314.4377
 30
0.0
 10
394.1354
 20
-314.4377
 30
0.0
 10
394.1354
 20
-314.4377
 30
0.0
 10
435.0445
 20
-314.4377
 30
0.0
 10
435.0445
 20
-314.4377
 30
0.0
 10
435.0445
 20
-314.4377
 30
0.0
 10
435.0445
 20
-314.4377
 30
0.0
 10
435.0445
 20
-311.4377
 30
0.0
 10
435.0445
 20
-311.4377
 30
0.0
 10
435.0445
 20
-311.4377
 30
0.0
 10
435.0445
 20
-311.4377
 30
0.0
 10
475.9536
 20
-311.4377
 30
0.0
 10
475.9536
 20
-311.4377
 30
0.0
 10
475.9536
 20
-311.4377
 30
0.0
 10
475.9536
 20
-311.4377
 30
0.0
 10
475.9536
 20
-314.4377
 30
0.0
 10
475.9536
 20
-314.4377
 30
0.0
 10
475.9536
 20
-314.4377
 30
0.0
 10
475.9536
 20
-314.4377
 30
0.0
 10
516.8627
 20
-314.4377
 30
0.0
 10
516.8627
 20
-314.4377
 30
0.0
 10
516.8627
 20
-314.4377
 30
0.0
 10
516.8627
 20
-314.4377
 30
0.0
 10
516.8627
 20
-311.4377
 30
0.0
 10
516.8627
 20
-311.4377
 30
0.0
 10
516.8627
 20
-311.4377
 30
0.0
 10
516.8627
 20
-311.4377
 30
0.0
 10
557.7718
 20
-311.4377
 30
0.0
 10
557.7718
 20
-311.4377
 30
0.0
 10
557.7718
 20
-311.4377
 30
0.0
 10
557.7718
 20
-311.4377
 30
0.0
 10
557.7718
 20
132.5623
 30
0.0
 10
557.7718
 20
132.5623
 30
0.0
 10
557.7718
 20
132.5623
 30
0.0
 10
557.7718
 20
132.5623
 30
0.0
 10
516.8627
 20
132.5623
 30
0.0
 10
516.8627
 20
132.5623
 30
0.0
 10
516.8627
 20
132.5623
 30
0.0
 10
516.8627
 20
132.5623
 30
0.0
 10
516.8627
 20
135.5623
 30
0.0
 10
516.8627
 20
135.5623
 30
0.0
 10
516.8627
 20
135.5623
 30
0.0
 10
516.8627
 20
135.5623
 30
0.0
 10
475.9536
 20
135.5623
 30
0.0
 10
475.9536
 20
135.5623
 30
0.0
 10
475.9536
 20
135.5623
 30
0.0
 10
475.9536
 20
135.5623
 30
0.0
 10
475.9536
 20
132.5623
 30
0.0
 10
475.9536
 20
132.5623
 30
0.0
 10
475.9536
 20
132.5623
 30
0.0
 10
475.9536
 20
132.5623
 30
0.0
 10
435.0445
 20
132.5623
 30
0.0
 10
435.0445
 20
132.5623
 30
0.0
 10
435.0445
 20
132.5623
 30
0.0
 10
435.0445
 20
132.5623
 30
0.0
 10
435.0445
 20
135.5623
 30
0.0
 10
435.0445
 20
135.5623
 30
0.0
 10
435.0445
 20
135.5623
 30
0.0
 10
435.0445
 20
135.5623
 30
0.0
 10
394.1354
 20
135.5623
 30
0.0
 10
394.1354
 20
135.5623
 30
0.0
 10
394.1354
 20
135.5623
 30
0.0
 10
394.1354
 20
135.5623
 30
0.0
 10
394.1354
 20
132.5623
 30
0.0
 10
394.1354
 20
132.5623
 30
0.0
 10
394.1354
 20
132.5623
 30
0.0
 10
394.1354
 20
132.5623
 30
0.0
 10
353.2263
 20
132.5623
 30
0.0
 10
353.2263
 20
132.5623
 30
0.0
 10
353.2263
 20
132.5623
 30
0.0
 10
353.2263
 20
132.5623
 30
0.0
 10
353.2263
 20
135.5623
 30
0.0
 10
353.2263
 20
135.5623
 30
0.0
 10
353.2263
 20
135.5623
 30
0.0
 10
353.2263
 20
135.5623
 30
0.0
 10
312.3173
 20
135.5623
 30
0.0
 10
312.3173
 20
135.5623
 30
0.0
 10
312.3173
 20
135.5623
 30
0.0
 10
312.3173
 20
135.5623
 30
0.0
 10
312.3173
 20
132.5623
 30
0.0
 10
312.3173
 20
132.5623
 30
0.0
 10
312.3173
 20
132.5623
 30
0.0
 10
312.3173
 20
132.5623
 30
0.0
 10
271.4082
 20
132.5623
 30
0.0
 10
271.4082
 20
132.5623
 30
0.0
 10
271.4082
 20
132.5623
 30
0.0
 10
271.4082
 20
132.5623
 30
0.0
 10
271.4082
 20
135.5623
 30
0.0
 10
271.4082
 20
135.5623
 30
0.0
 10
271.4082
 20
135.5623
 30
0.0
 10
271.4082
 20
135.5623
 30
0.0
 10
230.4991
 20
135.5623
 30
0.0
 10
230.4991
 20
135.5623
 30
0.0
 10
230.4991
 20
135.5623
 30
0.0
 10
230.4991
 20
135.5623
 30
0.0
 10
230.4991
 20
132.5623
 30
0.0
 10
230.4991
 20
132.5623
 30
0.0
 10
230.4991
 20
132.5623
 30
0.0
 10
230.4991
 20
132.5623
 30
0.0
 10
189.59
 20
132.5623
 30
0.0
 10
189.59
 20
132.5623
 30
0.0
 10
189.59
 20
132.5623
 30
0.0
 10
189.59
 20
132.5623
 30
0.0
 10
189.59
 20
135.5623
 30
0.0
 10
189.59
 20
135.5623
 30
0.0
 10
189.59
 20
135.5623
 30
0.0
 10
189.59
 20
135.5623
 30
0.0
 10
148.6809
 20
135.5623
 30
0.0
 10
148.6809
 20
135.5623
 30
0.0
 10
148.6809
 20
135.5623
 30
0.0
 10
148.6809
 20
135.5623
 30
0.0
 10
148.6809
 20
132.5623
 30
0.0
 10
148.6809
 20
132.5623
 30
0.0
 10
148.6809
 20
132.5623
 30
0.0
 10
148.6809
 20
132.5623
 30
0.0
 10
107.7718
 20
132.5623
 30
0.0
 10
107.7718
 20
132.5623
 30
0.0
  0
SPLINE
  5
56
330
1F
100
AcDbEntity
  8
layer 1
 62
   250
370
    20
100
AcDbSpline
210
0.0
220
0.0
230
1.0
 70
    11
 71
     3
 72
   276
 73
   272
 74
     0
 42
0.0000000001
 43
0.0000000001
 12
1.0
 22
0.0
 32
0.0
 13
1.0
 23
0.0
 33
0.0
 40
0.0
 40
0.0
 40
0.0
 40
0.0
 40
0.0144927536231884
 40
0.0144927536231884
 40
0.0144927536231884
 40
0.0144927536231884
 40
0.0289855072463768
 40
0.0289855072463768
 40
0.0289855072463768
 40
0.0289855072463768
 40
0.0434782608695652
 40
0.0434782608695652
 40
0.0434782608695652
 40
0.0434782608695652
 40
0.0579710144927536
 40
0.0579710144927536
 40
0.0579710144927536
 40
0.0579710144927536
 40
0.072463768115942
 40
0.072463768115942
 40
0.072463768115942
 40
0.072463768115942
 40
0.0869565217391304
 40
0.0869565217391304
 40
0.0869565217391304
 40
0.0869565217391304
 40
0.1014492753623188
 40
0.1014492753623188
 40
0.1014492753623188
 40
0.1014492753623188
 40
0.1159420289855072
 40
0.1159420289855072
 40
0.1159420289855072
 40
0.1159420289855072
 40
0.1304347826086956
 40
0.1304347826086956
 40
0.1304347826086956
 40
0.1304347826086956
 40
0.1449275362318841
 40
0.1449275362318841
 40
0.1449275362318841
 40
0.1449275362318841
 40
0.1594202898550725
 40
0.1594202898550725
 40
0.1594202898550725
 40
0.1594202898550725
 40
0.1739130434782609
 40
0.1739130434782609
 40
0.1739130434782609
 40
0.1739130434782609
 40
0.1884057971014493
 40
0.1884057971014493
 40
0.1884057971014493
 40
0.1884057971014493
 40
0.2028985507246377
 40
0.2028985507246377
 40
0.2028985507246377
 40
0.2028985507246377
 40
0.2173913043478261
 40
0.2173913043478261
 40
0.2173913043478261
 40
0.2173913043478261
 40
0.2318840579710145
 40
0.2318840579710145
 40
0.2318840579710145
 40
0.2318840579710145
 40
0.2463768115942029
 40
0.2463768115942029
 40
0.2463768115942029
 40
0.2463768115942029
 40
0.2608695652173913
 40
0.2608695652173913
 40
0.2608695652173913
 40
0.2608695652173913
 40
0.2753623188405797
 40
0.2753623188405797
 40
0.2753623188405797
 40
0.2753623188405797
 40
0.2898550724637681
 40
0.2898550724637681
 40
0.2898550724637681
 40
0.2898550724637681
 40
0.3043478260869565
 40
0.3043478260869565
 40
0.3043478260869565
 40
0.3043478260869565
 40
0.3188405797101449
 40
0.3188405797101449
 40
0.3188405797101449
 40
0.3188405797101449
 40
0.3333333333333333
 40
0.3333333333333333
 40
0.3333333333333333
 40
0.3333333333333333
 40
0.3478260869565217
 40
0.3478260869565217
 40
0.3478260869565217
 40
0.3478260869565217
 40
0.3623188405797101
 40
0.3623188405797101
 40
0.3623188405797101
 40
0.3623188405797101
 40
0.3768115942028986
 40
0.3768115942028986
 40
0.3768115942028986
 40
0.3768115942028986
 40
0.391304347826087
 40
0.391304347826087
 40
0.391304347826087
 40
0.391304347826087
 40
0.4057971014492754
 40
0.4057971014492754
 40
0.4057971014492754
 40
0.4057971014492754
 40
0.4202898550724637
 40
0.4202898550724637
 40
0.4202898550724637
 40
0.4202898550724637
 40
0.4347826086956522
 40
0.4347826086956522
 40
0.4347826086956522
 40
0.4347826086956522
 40
0.4492753623188406
 40
0.4492753623188406
 40
0.4492753623188406
 40
0.4492753623188406
 40
0.463768115942029
 40
0.463768115942029
 40
0.463768115942029
 40
0.463768115942029
 40
0.4782608695652174
 40
0.4782608695652174
 40
0.4782608695652174
 40
0.4782608695652174
 40
0.4927536231884058
 40
0.4927536231884058
 40
0.4927536231884058
 40
0.4927536231884058
 40
0.5072463768115942
 40
0.5072463768115942
 40
0.5072463768115942
 40
0.5072463768115942
 40
0.5217391304347826
 40
0.5217391304347826
 40
0.5217391304347826
 40
0.5217391304347826
 40
0.5362318840579711
 40
0.5362318840579711
 40
0.5362318840579711
 40
0.5362318840579711
 40
0.5507246376811594
 40
0.5507246376811594
 40
0.5507246376811594
 40
0.5507246376811594
 40
0.5652173913043478
 40
0.5652173913043478
 40
0.5652173913043478
 40
0.5652173913043478
 40
0.5797101449275363
 40
0.5797101449275363
 40
0.5797101449275363
 40
0.5797101449275363
 40
0.5942028985507246
 40
0.5942028985507246
 40
0.5942028985507246
 40
0.5942028985507246
 40
0.6086956521739131
 40
0.6086956521739131
 40
0.6086956521739131
 40
0.6086956521739131
 40
0.6231884057971014
 40
0.6231884057971014
 40
0.6231884057971014
 40
0.6231884057971014
 40
0.6376811594202898
 40
0.6376811594202898
 40
0.6376811594202898
 40
0.6376811594202898
 40
0.6521739130434783
 40
0.6521739130434783
 40
0.6521739130434783
 40
0.6521739130434783
 40
0.6666666666666666
 40
0.6666666666666666
 40
0.6666666666666666
 40
0.6666666666666666
 40
0.6811594202898551
 40
0.6811594202898551
 40
0.6811594202898551
 40
0.6811594202898551
 40
0.6956521739130435
 40
0.6956521739130435
 40
0.6956521739130435
 40
0.6956521739130435
 40
0.7101449275362319
 40
0.7101449275362319
 40
0.7101449275362319
 40
0.7101449275362319
 40
0.7246376811594203
 40
0.7246376811594203
 40
0.7246376811594203
 40
0.7246376811594203
 40
0.7391304347826086
 40
0.7391304347826086
 40
0.7391304347826086
 40
0.7391304347826086
 40
0.7536231884057971
 40
0.7536231884057971
 40
0.7536231884057971
 40
0.7536231884057971
 40
0.7681159420289855
 40
0.7681159420289855
 40
0.7681159420289855
 40
0.7681159420289855
 40
0.782608695652174
 40
0.782608695652174
 40
0.782608695652174
 40
0.782608695652174
 40
0.7971014492753623
 40
0.7971014492753623
 40
0.7971014492753623
 40
0.7971014492753623
 40
0.8115942028985508
 40
0.8115942028985508
 40
0.8115942028985508
 40
0.8115942028985508
 40
0.8260869565217391
 40
0.8260869565217391
 40
0.8260869565217391
 40
0.8260869565217391
 40
0.8405797101449275
 40
0.8405797101449275
 40
0.8405797101449275
 40
0.8405797101449275
 40
0.855072463768116
 40
0.855072463768116
 40
0.855072463768116
 40
0.855072463768116
 40
0.8695652173913043
 40
0.8695652173913043
 40
0.8695652173913043
 40
0.8695652173913043
 40
0.8840579710144928
 40
0.8840579710144928
 40
0.8840579710144928
 40
0.8840579710144928
 40
0.8985507246376812
 40
0.8985507246376812
 40
0.8985507246376812
 40
0.8985507246376812
 40
0.9130434782608695
 40
0.9130434782608695
 40
0.9130434782608695
 40
0.9130434782608695
 40
0.927536231884058
 40
0.927536231884058
 40
0.927536231884058
 40
0.927536231884058
 40
0.9420289855072463
 40
0.9420289855072463
 40
0.9420289855072463
 40
0.9420289855072463
 40
0.9565217391304348
 40
0.9565217391304348
 40
0.9565217391304348
 40
0.9565217391304348
 40
0.9710144927536232
 40
0.9710144927536232
 40
0.9710144927536232
 40
0.9710144927536232
 40
1.0
 40
1.0
 40
1.0
 40
1.0
 10
-212.2282
 20
94.6532
 30
0.0
 10
-212.2282
 20
94.6532
 30
0.0
 10
-212.2282
 20
53.7441
 30
0.0
 10
-212.2282
 20
53.7441
 30
0.0
 10
-212.2282
 20
53.7441
 30
0.0
 10
-212.2282
 20
53.7441
 30
0.0
 10
-209.2282
 20
53.7441
 30
0.0
 10
-209.2282
 20
53.7441
 30
0.0
 10
-209.2282
 20
53.7441
 30
0.0
 10
-209.2282
 20
53.7441
 30
0.0
 10
-209.2282
 20
12.835
 30
0.0
 10
-209.2282
 20
12.835
 30
0.0
 10
-209.2282
 20
12.835
 30
0.0
 10
-209.2282
 20
12.835
 30
0.0
 10
-212.2282
 20
12.835
 30
0.0
 10
-212.2282
 20
12.835
 30
0.0
 10
-212.2282
 20
12.835
 30
0.0
 10
-212.2282
 20
12.835
 30
0.0
 10
-212.2282
 20
-28.0741
 30
0.0
 10
-212.2282
 20
-28.0741
 30
0.0
 10
-212.2282
 20
-28.0741
 30
0.0
 10
-212.2282
 20
-28.0741
 30
0.0
 10
-209.2282
 20
-28.0741
 30
0.0
 10
-209.2282
 20
-28.0741
 30
0.0
 10
-209.2282
 20
-28.0741
 30
0.0
 10
-209.2282
 20
-28.0741
 30
0.0
 10
-209.2282
 20
-68.9832
 30
0.0
 10
-209.2282
 20
-68.9832
 30
0.0
 10
-209.2282
 20
-68.9832
 30
0.0
 10
-209.2282
 20
-68.9832
 30
0.0
 10
-212.2282
 20
-68.9832
 30
0.0
 10
-212.2282
 20
-68.9832
 30
0.0
 10
-212.2282
 20
-68.9832
 30
0.0
 10
-212.2282
 20
-68.9832
 30
0.0
 10
-212.2282
 20
-109.8922
 30
0.0
 10
-212.2282
 20
-109.8922
 30
0.0
 10
-212.2282
 20
-109.8922
 30
0.0
 10
-212.2282
 20
-109.8922
 30
0.0
 10
-209.2282
 20
-109.8922
 30
0.0
 10
-209.2282
 20
-109.8922
 30
0.0
 10
-209.2282
 20
-109.8922
 30
0.0
 10
-209.2282
 20
-109.8922
 30
0.0
 10
-209.2282
 20
-150.8013
 30
0.0
 10
-209.2282
 20
-150.8013
 30
0.0
 10
-209.2282
 20
-150.8013
 30
0.0
 10
-209.2282
 20
-150.8013
 30
0.0
 10
-212.2282
 20
-150.8013
 30
0.0
 10
-212.2282
 20
-150.8013
 30
0.0
 10
-212.2282
 20
-150.8013
 30
0.0
 10
-212.2282
 20
-150.8013
 30
0.0
 10
-212.2282
 20
-191.7104
 30
0.0
 10
-212.2282
 20
-191.7104
 30
0.0
 10
-212.2282
 20
-191.7104
 30
0.0
 10
-212.2282
 20
-191.7104
 30
0.0
 10
-209.2282
 20
-191.7104
 30
0.0
 10
-209.2282
 20
-191.7104
 30
0.0
 10
-209.2282
 20
-191.7104
 30
0.0
 10
-209.2282
 20
-191.7104
 30
0.0
 10
-209.2282
 20
-232.6195
 30
0.0
 10
-209.2282
 20
-232.6195
 30
0.0
 10
-209.2282
 20
-232.6195
 30
0.0
 10
-209.2282
 20
-232.6195
 30
0.0
 10
-212.2282
 20
-232.6195
 30
0.0
 10
-212.2282
 20
-232.6195
 30
0.0
 10
-212.2282
 20
-232.6195
 30
0.0
 10
-212.2282
 20
-232.6195
 30
0.0
 10
-212.2282
 20
-273.5286
 30
0.0
 10
-212.2282
 20
-273.5286
 30
0.0
 10
-212.2282
 20
-273.5286
 30
0.0
 10
-212.2282
 20
-273.5286
 30
0.0
 10
-209.2282
 20
-273.5286
 30
0.0
 10
-209.2282
 20
-273.5286
 30
0.0
 10
-209.2282
 20
-273.5286
 30
0.0
 10
-209.2282
 20
-273.5286
 30
0.0
 10
-209.2282
 20
-311.4377
 30
0.0
 10
-209.2282
 20
-311.4377
 30
0.0
 10
-209.2282
 20
-311.4377
 30
0.0
 10
-209.2282
 20
-311.4377
 30
0.0
 10
-167.9425
 20
-311.4377
 30
0.0
 10
-167.9425
 20
-311.4377
 30
0.0
 10
-167.9425
 20
-311.4377
 30
0.0
 10
-167.9425
 20
-311.4377
 30
0.0
 10
-167.9425
 20
-314.4377
 30
0.0
 10
-167.9425
 20
-314.4377
 30
0.0
 10
-167.9425
 20
-314.4377
 30
0.0
 10
-167.9425
 20
-314.4377
 30
0.0
 10
-123.6568
 20
-314.4377
 30
0.0
 10
-123.6568
 20
-314.4377
 30
0.0
 10
-123.6568
 20
-314.4377
 30
0.0
 10
-123.6568
 20
-314.4377
 30
0.0
 10
-123.6568
 20
-311.4377
 30
0.0
 10
-123.6568
 20
-311.4377
 30
0.0
 10
-123.6568
 20
-311.4377
 30
0.0
 10
-123.6568
 20
-311.4377
 30
0.0
 10
-79.3711
 20
-311.4377
 30
0.0
 10
-79.3711
 20
-311.4377
 30
0.0
 10
-79.3711
 20
-311.4377
 30
0.0
 10
-79.3711
 20
-311.4377
 30
0.0
 10
-79.3711
 20
-314.4377
 30
0.0
 10
-79.3711
 20
-314.4377
 30
0.0
 10
-79.3711
 20
-314.4377
 30
0.0
 10
-79.3711
 20
-314.4377
 30
0.0
 10
-35.0853
 20
-314.4377
 30
0.0
 10
-35.0853
 20
-314.4377
 30
0.0
 10
-35.0853
 20
-314.4377
 30
0.0
 10
-35.0853
 20
-314.4377
 30
0.0
 10
-35.0853
 20
-311.4377
 30
0.0
 10
-35.0853
 20
-311.4377
 30
0.0
 10
-35.0853
 20
-311.4377
 30
0.0
 10
-35.0853
 20
-311.4377
 30
0.0
 10
9.2004
 20
-311.4377
 30
0.0
 10
9.2004
 20
-311.4377
 30
0.0
 10
9.2004
 20
-311.4377
 30
0.0
 10
9.2004
 20
-311.4377
 30
0.0
 10
9.2004
 20
-314.4377
 30
0.0
 10
9.2004
 20
-314.4377
 30
0.0
 10
9.2004
 20
-314.4377
 30
0.0
 10
9.2004
 20
-314.4377
 30
0.0
 10
53.4861
 20
-314.4377
 30
0.0
 10
53.4861
 20
-314.4377
 30
0.0
 10
53.4861
 20
-314.4377
 30
0.0
 10
53.4861
 20
-314.4377
 30
0.0
 10
53.4861
 20
-311.4377
 30
0.0
 10
53.4861
 20
-311.4377
 30
0.0
 10
53.4861
 20
-311.4377
 30
0.0
 10
53.4861
 20
-311.4377
 30
0.0
 10
94.7718
 20
-311.4377
 30
0.0
 10
94.7718
 20
-311.4377
 30
0.0
 10
94.7718
 20
-311.4377
 30
0.0
 10
94.7718
 20
-311.4377
 30
0.0
 10
94.7718
 20
-273.5286
 30
0.0
 10
94.7718
 20
-273.5286
 30
0.0
 10
94.7718
 20
-273.5286
 30
0.0
 10
94.7718
 20
-273.5286
 30
0.0
 10
97.7718
 20
-273.5286
 30
0.0
 10
97.7718
 20
-273.5286
 30
0.0
 10
97.7718
 20
-273.5286
 30
0.0
 10
97.7718
 20
-273.5286
 30
0.0
 10
97.7718
 20
-232.6195
 30
0.0
 10
97.7718
 20
-232.6195
 30
0.0
 10
97.7718
 20
-232.6195
 30
0.0
 10
97.7718
 20
-232.6195
 30
0.0
 10
94.7718
 20
-232.6195
 30
0.0
 10
94.7718
 20
-232.6195
 30
0.0
 10
94.7718
 20
-232.6195
 30
0.0
 10
94.7718
 20
-232.6195
 30
0.0
 10
94.7718
 20
-191.7104
 30
0.0
 10
94.7718
 20
-191.7104
 30
0.0
 10
94.7718
 20
-191.7104
 30
0.0
 10
94.7718
 20
-191.7104
 30
0.0
 10
97.7718
 20
-191.7104
 30
0.0
 10
97.7718
 20
-191.7104
 30
0.0
 10
97.7718
 20
-191.7104
 30
0.0
 10
97.7718
 20
-191.7104
 30
0.0
 10
97.7718
 20
-150.8013
 30
0.0
 10
97.7718
 20
-150.8013
 30
0.0
 10
97.7718
 20
-150.8013
 30
0.0
 10
97.7718
 20
-150.8013
 30
0.0
 10
94.7718
 20
-150.8013
 30
0.0
 10
94.7718
 20
-150.8013
 30
0.0
 10
94.7718
 20
-150.8013
 30
0.0
 10
94.7718
 20
-150.8013
 30
0.0
 10
94.7718
 20
-109.8922
 30
0.0
 10
94.7718
 20
-109.8922
 30
0.0
 10
94.7718
 20
-109.8922
 30
0.0
 10
94.7718
 20
-109.8922
 30
0.0
 10
97.7718
 20
-109.8922
 30
0.0
 10
97.7718
 20
-109.8922
 30
0.0
 10
97.7718
 20
-109.8922
 30
0.0
 10
97.7718
 20
-109.8922
 30
0.0
 10
97.7718
 20
-68.9832
 30
0.0
 10
97.7718
 20
-68.9832
 30
0.0
 10
97.7718
 20
-68.9832
 30
0.0
 10
97.7718
 20
-68.9832
 30
0.0
 10
94.7718
 20
-68.9832
 30
0.0
 10
94.7718
 20
-68.9832
 30
0.0
 10
94.7718
 20
-68.9832
 30
0.0
 10
94.7718
 20
-68.9832
 30
0.0
 10
94.7718
 20
-28.0741
 30
0.0
 10
94.7718
 20
-28.0741
 30
0.0
 10
94.7718
 20
-28.0741
 30
0.0
 10
94.7718
 20
-28.0741
 30
0.0
 10
97.7718
 20
-28.0741
 30
0.0
 10
97.7718
 20
-28.0741
 30
0.0
 10
97.7718
 20
-28.0741
 30
0.0
 10
97.7718
 20
-28.0741
 30
0.0
 10
97.7718
 20
12.835
 30
0.0
 10
97.7718
 20
12.835
 30
0.0
 10
97.7718
 20
12.835
 30
0.0
 10
97.7718
 20
12.835
 30
0.0
 10
94.7718
 20
12.835
 30
0.0
 10
94.7718
 20
12.835
 30
0.0
 10
94.7718
 20
12.835
 30
0.0
 10
94.7718
 20
12.835
 30
0.0
 10
94.7718
 20
53.7441
 30
0.0
 10
94.7718
 20
53.7441
 30
0.0
 10
94.7718
 20
53.7441
 30
0.0
 10
94.7718
 20
53.7441
 30
0.0
 10
97.7718
 20
53.7441
 30
0.0
 10
97.7718
 20
53.7441
 30
0.0
 10
97.7718
 20
53.7441
 30
0.0
 10
97.7718
 20
53.7441
 30
0.0
 10
97.7718
 20
94.6532
 30
0.0
 10
97.7718
 20
94.6532
 30
0.0
 10
97.7718
 20
94.6532
 30
0.0
 10
97.7718
 20
94.6532
 30
0.0
 10
94.7718
 20
94.6532
 30
0.0
 10
94.7718
 20
94.6532
 30
0.0
 10
94.7718
 20
94.6532
 30
0.0
 10
94.7718
 20
94.6532
 30
0.0
 10
94.7718
 20
132.5623
 30
0.0
 10
94.7718
 20
132.5623
 30
0.0
 10
94.7718
 20
132.5623
 30
0.0
 10
94.7718
 20
132.5623
 30
0.0
 10
53.4861
 20
132.5623
 30
0.0
 10
53.4861
 20
132.5623
 30
0.0
 10
53.4861
 20
132.5623
 30
0.0
 10
53.4861
 20
132.5623
 30
0.0
 10
53.4861
 20
135.5623
 30
0.0
 10
53.4861
 20
135.5623
 30
0.0
 10
53.4861
 20
135.5623
 30
0.0
 10
53.4861
 20
135.5623
 30
0.0
 10
9.2004
 20
135.5623
 30
0.0
 10
9.2004
 20
135.5623
 30
0.0
 10
9.2004
 20
135.5623
 30
0.0
 10
9.2004
 20
135.5623
 30
0.0
 10
9.2004
 20
132.5623
 30
0.0
 10
9.2004
 20
132.5623
 30
0.0
 10
9.2004
 20
132.5623
 30
0.0
 10
9.2004
 20
132.5623
 30
0.0
 10
-35.0853
 20
132.5623
 30
0.0
 10
-35.0853
 20
132.5623
 30
0.0
 10
-35.0853
 20
132.5623
 30
0.0
 10
-35.0853
 20
132.5623
 30
0.0
 10
-35.0853
 20
135.5623
 30
0.0
 10
-35.0853
 20
135.5623
 30
0.0
 10
-35.0853
 20
135.5623
 30
0.0
 10
-35.0853
 20
135.5623
 30
0.0
 10
-79.3711
 20
135.5623
 30
0.0
 10
-79.3711
 20
135.5623
 30
0.0
 10
-79.3711
 20
135.5623
 30
0.0
 10
-79.3711
 20
135.5623
 30
0.0
 10
-79.3711
 20
132.5623
 30
0.0
 10
-79.3711
 20
132.5623
 30
0.0
 10
-79.3711
 20
132.5623
 30
0.0
 10
-79.3711
 20
132.5623
 30
0.0
 10
-123.6568
 20
132.5623
 30
0.0
 10
-123.6568
 20
132.5623
 30
0.0
 10
-123.6568
 20
132.5623
 30
0.0
 10
-123.6568
 20
132.5623
 30
0.0
 10
-123.6568
 20
135.5623
 30
0.0
 10
-123.6568
 20
135.5623
 30
0.0
 10
-123.6568
 20
135.5623
 30
0.0
 10
-123.6568
 20
135.5623
 30
0.0
 10
-167.9425
 20
135.5623
 30
0.0
 10
-167.9425
 20
135.5623
 30
0.0
 10
-167.9425
 20
135.5623
 30
0.0
 10
-167.9425
 20
135.5623
 30
0.0
 10
-167.9425
 20
132.5623
 30
0.0
 10
-167.9425
 20
132.5623
 30
0.0
 10
-167.9425
 20
132.5623
 30
0.0
 10
-167.9425
 20
132.5623
 30
0.0
 10
-209.2282
 20
132.5623
 30
0.0
 10
-209.2282
 20
132.5623
 30
0.0
 10
-209.2282
 20
132.5623
 30
0.0
 10
-209.2282
 20
132.5623
 30
0.0
 10
-209.2282
 20
94.6532
 30
0.0
 10
-209.2282
 20
94.6532
 30
0.0
 10
-209.2282
 20
94.6532
 30
0.0
 10
-209.2282
 20
94.6532
 30
0.0
 10
-212.2282
 20
94.6532
 30
0.0
 10
-212.2282
 20
94.6532
 30
0.0
  0
SPLINE
  5
57
330
1F
100
AcDbEntity
  8
layer 1
 62
   250
370
    20
100
AcDbSpline
210
0.0
220
0.0
230
1.0
 70
    11
 71
     3
 72
    36
 73
    32
 74
     0
 42
0.0000000001
 43
0.0000000001
 12
1.0
 22
0.0
 32
0.0
 13
1.0
 23
0.0
 33
0.0
 40
0.0
 40
0.0
 40
0.0
 40
0.0
 40
0.1111111111111111
 40
0.1111111111111111
 40
0.1111111111111111
 40
0.1111111111111111
 40
0.2222222222222222
 40
0.2222222222222222
 40
0.2222222222222222
 40
0.2222222222222222
 40
0.3333333333333333
 40
0.3333333333333333
 40
0.3333333333333333
 40
0.3333333333333333
 40
0.4444444444444444
 40
0.4444444444444444
 40
0.4444444444444444
 40
0.4444444444444444
 40
0.5555555555555556
 40
0.5555555555555556
 40
0.5555555555555556
 40
0.5555555555555556
 40
0.6666666666666666
 40
0.6666666666666666
 40
0.6666666666666666
 40
0.6666666666666666
 40
0.7777777777777778
 40
0.7777777777777778
 40
0.7777777777777778
 40
0.7777777777777778
 40
1.0
 40
1.0
 40
1.0
 40
1.0
 10
-574.8672
 20
226.4688
 30
0.0
 10
-574.8672
 20
226.4688
 30
0.0
 10
-574.8672
 20
196.4687
 30
0.0
 10
-574.8672
 20
196.4687
 30
0.0
 10
-574.8672
 20
196.4687
 30
0.0
 10
-574.8672
 20
190.9688
 30
0.0
 10
-570.3672
 20
186.4688
 30
0.0
 10
-564.8672
 20
186.4688
 30
0.0
 10
-564.8672
 20
186.4688
 30
0.0
 10
-564.8672
 20
186.4688
 30
0.0
 10
-484.8672
 20
186.4688
 30
0.0
 10
-484.8672
 20
186.4688
 30
0.0
 10
-484.8672
 20
186.4688
 30
0.0
 10
-479.3672
 20
186.4688
 30
0.0
 10
-474.8672
 20
190.9688
 30
0.0
 10
-474.8672
 20
196.4687
 30
0.0
 10
-474.8672
 20
196.4687
 30
0.0
 10
-474.8672
 20
196.4687
 30
0.0
 10
-474.8672
 20
226.4688
 30
0.0
 10
-474.8672
 20
226.4688
 30
0.0
 10
-474.8672
 20
226.4688
 30
0.0
 10
-474.8672
 20
231.9688
 30
0.0
 10
-479.3672
 20
236.4688
 30
0.0
 10
-484.8672
 20
236.4688
 30
0.0
 10
-484.8672
 20
236.4688
 30
0.0
 10
-484.8672
 20
236.4688
 30
0.0
 10
-564.8672
 20
236.4688
 30
0.0
 10
-564.8672
 20
236.4688
 30
0.0
 10
-564.8672
 20
236.4688
 30
0.0
 10
-570.3672
 20
236.4688
 30
0.0
 10
-574.8672
 20
231.9688
 30
0.0
 10
-574.8672
 20
226.4688
 30
0.0
  0
SPLINE
  5
58
330
1F
100
AcDbEntity
  8
layer 1
 62
   250
370
    20
100
AcDbSpline
210
0.0
220
0.0
230
1.0
 70
     8
 71
     3
 72
    56
 73
    52
 74
     0
 42
0.0000000001
 43
0.0000000001
 12
1.0
 22
0.0
 32
0.0
 13
1.0
 23
0.0
 33
0.0
 40
0.0
 40
0.0
 40
0.0
 40
0.0
 40
0.0714285714285714
 40
0.0714285714285714
 40
0.0714285714285714
 40
0.0714285714285714
 40
0.1428571428571428
 40
0.1428571428571428
 40
0.1428571428571428
 40
0.1428571428571428
 40
0.2142857142857143
 40
0.2142857142857143
 40
0.2142857142857143
 40
0.2142857142857143
 40
0.2857142857142857
 40
0.2857142857142857
 40
0.2857142857142857
 40
0.2857142857142857
 40
0.3571428571428572
 40
0.3571428571428572
 40
0.3571428571428572
 40
0.3571428571428572
 40
0.4285714285714285
 40
0.4285714285714285
 40
0.4285714285714285
 40
0.4285714285714285
 40
0.5
 40
0.5
 40
0.5
 40
0.5
 40
0.5714285714285714
 40
0.5714285714285714
 40
0.5714285714285714
 40
0.5714285714285714
 40
0.6428571428571429
 40
0.6428571428571429
 40
0.6428571428571429
 40
0.6428571428571429
 40
0.7142857142857143
 40
0.7142857142857143
 40
0.7142857142857143
 40
0.7142857142857143
 40
0.7857142857142857
 40
0.7857142857142857
 40
0.7857142857142857
 40
0.7857142857142857
 40
0.8571428571428571
 40
0.8571428571428571
 40
0.8571428571428571
 40
0.8571428571428571
 40
1.0
 40
1.0
 40
1.0
 40
1.0
 10
-666.5564
 20
141.9739
 30
0.0
 10
-666.5564
 20
141.9739
 30
0.0
 10
-669.4983
 20
141.9739
 30
0.0
 10
-669.4983
 20
141.9739
 30
0.0
 10
-669.4983
 20
141.9739
 30
0.0
 10
-669.4983
 20
141.9739
 30
0.0
 10
-669.4983
 20
182.883
 30
0.0
 10
-669.4983
 20
182.883
 30
0.0
 10
-669.4983
 20
182.883
 30
0.0
 10
-669.4983
 20
182.883
 30
0.0
 10
-666.5564
 20
182.883
 30
0.0
 10
-666.5564
 20
182.883
 30
0.0
 10
-666.5564
 20
182.883
 30
0.0
 10
-666.5564
 20
182.883
 30
0.0
 10
-666.5564
 20
223.7921
 30
0.0
 10
-666.5564
 20
223.7921
 30
0.0
 10
-666.5564
 20
223.7921
 30
0.0
 10
-666.5564
 20
223.7921
 30
0.0
 10
-669.4983
 20
223.7921
 30
0.0
 10
-669.4983
 20
223.7921
 30
0.0
 10
-669.4983
 20
223.7921
 30
0.0
 10
-669.4983
 20
223.7921
 30
0.0
 10
-669.4983
 20
264.7012
 30
0.0
 10
-669.4983
 20
264.7012
 30
0.0
 10
-669.4983
 20
264.7012
 30
0.0
 10
-669.4983
 20
264.7012
 30
0.0
 10
-365.4983
 20
264.7012
 30
0.0
 10
-365.4983
 20
264.7012
 30
0.0
 10
-365.4983
 20
264.7012
 30
0.0
 10
-365.4983
 20
264.7012
 30
0.0
 10
-365.4983
 20
223.7921
 30
0.0
 10
-365.4983
 20
223.7921
 30
0.0
 10
-365.4983
 20
223.7921
 30
0.0
 10
-365.4983
 20
223.7921
 30
0.0
 10
-368.4402
 20
223.7921
 30
0.0
 10
-368.4402
 20
223.7921
 30
0.0
 10
-368.4402
 20
223.7921
 30
0.0
 10
-368.4402
 20
223.7921
 30
0.0
 10
-368.4402
 20
182.883
 30
0.0
 10
-368.4402
 20
182.883
 30
0.0
 10
-368.4402
 20
182.883
 30
0.0
 10
-368.4402
 20
182.883
 30
0.0
 10
-365.4983
 20
182.883
 30
0.0
 10
-365.4983
 20
182.883
 30
0.0
 10
-365.4983
 20
182.883
 30
0.0
 10
-365.4983
 20
182.883
 30
0.0
 10
-365.4983
 20
141.9739
 30
0.0
 10
-365.4983
 20
141.9739
 30
0.0
 10
-365.4983
 20
141.9739
 30
0.0
 10
-365.4983
 20
141.9739
 30
0.0
 10
-368.4402
 20
141.9739
 30
0.0
 10
-368.4402
 20
141.9739
 30
0.0
  0
SPLINE
  5
59
330
1F
100
AcDbEntity
  8
layer 1
 62
   250
370
    20
100
AcDbSpline
210
0.0
220
0.0
230
1.0
 70
    24
 71
     3
 72
     8
 73
     4
 74
     0
 42
0.0000000001
 43
0.0000000001
 12
1.0
 22
0.0
 32
0.0
 13
1.0
 23
0.0
 33
0.0
 40
0.0
 40
0.0
 40
0.0
 40
0.0
 40
1.0
 40
1.0
 40
1.0
 40
1.0
 10
-365.4983
 20
141.9739
 30
0.0
 10
-365.4983
 20
141.9739
 30
0.0
 10
-669.4983
 20
141.9739
 30
0.0
 10
-669.4983
 20
141.9739
 30
0.0
  0
SPLINE
  5
5A
330
1F
100
AcDbEntity
  8
layer 1
 62
   250
370
    20
100
AcDbSpline
210
0.0
220
0.0
230
1.0
 70
    11
 71
     3
 72
    20
 73
    16
 74
     0
 42
0.0000000001
 43
0.0000000001
 12
1.0
 22
0.0
 32
0.0
 13
1.0
 23
0.0
 33
0.0
 40
0.0
 40
0.0
 40
0.0
 40
0.0
 40
0.2
 40
0.2
 40
0.2
 40
0.2
 40
0.4
 40
0.4
 40
0.4
 40
0.4
 40
0.6
 40
0.6
 40
0.6
 40
0.6
 40
1.0
 40
1.0
 40
1.0
 40
1.0
 10
-252.2282
 20
53.7441
 30
0.0
 10
-252.2282
 20
53.7441
 30
0.0
 10
-255.2282
 20
53.7441
 30
0.0
 10
-255.2282
 20
53.7441
 30
0.0
 10
-255.2282
 20
53.7441
 30
0.0
 10
-255.2282
 20
53.7441
 30
0.0
 10
-255.2282
 20
94.6532
 30
0.0
 10
-255.2282
 20
94.6532
 30
0.0
 10
-255.2282
 20
94.6532
 30
0.0
 10
-255.2282
 20
94.6532
 30
0.0
 10
-252.2282
 20
94.6532
 30
0.0
 10
-252.2282
 20
94.6532
 30
0.0
 10
-252.2282
 20
94.6532
 30
0.0
 10
-252.2282
 20
94.6532
 30
0.0
 10
-252.2282
 20
53.7441
 30
0.0
 10
-252.2282
 20
53.7441
 30
0.0
  0
SPLINE
  5
5B
330
1F
100
AcDbEntity
  8
layer 1
 62
   250
370
    20
100
AcDbSpline
210
0.0
220
0.0
230
1.0
 70
    11
 71
     3
 72
    20
 73
    16
 74
     0
 42
0.0000000001
 43
0.0000000001
 12
1.0
 22
0.0
 32
0.0
 13
1.0
 23
0.0
 33
0.0
 40
0.0
 40
0.0
 40
0.0
 40
0.0
 40
0.2
 40
0.2
 40
0.2
 40
0.2
 40
0.4
 40
0.4
 40
0.4
 40
0.4
 40
0.6
 40
0.6
 40
0.6
 40
0.6
 40
1.0
 40
1.0
 40
1.0
 40
1.0
 10
-252.2282
 20
-28.0741
 30
0.0
 10
-252.2282
 20
-28.0741
 30
0.0
 10
-255.2282
 20
-28.0741
 30
0.0
 10
-255.2282
 20
-28.0741
 30
0.0
 10
-255.2282
 20
-28.0741
 30
0.0
 10
-255.2282
 20
-28.0741
 30
0.0
 10
-255.2282
 20
12.835
 30
0.0
 10
-255.2282
 20
12.835
 30
0.0
 10
-255.2282
 20
12.835
 30
0.0
 10
-255.2282
 20
12.835
 30
0.0
 10
-252.2282
 20
12.835
 30
0.0
 10
-252.2282
 20
12.835
 30
0.0
 10
-252.2282
 20
12.835
 30
0.0
 10
-252.2282
 20
12.835
 30
0.0
 10
-252.2282
 20
-28.0741
 30
0.0
 10
-252.2282
 20
-28.0741
 30
0.0
  0
SPLINE
  5
5C
330
1F
100
AcDbEntity
  8
layer 1
 62
   250
370
    20
100
AcDbSpline
210
0.0
220
0.0
230
1.0
 70
    11
 71
     3
 72
    20
 73
    16
 74
     0
 42
0.0000000001
 43
0.0000000001
 12
1.0
 22
0.0
 32
0.0
 13
1.0
 23
0.0
 33
0.0
 40
0.0
 40
0.0
 40
0.0
 40
0.0
 40
0.2
 40
0.2
 40
0.2
 40
0.2
 40
0.4
 40
0.4
 40
0.4
 40
0.4
 40
0.6
 40
0.6
 40
0.6
 40
0.6
 40
1.0
 40
1.0
 40
1.0
 40
1.0
 10
-252.2282
 20
-109.8922
 30
0.0
 10
-252.2282
 20
-109.8922
 30
0.0
 10
-255.2282
 20
-109.8922
 30
0.0
 10
-255.2282
 20
-109.8922
 30
0.0
 10
-255.2282
 20
-109.8922
 30
0.0
 10
-255.2282
 20
-109.8922
 30
0.0
 10
-255.2282
 20
-68.9832
 30
0.0
 10
-255.2282
 20
-68.9832
 30
0.0
 10
-255.2282
 20
-68.9832
 30
0.0
 10
-255.2282
 20
-68.9832
 30
0.0
 10
-252.2282
 20
-68.9832
 30
0.0
 10
-252.2282
 20
-68.9832
 30
0.0
 10
-252.2282
 20
-68.9832
 30
0.0
 10
-252.2282
 20
-68.9832
 30
0.0
 10
-252.2282
 20
-109.8922
 30
0.0
 10
-252.2282
 20
-109.8922
 30
0.0
  0
SPLINE
  5
5D
330
1F
100
AcDbEntity
  8
layer 1
 62
   250
370
    20
100
AcDbSpline
210
0.0
220
0.0
230
1.0
 70
    11
 71
     3
 72
    20
 73
    16
 74
     0
 42
0.0000000001
 43
0.0000000001
 12
1.0
 22
0.0
 32
0.0
 13
1.0
 23
0.0
 33
0.0
 40
0.0
 40
0.0
 40
0.0
 40
0.0
 40
0.2
 40
0.2
 40
0.2
 40
0.2
 40
0.4
 40
0.4
 40
0.4
 40
0.4
 40
0.6
 40
0.6
 40
0.6
 40
0.6
 40
1.0
 40
1.0
 40
1.0
 40
1.0
 10
-252.2282
 20
-191.7104
 30
0.0
 10
-252.2282
 20
-191.7104
 30
0.0
 10
-255.2282
 20
-191.7104
 30
0.0
 10
-255.2282
 20
-191.7104
 30
0.0
 10
-255.2282
 20
-191.7104
 30
0.0
 10
-255.2282
 20
-191.7104
 30
0.0
 10
-255.2282
 20
-150.8013
 30
0.0
 10
-255.2282
 20
-150.8013
 30
0.0
 10
-255.2282
 20
-150.8013
 30
0.0
 10
-255.2282
 20
-150.8013
 30
0.0
 10
-252.2282
 20
-150.8013
 30
0.0
 10
-252.2282
 20
-150.8013
 30
0.0
 10
-252.2282
 20
-150.8013
 30
0.0
 10
-252.2282
 20
-150.8013
 30
0.0
 10
-252.2282
 20
-191.7104
 30
0.0
 10
-252.2282
 20
-191.7104
 30
0.0
  0
SPLINE
  5
5E
330
1F
100
AcDbEntity
  8
layer 1
 62
   250
370
    20
100
AcDbSpline
210
0.0
220
0.0
230
1.0
 70
    11
 71
     3
 72
    20
 73
    16
 74
     0
 42
0.0000000001
 43
0.0000000001
 12
1.0
 22
0.0
 32
0.0
 13
1.0
 23
0.0
 33
0.0
 40
0.0
 40
0.0
 40
0.0
 40
0.0
 40
0.2
 40
0.2
 40
0.2
 40
0.2
 40
0.4
 40
0.4
 40
0.4
 40
0.4
 40
0.6
 40
0.6
 40
0.6
 40
0.6
 40
1.0
 40
1.0
 40
1.0
 40
1.0
 10
-252.2282
 20
-273.5286
 30
0.0
 10
-252.2282
 20
-273.5286
 30
0.0
 10
-255.2282
 20
-273.5286
 30
0.0
 10
-255.2282
 20
-273.5286
 30
0.0
 10
-255.2282
 20
-273.5286
 30
0.0
 10
-255.2282
 20
-273.5286
 30
0.0
 10
-255.2282
 20
-232.6195
 30
0.0
 10
-255.2282
 20
-232.6195
 30
0.0
 10
-255.2282
 20
-232.6195
 30
0.0
 10
-255.2282
 20
-232.6195
 30
0.0
 10
-252.2282
 20
-232.6195
 30
0.0
 10
-252.2282
 20
-232.6195
 30
0.0
 10
-252.2282
 20
-232.6195
 30
0.0
 10
-252.2282
 20
-232.6195
 30
0.0
 10
-252.2282
 20
-273.5286
 30
0.0
 10
-252.2282
 20
-273.5286
 30
0.0
  0
SPLINE
  5
5F
330
1F
100
AcDbEntity
  8
layer 1
 62
   250
370
    20
100
AcDbSpline
210
0.0
220
0.0
230
1.0
 70
    11
 71
     3
 72
   180
 73
   176
 74
     0
 42
0.0000000001
 43
0.0000000001
 12
1.0
 22
0.0
 32
0.0
 13
1.0
 23
0.0
 33
0.0
 40
0.0
 40
0.0
 40
0.0
 40
0.0
 40
0.0222222222222222
 40
0.0222222222222222
 40
0.0222222222222222
 40
0.0222222222222222
 40
0.0444444444444444
 40
0.0444444444444444
 40
0.0444444444444444
 40
0.0444444444444444
 40
0.0666666666666667
 40
0.0666666666666667
 40
0.0666666666666667
 40
0.0666666666666667
 40
0.0888888888888889
 40
0.0888888888888889
 40
0.0888888888888889
 40
0.0888888888888889
 40
0.1111111111111111
 40
0.1111111111111111
 40
0.1111111111111111
 40
0.1111111111111111
 40
0.1333333333333333
 40
0.1333333333333333
 40
0.1333333333333333
 40
0.1333333333333333
 40
0.1555555555555556
 40
0.1555555555555556
 40
0.1555555555555556
 40
0.1555555555555556
 40
0.1777777777777778
 40
0.1777777777777778
 40
0.1777777777777778
 40
0.1777777777777778
 40
0.2
 40
0.2
 40
0.2
 40
0.2
 40
0.2222222222222222
 40
0.2222222222222222
 40
0.2222222222222222
 40
0.2222222222222222
 40
0.2444444444444444
 40
0.2444444444444444
 40
0.2444444444444444
 40
0.2444444444444444
 40
0.2666666666666667
 40
0.2666666666666667
 40
0.2666666666666667
 40
0.2666666666666667
 40
0.2888888888888889
 40
0.2888888888888889
 40
0.2888888888888889
 40
0.2888888888888889
 40
0.3111111111111111
 40
0.3111111111111111
 40
0.3111111111111111
 40
0.3111111111111111
 40
0.3333333333333333
 40
0.3333333333333333
 40
0.3333333333333333
 40
0.3333333333333333
 40
0.3555555555555556
 40
0.3555555555555556
 40
0.3555555555555556
 40
0.3555555555555556
 40
0.3777777777777778
 40
0.3777777777777778
 40
0.3777777777777778
 40
0.3777777777777778
 40
0.4
 40
0.4
 40
0.4
 40
0.4
 40
0.4222222222222222
 40
0.4222222222222222
 40
0.4222222222222222
 40
0.4222222222222222
 40
0.4444444444444444
 40
0.4444444444444444
 40
0.4444444444444444
 40
0.4444444444444444
 40
0.4666666666666667
 40
0.4666666666666667
 40
0.4666666666666667
 40
0.4666666666666667
 40
0.4888888888888889
 40
0.4888888888888889
 40
0.4888888888888889
 40
0.4888888888888889
 40
0.5111111111111111
 40
0.5111111111111111
 40
0.5111111111111111
 40
0.5111111111111111
 40
0.5333333333333333
 40
0.5333333333333333
 40
0.5333333333333333
 40
0.5333333333333333
 40
0.5555555555555556
 40
0.5555555555555556
 40
0.5555555555555556
 40
0.5555555555555556
 40
0.5777777777777777
 40
0.5777777777777777
 40
0.5777777777777777
 40
0.5777777777777777
 40
0.6
 40
0.6
 40
0.6
 40
0.6
 40
0.6222222222222222
 40
0.6222222222222222
 40
0.6222222222222222
 40
0.6222222222222222
 40
0.6444444444444445
 40
0.6444444444444445
 40
0.6444444444444445
 40
0.6444444444444445
 40
0.6666666666666666
 40
0.6666666666666666
 40
0.6666666666666666
 40
0.6666666666666666
 40
0.6888888888888889
 40
0.6888888888888889
 40
0.6888888888888889
 40
0.6888888888888889
 40
0.7111111111111111
 40
0.7111111111111111
 40
0.7111111111111111
 40
0.7111111111111111
 40
0.7333333333333333
 40
0.7333333333333333
 40
0.7333333333333333
 40
0.7333333333333333
 40
0.7555555555555555
 40
0.7555555555555555
 40
0.7555555555555555
 40
0.7555555555555555
 40
0.7777777777777778
 40
0.7777777777777778
 40
0.7777777777777778
 40
0.7777777777777778
 40
0.8
 40
0.8
 40
0.8
 40
0.8
 40
0.8222222222222222
 40
0.8222222222222222
 40
0.8222222222222222
 40
0.8222222222222222
 40
0.8444444444444444
 40
0.8444444444444444
 40
0.8444444444444444
 40
0.8444444444444444
 40
0.8666666666666667
 40
0.8666666666666667
 40
0.8666666666666667
 40
0.8666666666666667
 40
0.8888888888888888
 40
0.8888888888888888
 40
0.8888888888888888
 40
0.8888888888888888
 40
0.9111111111111111
 40
0.9111111111111111
 40
0.9111111111111111
 40
0.9111111111111111
 40
0.9333333333333333
 40
0.9333333333333333
 40
0.9333333333333333
 40
0.9333333333333333
 40
0.9555555555555556
 40
0.9555555555555556
 40
0.9555555555555556
 40
0.9555555555555556
 40
1.0
 40
1.0
 40
1.0
 40
1.0
 10
-672.2282
 20
132.5623
 30
0.0
 10
-672.2282
 20
132.5623
 30
0.0
 10
-672.2282
 20
-311.4377
 30
0.0
 10
-672.2282
 20
-311.4377
 30
0.0
 10
-672.2282
 20
-311.4377
 30
0.0
 10
-672.2282
 20
-311.4377
 30
0.0
 10
-631.3191
 20
-311.4377
 30
0.0
 10
-631.3191
 20
-311.4377
 30
0.0
 10
-631.3191
 20
-311.4377
 30
0.0
 10
-631.3191
 20
-311.4377
 30
0.0
 10
-631.3191
 20
-314.4377
 30
0.0
 10
-631.3191
 20
-314.4377
 30
0.0
 10
-631.3191
 20
-314.4377
 30
0.0
 10
-631.3191
 20
-314.4377
 30
0.0
 10
-590.41
 20
-314.4377
 30
0.0
 10
-590.41
 20
-314.4377
 30
0.0
 10
-590.41
 20
-314.4377
 30
0.0
 10
-590.41
 20
-314.4377
 30
0.0
 10
-590.41
 20
-311.4377
 30
0.0
 10
-590.41
 20
-311.4377
 30
0.0
 10
-590.41
 20
-311.4377
 30
0.0
 10
-590.41
 20
-311.4377
 30
0.0
 10
-549.5009
 20
-311.4377
 30
0.0
 10
-549.5009
 20
-311.4377
 30
0.0
 10
-549.5009
 20
-311.4377
 30
0.0
 10
-549.5009
 20
-311.4377
 30
0.0
 10
-549.5009
 20
-314.4377
 30
0.0
 10
-549.5009
 20
-314.4377
 30
0.0
 10
-549.5009
 20
-314.4377
 30
0.0
 10
-549.5009
 20
-314.4377
 30
0.0
 10
-508.5918
 20
-314.4377
 30
0.0
 10
-508.5918
 20
-314.4377
 30
0.0
 10
-508.5918
 20
-314.4377
 30
0.0
 10
-508.5918
 20
-314.4377
 30
0.0
 10
-508.5918
 20
-311.4377
 30
0.0
 10
-508.5918
 20
-311.4377
 30
0.0
 10
-508.5918
 20
-311.4377
 30
0.0
 10
-508.5918
 20
-311.4377
 30
0.0
 10
-467.6827
 20
-311.4377
 30
0.0
 10
-467.6827
 20
-311.4377
 30
0.0
 10
-467.6827
 20
-311.4377
 30
0.0
 10
-467.6827
 20
-311.4377
 30
0.0
 10
-467.6827
 20
-314.4377
 30
0.0
 10
-467.6827
 20
-314.4377
 30
0.0
 10
-467.6827
 20
-314.4377
 30
0.0
 10
-467.6827
 20
-314.4377
 30
0.0
 10
-426.7737
 20
-314.4377
 30
0.0
 10
-426.7737
 20
-314.4377
 30
0.0
 10
-426.7737
 20
-314.4377
 30
0.0
 10
-426.7737
 20
-314.4377
 30
0.0
 10
-426.7737
 20
-311.4377
 30
0.0
 10
-426.7737
 20
-311.4377
 30
0.0
 10
-426.7737
 20
-311.4377
 30
0.0
 10
-426.7737
 20
-311.4377
 30
0.0
 10
-385.8646
 20
-311.4377
 30
0.0
 10
-385.8646
 20
-311.4377
 30
0.0
 10
-385.8646
 20
-311.4377
 30
0.0
 10
-385.8646
 20
-311.4377
 30
0.0
 10
-385.8646
 20
-314.4377
 30
0.0
 10
-385.8646
 20
-314.4377
 30
0.0
 10
-385.8646
 20
-314.4377
 30
0.0
 10
-385.8646
 20
-314.4377
 30
0.0
 10
-344.9555
 20
-314.4377
 30
0.0
 10
-344.9555
 20
-314.4377
 30
0.0
 10
-344.9555
 20
-314.4377
 30
0.0
 10
-344.9555
 20
-314.4377
 30
0.0
 10
-344.9555
 20
-311.4377
 30
0.0
 10
-344.9555
 20
-311.4377
 30
0.0
 10
-344.9555
 20
-311.4377
 30
0.0
 10
-344.9555
 20
-311.4377
 30
0.0
 10
-304.0464
 20
-311.4377
 30
0.0
 10
-304.0464
 20
-311.4377
 30
0.0
 10
-304.0464
 20
-311.4377
 30
0.0
 10
-304.0464
 20
-311.4377
 30
0.0
 10
-304.0464
 20
-314.4377
 30
0.0
 10
-304.0464
 20
-314.4377
 30
0.0
 10
-304.0464
 20
-314.4377
 30
0.0
 10
-304.0464
 20
-314.4377
 30
0.0
 10
-263.1373
 20
-314.4377
 30
0.0
 10
-263.1373
 20
-314.4377
 30
0.0
 10
-263.1373
 20
-314.4377
 30
0.0
 10
-263.1373
 20
-314.4377
 30
0.0
 10
-263.1373
 20
-311.4377
 30
0.0
 10
-263.1373
 20
-311.4377
 30
0.0
 10
-263.1373
 20
-311.4377
 30
0.0
 10
-263.1373
 20
-311.4377
 30
0.0
 10
-222.2282
 20
-311.4377
 30
0.0
 10
-222.2282
 20
-311.4377
 30
0.0
 10
-222.2282
 20
-311.4377
 30
0.0
 10
-222.2282
 20
-311.4377
 30
0.0
 10
-222.2282
 20
132.5623
 30
0.0
 10
-222.2282
 20
132.5623
 30
0.0
 10
-222.2282
 20
132.5623
 30
0.0
 10
-222.2282
 20
132.5623
 30
0.0
 10
-263.1373
 20
132.5623
 30
0.0
 10
-263.1373
 20
132.5623
 30
0.0
 10
-263.1373
 20
132.5623
 30
0.0
 10
-263.1373
 20
132.5623
 30
0.0
 10
-263.1373
 20
135.5623
 30
0.0
 10
-263.1373
 20
135.5623
 30
0.0
 10
-263.1373
 20
135.5623
 30
0.0
 10
-263.1373
 20
135.5623
 30
0.0
 10
-304.0464
 20
135.5623
 30
0.0
 10
-304.0464
 20
135.5623
 30
0.0
 10
-304.0464
 20
135.5623
 30
0.0
 10
-304.0464
 20
135.5623
 30
0.0
 10
-304.0464
 20
132.5623
 30
0.0
 10
-304.0464
 20
132.5623
 30
0.0
 10
-304.0464
 20
132.5623
 30
0.0
 10
-304.0464
 20
132.5623
 30
0.0
 10
-344.9555
 20
132.5623
 30
0.0
 10
-344.9555
 20
132.5623
 30
0.0
 10
-344.9555
 20
132.5623
 30
0.0
 10
-344.9555
 20
132.5623
 30
0.0
 10
-344.9555
 20
135.5623
 30
0.0
 10
-344.9555
 20
135.5623
 30
0.0
 10
-344.9555
 20
135.5623
 30
0.0
 10
-344.9555
 20
135.5623
 30
0.0
 10
-385.8646
 20
135.5623
 30
0.0
 10
-385.8646
 20
135.5623
 30
0.0
 10
-385.8646
 20
135.5623
 30
0.0
 10
-385.8646
 20
135.5623
 30
0.0
 10
-385.8646
 20
132.5623
 30
0.0
 10
-385.8646
 20
132.5623
 30
0.0
 10
-385.8646
 20
132.5623
 30
0.0
 10
-385.8646
 20
132.5623
 30
0.0
 10
-426.7737
 20
132.5623
 30
0.0
 10
-426.7737
 20
132.5623
 30
0.0
 10
-426.7737
 20
132.5623
 30
0.0
 10
-426.7737
 20
132.5623
 30
0.0
 10
-426.7737
 20
135.5623
 30
0.0
 10
-426.7737
 20
135.5623
 30
0.0
 10
-426.7737
 20
135.5623
 30
0.0
 10
-426.7737
 20
135.5623
 30
0.0
 10
-467.6827
 20
135.5623
 30
0.0
 10
-467.6827
 20
135.5623
 30
0.0
 10
-467.6827
 20
135.5623
 30
0.0
 10
-467.6827
 20
135.5623
 30
0.0
 10
-467.6827
 20
132.5623
 30
0.0
 10
-467.6827
 20
132.5623
 30
0.0
 10
-467.6827
 20
132.5623
 30
0.0
 10
-467.6827
 20
132.5623
 30
0.0
 10
-508.5918
 20
132.5623
 30
0.0
 10
-508.5918
 20
132.5623
 30
0.0
 10
-508.5918
 20
132.5623
 30
0.0
 10
-508.5918
 20
132.5623
 30
0.0
 10
-508.5918
 20
135.5623
 30
0.0
 10
-508.5918
 20
135.5623
 30
0.0
 10
-508.5918
 20
135.5623
 30
0.0
 10
-508.5918
 20
135.5623
 30
0.0
 10
-549.5009
 20
135.5623
 30
0.0
 10
-549.5009
 20
135.5623
 30
0.0
 10
-549.5009
 20
135.5623
 30
0.0
 10
-549.5009
 20
135.5623
 30
0.0
 10
-549.5009
 20
132.5623
 30
0.0
 10
-549.5009
 20
132.5623
 30
0.0
 10
-549.5009
 20
132.5623
 30
0.0
 10
-549.5009
 20
132.5623
 30
0.0
 10
-590.41
 20
132.5623
 30
0.0
 10
-590.41
 20
132.5623
 30
0.0
 10
-590.41
 20
132.5623
 30
0.0
 10
-590.41
 20
132.5623
 30
0.0
 10
-590.41
 20
135.5623
 30
0.0
 10
-590.41
 20
135.5623
 30
0.0
 10
-590.41
 20
135.5623
 30
0.0
 10
-590.41
 20
135.5623
 30
0.0
 10
-631.3191
 20
135.5623
 30
0.0
 10
-631.3191
 20
135.5623
 30
0.0
 10
-631.3191
 20
135.5623
 30
0.0
 10
-631.3191
 20
135.5623
 30
0.0
 10
-631.3191
 20
132.5623
 30
0.0
 10
-631.3191
 20
132.5623
 30
0.0
 10
-631.3191
 20
132.5623
 30
0.0
 10
-631.3191
 20
132.5623
 30
0.0
 10
-672.2282
 20
132.5623
 30
0.0
 10
-672.2282
 20
132.5623
 30
0.0
  0
ENDSEC
  0
SECTION
  2
OBJECTS
  0
DICTIONARY
  5
C
330
0
100
AcDbDictionary
281
     1
  3
ACAD_GROUP
350
D
  3
ACAD_LAYOUT
350
1A
  3
ACAD_MATERIAL
350
3B
  3
ACAD_MLEADERSTYLE
350
81
  3
ACAD_MLINESTYLE
350
17
  3
ACAD_PLOTSETTINGS
350
19
  3
ACAD_PLOTSTYLENAME
350
E
  3
ACAD_TABLESTYLE
350
80
  3
ACAD_VISUALSTYLE
350
2A
  0
DICTIONARY
  5
D
102
{ACAD_REACTORS
330
C
102
}
330
C
100
AcDbDictionary
281
     1
  0
DICTIONARY
  5
1A
102
{ACAD_REACTORS
330
C
102
}
330
C
100
AcDbDictionary
281
     1
  3
Layout1
350
1E
  3
Layout2
350
26
  3
Model
350
22
  0
DICTIONARY
  5
3B
102
{ACAD_REACTORS
330
C
102
}
330
C
100
AcDbDictionary
281
     1
  3
ByBlock
350
3D
  3
ByLayer
350
3C
  3
Global
350
3E
  0
DICTIONARY
  5
81
102
{ACAD_REACTORS
330
C
102
}
330
C
100
AcDbDictionary
281
     1
  0
DICTIONARY
  5
17
102
{ACAD_REACTORS
330
C
102
}
330
C
100
AcDbDictionary
281
     1
  3
Standard
350
18
  0
DICTIONARY
  5
19
102
{ACAD_REACTORS
330
C
102
}
330
C
100
AcDbDictionary
281
     1
  0
ACDBDICTIONARYWDFLT
  5
E
102
{ACAD_REACTORS
330
C
102
}
330
C
100
AcDbDictionary
281
     1
  3
Normal
350
F
100
AcDbDictionaryWithDefault
340
F
  0
DICTIONARY
  5
80
102
{ACAD_REACTORS
330
C
102
}
330
C
100
AcDbDictionary
281
     1
  0
DICTIONARY
  5
2A
102
{ACAD_REACTORS
330
C
102
}
330
C
100
AcDbDictionary
281
     1
  3
2dWireframe
350
2F
  3
3D Hidden
350
31
  3
3dWireframe
350
30
  3
Basic
350
32
  3
Brighten
350
36
  3
ColorChange
350
3A
  3
Conceptual
350
34
  3
Dim
350
35
  3
Facepattern
350
39
  3
Flat
350
2B
  3
FlatWithEdges
350
2C
  3
Gouraud
350
2D
  3
GouraudWithEdges
350
2E
  3
Linepattern
350
38
  3
Realistic
350
33
  3
Thicken
350
37
  0
LAYOUT
  5
1E
102
{ACAD_REACTORS
330
1A
102
}
330
1A
100
AcDbPlotSettings
  1

  2
none_device
  4

  6

 40
0.0
 41
0.0
 42
0.0
 43
0.0
 44
0.0
 45
0.0
 46
0.0
 47
0.0
 48
0.0
 49
0.0
140
0.0
141
0.0
142
1.0
143
1.0
 70
   688
 72
     0
 73
     0
 74
     5
  7

 75
    16
 76
     0
 77
     2
 78
   300
147
1.0
148
0.0
149
0.0
100
AcDbLayout
  1
Layout1
 70
     1
 71
     1
 10
0.0
 20
0.0
 11
12.0
 21
9.0
 12
0.0
 22
0.0
 32
0.0
 14
1.000000000000000E+20
 24
1.000000000000000E+20
 34
1.000000000000000E+20
 15
-1.000000000000000E+20
 25
-1.000000000000000E+20
 35
-1.000000000000000E+20
146
0.0
 13
0.0
 23
0.0
 33
0.0
 16
1.0
 26
0.0
 36
0.0
 17
0.0
 27
1.0
 37
0.0
 76
     0
330
1B
  0
LAYOUT
  5
26
102
{ACAD_REACTORS
330
1A
102
}
330
1A
100
AcDbPlotSettings
  1

  2
none_device
  4

  6

 40
0.0
 41
0.0
 42
0.0
 43
0.0
 44
0.0
 45
0.0
 46
0.0
 47
0.0
 48
0.0
 49
0.0
140
0.0
141
0.0
142
1.0
143
1.0
 70
   688
 72
     0
 73
     0
 74
     5
  7

 75
    16
 76
     0
 77
     2
 78
   300
147
1.0
148
0.0
149
0.0
100
AcDbLayout
  1
Layout2
 70
     1
 71
     2
 10
0.0
 20
0.0
 11
0.0
 21
0.0
 12
0.0
 22
0.0
 32
0.0
 14
0.0
 24
0.0
 34
0.0
 15
0.0
 25
0.0
 35
0.0
146
0.0
 13
0.0
 23
0.0
 33
0.0
 16
1.0
 26
0.0
 36
0.0
 17
0.0
 27
1.0
 37
0.0
 76
     0
330
23
  0
LAYOUT
  5
22
102
{ACAD_REACTORS
330
1A
102
}
330
1A
100
AcDbPlotSettings
  1

  2
none_device
  4

  6

 40
0.0
 41
0.0
 42
0.0
 43
0.0
 44
0.0
 45
0.0
 46
0.0
 47
0.0
 48
0.0
 49
0.0
140
0.0
141
0.0
142
1.0
143
1.0
 70
  1712
 72
     0
 73
     0
 74
     0
  7

 75
     0
 76
     0
 77
     2
 78
   300
147
1.0
148
0.0
149
0.0
100
AcDbLayout
  1
Model
 70
     1
 71
     0
 10
0.0
 20
0.0
 11
12.0
 21
9.0
 12
0.0
 22
0.0
 32
0.0
 14
-672.3282
 24
-314.5377
 34
0.0
 15
557.8718
 25
580.6975
 35
0.0
146
0.0
 13
0.0
 23
0.0
 33
0.0
 16
1.0
 26
0.0
 36
0.0
 17
0.0
 27
1.0
 37
0.0
 76
     0
330
1F
331
29
  0
MATERIAL
  5
3D
102
{ACAD_REACTORS
330
3B
102
}
330
3B
100
AcDbMaterial
  1
ByBlock
 72
     1
 94
      127
  0
MATERIAL
  5
3C
102
{ACAD_REACTORS
330
3B
102
}
330
3B
100
AcDbMaterial
  1
ByLayer
 72
     1
 94
      127
  0
MATERIAL
  5
3E
102
{ACAD_REACTORS
330
3B
102
}
330
3B
100
AcDbMaterial
  1
Global
 72
     1
 94
      127
  0
MLINESTYLE
  5
18
102
{ACAD_REACTORS
330
17
102
}
330
17
100
AcDbMlineStyle
  2
Standard
 70
     0
  3

 62
   256
 51
90.0
 52
90.0
 71
     2
 49
0.5
 62
   256
  6
BYLAYER
 49
-0.5
 62
   256
  6
BYLAYER
  0
ACDBPLACEHOLDER
  5
F
102
{ACAD_REACTORS
330
E
102
}
330
E
  0
VISUALSTYLE
  5
2F
102
{ACAD_REACTORS
330
2A
102
}
102
{ACAD_XDICTIONARY
360
68
102
}
330
2A
100
AcDbVisualStyle
  2
2dWireframe
 70
     4
 71
     0
 72
     2
 73
     0
 90
        0
 40
-0.6
 41
-30.0
 62
     5
 63
     7
421
 16777215
 74
     1
 91
        4
 64
     7
 65
   257
 75
     1
175
     1
 42
1.0
 92
        0
 66
   257
 43
1.0
 76
     1
 77
     6
 78
     2
 67
     7
 79
     5
170
     0
171
     0
290
     0
174
     0
 93
        1
 44
0.0
173
     0
291
     0
 45
0.0
  0
VISUALSTYLE
  5
31
102
{ACAD_REACTORS
330
2A
102
}
102
{ACAD_XDICTIONARY
360
6C
102
}
330
2A
100
AcDbVisualStyle
  2
3D Hidden
 70
     6
 71
     1
 72
     2
 73
     2
 90
        0
 40
-0.6
 41
-30.0
 62
     5
 63
     7
421
 16777215
 74
     2
 91
        2
 64
     7
 65
   257
 75
     2
175
     1
 42
40.0
 92
        0
 66
   257
 43
1.0
 76
     1
 77
     6
 78
     2
 67
     7
 79
     3
170
     0
171
     0
290
     0
174
     0
 93
        1
 44
0.0
173
     0
291
     0
 45
0.0
  0
VISUALSTYLE
  5
30
102
{ACAD_REACTORS
330
2A
102
}
102
{ACAD_XDICTIONARY
360
6A
102
}
330
2A
100
AcDbVisualStyle
  2
3dWireframe
 70
     5
 71
     0
 72
     2
 73
     0
 90
        0
 40
-0.6
 41
-30.0
 62
     5
 63
     7
421
 16777215
 74
     1
 91
        4
 64
     7
 65
   257
 75
     1
175
     1
 42
1.0
 92
        0
 66
   257
 43
1.0
 76
     1
 77
     6
 78
     2
 67
     7
 79
     5
170
     0
171
     0
290
     0
174
     0
 93
        1
 44
0.0
173
     0
291
     0
 45
0.0
  0
VISUALSTYLE
  5
32
102
{ACAD_REACTORS
330
2A
102
}
102
{ACAD_XDICTIONARY
360
6E
102
}
330
2A
100
AcDbVisualStyle
  2
Basic
 70
     7
 71
     1
 72
     0
 73
     1
 90
        0
 40
-0.6
 41
-30.0
 62
     5
 63
     7
421
 16777215
 74
     0
 91
        4
 64
     7
 65
   257
 75
     1
175
     1
 42
1.0
 92
        8
 66
     7
 43
1.0
 76
     1
 77
     6
 78
     2
 67
     7
 79
     5
170
     0
171
     0
290
     0
174
     0
 93
        1
 44
0.0
173
     0
291
     1
 45
0.0
  0
VISUALSTYLE
  5
36
102
{ACAD_REACTORS
330
2A
102
}
102
{ACAD_XDICTIONARY
360
76
102
}
330
2A
100
AcDbVisualStyle
  2
Brighten
 70
    12
 71
     2
 72
     2
 73
     0
 90
        0
 40
-0.6
 41
-30.0
 62
     5
 63
     7
421
 16777215
 74
     1
 91
        4
 64
     7
 65
   257
 75
     1
175
     1
 42
1.0
 92
        8
 66
     7
 43
1.0
 76
     1
 77
     6
 78
     2
 67
     7
 79
     5
170
     0
171
     0
290
     0
174
     0
 93
        1
 44
50.0
173
     0
291
     1
 45
0.0
  0
VISUALSTYLE
  5
3A
102
{ACAD_REACTORS
330
2A
102
}
102
{ACAD_XDICTIONARY
360
7E
102
}
330
2A
100
AcDbVisualStyle
  2
ColorChange
 70
    16
 71
     2
 72
     2
 73
     3
 90
        0
 40
-0.6
 41
-30.0
 62
     5
 63
     8
421
  8421504
 74
     1
 91
        4
 64
     7
 65
   257
 75
     1
175
     1
 42
1.0
 92
        8
 66
     8
424
  8421504
 43
1.0
 76
     1
 77
     6
 78
     2
 67
     7
 79
     5
170
     0
171
     0
290
     0
174
     0
 93
        1
 44
0.0
173
     0
291
     1
 45
0.0
  0
VISUALSTYLE
  5
34
102
{ACAD_REACTORS
330
2A
102
}
102
{ACAD_XDICTIONARY
360
72
102
}
330
2A
100
AcDbVisualStyle
  2
Conceptual
 70
     9
 71
     3
 72
     2
 73
     0
 90
        0
 40
-0.6
 41
-30.0
 62
     5
 63
     7
421
 16777215
 74
     2
 91
        2
 64
     7
 65
   257
 75
     1
175
     1
 42
40.0
 92
        8
 66
     7
 43
1.0
 76
     1
 77
     6
 78
     2
 67
     7
 79
     3
170
     0
171
     0
290
     0
174
     0
 93
        1
 44
0.0
173
     0
291
     0
 45
0.0
  0
VISUALSTYLE
  5
35
102
{ACAD_REACTORS
330
2A
102
}
102
{ACAD_XDICTIONARY
360
74
102
}
330
2A
100
AcDbVisualStyle
  2
Dim
 70
    11
 71
     2
 72
     2
 73
     0
 90
        0
 40
-0.6
 41
-30.0
 62
     5
 63
     7
421
 16777215
 74
     1
 91
        4
 64
     7
 65
   257
 75
     1
175
     1
 42
1.0
 92
        8
 66
     7
 43
1.0
 76
     1
 77
     6
 78
     2
 67
     7
 79
     5
170
     0
171
     0
290
     0
174
     0
 93
        1
 44
-50.0
173
     0
291
     1
 45
0.0
  0
VISUALSTYLE
  5
39
102
{ACAD_REACTORS
330
2A
102
}
102
{ACAD_XDICTIONARY
360
7C
102
}
330
2A
100
AcDbVisualStyle
  2
Facepattern
 70
    15
 71
     2
 72
     2
 73
     0
 90
        0
 40
-0.6
 41
-30.0
 62
     5
 63
     7
421
 16777215
 74
     1
 91
        4
 64
     7
 65
   257
 75
     1
175
     1
 42
1.0
 92
        8
 66
     7
 43
1.0
 76
     1
 77
     6
 78
     2
 67
     7
 79
     5
170
     0
171
     0
290
     0
174
     0
 93
        1
 44
0.0
173
     0
291
     1
 45
0.0
  0
VISUALSTYLE
  5
2B
102
{ACAD_REACTORS
330
2A
102
}
102
{ACAD_XDICTIONARY
360
60
102
}
330
2A
100
AcDbVisualStyle
  2
Flat
 70
     0
 71
     2
 72
     1
 73
     1
 90
        2
 40
-0.6
 41
30.0
 62
     5
 63
     7
421
 16777215
 74
     0
 91
        4
 64
     7
 65
   257
 75
     1
175
     1
 42
1.0
 92
        8
 66
     7
 43
1.0
 76
     1
 77
     6
 78
     2
 67
     7
 79
     5
170
     0
171
     0
290
     0
174
     0
 93
       13
 44
0.0
173
     0
291
     1
 45
0.0
  0
VISUALSTYLE
  5
2C
102
{ACAD_REACTORS
330
2A
102
}
102
{ACAD_XDICTIONARY
360
62
102
}
330
2A
100
AcDbVisualStyle
  2
FlatWithEdges
 70
     1
 71
     2
 72
     1
 73
     1
 90
        2
 40
-0.6
 41
30.0
 62
     5
 63
     7
421
 16777215
 74
     1
 91
        4
 64
     7
 65
   257
 75
     1
175
     1
 42
1.0
 92
        0
 66
   257
 43
1.0
 76
     1
 77
     6
 78
     2
 67
     7
 79
     5
170
     0
171
     0
290
     0
174
     0
 93
       13
 44
0.0
173
     0
291
     1
 45
0.0
  0
VISUALSTYLE
  5
2D
102
{ACAD_REACTORS
330
2A
102
}
102
{ACAD_XDICTIONARY
360
64
102
}
330
2A
100
AcDbVisualStyle
  2
Gouraud
 70
     2
 71
     2
 72
     2
 73
     1
 90
        2
 40
-0.6
 41
30.0
 62
     5
 63
     7
421
 16777215
 74
     0
 91
        4
 64
     7
 65
   257
 75
     1
175
     1
 42
1.0
 92
        0
 66
     7
 43
1.0
 76
     1
 77
     6
 78
     2
 67
     7
 79
     5
170
     0
171
     0
290
     0
174
     0
 93
       13
 44
0.0
173
     0
291
     1
 45
0.0
  0
VISUALSTYLE
  5
2E
102
{ACAD_REACTORS
330
2A
102
}
102
{ACAD_XDICTIONARY
360
66
102
}
330
2A
100
AcDbVisualStyle
  2
GouraudWithEdges
 70
     3
 71
     2
 72
     2
 73
     1
 90
        2
 40
-0.6
 41
30.0
 62
     5
 63
     7
421
 16777215
 74
     1
 91
        4
 64
     7
 65
   257
 75
     1
175
     1
 42
1.0
 92
        0
 66
   257
 43
1.0
 76
     1
 77
     6
 78
     2
 67
     7
 79
     5
170
     0
171
     0
290
     0
174
     0
 93
       13
 44
0.0
173
     0
291
     1
 45
0.0
  0
VISUALSTYLE
  5
38
102
{ACAD_REACTORS
330
2A
102
}
102
{ACAD_XDICTIONARY
360
7A
102
}
330
2A
100
AcDbVisualStyle
  2
Linepattern
 70
    14
 71
     2
 72
     2
 73
     0
 90
        0
 40
-0.6
 41
-30.0
 62
     5
 63
     7
421
 16777215
 74
     1
 91
        4
 64
     7
 65
   257
 75
     7
175
     7
 42
1.0
 92
        8
 66
     7
 43
1.0
 76
     1
 77
     6
 78
     2
 67
     7
 79
     5
170
     0
171
     0
290
     0
174
     0
 93
        1
 44
0.0
173
     0
291
     1
 45
0.0
  0
VISUALSTYLE
  5
33
102
{ACAD_REACTORS
330
2A
102
}
102
{ACAD_XDICTIONARY
360
70
102
}
330
2A
100
AcDbVisualStyle
  2
Realistic
 70
     8
 71
     2
 72
     2
 73
     0
 90
        0
 40
-0.6
 41
-30.0
 62
     5
 63
     7
421
 16777215
 74
     1
 91
        0
 64
     7
 65
   257
 75
     1
175
     1
 42
1.0
 92
        8
 66
     8
424
  7895160
 43
1.0
 76
     1
 77
     6
 78
     2
 67
     7
 79
     5
170
     0
171
     0
290
     0
174
     0
 93
       13
 44
0.0
173
     0
291
     0
 45
0.0
  0
VISUALSTYLE
  5
37
102
{ACAD_REACTORS
330
2A
102
}
102
{ACAD_XDICTIONARY
360
78
102
}
330
2A
100
AcDbVisualStyle
  2
Thicken
 70
    13
 71
     2
 72
     2
 73
     0
 90
        0
 40
-0.6
 41
-30.0
 62
     5
 63
     7
421
 16777215
 74
     1
 91
        4
 64
     7
 65
   257
 75
     1
175
     1
 42
1.0
 92
       12
 66
     7
 43
1.0
 76
     1
 77
     6
 78
     2
 67
     7
 79
     5
170
     0
171
     0
290
     0
174
     0
 93
        1
 44
0.0
173
     0
291
     1
 45
0.0
  0
DICTIONARY
  5
68
330
2F
100
AcDbDictionary
280
     1
281
     1
  3
ACAD_XREC_ROUNDTRIP
360
69
  0
DICTIONARY
  5
6C
330
31
100
AcDbDictionary
280
     1
281
     1
  3
ACAD_XREC_ROUNDTRIP
360
6D
  0
DICTIONARY
  5
6A
330
30
100
AcDbDictionary
280
     1
281
     1
  3
ACAD_XREC_ROUNDTRIP
360
6B
  0
DICTIONARY
  5
6E
330
32
100
AcDbDictionary
280
     1
281
     1
  3
ACAD_XREC_ROUNDTRIP
360
6F
  0
DICTIONARY
  5
76
330
36
100
AcDbDictionary
280
     1
281
     1
  3
ACAD_XREC_ROUNDTRIP
360
77
  0
DICTIONARY
  5
7E
330
3A
100
AcDbDictionary
280
     1
281
     1
  3
ACAD_XREC_ROUNDTRIP
360
7F
  0
DICTIONARY
  5
72
330
34
100
AcDbDictionary
280
     1
281
     1
  3
ACAD_XREC_ROUNDTRIP
360
73
  0
DICTIONARY
  5
74
330
35
100
AcDbDictionary
280
     1
281
     1
  3
ACAD_XREC_ROUNDTRIP
360
75
  0
DICTIONARY
  5
7C
330
39
100
AcDbDictionary
280
     1
281
     1
  3
ACAD_XREC_ROUNDTRIP
360
7D
  0
DICTIONARY
  5
60
330
2B
100
AcDbDictionary
280
     1
281
     1
  3
ACAD_XREC_ROUNDTRIP
360
61
  0
DICTIONARY
  5
62
330
2C
100
AcDbDictionary
280
     1
281
     1
  3
ACAD_XREC_ROUNDTRIP
360
63
  0
DICTIONARY
  5
64
330
2D
100
AcDbDictionary
280
     1
281
     1
  3
ACAD_XREC_ROUNDTRIP
360
65
  0
DICTIONARY
  5
66
330
2E
100
AcDbDictionary
280
     1
281
     1
  3
ACAD_XREC_ROUNDTRIP
360
67
  0
DICTIONARY
  5
7A
330
38
100
AcDbDictionary
280
     1
281
     1
  3
ACAD_XREC_ROUNDTRIP
360
7B
  0
DICTIONARY
  5
70
330
33
100
AcDbDictionary
280
     1
281
     1
  3
ACAD_XREC_ROUNDTRIP
360
71
  0
DICTIONARY
  5
78
330
37
100
AcDbDictionary
280
     1
281
     1
  3
ACAD_XREC_ROUNDTRIP
360
79
  0
XRECORD
  5
69
102
{ACAD_REACTORS
330
68
102
}
330
68
100
AcDbXrecord
280
     1
102
RTVSPropertyOp0
 70
     1
102
RTVSPropertyOp1
 70
     1
102
RTVSPropertyOp2
 70
     1
102
RTVSPropertyOp3
 70
     1
102
RTVSPropertyOp4
 70
     1
102
RTVSPropertyOp5
 70
     1
102
RTVSPropertyOp6
 70
     1
102
RTVSPropertyOp7
 70
     1
102
RTVSPropertyOp8
 70
     1
102
RTVSPropertyOp9
 70
     1
102
RTVSPropertyOp10
 70
     1
102
RTVSPropertyOp11
 70
     1
102
RTVSPropertyOp12
 70
     1
102
RTVSPropertyOp13
 70
     1
102
RTVSPropertyOp14
 70
     1
102
RTVSPropertyOp15
 70
     1
102
RTVSPropertyOp16
 70
     1
102
RTVSPropertyOp17
 70
     1
102
RTVSPropertyOp18
 70
     1
102
RTVSPropertyOp19
 70
     1
102
RTVSPropertyOp20
 70
     1
102
RTVSPropertyOp21
 70
     1
102
RTVSPropertyOp22
 70
     1
102
RTVSPropertyOp23
 70
     1
102
RTVSPropertyOp24
 70
     1
102
RTVSPropertyOp25
 70
     1
102
RTVSPropertyOp26
 70
     1
102
RTVSPropertyOp27
 70
     1
102
RTVSPropertyOp28
 70
     1
102
RTVSPropertyOp29
 70
     1
102
RTVSPropertyOp30
 70
     1
102
RTVSPropertyOp31
 70
     1
102
RTVSPropertyOp32
 70
     1
  0
XRECORD
  5
6D
102
{ACAD_REACTORS
330
6C
102
}
330
6C
100
AcDbXrecord
280
     1
102
RTVSPropertyOp0
 70
     1
102
RTVSPropertyOp1
 70
     1
102
RTVSPropertyOp2
 70
     1
102
RTVSPropertyOp3
 70
     1
102
RTVSPropertyOp4
 70
     1
102
RTVSPropertyOp5
 70
     1
102
RTVSPropertyOp6
 70
     1
102
RTVSPropertyOp7
 70
     1
102
RTVSPropertyOp8
 70
     1
102
RTVSPropertyOp9
 70
     1
102
RTVSPropertyOp10
 70
     1
102
RTVSPropertyOp11
 70
     1
102
RTVSPropertyOp12
 70
     1
102
RTVSPropertyOp13
 70
     1
102
RTVSPropertyOp14
 70
     1
102
RTVSPropertyOp15
 70
     1
102
RTVSPropertyOp16
 70
     1
102
RTVSPropertyOp17
 70
     1
102
RTVSPropertyOp18
 70
     1
102
RTVSPropertyOp19
 70
     1
102
RTVSPropertyOp20
 70
     1
102
RTVSPropertyOp21
 70
     1
102
RTVSPropertyOp22
 70
     1
102
RTVSPropertyOp23
 70
     1
102
RTVSPropertyOp24
 70
     1
102
RTVSPropertyOp25
 70
     1
102
RTVSPropertyOp26
 70
     1
102
RTVSPropertyOp27
 70
     1
102
RTVSPropertyOp28
 70
     1
102
RTVSPropertyOp29
 70
     1
102
RTVSPropertyOp30
 70
     1
102
RTVSPropertyOp31
 70
     1
102
RTVSPropertyOp32
 70
     1
  0
XRECORD
  5
6B
102
{ACAD_REACTORS
330
6A
102
}
330
6A
100
AcDbXrecord
280
     1
102
RTVSPropertyOp0
 70
     1
102
RTVSPropertyOp1
 70
     1
102
RTVSPropertyOp2
 70
     1
102
RTVSPropertyOp3
 70
     1
102
RTVSPropertyOp4
 70
     1
102
RTVSPropertyOp5
 70
     1
102
RTVSPropertyOp6
 70
     1
102
RTVSPropertyOp7
 70
     1
102
RTVSPropertyOp8
 70
     1
102
RTVSPropertyOp9
 70
     1
102
RTVSPropertyOp10
 70
     1
102
RTVSPropertyOp11
 70
     1
102
RTVSPropertyOp12
 70
     1
102
RTVSPropertyOp13
 70
     1
102
RTVSPropertyOp14
 70
     1
102
RTVSPropertyOp15
 70
     1
102
RTVSPropertyOp16
 70
     1
102
RTVSPropertyOp17
 70
     1
102
RTVSPropertyOp18
 70
     1
102
RTVSPropertyOp19
 70
     1
102
RTVSPropertyOp20
 70
     1
102
RTVSPropertyOp21
 70
     1
102
RTVSPropertyOp22
 70
     1
102
RTVSPropertyOp23
 70
     1
102
RTVSPropertyOp24
 70
     1
102
RTVSPropertyOp25
 70
     1
102
RTVSPropertyOp26
 70
     1
102
RTVSPropertyOp27
 70
     1
102
RTVSPropertyOp28
 70
     1
102
RTVSPropertyOp29
 70
     1
102
RTVSPropertyOp30
 70
     1
102
RTVSPropertyOp31
 70
     1
102
RTVSPropertyOp32
 70
     1
  0
XRECORD
  5
6F
102
{ACAD_REACTORS
330
6E
102
}
330
6E
100
AcDbXrecord
280
     1
102
RTVSPropertyOp0
 70
     1
102
RTVSPropertyOp1
 70
     1
102
RTVSPropertyOp2
 70
     1
102
RTVSPropertyOp3
 70
     1
102
RTVSPropertyOp4
 70
     1
102
RTVSPropertyOp5
 70
     1
102
RTVSPropertyOp6
 70
     1
102
RTVSPropertyOp7
 70
     1
102
RTVSPropertyOp8
 70
     1
102
RTVSPropertyOp9
 70
     1
102
RTVSPropertyOp10
 70
     1
102
RTVSPropertyOp11
 70
     1
102
RTVSPropertyOp12
 70
     1
102
RTVSPropertyOp13
 70
     1
102
RTVSPropertyOp14
 70
     1
102
RTVSPropertyOp15
 70
     1
102
RTVSPropertyOp16
 70
     1
102
RTVSPropertyOp17
 70
     1
102
RTVSPropertyOp18
 70
     1
102
RTVSPropertyOp19
 70
     1
102
RTVSPropertyOp20
 70
     1
102
RTVSPropertyOp21
 70
     1
102
RTVSPropertyOp22
 70
     1
102
RTVSPropertyOp23
 70
     1
102
RTVSPropertyOp24
 70
     1
102
RTVSPropertyOp25
 70
     1
102
RTVSPropertyOp26
 70
     1
102
RTVSPropertyOp27
 70
     1
102
RTVSPropertyOp28
 70
     1
102
RTVSPropertyOp29
 70
     1
102
RTVSPropertyOp30
 70
     1
102
RTVSPropertyOp31
 70
     1
102
RTVSPropertyOp32
 70
     1
  0
XRECORD
  5
77
102
{ACAD_REACTORS
330
76
102
}
330
76
100
AcDbXrecord
280
     1
102
RTVSPropertyOp0
 70
     1
102
RTVSPropertyOp1
 70
     1
102
RTVSPropertyOp2
 70
     1
102
RTVSPropertyOp3
 70
     1
102
RTVSPropertyOp4
 70
     1
102
RTVSPropertyOp5
 70
     1
102
RTVSPropertyOp6
 70
     1
102
RTVSPropertyOp7
 70
     1
102
RTVSPropertyOp8
 70
     1
102
RTVSPropertyOp9
 70
     1
102
RTVSPropertyOp10
 70
     1
102
RTVSPropertyOp11
 70
     1
102
RTVSPropertyOp12
 70
     1
102
RTVSPropertyOp13
 70
     1
102
RTVSPropertyOp14
 70
     1
102
RTVSPropertyOp15
 70
     1
102
RTVSPropertyOp16
 70
     1
102
RTVSPropertyOp17
 70
     1
102
RTVSPropertyOp18
 70
     1
102
RTVSPropertyOp19
 70
     1
102
RTVSPropertyOp20
 70
     1
102
RTVSPropertyOp21
 70
     1
102
RTVSPropertyOp22
 70
     1
102
RTVSPropertyOp23
 70
     1
102
RTVSPropertyOp24
 70
     1
102
RTVSPropertyOp25
 70
     1
102
RTVSPropertyOp26
 70
     1
102
RTVSPropertyOp27
 70
     1
102
RTVSPropertyOp28
 70
     1
102
RTVSPropertyOp29
 70
     1
102
RTVSPropertyOp30
 70
     1
102
RTVSPropertyOp31
 70
     1
102
RTVSPropertyOp32
 70
     1
  0
XRECORD
  5
7F
102
{ACAD_REACTORS
330
7E
102
}
330
7E
100
AcDbXrecord
280
     1
102
RTVSPropertyOp0
 70
     1
102
RTVSPropertyOp1
 70
     1
102
RTVSPropertyOp2
 70
     1
102
RTVSPropertyOp3
 70
     1
102
RTVSPropertyOp4
 70
     1
102
RTVSPropertyOp5
 70
     1
102
RTVSPropertyOp6
 70
     1
102
RTVSPropertyOp7
 70
     1
102
RTVSPropertyOp8
 70
     1
102
RTVSPropertyOp9
 70
     1
102
RTVSPropertyOp10
 70
     1
102
RTVSPropertyOp11
 70
     1
102
RTVSPropertyOp12
 70
     1
102
RTVSPropertyOp13
 70
     1
102
RTVSPropertyOp14
 70
     1
102
RTVSPropertyOp15
 70
     1
102
RTVSPropertyOp16
 70
     1
102
RTVSPropertyOp17
 70
     1
102
RTVSPropertyOp18
 70
     1
102
RTVSPropertyOp19
 70
     1
102
RTVSPropertyOp20
 70
     1
102
RTVSPropertyOp21
 70
     1
102
RTVSPropertyOp22
 70
     1
102
RTVSPropertyOp23
 70
     1
102
RTVSPropertyOp24
 70
     1
102
RTVSPropertyOp25
 70
     1
102
RTVSPropertyOp26
 70
     1
102
RTVSPropertyOp27
 70
     1
102
RTVSPropertyOp28
 70
     1
102
RTVSPropertyOp29
 70
     1
102
RTVSPropertyOp30
 70
     1
102
RTVSPropertyOp31
 70
     1
102
RTVSPropertyOp32
 70
     1
  0
XRECORD
  5
73
102
{ACAD_REACTORS
330
72
102
}
330
72
100
AcDbXrecord
280
     1
102
RTVSPropertyOp0
 70
     1
102
RTVSPropertyOp1
 70
     1
102
RTVSPropertyOp2
 70
     1
102
RTVSPropertyOp3
 70
     1
102
RTVSPropertyOp4
 70
     1
102
RTVSPropertyOp5
 70
     1
102
RTVSPropertyOp6
 70
     1
102
RTVSPropertyOp7
 70
     1
102
RTVSPropertyOp8
 70
     1
102
RTVSPropertyOp9
 70
     1
102
RTVSPropertyOp10
 70
     1
102
RTVSPropertyOp11
 70
     1
102
RTVSPropertyOp12
 70
     1
102
RTVSPropertyOp13
 70
     1
102
RTVSPropertyOp14
 70
     1
102
RTVSPropertyOp15
 70
     1
102
RTVSPropertyOp16
 70
     1
102
RTVSPropertyOp17
 70
     1
102
RTVSPropertyOp18
 70
     1
102
RTVSPropertyOp19
 70
     1
102
RTVSPropertyOp20
 70
     1
102
RTVSPropertyOp21
 70
     1
102
RTVSPropertyOp22
 70
     1
102
RTVSPropertyOp23
 70
     1
102
RTVSPropertyOp24
 70
     1
102
RTVSPropertyOp25
 70
     1
102
RTVSPropertyOp26
 70
     1
102
RTVSPropertyOp27
 70
     1
102
RTVSPropertyOp28
 70
     1
102
RTVSPropertyOp29
 70
     1
102
RTVSPropertyOp30
 70
     1
102
RTVSPropertyOp31
 70
     1
102
RTVSPropertyOp32
 70
     1
  0
XRECORD
  5
75
102
{ACAD_REACTORS
330
74
102
}
330
74
100
AcDbXrecord
280
     1
102
RTVSPropertyOp0
 70
     1
102
RTVSPropertyOp1
 70
     1
102
RTVSPropertyOp2
 70
     1
102
RTVSPropertyOp3
 70
     1
102
RTVSPropertyOp4
 70
     1
102
RTVSPropertyOp5
 70
     1
102
RTVSPropertyOp6
 70
     1
102
RTVSPropertyOp7
 70
     1
102
RTVSPropertyOp8
 70
     1
102
RTVSPropertyOp9
 70
     1
102
RTVSPropertyOp10
 70
     1
102
RTVSPropertyOp11
 70
     1
102
RTVSPropertyOp12
 70
     1
102
RTVSPropertyOp13
 70
     1
102
RTVSPropertyOp14
 70
     1
102
RTVSPropertyOp15
 70
     1
102
RTVSPropertyOp16
 70
     1
102
RTVSPropertyOp17
 70
     1
102
RTVSPropertyOp18
 70
     1
102
RTVSPropertyOp19
 70
     1
102
RTVSPropertyOp20
 70
     1
102
RTVSPropertyOp21
 70
     1
102
RTVSPropertyOp22
 70
     1
102
RTVSPropertyOp23
 70
     1
102
RTVSPropertyOp24
 70
     1
102
RTVSPropertyOp25
 70
     1
102
RTVSPropertyOp26
 70
     1
102
RTVSPropertyOp27
 70
     1
102
RTVSPropertyOp28
 70
     1
102
RTVSPropertyOp29
 70
     1
102
RTVSPropertyOp30
 70
     1
102
RTVSPropertyOp31
 70
     1
102
RTVSPropertyOp32
 70
     1
  0
XRECORD
  5
7D
102
{ACAD_REACTORS
330
7C
102
}
330
7C
100
AcDbXrecord
280
     1
102
RTVSPropertyOp0
 70
     1
102
RTVSPropertyOp1
 70
     1
102
RTVSPropertyOp2
 70
     1
102
RTVSPropertyOp3
 70
     1
102
RTVSPropertyOp4
 70
     1
102
RTVSPropertyOp5
 70
     1
102
RTVSPropertyOp6
 70
     1
102
RTVSPropertyOp7
 70
     1
102
RTVSPropertyOp8
 70
     1
102
RTVSPropertyOp9
 70
     1
102
RTVSPropertyOp10
 70
     1
102
RTVSPropertyOp11
 70
     1
102
RTVSPropertyOp12
 70
     1
102
RTVSPropertyOp13
 70
     1
102
RTVSPropertyOp14
 70
     1
102
RTVSPropertyOp15
 70
     1
102
RTVSPropertyOp16
 70
     1
102
RTVSPropertyOp17
 70
     1
102
RTVSPropertyOp18
 70
     1
102
RTVSPropertyOp19
 70
     1
102
RTVSPropertyOp20
 70
     1
102
RTVSPropertyOp21
 70
     1
102
RTVSPropertyOp22
 70
     1
102
RTVSPropertyOp23
 70
     1
102
RTVSPropertyOp24
 70
     1
102
RTVSPropertyOp25
 70
     1
102
RTVSPropertyOp26
 70
     1
102
RTVSPropertyOp27
 70
     1
102
RTVSPropertyOp28
 70
     1
102
RTVSPropertyOp29
 70
     1
102
RTVSPropertyOp30
 70
     1
102
RTVSPropertyOp31
 70
     1
102
RTVSPropertyOp32
 70
     1
  0
XRECORD
  5
61
102
{ACAD_REACTORS
330
60
102
}
330
60
100
AcDbXrecord
280
     1
102
RTVSPropertyOp0
 70
     1
102
RTVSPropertyOp1
 70
     1
102
RTVSPropertyOp2
 70
     1
102
RTVSPropertyOp3
 70
     1
102
RTVSPropertyOp4
 70
     1
102
RTVSPropertyOp5
 70
     1
102
RTVSPropertyOp6
 70
     1
102
RTVSPropertyOp7
 70
     1
102
RTVSPropertyOp8
 70
     1
102
RTVSPropertyOp9
 70
     1
102
RTVSPropertyOp10
 70
     1
102
RTVSPropertyOp11
 70
     1
102
RTVSPropertyOp12
 70
     1
102
RTVSPropertyOp13
 70
     1
102
RTVSPropertyOp14
 70
     1
102
RTVSPropertyOp15
 70
     1
102
RTVSPropertyOp16
 70
     1
102
RTVSPropertyOp17
 70
     1
102
RTVSPropertyOp18
 70
     1
102
RTVSPropertyOp19
 70
     1
102
RTVSPropertyOp20
 70
     1
102
RTVSPropertyOp21
 70
     1
102
RTVSPropertyOp22
 70
     1
102
RTVSPropertyOp23
 70
     1
102
RTVSPropertyOp24
 70
     1
102
RTVSPropertyOp25
 70
     1
102
RTVSPropertyOp26
 70
     1
102
RTVSPropertyOp27
 70
     1
102
RTVSPropertyOp28
 70
     1
102
RTVSPropertyOp29
 70
     1
102
RTVSPropertyOp30
 70
     1
102
RTVSPropertyOp31
 70
     1
102
RTVSPropertyOp32
 70
     1
  0
XRECORD
  5
63
102
{ACAD_REACTORS
330
62
102
}
330
62
100
AcDbXrecord
280
     1
102
RTVSPropertyOp0
 70
     1
102
RTVSPropertyOp1
 70
     1
102
RTVSPropertyOp2
 70
     1
102
RTVSPropertyOp3
 70
     1
102
RTVSPropertyOp4
 70
     1
102
RTVSPropertyOp5
 70
     1
102
RTVSPropertyOp6
 70
     1
102
RTVSPropertyOp7
 70
     1
102
RTVSPropertyOp8
 70
     1
102
RTVSPropertyOp9
 70
     1
102
RTVSPropertyOp10
 70
     1
102
RTVSPropertyOp11
 70
     1
102
RTVSPropertyOp12
 70
     1
102
RTVSPropertyOp13
 70
     1
102
RTVSPropertyOp14
 70
     1
102
RTVSPropertyOp15
 70
     1
102
RTVSPropertyOp16
 70
     1
102
RTVSPropertyOp17
 70
     1
102
RTVSPropertyOp18
 70
     1
102
RTVSPropertyOp19
 70
     1
102
RTVSPropertyOp20
 70
     1
102
RTVSPropertyOp21
 70
     1
102
RTVSPropertyOp22
 70
     1
102
RTVSPropertyOp23
 70
     1
102
RTVSPropertyOp24
 70
     1
102
RTVSPropertyOp25
 70
     1
102
RTVSPropertyOp26
 70
     1
102
RTVSPropertyOp27
 70
     1
102
RTVSPropertyOp28
 70
     1
102
RTVSPropertyOp29
 70
     1
102
RTVSPropertyOp30
 70
     1
102
RTVSPropertyOp31
 70
     1
102
RTVSPropertyOp32
 70
     1
  0
XRECORD
  5
65
102
{ACAD_REACTORS
330
64
102
}
330
64
100
AcDbXrecord
280
     1
102
RTVSPropertyOp0
 70
     1
102
RTVSPropertyOp1
 70
     1
102
RTVSPropertyOp2
 70
     1
102
RTVSPropertyOp3
 70
     1
102
RTVSPropertyOp4
 70
     1
102
RTVSPropertyOp5
 70
     1
102
RTVSPropertyOp6
 70
     1
102
RTVSPropertyOp7
 70
     1
102
RTVSPropertyOp8
 70
     1
102
RTVSPropertyOp9
 70
     1
102
RTVSPropertyOp10
 70
     1
102
RTVSPropertyOp11
 70
     1
102
RTVSPropertyOp12
 70
     1
102
RTVSPropertyOp13
 70
     1
102
RTVSPropertyOp14
 70
     1
102
RTVSPropertyOp15
 70
     1
102
RTVSPropertyOp16
 70
     1
102
RTVSPropertyOp17
 70
     1
102
RTVSPropertyOp18
 70
     1
102
RTVSPropertyOp19
 70
     1
102
RTVSPropertyOp20
 70
     1
102
RTVSPropertyOp21
 70
     1
102
RTVSPropertyOp22
 70
     1
102
RTVSPropertyOp23
 70
     1
102
RTVSPropertyOp24
 70
     1
102
RTVSPropertyOp25
 70
     1
102
RTVSPropertyOp26
 70
     1
102
RTVSPropertyOp27
 70
     1
102
RTVSPropertyOp28
 70
     1
102
RTVSPropertyOp29
 70
     1
102
RTVSPropertyOp30
 70
     1
102
RTVSPropertyOp31
 70
     1
102
RTVSPropertyOp32
 70
     1
  0
XRECORD
  5
67
102
{ACAD_REACTORS
330
66
102
}
330
66
100
AcDbXrecord
280
     1
102
RTVSPropertyOp0
 70
     1
102
RTVSPropertyOp1
 70
     1
102
RTVSPropertyOp2
 70
     1
102
RTVSPropertyOp3
 70
     1
102
RTVSPropertyOp4
 70
     1
102
RTVSPropertyOp5
 70
     1
102
RTVSPropertyOp6
 70
     1
102
RTVSPropertyOp7
 70
     1
102
RTVSPropertyOp8
 70
     1
102
RTVSPropertyOp9
 70
     1
102
RTVSPropertyOp10
 70
     1
102
RTVSPropertyOp11
 70
     1
102
RTVSPropertyOp12
 70
     1
102
RTVSPropertyOp13
 70
     1
102
RTVSPropertyOp14
 70
     1
102
RTVSPropertyOp15
 70
     1
102
RTVSPropertyOp16
 70
     1
102
RTVSPropertyOp17
 70
     1
102
RTVSPropertyOp18
 70
     1
102
RTVSPropertyOp19
 70
     1
102
RTVSPropertyOp20
 70
     1
102
RTVSPropertyOp21
 70
     1
102
RTVSPropertyOp22
 70
     1
102
RTVSPropertyOp23
 70
     1
102
RTVSPropertyOp24
 70
     1
102
RTVSPropertyOp25
 70
     1
102
RTVSPropertyOp26
 70
     1
102
RTVSPropertyOp27
 70
     1
102
RTVSPropertyOp28
 70
     1
102
RTVSPropertyOp29
 70
     1
102
RTVSPropertyOp30
 70
     1
102
RTVSPropertyOp31
 70
     1
102
RTVSPropertyOp32
 70
     1
  0
XRECORD
  5
7B
102
{ACAD_REACTORS
330
7A
102
}
330
7A
100
AcDbXrecord
280
     1
102
RTVSPropertyOp0
 70
     1
102
RTVSPropertyOp1
 70
     1
102
RTVSPropertyOp2
 70
     1
102
RTVSPropertyOp3
 70
     1
102
RTVSPropertyOp4
 70
     1
102
RTVSPropertyOp5
 70
     1
102
RTVSPropertyOp6
 70
     1
102
RTVSPropertyOp7
 70
     1
102
RTVSPropertyOp8
 70
     1
102
RTVSPropertyOp9
 70
     1
102
RTVSPropertyOp10
 70
     1
102
RTVSPropertyOp11
 70
     1
102
RTVSPropertyOp12
 70
     1
102
RTVSPropertyOp13
 70
     1
102
RTVSPropertyOp14
 70
     1
102
RTVSPropertyOp15
 70
     1
102
RTVSPropertyOp16
 70
     1
102
RTVSPropertyOp17
 70
     1
102
RTVSPropertyOp18
 70
     1
102
RTVSPropertyOp19
 70
     1
102
RTVSPropertyOp20
 70
     1
102
RTVSPropertyOp21
 70
     1
102
RTVSPropertyOp22
 70
     1
102
RTVSPropertyOp23
 70
     1
102
RTVSPropertyOp24
 70
     1
102
RTVSPropertyOp25
 70
     1
102
RTVSPropertyOp26
 70
     1
102
RTVSPropertyOp27
 70
     1
102
RTVSPropertyOp28
 70
     1
102
RTVSPropertyOp29
 70
     1
102
RTVSPropertyOp30
 70
     1
102
RTVSPropertyOp31
 70
     1
102
RTVSPropertyOp32
 70
     1
  0
XRECORD
  5
71
102
{ACAD_REACTORS
330
70
102
}
330
70
100
AcDbXrecord
280
     1
102
RTVSPropertyOp0
 70
     1
102
RTVSPropertyOp1
 70
     1
102
RTVSPropertyOp2
 70
     1
102
RTVSPropertyOp3
 70
     1
102
RTVSPropertyOp4
 70
     1
102
RTVSPropertyOp5
 70
     1
102
RTVSPropertyOp6
 70
     1
102
RTVSPropertyOp7
 70
     1
102
RTVSPropertyOp8
 70
     1
102
RTVSPropertyOp9
 70
     1
102
RTVSPropertyOp10
 70
     1
102
RTVSPropertyOp11
 70
     1
102
RTVSPropertyOp12
 70
     1
102
RTVSPropertyOp13
 70
     1
102
RTVSPropertyOp14
 70
     1
102
RTVSPropertyOp15
 70
     1
102
RTVSPropertyOp16
 70
     1
102
RTVSPropertyOp17
 70
     1
102
RTVSPropertyOp18
 70
     1
102
RTVSPropertyOp19
 70
     1
102
RTVSPropertyOp20
 70
     1
102
RTVSPropertyOp21
 70
     1
102
RTVSPropertyOp22
 70
     1
102
RTVSPropertyOp23
 70
     1
102
RTVSPropertyOp24
 70
     1
102
RTVSPropertyOp25
 70
     1
102
RTVSPropertyOp26
 70
     1
102
RTVSPropertyOp27
 70
     1
102
RTVSPropertyOp28
 70
     1
102
RTVSPropertyOp29
 70
     1
102
RTVSPropertyOp30
 70
     1
102
RTVSPropertyOp31
 70
     1
102
RTVSPropertyOp32
 70
     1
  0
XRECORD
  5
79
102
{ACAD_REACTORS
330
78
102
}
330
78
100
AcDbXrecord
280
     1
102
RTVSPropertyOp0
 70
     1
102
RTVSPropertyOp1
 70
     1
102
RTVSPropertyOp2
 70
     1
102
RTVSPropertyOp3
 70
     1
102
RTVSPropertyOp4
 70
     1
102
RTVSPropertyOp5
 70
     1
102
RTVSPropertyOp6
 70
     1
102
RTVSPropertyOp7
 70
     1
102
RTVSPropertyOp8
 70
     1
102
RTVSPropertyOp9
 70
     1
102
RTVSPropertyOp10
 70
     1
102
RTVSPropertyOp11
 70
     1
102
RTVSPropertyOp12
 70
     1
102
RTVSPropertyOp13
 70
     1
102
RTVSPropertyOp14
 70
     1
102
RTVSPropertyOp15
 70
     1
102
RTVSPropertyOp16
 70
     1
102
RTVSPropertyOp17
 70
     1
102
RTVSPropertyOp18
 70
     1
102
RTVSPropertyOp19
 70
     1
102
RTVSPropertyOp20
 70
     1
102
RTVSPropertyOp21
 70
     1
102
RTVSPropertyOp22
 70
     1
102
RTVSPropertyOp23
 70
     1
102
RTVSPropertyOp24
 70
     1
102
RTVSPropertyOp25
 70
     1
102
RTVSPropertyOp26
 70
     1
102
RTVSPropertyOp27
 70
     1
102
RTVSPropertyOp28
 70
     1
102
RTVSPropertyOp29
 70
     1
102
RTVSPropertyOp30
 70
     1
102
RTVSPropertyOp31
 70
     1
102
RTVSPropertyOp32
 70
     1
  0
ENDSEC
  0
EOF
