  0
SECTION
  2
HEADER
  9
$ACADVER
  1
AC1027
  9
$ACADMAINTVER
 70
   105
  9
$DWGCODEPAGE
  3
ANSI_1251
  9
$REQUIREDVERSIONS
160
                 0
  9
$INSBASE
 10
0.0
 20
0.0
 30
0.0
  9
$EXTMIN
 10
-163.1491781775625
 20
36.46559224021883
 30
0.0
  9
$EXTMAX
 10
570.2123692323869
 20
128.0672334202674
 30
0.0
  9
$LIMMIN
 10
0.0
 20
0.0
  9
$LIMMAX
 10
420.0
 20
297.0
  9
$ORTHOMODE
 70
     0
  9
$REGENMODE
 70
     1
  9
$FILLMODE
 70
     1
  9
$QTEXTMODE
 70
     0
  9
$MIRRTEXT
 70
     1
  9
$LTSCALE
 40
1.0
  9
$ATTMODE
 70
     1
  9
$TEXTSIZE
 40
2.5
  9
$TRACEWID
 40
1.0
  9
$TEXTSTYLE
  7
Standard
  9
$CLAYER
  8
0
  9
$CELTYPE
  6
ByLayer
  9
$CECOLOR
 62
   256
  9
$CELTSCALE
 40
1.0
  9
$DISPSILH
 70
     0
  9
$DIMSCALE
 40
1.0
  9
$DIMASZ
 40
2.5
  9
$DIMEXO
 40
0.625
  9
$DIMDLI
 40
3.75
  9
$DIMRND
 40
0.0
  9
$DIMDLE
 40
0.0
  9
$DIMEXE
 40
1.25
  9
$DIMTP
 40
0.0
  9
$DIMTM
 40
0.0
  9
$DIMTXT
 40
2.5
  9
$DIMCEN
 40
2.5
  9
$DIMTSZ
 40
0.0
  9
$DIMTOL
 70
     0
  9
$DIMLIM
 70
     0
  9
$DIMTIH
 70
     0
  9
$DIMTOH
 70
     0
  9
$DIMSE1
 70
     0
  9
$DIMSE2
 70
     0
  9
$DIMTAD
 70
     1
  9
$DIMZIN
 70
     8
  9
$DIMBLK
  1

  9
$DIMASO
 70
     1
  9
$DIMSHO
 70
     1
  9
$DIMPOST
  1

  9
$DIMAPOST
  1

  9
$DIMALT
 70
     0
  9
$DIMALTD
 70
     3
  9
$DIMALTF
 40
0.03937007874016
  9
$DIMLFAC
 40
1.0
  9
$DIMTOFL
 70
     1
  9
$DIMTVP
 40
0.0
  9
$DIMTIX
 70
     0
  9
$DIMSOXD
 70
     0
  9
$DIMSAH
 70
     0
  9
$DIMBLK1
  1

  9
$DIMBLK2
  1

  9
$DIMSTYLE
  2
ISO-25
  9
$DIMCLRD
 70
     0
  9
$DIMCLRE
 70
     0
  9
$DIMCLRT
 70
     0
  9
$DIMTFAC
 40
1.0
  9
$DIMGAP
 40
0.625
  9
$DIMJUST
 70
     0
  9
$DIMSD1
 70
     0
  9
$DIMSD2
 70
     0
  9
$DIMTOLJ
 70
     0
  9
$DIMTZIN
 70
     8
  9
$DIMALTZ
 70
     0
  9
$DIMALTTZ
 70
     0
  9
$DIMUPT
 70
     0
  9
$DIMDEC
 70
     2
  9
$DIMTDEC
 70
     2
  9
$DIMALTU
 70
     2
  9
$DIMALTTD
 70
     3
  9
$DIMTXSTY
  7
Standard
  9
$DIMAUNIT
 70
     0
  9
$DIMADEC
 70
     0
  9
$DIMALTRND
 40
0.0
  9
$DIMAZIN
 70
     0
  9
$DIMDSEP
 70
    44
  9
$DIMATFIT
 70
     3
  9
$DIMFRAC
 70
     0
  9
$DIMLDRBLK
  1

  9
$DIMLUNIT
 70
     2
  9
$DIMLWD
 70
    -2
  9
$DIMLWE
 70
    -2
  9
$DIMTMOVE
 70
     0
  9
$DIMFXL
 40
1.0
  9
$DIMFXLON
 70
     0
  9
$DIMJOGANG
 40
0.7853981633974483
  9
$DIMTFILL
 70
     0
  9
$DIMTFILLCLR
 70
     0
  9
$DIMARCSYM
 70
     0
  9
$DIMLTYPE
  6

  9
$DIMLTEX1
  6

  9
$DIMLTEX2
  6

  9
$DIMTXTDIRECTION
 70
     0
  9
$LUNITS
 70
     2
  9
$LUPREC
 70
     4
  9
$SKETCHINC
 40
1.0
  9
$FILLETRAD
 40
10.0
  9
$AUNITS
 70
     0
  9
$AUPREC
 70
     0
  9
$MENU
  1
.
  9
$ELEVATION
 40
0.0
  9
$PELEVATION
 40
0.0
  9
$THICKNESS
 40
0.0
  9
$LIMCHECK
 70
     0
  9
$CHAMFERA
 40
0.0
  9
$CHAMFERB
 40
0.0
  9
$CHAMFERC
 40
0.0
  9
$CHAMFERD
 40
0.0
  9
$SKPOLY
 70
     0
  9
$TDCREATE
 40
2458839.731345579
  9
$TDUCREATE
 40
2458839.606345579
  9
$TDUPDATE
 40
2458839.731346655
  9
$TDUUPDATE
 40
2458839.606346655
  9
$TDINDWG
 40
0.0000000116
  9
$TDUSRTIMER
 40
0.0000000116
  9
$USRTIMER
 70
     1
  9
$ANGBASE
 50
0.0
  9
$ANGDIR
 70
     0
  9
$PDMODE
 70
     0
  9
$PDSIZE
 40
0.0
  9
$PLINEWID
 40
0.0
  9
$SPLFRAME
 70
     0
  9
$SPLINETYPE
 70
     6
  9
$SPLINESEGS
 70
     8
  9
$HANDSEED
  5
FE
  9
$SURFTAB1
 70
     6
  9
$SURFTAB2
 70
     6
  9
$SURFTYPE
 70
     6
  9
$SURFU
 70
     6
  9
$SURFV
 70
     6
  9
$UCSBASE
  2

  9
$UCSNAME
  2

  9
$UCSORG
 10
0.0
 20
0.0
 30
0.0
  9
$UCSXDIR
 10
1.0
 20
0.0
 30
0.0
  9
$UCSYDIR
 10
0.0
 20
1.0
 30
0.0
  9
$UCSORTHOREF
  2

  9
$UCSORTHOVIEW
 70
     0
  9
$UCSORGTOP
 10
0.0
 20
0.0
 30
0.0
  9
$UCSORGBOTTOM
 10
0.0
 20
0.0
 30
0.0
  9
$UCSORGLEFT
 10
0.0
 20
0.0
 30
0.0
  9
$UCSORGRIGHT
 10
0.0
 20
0.0
 30
0.0
  9
$UCSORGFRONT
 10
0.0
 20
0.0
 30
0.0
  9
$UCSORGBACK
 10
0.0
 20
0.0
 30
0.0
  9
$PUCSBASE
  2

  9
$PUCSNAME
  2

  9
$PUCSORG
 10
0.0
 20
0.0
 30
0.0
  9
$PUCSXDIR
 10
1.0
 20
0.0
 30
0.0
  9
$PUCSYDIR
 10
0.0
 20
1.0
 30
0.0
  9
$PUCSORTHOREF
  2

  9
$PUCSORTHOVIEW
 70
     0
  9
$PUCSORGTOP
 10
0.0
 20
0.0
 30
0.0
  9
$PUCSORGBOTTOM
 10
0.0
 20
0.0
 30
0.0
  9
$PUCSORGLEFT
 10
0.0
 20
0.0
 30
0.0
  9
$PUCSORGRIGHT
 10
0.0
 20
0.0
 30
0.0
  9
$PUCSORGFRONT
 10
0.0
 20
0.0
 30
0.0
  9
$PUCSORGBACK
 10
0.0
 20
0.0
 30
0.0
  9
$USERI1
 70
     0
  9
$USERI2
 70
     0
  9
$USERI3
 70
     0
  9
$USERI4
 70
     0
  9
$USERI5
 70
     0
  9
$USERR1
 40
0.0
  9
$USERR2
 40
0.0
  9
$USERR3
 40
0.0
  9
$USERR4
 40
0.0
  9
$USERR5
 40
0.0
  9
$WORLDVIEW
 70
     1
  9
$SHADEDGE
 70
     3
  9
$SHADEDIF
 70
    70
  9
$TILEMODE
 70
     1
  9
$MAXACTVP
 70
    64
  9
$PINSBASE
 10
0.0
 20
0.0
 30
0.0
  9
$PLIMCHECK
 70
     0
  9
$PEXTMIN
 10
1.000000000000000E+20
 20
1.000000000000000E+20
 30
1.000000000000000E+20
  9
$PEXTMAX
 10
-1.000000000000000E+20
 20
-1.000000000000000E+20
 30
-1.000000000000000E+20
  9
$PLIMMIN
 10
0.0
 20
0.0
  9
$PLIMMAX
 10
420.0
 20
297.0
  9
$UNITMODE
 70
     0
  9
$VISRETAIN
 70
     1
  9
$PLINEGEN
 70
     0
  9
$PSLTSCALE
 70
     1
  9
$TREEDEPTH
 70
  3020
  9
$CMLSTYLE
  2
Standard
  9
$CMLJUST
 70
     0
  9
$CMLSCALE
 40
20.0
  9
$PROXYGRAPHICS
 70
     1
  9
$MEASUREMENT
 70
     1
  9
$CELWEIGHT
370
    -1
  9
$ENDCAPS
280
     0
  9
$JOINSTYLE
280
     0
  9
$LWDISPLAY
290
     0
  9
$INSUNITS
 70
     4
  9
$HYPERLINKBASE
  1

  9
$STYLESHEET
  1

  9
$XEDIT
290
     1
  9
$CEPSNTYPE
380
     0
  9
$PSTYLEMODE
290
     1
  9
$FINGERPRINTGUID
  2
{49C220CB-E266-4FAF-8967-30521AD15DBC}
  9
$VERSIONGUID
  2
{FAEB1C32-E019-11D5-929B-00C0DF256EC4}
  9
$EXTNAMES
290
     1
  9
$PSVPSCALE
 40
0.0
  9
$OLESTARTUP
290
     0
  9
$SORTENTS
280
   127
  9
$INDEXCTL
280
     0
  9
$HIDETEXT
280
     1
  9
$XCLIPFRAME
280
     2
  9
$HALOGAP
280
     0
  9
$OBSCOLOR
 70
   257
  9
$OBSLTYPE
280
     0
  9
$INTERSECTIONDISPLAY
280
     0
  9
$INTERSECTIONCOLOR
 70
   257
  9
$DIMASSOC
280
     2
  9
$PROJECTNAME
  1

  9
$CAMERADISPLAY
290
     0
  9
$LENSLENGTH
 40
50.0
  9
$CAMERAHEIGHT
 40
0.0
  9
$STEPSPERSEC
 40
2.0
  9
$STEPSIZE
 40
6.0
  9
$3DDWFPREC
 40
2.0
  9
$PSOLWIDTH
 40
5.0
  9
$PSOLHEIGHT
 40
80.0
  9
$LOFTANG1
 40
1.570796326794897
  9
$LOFTANG2
 40
1.570796326794897
  9
$LOFTMAG1
 40
0.0
  9
$LOFTMAG2
 40
0.0
  9
$LOFTPARAM
 70
     7
  9
$LOFTNORMALS
280
     1
  9
$LATITUDE
 40
37.795
  9
$LONGITUDE
 40
-122.394
  9
$NORTHDIRECTION
 40
0.0
  9
$TIMEZONE
 70
 -8000
  9
$LIGHTGLYPHDISPLAY
280
     1
  9
$TILEMODELIGHTSYNCH
280
     1
  9
$CMATERIAL
347
44
  9
$SOLIDHIST
280
     0
  9
$SHOWHIST
280
     1
  9
$DWFFRAME
280
     2
  9
$DGNFRAME
280
     2
  9
$REALWORLDSCALE
290
     1
  9
$INTERFERECOLOR
 62
   256
  9
$CSHADOW
280
     0
  9
$SHADOWPLANELOCATION
 40
0.0
  0
ENDSEC
  0
SECTION
  2
CLASSES
  0
CLASS
  1
ACDBDICTIONARYWDFLT
  2
AcDbDictionaryWithDefault
  3
ObjectDBX Classes
 90
        0
 91
        4
280
     0
281
     0
  0
CLASS
  1
VISUALSTYLE
  2
AcDbVisualStyle
  3
ObjectDBX Classes
 90
     4095
 91
        4
280
     0
281
     0
  0
CLASS
  1
MATERIAL
  2
AcDbMaterial
  3
ObjectDBX Classes
 90
     1153
 91
        4
280
     0
281
     0
  0
CLASS
  1
SCALE
  2
AcDbScale
  3
ObjectDBX Classes
 90
     1153
 91
        4
280
     0
281
     0
  0
CLASS
  1
TABLESTYLE
  2
AcDbTableStyle
  3
ObjectDBX Classes
 90
     4095
 91
        4
280
     0
281
     0
  0
CLASS
  1
MLEADERSTYLE
  2
AcDbMLeaderStyle
  3
ACDB_MLEADERSTYLE_CLASS
 90
     4095
 91
        4
280
     0
281
     0
  0
CLASS
  1
SUN
  2
AcDbSun
  3
SCENEOE
 90
     1153
 91
        4
280
     0
281
     0
  0
CLASS
  1
DICTIONARYVAR
  2
AcDbDictionaryVar
  3
ObjectDBX Classes
 90
        0
 91
        4
280
     0
281
     0
  0
CLASS
  1
CELLSTYLEMAP
  2
AcDbCellStyleMap
  3
ObjectDBX Classes
 90
     1152
 91
        4
280
     0
281
     0
  0
ENDSEC
  0
SECTION
  2
TABLES
  0
TABLE
  2
VPORT
  5
8
330
0
100
AcDbSymbolTable
 70
     1
  0
VPORT
  5
29
330
8
100
AcDbSymbolTableRecord
100
AcDbViewportTableRecord
  2
*Active
 70
     0
 10
0.0
 20
0.0
 11
1.0
 21
1.0
 12
203.5315955274122
 22
82.2664128302431
 13
0.0
 23
0.0
 14
10.0
 24
10.0
 15
10.0
 25
10.0
 16
0.0
 26
0.0
 36
1.0
 17
0.0
 27
0.0
 37
0.0
 40
93.43367400364951
 41
8.005986988469814
 42
50.0
 43
0.0
 44
0.0
 50
0.0
 51
0.0
 71
     0
 72
   100
 73
     1
 74
     3
 75
     0
 76
     0
 77
     0
 78
     0
281
     0
 65
     1
110
0.0
120
0.0
130
0.0
111
1.0
121
0.0
131
0.0
112
0.0
122
1.0
132
0.0
 79
     0
146
0.0
348
2F
 60
     3
 61
     5
292
     1
282
     1
141
0.0
142
0.0
 63
   250
361
6D
  0
ENDTAB
  0
TABLE
  2
LTYPE
  5
5
330
0
100
AcDbSymbolTable
 70
     5
  0
LTYPE
  5
14
330
5
100
AcDbSymbolTableRecord
100
AcDbLinetypeTableRecord
  2
ByBlock
 70
     0
  3

 72
    65
 73
     0
 40
0.0
  0
LTYPE
  5
15
330
5
100
AcDbSymbolTableRecord
100
AcDbLinetypeTableRecord
  2
ByLayer
 70
     0
  3

 72
    65
 73
     0
 40
0.0
  0
LTYPE
  5
16
330
5
100
AcDbSymbolTableRecord
100
AcDbLinetypeTableRecord
  2
Continuous
 70
     0
  3
Solid line
 72
    65
 73
     0
 40
0.0
  0
LTYPE
  5
70
330
5
100
AcDbSymbolTableRecord
100
AcDbLinetypeTableRecord
  2
K5LT_BASIC
 70
     0
  3

 72
    65
 73
     0
 40
0.0
  0
LTYPE
  5
7F
330
5
100
AcDbSymbolTableRecord
100
AcDbLinetypeTableRecord
  2
K5LT32768
 70
     0
  3

 72
    65
 73
     0
 40
0.0
  0
LTYPE
  5
8A
330
5
100
AcDbSymbolTableRecord
100
AcDbLinetypeTableRecord
  2
K5LT32778
 70
     0
  3

 72
    65
 73
     0
 40
0.0
  0
LTYPE
  5
8E
330
5
100
AcDbSymbolTableRecord
100
AcDbLinetypeTableRecord
  2
K5LT32774
 70
     0
  3

 72
    65
 73
     0
 40
0.0
  0
ENDTAB
  0
TABLE
  2
LAYER
  5
2
330
0
100
AcDbSymbolTable
 70
     2
  0
LAYER
  5
10
330
2
100
AcDbSymbolTableRecord
100
AcDbLayerTableRecord
  2
0
 70
     0
 62
     7
  6
Continuous
370
    -3
390
F
347
46
348
0
  0
LAYER
  5
6F
330
2
100
AcDbSymbolTableRecord
100
AcDbLayerTableRecord
  2
Системный слой
 70
     0
 62
     7
  6
Continuous
370
    -3
390
F
347
46
348
0
  0
ENDTAB
  0
TABLE
  2
STYLE
  5
3
330
0
100
AcDbSymbolTable
 70
     1
  0
STYLE
  5
11
330
3
100
AcDbSymbolTableRecord
100
AcDbTextStyleTableRecord
  2
Standard
 70
     0
 40
0.0
 41
1.0
 50
0.0
 71
     0
 42
2.5
  3
txt
  4

  0
ENDTAB
  0
TABLE
  2
VIEW
  5
6
330
0
100
AcDbSymbolTable
 70
     0
  0
ENDTAB
  0
TABLE
  2
UCS
  5
7
330
0
100
AcDbSymbolTable
 70
     0
  0
ENDTAB
  0
TABLE
  2
APPID
  5
9
330
0
100
AcDbSymbolTable
 70
     2
  0
APPID
  5
12
330
9
100
AcDbSymbolTableRecord
100
AcDbRegAppTableRecord
  2
ACAD
 70
     0
  0
APPID
  5
6E
330
9
100
AcDbSymbolTableRecord
100
AcDbRegAppTableRecord
  2
KOMPAS
 70
     0
  0
ENDTAB
  0
TABLE
  2
DIMSTYLE
  5
A
330
0
100
AcDbSymbolTable
 70
     1
100
AcDbDimStyleTable
  0
DIMSTYLE
105
27
330
A
100
AcDbSymbolTableRecord
100
AcDbDimStyleTableRecord
  2
ISO-25
 70
     0
 41
2.5
 42
0.625
 43
3.75
 44
1.25
 73
     0
 74
     0
 77
     1
 78
     8
140
2.5
141
2.5
143
0.03937007874016
147
0.625
171
     3
172
     1
178
     0
271
     2
272
     2
274
     3
278
    44
283
     0
284
     8
340
11
  0
ENDTAB
  0
TABLE
  2
BLOCK_RECORD
  5
1
330
0
100
AcDbSymbolTable
 70
     1
  0
BLOCK_RECORD
  5
1F
330
1
100
AcDbSymbolTableRecord
100
AcDbBlockTableRecord
  2
*Model_Space
340
22
 70
     0
280
     1
281
     0
  0
BLOCK_RECORD
  5
1B
330
1
100
AcDbSymbolTableRecord
100
AcDbBlockTableRecord
  2
*Paper_Space
340
1E
 70
     0
280
     1
281
     0
  0
BLOCK_RECORD
  5
23
330
1
100
AcDbSymbolTableRecord
100
AcDbBlockTableRecord
  2
*Paper_Space0
340
26
 70
     0
280
     1
281
     0
  0
ENDTAB
  0
ENDSEC
  0
SECTION
  2
BLOCKS
  0
BLOCK
  5
20
330
1F
100
AcDbEntity
  8
0
100
AcDbBlockBegin
  2
*Model_Space
 70
     0
 10
0.0
 20
0.0
 30
0.0
  3
*Model_Space
  1

  0
ENDBLK
  5
21
330
1F
100
AcDbEntity
  8
0
100
AcDbBlockEnd
  0
BLOCK
  5
1C
330
1B
100
AcDbEntity
 67
     1
  8
0
100
AcDbBlockBegin
  2
*Paper_Space
 70
     0
 10
0.0
 20
0.0
 30
0.0
  3
*Paper_Space
  1

  0
ENDBLK
  5
1D
330
1B
100
AcDbEntity
 67
     1
  8
0
100
AcDbBlockEnd
  0
BLOCK
  5
24
330
23
100
AcDbEntity
  8
0
100
AcDbBlockBegin
  2
*Paper_Space0
 70
     0
 10
0.0
 20
0.0
 30
0.0
  3
*Paper_Space0
  1

  0
ENDBLK
  5
25
330
23
100
AcDbEntity
  8
0
100
AcDbBlockEnd
  0
ENDSEC
  0
SECTION
  2
ENTITIES
  0
LINE
  5
71
330
1F
100
AcDbEntity
  8
0
  6
K5LT_BASIC
 62
   150
420
    33023
370
    60
100
AcDbLine
 10
450.0
 20
59.71041666666669
 30
0.0
 11
420.1629564131405
 21
65.71041666666669
 31
0.0
  0
LINE
  5
72
330
1F
100
AcDbEntity
  8
0
  6
K5LT_BASIC
 62
   150
420
    33023
370
    60
100
AcDbLine
 10
450.0
 20
59.71041666666669
 30
0.0
 11
420.1629564131405
 21
53.71041666666669
 31
0.0
  0
LINE
  5
73
330
1F
100
AcDbEntity
  8
0
  6
K5LT_BASIC
 62
   150
420
    33023
370
    60
100
AcDbLine
 10
0.0
 20
65.71041666666669
 30
0.0
 11
-36.5502597781657
 21
65.71041666666669
 31
0.0
  0
LINE
  5
74
330
1F
100
AcDbEntity
  8
0
  6
K5LT_BASIC
 62
   150
420
    33023
370
    60
100
AcDbLine
 10
0.0
 20
53.71041666666669
 30
0.0
 11
-36.5502597781657
 21
53.71041666666668
 31
0.0
  0
SPLINE
  5
75
330
1F
100
AcDbEntity
  8
0
  6
K5LT_BASIC
 62
   150
420
    33023
370
    60
100
AcDbSpline
210
0.0
220
0.0
230
1.0
 70
  1288
 71
     3
 72
     8
 73
     4
 74
     2
 42
0.000000001
 43
0.0
 40
0.0
 40
0.0
 40
0.0
 40
0.0
 40
2.0
 40
2.0
 40
2.0
 40
2.0
 10
-36.5502597781657
 20
65.71041666666669
 30
0.0
 10
-36.51537513890845
 20
70.61317324631227
 30
0.0
 10
-37.29823584848055
 20
75.3479268884622
 30
0.0
 10
-38.89884190688201
 20
79.91467759311648
 30
0.0
  0
SPLINE
  5
76
330
1F
100
AcDbEntity
  8
0
  6
K5LT_BASIC
 62
   150
420
    33023
370
    60
100
AcDbSpline
210
0.0
220
0.0
230
1.0
 70
  1288
 71
     3
 72
     9
 73
     5
 74
     3
 42
0.000000001
 43
0.0
 40
0.0
 40
0.0
 40
0.0
 40
0.0
 40
1.906351921744784
 40
3.885029020831794
 40
3.885029020831794
 40
3.885029020831794
 40
3.885029020831794
 10
-45.50406773098533
 20
74.8224089938197
 30
0.0
 10
-44.1739913057696
 20
73.6679368357622
 30
0.0
 10
-42.84431696345603
 20
69.98943725576768
 30
0.0
 10
-43.58232089002861
 20
67.34549038440011
 30
0.0
 10
-44.93100015880182
 20
65.621242476118
 30
0.0
  0
ARC
  5
77
330
1F
100
AcDbEntity
  8
0
  6
K5LT_BASIC
 62
   150
420
    33023
370
    60
100
AcDbCircle
 10
-43.09945021352637
 20
78.53334091846153
 30
0.0
 40
4.421900174653018
100
AcDbArc
 50
18.20303937145878
 51
237.0574842295392
  0
SPLINE
  5
78
330
1F
100
AcDbEntity
  8
0
  6
K5LT_BASIC
 62
   150
420
    33023
370
    60
100
AcDbSpline
210
0.0
220
0.0
230
1.0
 70
  1288
 71
     3
 72
     8
 73
     4
 74
     2
 42
0.000000001
 43
0.0
 40
0.0
 40
0.0
 40
0.0
 40
0.0
 40
2.0
 40
2.0
 40
2.0
 40
2.0
 10
-36.5502597781657
 20
53.7104166666667
 30
0.0
 10
-36.51537513890845
 20
48.80766008702111
 30
0.0
 10
-37.29823584848055
 20
44.07290644487117
 30
0.0
 10
-38.89884190688201
 20
39.5061557402169
 30
0.0
  0
SPLINE
  5
79
330
1F
100
AcDbEntity
  8
0
  6
K5LT_BASIC
 62
   150
420
    33023
370
    60
100
AcDbSpline
210
0.0
220
0.0
230
1.0
 70
  1288
 71
     3
 72
     9
 73
     5
 74
     3
 42
0.000000001
 43
0.0
 40
0.0
 40
0.0
 40
0.0
 40
0.0
 40
1.906351921744784
 40
4.0
 40
4.0
 40
4.0
 40
4.0
 10
-45.50406773098533
 20
44.59842433951367
 30
0.0
 10
-44.18680451540398
 20
45.77014221132714
 30
0.0
 10
-42.74920448588615
 20
49.4652019679128
 30
0.0
 10
-43.74622064345005
 20
52.39029379523257
 30
0.0
 10
-44.88353159281571
 20
53.71041666666669
 30
0.0
  0
ARC
  5
7A
330
1F
100
AcDbEntity
  8
0
  6
K5LT_BASIC
 62
   150
420
    33023
370
    60
100
AcDbCircle
 10
-43.09945021352637
 20
40.88749241487184
 30
0.0
 40
4.421900174653018
100
AcDbArc
 50
122.9425157704608
 51
341.7969606285412
  0
LWPOLYLINE
  5
7B
330
1F
100
AcDbEntity
  8
0
  6
K5LT_BASIC
 62
   150
420
    33023
370
    60
100
AcDbPolyline
 90
        2
 70
     0
 43
0.0
 10
0.0
 20
53.71041666666669
 10
420.1629564131405
 20
53.71041666666669
  0
ARC
  5
7C
330
1F
100
AcDbEntity
  8
0
  6
K5LT_BASIC
 62
   150
420
    33023
370
    60
100
AcDbCircle
 10
-138.0494128192465
 20
59.71041666666672
 30
0.0
 40
11.99999999999999
100
AcDbArc
 50
29.89000636238659
 51
330.0000000000001
  0
SPLINE
  5
7D
330
1F
100
AcDbEntity
  8
0
  6
K5LT_BASIC
 62
   150
420
    33023
370
    60
100
AcDbSpline
210
0.0
220
0.0
230
1.0
 70
  1288
 71
     3
 72
     9
 73
     5
 74
     3
 42
0.000000001
 43
0.0
 40
0.0
 40
0.0
 40
0.0
 40
0.0
 40
2.233936538205082
 40
4.0
 40
4.0
 40
4.0
 40
4.0
 10
-127.6571079738332
 20
53.71041666666673
 30
0.0
 10
-119.226711784897
 20
49.91377584246527
 30
0.0
 10
-81.37237367360221
 20
44.33407913231124
 30
0.0
 10
-57.56276680794193
 20
50.40155022554868
 30
0.0
 10
-44.8835315879125
 20
53.71041666666669
 30
0.0
  0
SPLINE
  5
7E
330
1F
100
AcDbEntity
  8
0
  6
K5LT_BASIC
 62
   150
420
    33023
370
    60
100
AcDbSpline
210
0.0
220
0.0
230
1.0
 70
  1288
 71
     3
 72
     9
 73
     5
 74
     3
 42
0.000000001
 43
0.0
 40
0.1068401267825034
 40
0.1068401267825034
 40
0.1068401267825034
 40
0.1068401267825034
 40
2.233936538205082
 40
3.969344184816168
 40
3.969344184816168
 40
3.969344184816168
 40
3.969344184816168
 10
-44.93100015753787
 20
65.62124247568823
 30
0.0
 10
-55.62925248069488
 20
69.45099786246797
 30
0.0
 10
-91.58421909493681
 20
73.91503698988689
 30
0.0
 10
-114.3819472235099
 20
68.8036178448721
 30
0.0
 10
-127.6456086242378
 20
65.69045498359408
 30
0.0
  0
LINE
  5
80
330
1F
100
AcDbEntity
  8
0
  6
K5LT32768
 62
   150
420
    33023
370
    60
100
AcDbLine
 10
-142.8765409056564
 20
53.46731841027353
 30
0.0
 11
-141.1561066778827
 21
58.30150249066146
 31
0.0
  0
LINE
  5
81
330
1F
100
AcDbEntity
  8
0
  6
K5LT32768
 62
   150
420
    33023
370
    60
100
AcDbLine
 10
-137.9531830508436
 20
67.30127833710766
 30
0.0
 11
-136.0481340145498
 21
61.76850318186909
 31
0.0
  0
LINE
  5
82
330
1F
100
AcDbEntity
  8
0
  6
K5LT32768
 62
   150
420
    33023
370
    60
100
AcDbLine
 10
-133.1898642303067
 20
53.46731841027353
 30
0.0
 11
-138.0494128192468
 21
56.41625607833015
 31
0.0
  0
LINE
  5
83
330
1F
100
AcDbEntity
  8
0
  6
K5LT32768
 62
   150
420
    33023
370
    60
100
AcDbLine
 10
-145.7088795667728
 20
61.06427833710764
 30
0.0
 11
-139.8918458372909
 21
61.85390195492326
 31
0.0
  0
LINE
  5
84
330
1F
100
AcDbEntity
  8
0
  6
K5LT32768
 62
   150
420
    33023
370
    60
100
AcDbLine
 10
-130.4410462421447
 20
61.06427833710764
 30
0.0
 11
-134.8733296134005
 21
58.35655499622581
 31
0.0
  0
LINE
  5
85
330
1F
100
AcDbEntity
  8
0
  6
K5LT32768
 62
   150
420
    33023
370
    60
100
AcDbLine
 10
-139.8918458372914
 20
61.85390195492323
 30
0.0
 11
-137.9531830508436
 21
67.30127833710766
 31
0.0
  0
LINE
  5
86
330
1F
100
AcDbEntity
  8
0
  6
K5LT32768
 62
   150
420
    33023
370
    60
100
AcDbLine
 10
-136.0481340145498
 20
61.76850318186909
 30
0.0
 11
-130.4410462421447
 21
61.06427833710764
 31
0.0
  0
LINE
  5
87
330
1F
100
AcDbEntity
  8
0
  6
K5LT32768
 62
   150
420
    33023
370
    60
100
AcDbLine
 10
-134.8733296134005
 20
58.35655499622587
 30
0.0
 11
-133.1898642303067
 21
53.46731841027353
 31
0.0
  0
LINE
  5
88
330
1F
100
AcDbEntity
  8
0
  6
K5LT32768
 62
   150
420
    33023
370
    60
100
AcDbLine
 10
-138.0494128192468
 20
56.41625607833021
 30
0.0
 11
-142.8765409056564
 21
53.46731841027353
 31
0.0
  0
LINE
  5
89
330
1F
100
AcDbEntity
  8
0
  6
K5LT32768
 62
   150
420
    33023
370
    60
100
AcDbLine
 10
-141.1561066778827
 20
58.30150249066135
 30
0.0
 11
-145.7088795667728
 21
61.06427833710764
 31
0.0
  0
SPLINE
  5
8B
330
1F
100
AcDbEntity
  8
0
  6
K5LT32778
 62
   150
420
    33023
370
    60
100
AcDbSpline
210
0.0
220
0.0
230
1.0
 70
    11
 71
     3
 72
    23
 73
    19
 74
     0
 42
0.000000001
 43
0.0
 40
0.0
 40
0.0
 40
0.0
 40
0.0
 40
0.1428571428571428
 40
0.1428571428571428
 40
0.1428571428571428
 40
0.2857142857142857
 40
0.2857142857142857
 40
0.2857142857142857
 40
0.4285714285714285
 40
0.4285714285714285
 40
0.4285714285714285
 40
0.5714285714285714
 40
0.5714285714285714
 40
0.5714285714285714
 40
0.7142857142857143
 40
0.7142857142857143
 40
0.7142857142857143
 40
1.0
 40
1.0
 40
1.0
 40
1.0
 10
-87.20791994721912
 20
56.74516866666181
 30
0.0
 10
-88.47785594722018
 20
56.0657766666618
 30
0.0
 10
-88.54611194721974
 20
54.59784066666839
 30
0.0
 10
-87.45372794722016
 20
53.88432066666542
 30
0.0
 10
-85.80478394722013
 20
52.79539266666438
 30
0.0
 10
-84.61332794722011
 20
54.80952066666373
 30
0.0
 10
-85.36097594722014
 20
53.4746406666618
 30
0.0
 10
-86.24527994721939
 20
51.90086466666389
 30
0.0
 10
-90.45454394721946
 20
51.80193666666787
 30
0.0
 10
-90.38283194721953
 20
55.09968066666124
 30
0.0
 10
-90.34524794721938
 20
56.89881666666383
 30
0.0
 10
-88.46431994721979
 20
57.83769666666376
 30
0.0
 10
-86.61046394722007
 20
57.96398466666278
 30
0.0
 10
-86.61046394722007
 20
57.96398466666278
 30
0.0
 10
-86.61046394722007
 20
56.99443266666435
 30
0.0
 10
-86.61046394722007
 20
56.99443266666435
 30
0.0
 10
-86.82214394721996
 20
56.93985666666185
 30
0.0
 10
-87.01683194721954
 20
56.85100866666676
 30
0.0
 10
-87.20791994721912
 20
56.74516866666181
 30
0.0
  0
SPLINE
  5
8C
330
1F
100
AcDbEntity
  8
0
  6
K5LT32778
 62
   150
420
    33023
370
    60
100
AcDbSpline
210
0.0
220
0.0
230
1.0
 70
    11
 71
     3
 72
    23
 73
    19
 74
     0
 42
0.000000001
 43
0.0
 40
0.0
 40
0.0
 40
0.0
 40
0.0
 40
0.1428571428571428
 40
0.1428571428571428
 40
0.1428571428571428
 40
0.2857142857142857
 40
0.2857142857142857
 40
0.2857142857142857
 40
0.4285714285714285
 40
0.4285714285714285
 40
0.4285714285714285
 40
0.5714285714285714
 40
0.5714285714285714
 40
0.5714285714285714
 40
0.7142857142857143
 40
0.7142857142857143
 40
0.7142857142857143
 40
1.0
 40
1.0
 40
1.0
 40
1.0
 10
-85.37969594721926
 20
65.88844866666386
 30
0.0
 10
-84.62643194721977
 20
64.54968066666129
 30
0.0
 10
-85.81860794721933
 20
66.56222466666236
 30
0.0
 10
-87.47043194721937
 20
65.47761666666338
 30
0.0
 10
-88.5636799472195
 20
64.76366466666491
 30
0.0
 10
-88.49153594721975
 20
63.2902566666653
 30
0.0
 10
-87.22635194721943
 20
62.61172866666288
 30
0.0
 10
-87.03166394721984
 20
62.51265666666427
 30
0.0
 10
-86.82257594721978
 20
62.43316866666191
 30
0.0
 10
-86.61175994721998
 20
62.38680066666734
 30
0.0
 10
-86.61175994721998
 20
62.38680066666734
 30
0.0
 10
-86.61348794721971
 20
61.40745666666135
 30
0.0
 10
-86.61348794721971
 20
61.40745666666135
 30
0.0
 10
-88.4752639472199
 20
61.53216066666732
 30
0.0
 10
-90.35964794721986
 20
62.45764866666582
 30
0.0
 10
-90.39665594721964
 20
64.26110466666341
 30
0.0
 10
-90.46966394721949
 20
67.55611266666733
 30
0.0
 10
-86.26471994721942
 20
67.45963266666195
 30
0.0
 10
-85.37969594721926
 20
65.88844866666386
 30
0.0
  0
SPLINE
  5
8D
330
1F
100
AcDbEntity
  8
0
  6
K5LT32778
 62
   150
420
    33023
370
    60
100
AcDbSpline
210
0.0
220
0.0
230
1.0
 70
    11
 71
     3
 72
    26
 73
    22
 74
     0
 42
0.000000001
 43
0.0
 40
0.0
 40
0.0
 40
0.0
 40
0.0
 40
0.125
 40
0.125
 40
0.125
 40
0.25
 40
0.25
 40
0.25
 40
0.375
 40
0.375
 40
0.375
 40
0.5
 40
0.5
 40
0.5
 40
0.6250000000000001
 40
0.6250000000000001
 40
0.6250000000000001
 40
0.75
 40
0.75
 40
0.75
 40
1.0
 40
1.0
 40
1.0
 40
1.0
 10
-91.96675512252894
 20
58.6078086696525
 30
0.0
 10
-93.8376031225285
 20
58.11619266965589
 30
0.0
 10
-93.99470712252885
 20
56.8325766696555
 30
0.0
 10
-95.4421951225291
 20
56.91451266965508
 30
0.0
 10
-96.4356511225288
 20
56.96908866965099
 30
0.0
 10
-98.81510712252846
 20
59.7071046696535
 30
0.0
 10
-101.7168511225282
 20
59.7071046696535
 30
0.0
 10
-98.81510712252846
 20
59.7071046696535
 30
0.0
 10
-96.4356511225288
 20
62.43820866965346
 30
0.0
 10
-95.4421951225291
 20
62.49624066965451
 30
0.0
 10
-93.99125112252848
 20
62.57817666965387
 30
0.0
 10
-93.84105912252842
 20
61.29456066965348
 30
0.0
 10
-91.9702111225284
 20
60.8029446696505
 30
0.0
 10
-91.51617912252875
 20
60.68342466965099
 30
0.0
 10
-90.70027512252825
 20
60.51278466965253
 30
0.0
 10
-89.81942712252801
 20
60.44784066965597
 30
0.0
 10
-89.81942712252801
 20
60.44784066965597
 30
0.0
 10
-89.81942712252801
 20
58.94908866965555
 30
0.0
 10
-89.81942712252801
 20
58.94908866965555
 30
0.0
 10
-90.70027512252825
 20
58.88083266965099
 30
0.0
 10
-91.51272312252839
 20
58.72732866965201
 30
0.0
 10
-91.96675512252894
 20
58.6078086696525
 30
0.0
  0
LWPOLYLINE
  5
8F
330
1F
100
AcDbEntity
  8
0
  6
K5LT32774
 62
   150
420
    33023
370
    60
100
AcDbPolyline
 90
        8
 70
     1
 43
0.0
 10
-84.69819430278044
 20
56.52258583828792
 10
-85.13090492247854
 20
56.52092661878538
 42
-0.4157497827248178
 10
-85.35676745084042
 20
56.7462416913735
 10
-85.34842225762979
 20
62.67459164195988
 42
-0.4131806092842389
 10
-85.12389955565372
 20
62.89927440949749
 10
-84.68660409781465
 20
62.90020162391128
 42
-0.4154740490049658
 10
-84.46112755800554
 20
62.67471133386734
 10
-84.47405758935707
 20
56.74709338836932
 42
-0.4124526779820905
  0
SPLINE
  5
90
330
1F
100
AcDbEntity
  8
0
  6
K5LT32778
 62
   150
420
    33023
370
    60
100
AcDbSpline
210
0.0
220
0.0
230
1.0
 70
    11
 71
     3
 72
    20
 73
    16
 74
     0
 42
0.000000001
 43
0.0
 40
0.0
 40
0.0
 40
0.0
 40
0.0
 40
0.1666666666666667
 40
0.1666666666666667
 40
0.1666666666666667
 40
0.3333333333333333
 40
0.3333333333333333
 40
0.3333333333333333
 40
0.5
 40
0.5
 40
0.5
 40
0.6666666666666666
 40
0.6666666666666666
 40
0.6666666666666666
 40
1.0
 40
1.0
 40
1.0
 40
1.0
 10
-81.32221259187953
 20
56.64604075564888
 30
0.0
 10
-81.10030859187908
 20
56.1817847556489
 30
0.0
 10
-81.43482059187899
 20
55.51261675564536
 30
0.0
 10
-81.92989259187915
 20
55.48885675564942
 30
0.0
 10
-82.49307659187879
 20
55.46495275565088
 30
0.0
 10
-82.91989259187939
 20
56.09984875564886
 30
0.0
 10
-82.49653259187916
 20
56.6358167556449
 30
0.0
 10
-82.44195659187871
 20
56.70407275564947
 30
0.0
 10
-82.6330445918792
 20
56.85095275564539
 30
0.0
 10
-83.05294859187906
 20
56.96010475564493
 30
0.0
 10
-83.05294859187906
 20
56.96010475564493
 30
0.0
 10
-83.05640459187943
 20
57.8717687556449
 30
0.0
 10
-83.05640459187943
 20
57.8717687556449
 30
0.0
 10
-82.25418059187895
 20
57.66685675564793
 30
0.0
 10
-81.61582859187901
 20
57.22981675564791
 30
0.0
 10
-81.32221259187953
 20
56.64604075564888
 30
0.0
  0
SPLINE
  5
91
330
1F
100
AcDbEntity
  8
0
  6
K5LT32778
 62
   150
420
    33023
370
    60
100
AcDbSpline
210
0.0
220
0.0
230
1.0
 70
    11
 71
     3
 72
    20
 73
    16
 74
     0
 42
0.000000001
 43
0.0
 40
0.0
 40
0.0
 40
0.0
 40
0.0
 40
0.1666666666666667
 40
0.1666666666666667
 40
0.1666666666666667
 40
0.3333333333333334
 40
0.3333333333333334
 40
0.3333333333333334
 40
0.5
 40
0.5
 40
0.5
 40
0.6666666666666666
 40
0.6666666666666666
 40
0.6666666666666666
 40
1.0
 40
1.0
 40
1.0
 40
1.0
 10
-82.52461259187875
 20
62.77770475564433
 30
0.0
 10
-82.98210059187967
 20
63.29999275564536
 30
0.0
 10
-82.47003659187921
 20
64.01351275564787
 30
0.0
 10
-81.9306125918787
 20
63.9178967556469
 30
0.0
 10
-81.42186059187897
 20
63.82919275564894
 30
0.0
 10
-81.12838859187913
 20
63.19429675565028
 30
0.0
 10
-81.34338059187884
 20
62.78116075564879
 30
0.0
 10
-81.59941259187953
 20
62.18716075564578
 30
0.0
 10
-82.2549005918785
 20
61.77748075564899
 30
0.0
 10
-83.06058059187934
 20
61.56925675565038
 30
0.0
 10
-83.06058059187934
 20
61.56925675565038
 30
0.0
 10
-83.0640365918788
 20
62.45687275564945
 30
0.0
 10
-83.0640365918788
 20
62.45687275564945
 30
0.0
 10
-82.54174859187869
 20
62.55234475564738
 30
0.0
 10
-82.44267659187916
 20
62.68900075564591
 30
0.0
 10
-82.52461259187875
 20
62.77770475564433
 30
0.0
  0
SPLINE
  5
92
330
1F
100
AcDbEntity
  8
0
  6
K5LT32778
 62
   150
420
    33023
370
    60
100
AcDbSpline
210
0.0
220
0.0
230
1.0
 70
    11
 71
     3
 72
    26
 73
    22
 74
     0
 42
0.000000001
 43
0.0
 40
0.0
 40
0.0
 40
0.0
 40
0.0
 40
0.125
 40
0.125
 40
0.125
 40
0.25
 40
0.25
 40
0.25
 40
0.375
 40
0.375
 40
0.375
 40
0.5
 40
0.5
 40
0.5
 40
0.625
 40
0.625
 40
0.625
 40
0.75
 40
0.75
 40
0.75
 40
1.0
 40
1.0
 40
1.0
 40
1.0
 10
-80.74826951444906
 20
60.77884075564578
 30
0.0
 10
-79.88642951444949
 20
61.14604075564888
 30
0.0
 10
-79.44074951444922
 20
62.30149675564542
 30
0.0
 10
-78.90132551444917
 20
61.72794475564945
 30
0.0
 10
-78.00694151444945
 20
60.77552875565096
 30
0.0
 10
-76.81548551444853
 20
60.06200875564844
 30
0.0
 10
-74.86615751444928
 20
59.74103275564983
 30
0.0
 10
-76.81202951444907
 20
59.42365675564577
 30
0.0
 10
-78.00002951444917
 20
58.70322475564729
 30
0.0
 10
-78.90132551444917
 20
57.7508087556488
 30
0.0
 10
-79.44074951444922
 20
57.1704887556474
 30
0.0
 10
-79.95281351444878
 20
58.34480875564544
 30
0.0
 10
-80.74826951444906
 20
58.69976875564988
 30
0.0
 10
-81.02143751444969
 20
58.81928875564939
 30
0.0
 10
-81.33204551444946
 20
58.91490475564991
 30
0.0
 10
-81.67678151444902
 20
58.96271275564744
 30
0.0
 10
-81.67678151444902
 20
58.96271275564744
 30
0.0
 10
-81.68023751444939
 20
60.54340075564745
 30
0.0
 10
-81.68023751444939
 20
60.54340075564745
 30
0.0
 10
-81.34226951444911
 20
60.5910647556483
 30
0.0
 10
-81.01927751444923
 20
60.67156075564493
 30
0.0
 10
-80.74826951444906
 20
60.77884075564578
 30
0.0
  0
LINE
  5
93
330
1F
100
AcDbEntity
  8
0
  6
K5LT_BASIC
 62
   150
420
    33023
370
    60
100
AcDbLine
 10
-29.83704358685952
 20
71.71041666666669
 30
0.0
 11
0.0
 21
65.71041666666669
 31
0.0
  0
LINE
  5
94
330
1F
100
AcDbEntity
  8
0
  6
K5LT_BASIC
 62
   150
420
    33023
370
    60
100
AcDbLine
 10
-29.83704358685952
 20
71.71041666666669
 30
0.0
 11
0.0
 21
77.71041666666669
 31
0.0
  0
LINE
  5
95
330
1F
100
AcDbEntity
  8
0
  6
K5LT_BASIC
 62
   150
420
    33023
370
    60
100
AcDbLine
 10
420.1629564131405
 20
65.71041666666663
 30
0.0
 11
456.7132161913062
 21
65.71041666666663
 31
0.0
  0
LINE
  5
96
330
1F
100
AcDbEntity
  8
0
  6
K5LT_BASIC
 62
   150
420
    33023
370
    60
100
AcDbLine
 10
420.1629564131405
 20
77.71041666666663
 30
0.0
 11
456.7132161913062
 21
77.71041666666663
 31
0.0
  0
SPLINE
  5
97
330
1F
100
AcDbEntity
  8
0
  6
K5LT_BASIC
 62
   150
420
    33023
370
    60
100
AcDbSpline
210
0.0
220
0.0
230
1.0
 70
  1288
 71
     3
 72
     8
 73
     4
 74
     2
 42
0.000000001
 43
0.0
 40
0.0
 40
0.0
 40
0.0
 40
0.0
 40
2.0
 40
2.0
 40
2.0
 40
2.0
 10
456.7132161913062
 20
65.71041666666663
 30
0.0
 10
456.678331552049
 20
60.80766008702106
 30
0.0
 10
457.4611922616211
 20
56.07290644487112
 30
0.0
 10
459.0617983200225
 20
51.50615574021683
 30
0.0
  0
SPLINE
  5
98
330
1F
100
AcDbEntity
  8
0
  6
K5LT_BASIC
 62
   150
420
    33023
370
    60
100
AcDbSpline
210
0.0
220
0.0
230
1.0
 70
  1288
 71
     3
 72
     9
 73
     5
 74
     3
 42
0.000000001
 43
0.0
 40
0.0
 40
0.0
 40
0.0
 40
0.0
 40
1.906351921744784
 40
3.885029020831794
 40
3.885029020831794
 40
3.885029020831794
 40
3.885029020831794
 10
465.6670241441258
 20
56.59842433951361
 30
0.0
 10
464.3369477189101
 20
57.75289649757111
 30
0.0
 10
463.0072733765965
 20
61.43139607756564
 30
0.0
 10
463.7452773031691
 20
64.07534294893321
 30
0.0
 10
465.0939565719423
 20
65.79959085721532
 30
0.0
  0
ARC
  5
99
330
1F
100
AcDbEntity
  8
0
  6
K5LT_BASIC
 62
   150
420
    33023
370
    60
100
AcDbCircle
 10
463.2624066266668
 20
52.88749241487179
 30
0.0
 40
4.421900174653018
100
AcDbArc
 50
198.2030393714588
 51
57.0574842295392
  0
SPLINE
  5
9A
330
1F
100
AcDbEntity
  8
0
  6
K5LT_BASIC
 62
   150
420
    33023
370
    60
100
AcDbSpline
210
0.0
220
0.0
230
1.0
 70
  1288
 71
     3
 72
     8
 73
     4
 74
     2
 42
0.000000001
 43
0.0
 40
0.0
 40
0.0
 40
0.0
 40
0.0
 40
2.0
 40
2.0
 40
2.0
 40
2.0
 10
456.7132161913062
 20
77.71041666666663
 30
0.0
 10
456.678331552049
 20
82.61317324631221
 30
0.0
 10
457.4611922616211
 20
87.34792688846214
 30
0.0
 10
459.0617983200225
 20
91.9146775931164
 30
0.0
  0
SPLINE
  5
9B
330
1F
100
AcDbEntity
  8
0
  6
K5LT_BASIC
 62
   150
420
    33023
370
    60
100
AcDbSpline
210
0.0
220
0.0
230
1.0
 70
  1288
 71
     3
 72
     9
 73
     5
 74
     3
 42
0.000000001
 43
0.0
 40
0.0
 40
0.0
 40
0.0
 40
0.0
 40
1.906351921744784
 40
4.0
 40
4.0
 40
4.0
 40
4.0
 10
465.6670241441258
 20
86.82240899381965
 30
0.0
 10
464.3497609285445
 20
85.65069112200617
 30
0.0
 10
462.9121608990266
 20
81.9556313654205
 30
0.0
 10
463.9091770565905
 20
79.03053953810074
 30
0.0
 10
465.0464880059562
 20
77.71041666666663
 30
0.0
  0
ARC
  5
9C
330
1F
100
AcDbEntity
  8
0
  6
K5LT_BASIC
 62
   150
420
    33023
370
    60
100
AcDbCircle
 10
463.2624066266668
 20
90.53334091846149
 30
0.0
 40
4.421900174653018
100
AcDbArc
 50
302.9425157704608
 51
161.7969606285412
  0
LWPOLYLINE
  5
9D
330
1F
100
AcDbEntity
  8
0
  6
K5LT_BASIC
 62
   150
420
    33023
370
    60
100
AcDbPolyline
 90
        2
 70
     0
 43
0.0
 10
420.1629564131405
 20
77.71041666666663
 10
0.0
 20
77.71041666666669
  0
ARC
  5
9E
330
1F
100
AcDbEntity
  8
0
  6
K5LT_BASIC
 62
   150
420
    33023
370
    60
100
AcDbCircle
 10
558.2123692323869
 20
71.71041666666657
 30
0.0
 40
11.99999999999999
100
AcDbArc
 50
209.8900063623866
 51
150.0
  0
SPLINE
  5
9F
330
1F
100
AcDbEntity
  8
0
  6
K5LT_BASIC
 62
   150
420
    33023
370
    60
100
AcDbSpline
210
0.0
220
0.0
230
1.0
 70
  1288
 71
     3
 72
     9
 73
     5
 74
     3
 42
0.000000001
 43
0.0
 40
0.0
 40
0.0
 40
0.0
 40
0.0
 40
2.233936538205082
 40
4.0
 40
4.0
 40
4.0
 40
4.0
 10
547.8200643869736
 20
77.71041666666657
 30
0.0
 10
539.3896681980375
 20
81.50705749086804
 30
0.0
 10
501.5353300867426
 20
87.08675420102209
 30
0.0
 10
477.7257232210823
 20
81.01928310778463
 30
0.0
 10
465.0464880010529
 20
77.71041666666663
 30
0.0
  0
SPLINE
  5
A0
330
1F
100
AcDbEntity
  8
0
  6
K5LT_BASIC
 62
   150
420
    33023
370
    60
100
AcDbSpline
210
0.0
220
0.0
230
1.0
 70
  1288
 71
     3
 72
     9
 73
     5
 74
     3
 42
0.000000001
 43
0.0
 40
0.1068401267825034
 40
0.1068401267825034
 40
0.1068401267825034
 40
0.1068401267825034
 40
2.233936538205082
 40
3.969344184816168
 40
3.969344184816168
 40
3.969344184816168
 40
3.969344184816168
 10
465.0939565706783
 20
65.79959085764509
 30
0.0
 10
475.7922088938354
 20
61.96983547086535
 30
0.0
 10
511.7471755080772
 20
57.50579634344642
 30
0.0
 10
534.5449036366504
 20
62.61721548846121
 30
0.0
 10
547.8085650373782
 20
65.73037834973923
 30
0.0
  0
LINE
  5
A1
330
1F
100
AcDbEntity
  8
0
  6
K5LT32768
 62
   150
420
    33023
370
    60
100
AcDbLine
 10
563.0394973187967
 20
77.95351492305976
 30
0.0
 11
561.319063091023
 21
73.11933084267186
 31
0.0
  0
LINE
  5
A2
330
1F
100
AcDbEntity
  8
0
  6
K5LT32768
 62
   150
420
    33023
370
    60
100
AcDbLine
 10
558.1161394639839
 20
64.11955499622565
 30
0.0
 11
556.2110904276901
 21
69.65233015146421
 31
0.0
  0
LINE
  5
A3
330
1F
100
AcDbEntity
  8
0
  6
K5LT32768
 62
   150
420
    33023
370
    60
100
AcDbLine
 10
553.3528206434471
 20
77.95351492305976
 30
0.0
 11
558.2123692323871
 21
75.00457725500316
 31
0.0
  0
LINE
  5
A4
330
1F
100
AcDbEntity
  8
0
  6
K5LT32768
 62
   150
420
    33023
370
    60
100
AcDbLine
 10
565.8718359799132
 20
70.35655499622565
 30
0.0
 11
560.0548022504313
 21
69.56693137841005
 31
0.0
  0
LINE
  5
A5
330
1F
100
AcDbEntity
  8
0
  6
K5LT32768
 62
   150
420
    33023
370
    60
100
AcDbLine
 10
550.6040026552851
 20
70.35655499622567
 30
0.0
 11
555.0362860265409
 21
73.0642783371075
 31
0.0
  0
LINE
  5
A6
330
1F
100
AcDbEntity
  8
0
  6
K5LT32768
 62
   150
420
    33023
370
    60
100
AcDbLine
 10
560.0548022504317
 20
69.56693137841008
 30
0.0
 11
558.1161394639839
 21
64.11955499622565
 31
0.0
  0
LINE
  5
A7
330
1F
100
AcDbEntity
  8
0
  6
K5LT32768
 62
   150
420
    33023
370
    60
100
AcDbLine
 10
556.2110904276901
 20
69.65233015146421
 30
0.0
 11
550.6040026552851
 21
70.35655499622567
 31
0.0
  0
LINE
  5
A8
330
1F
100
AcDbEntity
  8
0
  6
K5LT32768
 62
   150
420
    33023
370
    60
100
AcDbLine
 10
555.0362860265409
 20
73.06427833710744
 30
0.0
 11
553.3528206434471
 21
77.95351492305976
 31
0.0
  0
LINE
  5
A9
330
1F
100
AcDbEntity
  8
0
  6
K5LT32768
 62
   150
420
    33023
370
    60
100
AcDbLine
 10
558.2123692323871
 20
75.0045772550031
 30
0.0
 11
563.0394973187967
 21
77.95351492305976
 31
0.0
  0
LINE
  5
AA
330
1F
100
AcDbEntity
  8
0
  6
K5LT32768
 62
   150
420
    33023
370
    60
100
AcDbLine
 10
561.319063091023
 20
73.11933084267197
 30
0.0
 11
565.8718359799132
 21
70.35655499622565
 31
0.0
  0
SPLINE
  5
AB
330
1F
100
AcDbEntity
  8
0
  6
K5LT32778
 62
   150
420
    33023
370
    60
100
AcDbSpline
210
0.0
220
0.0
230
1.0
 70
    11
 71
     3
 72
    23
 73
    19
 74
     0
 42
0.000000001
 43
0.0
 40
0.0
 40
0.0
 40
0.0
 40
0.0
 40
0.1428571428571428
 40
0.1428571428571428
 40
0.1428571428571428
 40
0.2857142857142857
 40
0.2857142857142857
 40
0.2857142857142857
 40
0.4285714285714285
 40
0.4285714285714285
 40
0.4285714285714285
 40
0.5714285714285714
 40
0.5714285714285714
 40
0.5714285714285714
 40
0.7142857142857143
 40
0.7142857142857143
 40
0.7142857142857143
 40
1.0
 40
1.0
 40
1.0
 40
1.0
 10
507.3708763603595
 20
74.6756646666715
 30
0.0
 10
508.6408123603606
 20
75.3550566666715
 30
0.0
 10
508.7090683603602
 20
76.82299266666492
 30
0.0
 10
507.6166843603606
 20
77.53651266666789
 30
0.0
 10
505.9677403603606
 20
78.62544066666892
 30
0.0
 10
504.7762843603605
 20
76.61131266666958
 30
0.0
 10
505.5239323603606
 20
77.94619266667151
 30
0.0
 10
506.4082363603598
 20
79.51996866666941
 30
0.0
 10
510.6175003603599
 20
79.61889666666544
 30
0.0
 10
510.5457883603599
 20
76.32115266667206
 30
0.0
 10
510.5082043603598
 20
74.52201666666947
 30
0.0
 10
508.6272763603602
 20
73.58313666666955
 30
0.0
 10
506.7734203603605
 20
73.45684866667052
 30
0.0
 10
506.7734203603605
 20
73.45684866667052
 30
0.0
 10
506.7734203603605
 20
74.42640066666895
 30
0.0
 10
506.7734203603605
 20
74.42640066666895
 30
0.0
 10
506.9851003603604
 20
74.48097666667145
 30
0.0
 10
507.17978836036
 20
74.56982466666655
 30
0.0
 10
507.3708763603595
 20
74.6756646666715
 30
0.0
  0
SPLINE
  5
AC
330
1F
100
AcDbEntity
  8
0
  6
K5LT32778
 62
   150
420
    33023
370
    60
100
AcDbSpline
210
0.0
220
0.0
230
1.0
 70
    11
 71
     3
 72
    23
 73
    19
 74
     0
 42
0.000000001
 43
0.0
 40
0.0
 40
0.0
 40
0.0
 40
0.0
 40
0.1428571428571428
 40
0.1428571428571428
 40
0.1428571428571428
 40
0.2857142857142857
 40
0.2857142857142857
 40
0.2857142857142857
 40
0.4285714285714285
 40
0.4285714285714285
 40
0.4285714285714285
 40
0.5714285714285714
 40
0.5714285714285714
 40
0.5714285714285714
 40
0.7142857142857143
 40
0.7142857142857143
 40
0.7142857142857143
 40
1.0
 40
1.0
 40
1.0
 40
1.0
 10
505.5426523603597
 20
65.53238466666944
 30
0.0
 10
504.7893883603602
 20
66.87115266667202
 30
0.0
 10
505.9815643603598
 20
64.85860866667095
 30
0.0
 10
507.6333883603598
 20
65.94321666666993
 30
0.0
 10
508.7266363603599
 20
66.6571686666684
 30
0.0
 10
508.6544923603602
 20
68.130576666668
 30
0.0
 10
507.3893083603598
 20
68.80910466667042
 30
0.0
 10
507.1946203603603
 20
68.90817666666904
 30
0.0
 10
506.9855323603602
 20
68.98766466667139
 30
0.0
 10
506.7747163603604
 20
69.03403266666596
 30
0.0
 10
506.7747163603604
 20
69.03403266666596
 30
0.0
 10
506.7764443603601
 20
70.01337666667196
 30
0.0
 10
506.7764443603601
 20
70.01337666667196
 30
0.0
 10
508.6382203603603
 20
69.88867266666598
 30
0.0
 10
510.5226043603603
 20
68.96318466666749
 30
0.0
 10
510.5596123603601
 20
67.15972866666989
 30
0.0
 10
510.6326203603599
 20
63.86472066666597
 30
0.0
 10
506.4276763603598
 20
63.96120066667136
 30
0.0
 10
505.5426523603597
 20
65.53238466666944
 30
0.0
  0
SPLINE
  5
AD
330
1F
100
AcDbEntity
  8
0
  6
K5LT32778
 62
   150
420
    33023
370
    60
100
AcDbSpline
210
0.0
220
0.0
230
1.0
 70
    11
 71
     3
 72
    26
 73
    22
 74
     0
 42
0.000000001
 43
0.0
 40
0.0
 40
0.0
 40
0.0
 40
0.0
 40
0.125
 40
0.125
 40
0.125
 40
0.25
 40
0.25
 40
0.25
 40
0.375
 40
0.375
 40
0.375
 40
0.5
 40
0.5
 40
0.5
 40
0.6250000000000001
 40
0.6250000000000001
 40
0.6250000000000001
 40
0.75
 40
0.75
 40
0.75
 40
1.0
 40
1.0
 40
1.0
 40
1.0
 10
512.1297115356692
 20
72.81302466368079
 30
0.0
 10
514.0005595356688
 20
73.3046406636774
 30
0.0
 10
514.1576635356694
 20
74.5882566636778
 30
0.0
 10
515.6051515356696
 20
74.50632066367821
 30
0.0
 10
516.5986075356693
 20
74.4517446636823
 30
0.0
 10
518.9780635356688
 20
71.71372866367979
 30
0.0
 10
521.8798075356685
 20
71.71372866367979
 30
0.0
 10
518.9780635356688
 20
71.71372866367979
 30
0.0
 10
516.5986075356691
 20
68.98262466367984
 30
0.0
 10
515.6051515356694
 20
68.9245926636788
 30
0.0
 10
514.1542075356688
 20
68.84265666367943
 30
0.0
 10
514.0040155356687
 20
70.12627266367983
 30
0.0
 10
512.1331675356687
 20
70.6178886636828
 30
0.0
 10
511.6791355356691
 20
70.73740866368232
 30
0.0
 10
510.8632315356686
 20
70.90804866368077
 30
0.0
 10
509.9823835356684
 20
70.97299266367733
 30
0.0
 10
509.9823835356684
 20
70.97299266367733
 30
0.0
 10
509.9823835356684
 20
72.47174466367774
 30
0.0
 10
509.9823835356684
 20
72.47174466367774
 30
0.0
 10
510.8632315356686
 20
72.5400006636823
 30
0.0
 10
511.6756795356687
 20
72.69350466368128
 30
0.0
 10
512.1297115356692
 20
72.81302466368079
 30
0.0
  0
LWPOLYLINE
  5
AE
330
1F
100
AcDbEntity
  8
0
  6
K5LT32774
 62
   150
420
    33023
370
    60
100
AcDbPolyline
 90
        8
 70
     1
 43
0.0
 10
504.8611507159208
 20
74.8982474950454
 10
505.2938613356189
 20
74.89990671454794
 42
-0.4157497827248181
 10
505.5197238639808
 20
74.67459164195982
 10
505.5113786707702
 20
68.74624169137344
 42
-0.4131806092842388
 10
505.2868559687941
 20
68.52155892383583
 10
504.849560510955
 20
68.52063170942205
 42
-0.4154740490049659
 10
504.6240839711459
 20
68.74612199946598
 10
504.6370140024974
 20
74.673739944964
 42
-0.4124526779820904
  0
SPLINE
  5
AF
330
1F
100
AcDbEntity
  8
0
  6
K5LT32778
 62
   150
420
    33023
370
    60
100
AcDbSpline
210
0.0
220
0.0
230
1.0
 70
    11
 71
     3
 72
    20
 73
    16
 74
     0
 42
0.000000001
 43
0.0
 40
0.0
 40
0.0
 40
0.0
 40
0.0
 40
0.1666666666666667
 40
0.1666666666666667
 40
0.1666666666666667
 40
0.3333333333333333
 40
0.3333333333333333
 40
0.3333333333333333
 40
0.5
 40
0.5
 40
0.5
 40
0.6666666666666666
 40
0.6666666666666666
 40
0.6666666666666666
 40
1.0
 40
1.0
 40
1.0
 40
1.0
 10
501.4851690050201
 20
74.77479257768444
 30
0.0
 10
501.2632650050196
 20
75.23904857768441
 30
0.0
 10
501.5977770050195
 20
75.90821657768795
 30
0.0
 10
502.0928490050197
 20
75.9319765776839
 30
0.0
 10
502.6560330050193
 20
75.95588057768244
 30
0.0
 10
503.0828490050199
 20
75.32098457768446
 30
0.0
 10
502.6594890050197
 20
74.78501657768841
 30
0.0
 10
502.6049130050192
 20
74.71676057768384
 30
0.0
 10
502.7960010050197
 20
74.56988057768793
 30
0.0
 10
503.2159050050196
 20
74.46072857768839
 30
0.0
 10
503.2159050050196
 20
74.46072857768839
 30
0.0
 10
503.2193610050199
 20
73.54906457768841
 30
0.0
 10
503.2193610050199
 20
73.54906457768841
 30
0.0
 10
502.4171370050195
 20
73.75397657768538
 30
0.0
 10
501.7787850050195
 20
74.1910165776854
 30
0.0
 10
501.4851690050201
 20
74.77479257768444
 30
0.0
  0
SPLINE
  5
B0
330
1F
100
AcDbEntity
  8
0
  6
K5LT32778
 62
   150
420
    33023
370
    60
100
AcDbSpline
210
0.0
220
0.0
230
1.0
 70
    11
 71
     3
 72
    20
 73
    16
 74
     0
 42
0.000000001
 43
0.0
 40
0.0
 40
0.0
 40
0.0
 40
0.0
 40
0.1666666666666667
 40
0.1666666666666667
 40
0.1666666666666667
 40
0.3333333333333334
 40
0.3333333333333334
 40
0.3333333333333334
 40
0.5
 40
0.5
 40
0.5
 40
0.6666666666666666
 40
0.6666666666666666
 40
0.6666666666666666
 40
1.0
 40
1.0
 40
1.0
 40
1.0
 10
502.6875690050193
 20
68.64312857768898
 30
0.0
 10
503.1450570050202
 20
68.12084057768796
 30
0.0
 10
502.6329930050197
 20
67.40732057768544
 30
0.0
 10
502.0935690050192
 20
67.50293657768641
 30
0.0
 10
501.5848170050195
 20
67.59164057768437
 30
0.0
 10
501.2913450050197
 20
68.22653657768304
 30
0.0
 10
501.5063370050194
 20
68.63967257768452
 30
0.0
 10
501.76236900502
 20
69.23367257768753
 30
0.0
 10
502.417857005019
 20
69.64335257768433
 30
0.0
 10
503.2235370050199
 20
69.85157657768293
 30
0.0
 10
503.2235370050199
 20
69.85157657768293
 30
0.0
 10
503.2269930050193
 20
68.96396057768386
 30
0.0
 10
503.2269930050193
 20
68.96396057768386
 30
0.0
 10
502.7047050050192
 20
68.86848857768594
 30
0.0
 10
502.6056330050197
 20
68.7318325776874
 30
0.0
 10
502.6875690050193
 20
68.64312857768898
 30
0.0
  0
SPLINE
  5
B1
330
1F
100
AcDbEntity
  8
0
  6
K5LT32778
 62
   150
420
    33023
370
    60
100
AcDbSpline
210
0.0
220
0.0
230
1.0
 70
    11
 71
     3
 72
    26
 73
    22
 74
     0
 42
0.000000001
 43
0.0
 40
0.0
 40
0.0
 40
0.0
 40
0.0
 40
0.125
 40
0.125
 40
0.125
 40
0.25
 40
0.25
 40
0.25
 40
0.375
 40
0.375
 40
0.375
 40
0.5
 40
0.5
 40
0.5
 40
0.625
 40
0.625
 40
0.625
 40
0.75
 40
0.75
 40
0.75
 40
1.0
 40
1.0
 40
1.0
 40
1.0
 10
500.9112259275894
 20
70.64199257768753
 30
0.0
 10
500.0493859275899
 20
70.27479257768444
 30
0.0
 10
499.6037059275896
 20
69.11933657768789
 30
0.0
 10
499.0642819275895
 20
69.69288857768386
 30
0.0
 10
498.1698979275898
 20
70.64530457768235
 30
0.0
 10
496.9784419275889
 20
71.35882457768487
 30
0.0
 10
495.0291139275897
 20
71.67980057768348
 30
0.0
 10
496.9749859275894
 20
71.99717657768754
 30
0.0
 10
498.1629859275895
 20
72.71760857768602
 30
0.0
 10
499.0642819275895
 20
73.67002457768452
 30
0.0
 10
499.6037059275896
 20
74.25034457768591
 30
0.0
 10
500.1157699275892
 20
73.07602457768787
 30
0.0
 10
500.9112259275894
 20
72.72106457768344
 30
0.0
 10
501.1843939275901
 20
72.60154457768392
 30
0.0
 10
501.4950019275898
 20
72.5059285776834
 30
0.0
 10
501.8397379275894
 20
72.45812057768588
 30
0.0
 10
501.8397379275894
 20
72.45812057768588
 30
0.0
 10
501.8431939275898
 20
70.87743257768587
 30
0.0
 10
501.8431939275898
 20
70.87743257768587
 30
0.0
 10
501.5052259275895
 20
70.82976857768502
 30
0.0
 10
501.1822339275896
 20
70.74927257768839
 30
0.0
 10
500.9112259275894
 20
70.64199257768753
 30
0.0
  0
LWPOLYLINE
  5
B2
330
1F
100
AcDbEntity
  8
0
  6
K5LT_BASIC
 62
   150
420
    33023
370
    60
100
AcDbPolyline
 90
        2
 70
     0
 43
0.0
 10
420.1629564131405
 20
65.71041666666669
 10
0.0
 20
65.71041666666669
  0
LINE
  5
B3
330
1F
100
AcDbEntity
  8
0
  6
K5LT_BASIC
 62
   150
420
    33023
370
    60
100
AcDbLine
 10
436.900234641684
 20
92.82240899381956
 30
0.0
 11
407.0631910548245
 21
98.82240899381956
 31
0.0
  0
LINE
  5
B4
330
1F
100
AcDbEntity
  8
0
  6
K5LT_BASIC
 62
   150
420
    33023
370
    60
100
AcDbLine
 10
436.900234641684
 20
92.82240899381956
 30
0.0
 11
407.0631910548245
 21
86.82240899381956
 31
0.0
  0
LINE
  5
B5
330
1F
100
AcDbEntity
  8
0
  6
K5LT_BASIC
 62
   150
420
    33023
370
    60
100
AcDbLine
 10
-13.09976535831601
 20
98.82240899381956
 30
0.0
 11
-49.65002513648171
 21
98.82240899381956
 31
0.0
  0
LINE
  5
B6
330
1F
100
AcDbEntity
  8
0
  6
K5LT_BASIC
 62
   150
420
    33023
370
    60
100
AcDbLine
 10
-13.09976535831601
 20
86.82240899381956
 30
0.0
 11
-49.65002513648171
 21
86.82240899381955
 31
0.0
  0
SPLINE
  5
B7
330
1F
100
AcDbEntity
  8
0
  6
K5LT_BASIC
 62
   150
420
    33023
370
    60
100
AcDbSpline
210
0.0
220
0.0
230
1.0
 70
  1288
 71
     3
 72
     8
 73
     4
 74
     2
 42
0.000000001
 43
0.0
 40
0.0
 40
0.0
 40
0.0
 40
0.0
 40
2.0
 40
2.0
 40
2.0
 40
2.0
 10
-49.65002513648171
 20
98.82240899381956
 30
0.0
 10
-49.61514049722447
 20
103.7251655734651
 30
0.0
 10
-50.39800120679656
 20
108.4599192156151
 30
0.0
 10
-51.99860726519801
 20
113.0266699202694
 30
0.0
  0
SPLINE
  5
B8
330
1F
100
AcDbEntity
  8
0
  6
K5LT_BASIC
 62
   150
420
    33023
370
    60
100
AcDbSpline
210
0.0
220
0.0
230
1.0
 70
  1288
 71
     3
 72
     9
 73
     5
 74
     3
 42
0.000000001
 43
0.0
 40
0.0
 40
0.0
 40
0.0
 40
0.0
 40
1.906351921744784
 40
3.885029020831794
 40
3.885029020831794
 40
3.885029020831794
 40
3.885029020831794
 10
-58.60383308930133
 20
107.9344013209726
 30
0.0
 10
-57.2737566640856
 20
106.7799291629151
 30
0.0
 10
-55.94408232177204
 20
103.1014295829206
 30
0.0
 10
-56.68208624834462
 20
100.457482711553
 30
0.0
 10
-58.03076551711782
 20
98.73323480327088
 30
0.0
  0
ARC
  5
B9
330
1F
100
AcDbEntity
  8
0
  6
K5LT_BASIC
 62
   150
420
    33023
370
    60
100
AcDbCircle
 10
-56.19921557184237
 20
111.6453332456144
 30
0.0
 40
4.421900174653018
100
AcDbArc
 50
18.20303937145878
 51
237.0574842295392
  0
SPLINE
  5
BA
330
1F
100
AcDbEntity
  8
0
  6
K5LT_BASIC
 62
   150
420
    33023
370
    60
100
AcDbSpline
210
0.0
220
0.0
230
1.0
 70
  1288
 71
     3
 72
     8
 73
     4
 74
     2
 42
0.000000001
 43
0.0
 40
0.0
 40
0.0
 40
0.0
 40
0.0
 40
2.0
 40
2.0
 40
2.0
 40
2.0
 10
-49.65002513648171
 20
86.82240899381956
 30
0.0
 10
-49.61514049722447
 20
81.91965241417398
 30
0.0
 10
-50.39800120679656
 20
77.18489877202406
 30
0.0
 10
-51.99860726519801
 20
72.61814806736977
 30
0.0
  0
SPLINE
  5
BB
330
1F
100
AcDbEntity
  8
0
  6
K5LT_BASIC
 62
   150
420
    33023
370
    60
100
AcDbSpline
210
0.0
220
0.0
230
1.0
 70
  1288
 71
     3
 72
     9
 73
     5
 74
     3
 42
0.000000001
 43
0.0
 40
0.0
 40
0.0
 40
0.0
 40
0.0
 40
1.906351921744784
 40
4.0
 40
4.0
 40
4.0
 40
4.0
 10
-58.60383308930133
 20
77.71041666666655
 30
0.0
 10
-57.28656987371998
 20
78.88213453848002
 30
0.0
 10
-55.84896984420216
 20
82.57719429506568
 30
0.0
 10
-56.84598600176606
 20
85.50228612238544
 30
0.0
 10
-57.98329695113172
 20
86.82240899381956
 30
0.0
  0
ARC
  5
BC
330
1F
100
AcDbEntity
  8
0
  6
K5LT_BASIC
 62
   150
420
    33023
370
    60
100
AcDbCircle
 10
-56.19921557184237
 20
73.99948474202472
 30
0.0
 40
4.421900174653018
100
AcDbArc
 50
122.9425157704608
 51
341.7969606285412
  0
LWPOLYLINE
  5
BD
330
1F
100
AcDbEntity
  8
0
  6
K5LT_BASIC
 62
   150
420
    33023
370
    60
100
AcDbPolyline
 90
        2
 70
     0
 43
0.0
 10
-13.09976535831601
 20
86.82240899381956
 10
407.0631910548245
 20
86.82240899381956
  0
ARC
  5
BE
330
1F
100
AcDbEntity
  8
0
  6
K5LT_BASIC
 62
   150
420
    33023
370
    60
100
AcDbCircle
 10
-151.1491781775625
 20
92.82240899381961
 30
0.0
 40
11.99999999999999
100
AcDbArc
 50
29.89000636238659
 51
330.0000000000001
  0
SPLINE
  5
BF
330
1F
100
AcDbEntity
  8
0
  6
K5LT_BASIC
 62
   150
420
    33023
370
    60
100
AcDbSpline
210
0.0
220
0.0
230
1.0
 70
  1288
 71
     3
 72
     9
 73
     5
 74
     3
 42
0.000000001
 43
0.0
 40
0.0
 40
0.0
 40
0.0
 40
0.0
 40
2.233936538205082
 40
4.0
 40
4.0
 40
4.0
 40
4.0
 10
-140.7568733321493
 20
86.82240899381961
 30
0.0
 10
-132.3264771432131
 20
83.02576816961815
 30
0.0
 10
-94.47213903191822
 20
77.44607145946412
 30
0.0
 10
-70.66253216625793
 20
83.51354255270155
 30
0.0
 10
-57.98329694622851
 20
86.82240899381956
 30
0.0
  0
SPLINE
  5
C0
330
1F
100
AcDbEntity
  8
0
  6
K5LT_BASIC
 62
   150
420
    33023
370
    60
100
AcDbSpline
210
0.0
220
0.0
230
1.0
 70
  1288
 71
     3
 72
     9
 73
     5
 74
     3
 42
0.000000001
 43
0.0
 40
0.1068401267825034
 40
0.1068401267825034
 40
0.1068401267825034
 40
0.1068401267825034
 40
2.233936538205082
 40
3.969344184816168
 40
3.969344184816168
 40
3.969344184816168
 40
3.969344184816168
 10
-58.03076551585388
 20
98.73323480284111
 30
0.0
 10
-68.72901783901088
 20
102.5629901896208
 30
0.0
 10
-104.6839844532528
 20
107.0270293170398
 30
0.0
 10
-127.4817125818259
 20
101.915610172025
 30
0.0
 10
-140.7453739825538
 20
98.80244731074696
 30
0.0
  0
LINE
  5
C1
330
1F
100
AcDbEntity
  8
0
  6
K5LT32768
 62
   150
420
    33023
370
    60
100
AcDbLine
 10
-155.9763062639724
 20
86.57931073742641
 30
0.0
 11
-154.2558720361987
 21
91.41349481781434
 31
0.0
  0
LINE
  5
C2
330
1F
100
AcDbEntity
  8
0
  6
K5LT32768
 62
   150
420
    33023
370
    60
100
AcDbLine
 10
-151.0529484091596
 20
100.4132706642605
 30
0.0
 11
-149.1478993728658
 21
94.88049550902197
 31
0.0
  0
LINE
  5
C3
330
1F
100
AcDbEntity
  8
0
  6
K5LT32768
 62
   150
420
    33023
370
    60
100
AcDbLine
 10
-146.2896295886227
 20
86.57931073742641
 30
0.0
 11
-151.1491781775628
 21
89.52824840548303
 31
0.0
  0
LINE
  5
C4
330
1F
100
AcDbEntity
  8
0
  6
K5LT32768
 62
   150
420
    33023
370
    60
100
AcDbLine
 10
-158.8086449250888
 20
94.17627066426051
 30
0.0
 11
-152.9916111956069
 21
94.96589428207614
 31
0.0
  0
LINE
  5
C5
330
1F
100
AcDbEntity
  8
0
  6
K5LT32768
 62
   150
420
    33023
370
    60
100
AcDbLine
 10
-143.5408116004607
 20
94.17627066426051
 30
0.0
 11
-147.9730949717165
 21
91.46854732337869
 31
0.0
  0
LINE
  5
C6
330
1F
100
AcDbEntity
  8
0
  6
K5LT32768
 62
   150
420
    33023
370
    60
100
AcDbLine
 10
-152.9916111956074
 20
94.9658942820761
 30
0.0
 11
-151.0529484091596
 21
100.4132706642605
 31
0.0
  0
LINE
  5
C7
330
1F
100
AcDbEntity
  8
0
  6
K5LT32768
 62
   150
420
    33023
370
    60
100
AcDbLine
 10
-149.1478993728658
 20
94.88049550902197
 30
0.0
 11
-143.5408116004607
 21
94.17627066426051
 31
0.0
  0
LINE
  5
C8
330
1F
100
AcDbEntity
  8
0
  6
K5LT32768
 62
   150
420
    33023
370
    60
100
AcDbLine
 10
-147.9730949717165
 20
91.46854732337874
 30
0.0
 11
-146.2896295886227
 21
86.57931073742641
 31
0.0
  0
LINE
  5
C9
330
1F
100
AcDbEntity
  8
0
  6
K5LT32768
 62
   150
420
    33023
370
    60
100
AcDbLine
 10
-151.1491781775628
 20
89.52824840548308
 30
0.0
 11
-155.9763062639724
 21
86.57931073742641
 31
0.0
  0
LINE
  5
CA
330
1F
100
AcDbEntity
  8
0
  6
K5LT32768
 62
   150
420
    33023
370
    60
100
AcDbLine
 10
-154.2558720361987
 20
91.41349481781423
 30
0.0
 11
-158.8086449250888
 21
94.17627066426051
 31
0.0
  0
SPLINE
  5
CB
330
1F
100
AcDbEntity
  8
0
  6
K5LT32778
 62
   150
420
    33023
370
    60
100
AcDbSpline
210
0.0
220
0.0
230
1.0
 70
    11
 71
     3
 72
    23
 73
    19
 74
     0
 42
0.000000001
 43
0.0
 40
0.0
 40
0.0
 40
0.0
 40
0.0
 40
0.1428571428571428
 40
0.1428571428571428
 40
0.1428571428571428
 40
0.2857142857142857
 40
0.2857142857142857
 40
0.2857142857142857
 40
0.4285714285714285
 40
0.4285714285714285
 40
0.4285714285714285
 40
0.5714285714285714
 40
0.5714285714285714
 40
0.5714285714285714
 40
0.7142857142857143
 40
0.7142857142857143
 40
0.7142857142857143
 40
1.0
 40
1.0
 40
1.0
 40
1.0
 10
-100.3076853055351
 20
89.85716099381469
 30
0.0
 10
-101.5776213055362
 20
89.17776899381468
 30
0.0
 10
-101.6458773055357
 20
87.70983299382127
 30
0.0
 10
-100.5534933055362
 20
86.9963129938183
 30
0.0
 10
-98.90454930553614
 20
85.90738499381726
 30
0.0
 10
-97.71309330553612
 20
87.9215129938166
 30
0.0
 10
-98.46074130553615
 20
86.58663299381467
 30
0.0
 10
-99.3450453055354
 20
85.01285699381677
 30
0.0
 10
-103.5543093055355
 20
84.91392899382075
 30
0.0
 10
-103.4825973055355
 20
88.21167299381412
 30
0.0
 10
-103.4450133055354
 20
90.01080899381671
 30
0.0
 10
-101.5640853055358
 20
90.94968899381664
 30
0.0
 10
-99.71022930553607
 20
91.07597699381566
 30
0.0
 10
-99.71022930553607
 20
91.07597699381566
 30
0.0
 10
-99.71022930553607
 20
90.10642499381723
 30
0.0
 10
-99.71022930553607
 20
90.10642499381723
 30
0.0
 10
-99.92190930553596
 20
90.05184899381473
 30
0.0
 10
-100.1165973055355
 20
89.96300099381963
 30
0.0
 10
-100.3076853055351
 20
89.85716099381469
 30
0.0
  0
SPLINE
  5
CC
330
1F
100
AcDbEntity
  8
0
  6
K5LT32778
 62
   150
420
    33023
370
    60
100
AcDbSpline
210
0.0
220
0.0
230
1.0
 70
    11
 71
     3
 72
    23
 73
    19
 74
     0
 42
0.000000001
 43
0.0
 40
0.0
 40
0.0
 40
0.0
 40
0.0
 40
0.1428571428571428
 40
0.1428571428571428
 40
0.1428571428571428
 40
0.2857142857142857
 40
0.2857142857142857
 40
0.2857142857142857
 40
0.4285714285714285
 40
0.4285714285714285
 40
0.4285714285714285
 40
0.5714285714285714
 40
0.5714285714285714
 40
0.5714285714285714
 40
0.7142857142857143
 40
0.7142857142857143
 40
0.7142857142857143
 40
1.0
 40
1.0
 40
1.0
 40
1.0
 10
-98.47946130553527
 20
99.00044099381674
 30
0.0
 10
-97.72619730553578
 20
97.66167299381416
 30
0.0
 10
-98.91837330553534
 20
99.67421699381524
 30
0.0
 10
-100.5701973055354
 20
98.58960899381626
 30
0.0
 10
-101.6634453055355
 20
97.87565699381778
 30
0.0
 10
-101.5913013055358
 20
96.40224899381818
 30
0.0
 10
-100.3261173055354
 20
95.72372099381576
 30
0.0
 10
-100.1314293055358
 20
95.62464899381715
 30
0.0
 10
-99.92234130553578
 20
95.54516099381479
 30
0.0
 10
-99.71152530553599
 20
95.49879299382022
 30
0.0
 10
-99.71152530553599
 20
95.49879299382022
 30
0.0
 10
-99.71325330553572
 20
94.51944899381422
 30
0.0
 10
-99.71325330553572
 20
94.51944899381422
 30
0.0
 10
-101.5750293055359
 20
94.6441529938202
 30
0.0
 10
-103.4594133055359
 20
95.5696409938187
 30
0.0
 10
-103.4964213055356
 20
97.37309699381629
 30
0.0
 10
-103.5694293055355
 20
100.6681049938202
 30
0.0
 10
-99.36448530553542
 20
100.5716249938148
 30
0.0
 10
-98.47946130553527
 20
99.00044099381674
 30
0.0
  0
SPLINE
  5
CD
330
1F
100
AcDbEntity
  8
0
  6
K5LT32778
 62
   150
420
    33023
370
    60
100
AcDbSpline
210
0.0
220
0.0
230
1.0
 70
    11
 71
     3
 72
    26
 73
    22
 74
     0
 42
0.000000001
 43
0.0
 40
0.0
 40
0.0
 40
0.0
 40
0.0
 40
0.125
 40
0.125
 40
0.125
 40
0.25
 40
0.25
 40
0.25
 40
0.375
 40
0.375
 40
0.375
 40
0.5
 40
0.5
 40
0.5
 40
0.6250000000000001
 40
0.6250000000000001
 40
0.6250000000000001
 40
0.75
 40
0.75
 40
0.75
 40
1.0
 40
1.0
 40
1.0
 40
1.0
 10
-105.0665204808449
 20
91.71980099680538
 30
0.0
 10
-106.9373684808445
 20
91.22818499680876
 30
0.0
 10
-107.0944724808449
 20
89.94456899680837
 30
0.0
 10
-108.5419604808451
 20
90.02650499680796
 30
0.0
 10
-109.5354164808448
 20
90.08108099680386
 30
0.0
 10
-111.9148724808445
 20
92.81909699680638
 30
0.0
 10
-114.8166164808442
 20
92.81909699680638
 30
0.0
 10
-111.9148724808445
 20
92.81909699680638
 30
0.0
 10
-109.5354164808448
 20
95.55020099680634
 30
0.0
 10
-108.5419604808451
 20
95.60823299680739
 30
0.0
 10
-107.0910164808445
 20
95.69016899680675
 30
0.0
 10
-106.9408244808444
 20
94.40655299680635
 30
0.0
 10
-105.0699764808444
 20
93.91493699680338
 30
0.0
 10
-104.6159444808448
 20
93.79541699680387
 30
0.0
 10
-103.8000404808443
 20
93.62477699680541
 30
0.0
 10
-102.919192480844
 20
93.55983299680885
 30
0.0
 10
-102.919192480844
 20
93.55983299680885
 30
0.0
 10
-102.919192480844
 20
92.06108099680843
 30
0.0
 10
-102.919192480844
 20
92.06108099680843
 30
0.0
 10
-103.8000404808443
 20
91.99282499680386
 30
0.0
 10
-104.6124884808444
 20
91.83932099680489
 30
0.0
 10
-105.0665204808449
 20
91.71980099680538
 30
0.0
  0
LWPOLYLINE
  5
CE
330
1F
100
AcDbEntity
  8
0
  6
K5LT32774
 62
   150
420
    33023
370
    60
100
AcDbPolyline
 90
        8
 70
     1
 43
0.0
 10
-97.79795966109644
 20
89.6345781654408
 10
-98.23067028079454
 20
89.63291894593826
 42
-0.4157497827248178
 10
-98.45653280915643
 20
89.85823401852637
 10
-98.4481876159458
 20
95.78658396911275
 42
-0.4131806092842389
 10
-98.22366491396973
 20
96.01126673665037
 10
-97.78636945613066
 20
96.01219395106415
 42
-0.4154740490049658
 10
-97.56089291632155
 20
95.78670366102021
 10
-97.57382294767308
 20
89.8590857155222
 42
-0.4124526779820905
  0
SPLINE
  5
CF
330
1F
100
AcDbEntity
  8
0
  6
K5LT32778
 62
   150
420
    33023
370
    60
100
AcDbSpline
210
0.0
220
0.0
230
1.0
 70
    11
 71
     3
 72
    20
 73
    16
 74
     0
 42
0.000000001
 43
0.0
 40
0.0
 40
0.0
 40
0.0
 40
0.0
 40
0.1666666666666667
 40
0.1666666666666667
 40
0.1666666666666667
 40
0.3333333333333333
 40
0.3333333333333333
 40
0.3333333333333333
 40
0.5
 40
0.5
 40
0.5
 40
0.6666666666666666
 40
0.6666666666666666
 40
0.6666666666666666
 40
1.0
 40
1.0
 40
1.0
 40
1.0
 10
-94.42197795019554
 20
89.75803308280175
 30
0.0
 10
-94.20007395019509
 20
89.29377708280177
 30
0.0
 10
-94.534585950195
 20
88.62460908279823
 30
0.0
 10
-95.02965795019516
 20
88.60084908280228
 30
0.0
 10
-95.5928419501948
 20
88.57694508280375
 30
0.0
 10
-96.0196579501954
 20
89.21184108280173
 30
0.0
 10
-95.59629795019517
 20
89.74780908279777
 30
0.0
 10
-95.54172195019471
 20
89.81606508280234
 30
0.0
 10
-95.7328099501952
 20
89.96294508279826
 30
0.0
 10
-96.15271395019506
 20
90.0720970827978
 30
0.0
 10
-96.15271395019506
 20
90.0720970827978
 30
0.0
 10
-96.15616995019543
 20
90.98376108279777
 30
0.0
 10
-96.15616995019543
 20
90.98376108279777
 30
0.0
 10
-95.35394595019496
 20
90.7788490828008
 30
0.0
 10
-94.71559395019501
 20
90.34180908280078
 30
0.0
 10
-94.42197795019554
 20
89.75803308280175
 30
0.0
  0
SPLINE
  5
D0
330
1F
100
AcDbEntity
  8
0
  6
K5LT32778
 62
   150
420
    33023
370
    60
100
AcDbSpline
210
0.0
220
0.0
230
1.0
 70
    11
 71
     3
 72
    20
 73
    16
 74
     0
 42
0.000000001
 43
0.0
 40
0.0
 40
0.0
 40
0.0
 40
0.0
 40
0.1666666666666667
 40
0.1666666666666667
 40
0.1666666666666667
 40
0.3333333333333334
 40
0.3333333333333334
 40
0.3333333333333334
 40
0.5
 40
0.5
 40
0.5
 40
0.6666666666666666
 40
0.6666666666666666
 40
0.6666666666666666
 40
1.0
 40
1.0
 40
1.0
 40
1.0
 10
-95.62437795019476
 20
95.8896970827972
 30
0.0
 10
-96.08186595019568
 20
96.41198508279822
 30
0.0
 10
-95.56980195019521
 20
97.12550508280074
 30
0.0
 10
-95.0303779501947
 20
97.02988908279977
 30
0.0
 10
-94.52162595019497
 20
96.94118508280181
 30
0.0
 10
-94.22815395019514
 20
96.30628908280315
 30
0.0
 10
-94.44314595019485
 20
95.89315308280166
 30
0.0
 10
-94.69917795019553
 20
95.29915308279865
 30
0.0
 10
-95.3546659501945
 20
94.88947308280186
 30
0.0
 10
-96.16034595019535
 20
94.68124908280325
 30
0.0
 10
-96.16034595019535
 20
94.68124908280325
 30
0.0
 10
-96.16380195019481
 20
95.56886508280232
 30
0.0
 10
-96.16380195019481
 20
95.56886508280232
 30
0.0
 10
-95.64151395019469
 20
95.66433708280024
 30
0.0
 10
-95.54244195019517
 20
95.80099308279878
 30
0.0
 10
-95.62437795019476
 20
95.8896970827972
 30
0.0
  0
SPLINE
  5
D1
330
1F
100
AcDbEntity
  8
0
  6
K5LT32778
 62
   150
420
    33023
370
    60
100
AcDbSpline
210
0.0
220
0.0
230
1.0
 70
    11
 71
     3
 72
    26
 73
    22
 74
     0
 42
0.000000001
 43
0.0
 40
0.0
 40
0.0
 40
0.0
 40
0.0
 40
0.125
 40
0.125
 40
0.125
 40
0.25
 40
0.25
 40
0.25
 40
0.375
 40
0.375
 40
0.375
 40
0.5
 40
0.5
 40
0.5
 40
0.625
 40
0.625
 40
0.625
 40
0.75
 40
0.75
 40
0.75
 40
1.0
 40
1.0
 40
1.0
 40
1.0
 10
-93.84803487276507
 20
93.89083308279865
 30
0.0
 10
-92.9861948727655
 20
94.25803308280175
 30
0.0
 10
-92.54051487276523
 20
95.41348908279829
 30
0.0
 10
-92.00109087276518
 20
94.83993708280232
 30
0.0
 10
-91.10670687276546
 20
93.88752108280383
 30
0.0
 10
-89.91525087276453
 20
93.17400108280131
 30
0.0
 10
-87.96592287276529
 20
92.8530250828027
 30
0.0
 10
-89.91179487276507
 20
92.53564908279864
 30
0.0
 10
-91.09979487276517
 20
91.81521708280016
 30
0.0
 10
-92.00109087276518
 20
90.86280108280167
 30
0.0
 10
-92.54051487276523
 20
90.28248108280027
 30
0.0
 10
-93.05257887276478
 20
91.45680108279831
 30
0.0
 10
-93.84803487276507
 20
91.81176108280275
 30
0.0
 10
-94.12120287276569
 20
91.93128108280226
 30
0.0
 10
-94.43181087276547
 20
92.02689708280278
 30
0.0
 10
-94.77654687276502
 20
92.0747050828003
 30
0.0
 10
-94.77654687276502
 20
92.0747050828003
 30
0.0
 10
-94.7800028727654
 20
93.65539308280032
 30
0.0
 10
-94.7800028727654
 20
93.65539308280032
 30
0.0
 10
-94.44203487276512
 20
93.70305708280117
 30
0.0
 10
-94.11904287276523
 20
93.7835530827978
 30
0.0
 10
-93.84803487276507
 20
93.89083308279865
 30
0.0
  0
LINE
  5
D2
330
1F
100
AcDbEntity
  8
0
  6
K5LT_BASIC
 62
   150
420
    33023
370
    60
100
AcDbLine
 10
-42.93680894517553
 20
104.8224089938196
 30
0.0
 11
-13.09976535831601
 21
98.82240899381956
 31
0.0
  0
LINE
  5
D3
330
1F
100
AcDbEntity
  8
0
  6
K5LT_BASIC
 62
   150
420
    33023
370
    60
100
AcDbLine
 10
-42.93680894517553
 20
104.8224089938196
 30
0.0
 11
-13.09976535831601
 21
110.8224089938196
 31
0.0
  0
LINE
  5
D4
330
1F
100
AcDbEntity
  8
0
  6
K5LT_BASIC
 62
   150
420
    33023
370
    60
100
AcDbLine
 10
407.0631910548245
 20
98.82240899381951
 30
0.0
 11
443.6134508329902
 21
98.82240899381951
 31
0.0
  0
LINE
  5
D5
330
1F
100
AcDbEntity
  8
0
  6
K5LT_BASIC
 62
   150
420
    33023
370
    60
100
AcDbLine
 10
407.0631910548245
 20
110.8224089938195
 30
0.0
 11
443.6134508329902
 21
110.8224089938195
 31
0.0
  0
SPLINE
  5
D6
330
1F
100
AcDbEntity
  8
0
  6
K5LT_BASIC
 62
   150
420
    33023
370
    60
100
AcDbSpline
210
0.0
220
0.0
230
1.0
 70
  1288
 71
     3
 72
     8
 73
     4
 74
     2
 42
0.000000001
 43
0.0
 40
0.0
 40
0.0
 40
0.0
 40
0.0
 40
2.0
 40
2.0
 40
2.0
 40
2.0
 10
443.6134508329902
 20
98.82240899381951
 30
0.0
 10
443.578566193733
 20
93.91965241417392
 30
0.0
 10
444.3614269033051
 20
89.184898772024
 30
0.0
 10
445.9620329617065
 20
84.61814806736972
 30
0.0
  0
SPLINE
  5
D7
330
1F
100
AcDbEntity
  8
0
  6
K5LT_BASIC
 62
   150
420
    33023
370
    60
100
AcDbSpline
210
0.0
220
0.0
230
1.0
 70
  1288
 71
     3
 72
     9
 73
     5
 74
     3
 42
0.000000001
 43
0.0
 40
0.0
 40
0.0
 40
0.0
 40
0.0
 40
1.906351921744784
 40
3.885029020831794
 40
3.885029020831794
 40
3.885029020831794
 40
3.885029020831794
 10
452.5672587858098
 20
89.71041666666649
 30
0.0
 10
451.2371823605941
 20
90.86488882472399
 30
0.0
 10
449.9075080182805
 20
94.54338840471851
 30
0.0
 10
450.6455119448531
 20
97.18733527608609
 30
0.0
 10
451.9941912136263
 20
98.9115831843682
 30
0.0
  0
ARC
  5
D8
330
1F
100
AcDbEntity
  8
0
  6
K5LT_BASIC
 62
   150
420
    33023
370
    60
100
AcDbCircle
 10
450.1626412683508
 20
85.99948474202466
 30
0.0
 40
4.421900174653018
100
AcDbArc
 50
198.2030393714588
 51
57.0574842295392
  0
SPLINE
  5
D9
330
1F
100
AcDbEntity
  8
0
  6
K5LT_BASIC
 62
   150
420
    33023
370
    60
100
AcDbSpline
210
0.0
220
0.0
230
1.0
 70
  1288
 71
     3
 72
     8
 73
     4
 74
     2
 42
0.000000001
 43
0.0
 40
0.0
 40
0.0
 40
0.0
 40
0.0
 40
2.0
 40
2.0
 40
2.0
 40
2.0
 10
443.6134508329902
 20
110.8224089938195
 30
0.0
 10
443.578566193733
 20
115.7251655734651
 30
0.0
 10
444.3614269033051
 20
120.459919215615
 30
0.0
 10
445.9620329617065
 20
125.0266699202693
 30
0.0
  0
SPLINE
  5
DA
330
1F
100
AcDbEntity
  8
0
  6
K5LT_BASIC
 62
   150
420
    33023
370
    60
100
AcDbSpline
210
0.0
220
0.0
230
1.0
 70
  1288
 71
     3
 72
     9
 73
     5
 74
     3
 42
0.000000001
 43
0.0
 40
0.0
 40
0.0
 40
0.0
 40
0.0
 40
1.906351921744784
 40
4.0
 40
4.0
 40
4.0
 40
4.0
 10
452.5672587858098
 20
119.9344013209725
 30
0.0
 10
451.2499955702285
 20
118.762683449159
 30
0.0
 10
449.8123955407106
 20
115.0676236925734
 30
0.0
 10
450.8094116982745
 20
112.1425318652536
 30
0.0
 10
451.9467226476402
 20
110.8224089938195
 30
0.0
  0
ARC
  5
DB
330
1F
100
AcDbEntity
  8
0
  6
K5LT_BASIC
 62
   150
420
    33023
370
    60
100
AcDbCircle
 10
450.1626412683508
 20
123.6453332456144
 30
0.0
 40
4.421900174653018
100
AcDbArc
 50
302.9425157704608
 51
161.7969606285412
  0
LWPOLYLINE
  5
DC
330
1F
100
AcDbEntity
  8
0
  6
K5LT_BASIC
 62
   150
420
    33023
370
    60
100
AcDbPolyline
 90
        2
 70
     0
 43
0.0
 10
407.0631910548245
 20
110.8224089938195
 10
-13.09976535831601
 20
110.8224089938196
  0
ARC
  5
DD
330
1F
100
AcDbEntity
  8
0
  6
K5LT_BASIC
 62
   150
420
    33023
370
    60
100
AcDbCircle
 10
545.1126038740708
 20
104.8224089938195
 30
0.0
 40
11.99999999999999
100
AcDbArc
 50
209.8900063623866
 51
150.0
  0
SPLINE
  5
DE
330
1F
100
AcDbEntity
  8
0
  6
K5LT_BASIC
 62
   150
420
    33023
370
    60
100
AcDbSpline
210
0.0
220
0.0
230
1.0
 70
  1288
 71
     3
 72
     9
 73
     5
 74
     3
 42
0.000000001
 43
0.0
 40
0.0
 40
0.0
 40
0.0
 40
0.0
 40
2.233936538205082
 40
4.0
 40
4.0
 40
4.0
 40
4.0
 10
534.7202990286576
 20
110.8224089938195
 30
0.0
 10
526.2899028397214
 20
114.6190498180209
 30
0.0
 10
488.4355647284266
 20
120.198746528175
 30
0.0
 10
464.6259578627663
 20
114.1312754349375
 30
0.0
 10
451.9467226427369
 20
110.8224089938195
 30
0.0
  0
SPLINE
  5
DF
330
1F
100
AcDbEntity
  8
0
  6
K5LT_BASIC
 62
   150
420
    33023
370
    60
100
AcDbSpline
210
0.0
220
0.0
230
1.0
 70
  1288
 71
     3
 72
     9
 73
     5
 74
     3
 42
0.000000001
 43
0.0
 40
0.1068401267825034
 40
0.1068401267825034
 40
0.1068401267825034
 40
0.1068401267825034
 40
2.233936538205082
 40
3.969344184816168
 40
3.969344184816168
 40
3.969344184816168
 40
3.969344184816168
 10
451.9941912123623
 20
98.91158318479796
 30
0.0
 10
462.6924435355194
 20
95.08182779801822
 30
0.0
 10
498.6474101497612
 20
90.6177886705993
 30
0.0
 10
521.4451382783343
 20
95.72920781561409
 30
0.0
 10
534.7087996790622
 20
98.8423706768921
 30
0.0
  0
LINE
  5
E0
330
1F
100
AcDbEntity
  8
0
  6
K5LT32768
 62
   150
420
    33023
370
    60
100
AcDbLine
 10
549.9397319604807
 20
111.0655072502126
 30
0.0
 11
548.219297732707
 21
106.2313231698247
 31
0.0
  0
LINE
  5
E1
330
1F
100
AcDbEntity
  8
0
  6
K5LT32768
 62
   150
420
    33023
370
    60
100
AcDbLine
 10
545.0163741056679
 20
97.23154732337852
 30
0.0
 11
543.1113250693741
 21
102.7643224786171
 31
0.0
  0
LINE
  5
E2
330
1F
100
AcDbEntity
  8
0
  6
K5LT32768
 62
   150
420
    33023
370
    60
100
AcDbLine
 10
540.253055285131
 20
111.0655072502126
 30
0.0
 11
545.112603874071
 21
108.116569582156
 31
0.0
  0
LINE
  5
E3
330
1F
100
AcDbEntity
  8
0
  6
K5LT32768
 62
   150
420
    33023
370
    60
100
AcDbLine
 10
552.7720706215971
 20
103.4685473233785
 30
0.0
 11
546.9550368921152
 21
102.6789237055629
 31
0.0
  0
LINE
  5
E4
330
1F
100
AcDbEntity
  8
0
  6
K5LT32768
 62
   150
420
    33023
370
    60
100
AcDbLine
 10
537.504237296969
 20
103.4685473233785
 30
0.0
 11
541.9365206682248
 21
106.1762706642604
 31
0.0
  0
LINE
  5
E5
330
1F
100
AcDbEntity
  8
0
  6
K5LT32768
 62
   150
420
    33023
370
    60
100
AcDbLine
 10
546.9550368921157
 20
102.678923705563
 30
0.0
 11
545.0163741056679
 21
97.23154732337852
 31
0.0
  0
LINE
  5
E6
330
1F
100
AcDbEntity
  8
0
  6
K5LT32768
 62
   150
420
    33023
370
    60
100
AcDbLine
 10
543.1113250693741
 20
102.7643224786171
 30
0.0
 11
537.504237296969
 21
103.4685473233785
 31
0.0
  0
LINE
  5
E7
330
1F
100
AcDbEntity
  8
0
  6
K5LT32768
 62
   150
420
    33023
370
    60
100
AcDbLine
 10
541.9365206682248
 20
106.1762706642603
 30
0.0
 11
540.253055285131
 21
111.0655072502126
 31
0.0
  0
LINE
  5
E8
330
1F
100
AcDbEntity
  8
0
  6
K5LT32768
 62
   150
420
    33023
370
    60
100
AcDbLine
 10
545.112603874071
 20
108.116569582156
 30
0.0
 11
549.9397319604807
 21
111.0655072502126
 31
0.0
  0
LINE
  5
E9
330
1F
100
AcDbEntity
  8
0
  6
K5LT32768
 62
   150
420
    33023
370
    60
100
AcDbLine
 10
548.219297732707
 20
106.2313231698248
 30
0.0
 11
552.7720706215971
 21
103.4685473233785
 31
0.0
  0
SPLINE
  5
EA
330
1F
100
AcDbEntity
  8
0
  6
K5LT32778
 62
   150
420
    33023
370
    60
100
AcDbSpline
210
0.0
220
0.0
230
1.0
 70
    11
 71
     3
 72
    23
 73
    19
 74
     0
 42
0.000000001
 43
0.0
 40
0.0
 40
0.0
 40
0.0
 40
0.0
 40
0.1428571428571428
 40
0.1428571428571428
 40
0.1428571428571428
 40
0.2857142857142857
 40
0.2857142857142857
 40
0.2857142857142857
 40
0.4285714285714285
 40
0.4285714285714285
 40
0.4285714285714285
 40
0.5714285714285714
 40
0.5714285714285714
 40
0.5714285714285714
 40
0.7142857142857143
 40
0.7142857142857143
 40
0.7142857142857143
 40
1.0
 40
1.0
 40
1.0
 40
1.0
 10
494.2711110020435
 20
107.7876569938244
 30
0.0
 10
495.5410470020446
 20
108.4670489938244
 30
0.0
 10
495.6093030020442
 20
109.9349849938178
 30
0.0
 10
494.5169190020446
 20
110.6485049938208
 30
0.0
 10
492.8679750020445
 20
111.7374329938218
 30
0.0
 10
491.6765190020445
 20
109.7233049938225
 30
0.0
 10
492.4241670020446
 20
111.0581849938244
 30
0.0
 10
493.3084710020438
 20
112.6319609938223
 30
0.0
 10
497.5177350020439
 20
112.7308889938183
 30
0.0
 10
497.4460230020439
 20
109.4331449938249
 30
0.0
 10
497.4084390020438
 20
107.6340089938223
 30
0.0
 10
495.5275110020442
 20
106.6951289938224
 30
0.0
 10
493.6736550020445
 20
106.5688409938234
 30
0.0
 10
493.6736550020445
 20
106.5688409938234
 30
0.0
 10
493.6736550020445
 20
107.5383929938218
 30
0.0
 10
493.6736550020445
 20
107.5383929938218
 30
0.0
 10
493.8853350020444
 20
107.5929689938243
 30
0.0
 10
494.080023002044
 20
107.6818169938194
 30
0.0
 10
494.2711110020435
 20
107.7876569938244
 30
0.0
  0
SPLINE
  5
EB
330
1F
100
AcDbEntity
  8
0
  6
K5LT32778
 62
   150
420
    33023
370
    60
100
AcDbSpline
210
0.0
220
0.0
230
1.0
 70
    11
 71
     3
 72
    23
 73
    19
 74
     0
 42
0.000000001
 43
0.0
 40
0.0
 40
0.0
 40
0.0
 40
0.0
 40
0.1428571428571428
 40
0.1428571428571428
 40
0.1428571428571428
 40
0.2857142857142857
 40
0.2857142857142857
 40
0.2857142857142857
 40
0.4285714285714285
 40
0.4285714285714285
 40
0.4285714285714285
 40
0.5714285714285714
 40
0.5714285714285714
 40
0.5714285714285714
 40
0.7142857142857143
 40
0.7142857142857143
 40
0.7142857142857143
 40
1.0
 40
1.0
 40
1.0
 40
1.0
 10
492.4428870020437
 20
98.64437699382232
 30
0.0
 10
491.6896230020442
 20
99.9831449938249
 30
0.0
 10
492.8817990020437
 20
97.97060099382382
 30
0.0
 10
494.5336230020438
 20
99.0552089938228
 30
0.0
 10
495.6268710020439
 20
99.76916099382127
 30
0.0
 10
495.5547270020442
 20
101.2425689938209
 30
0.0
 10
494.2895430020438
 20
101.9210969938233
 30
0.0
 10
494.0948550020443
 20
102.0201689938219
 30
0.0
 10
493.8857670020442
 20
102.0996569938243
 30
0.0
 10
493.6749510020444
 20
102.1460249938188
 30
0.0
 10
493.6749510020444
 20
102.1460249938188
 30
0.0
 10
493.6766790020441
 20
103.1253689938248
 30
0.0
 10
493.6766790020441
 20
103.1253689938248
 30
0.0
 10
495.5384550020443
 20
103.0006649938189
 30
0.0
 10
497.4228390020443
 20
102.0751769938204
 30
0.0
 10
497.4598470020441
 20
100.2717209938228
 30
0.0
 10
497.5328550020439
 20
96.97671299381885
 30
0.0
 10
493.3279110020438
 20
97.07319299382424
 30
0.0
 10
492.4428870020437
 20
98.64437699382232
 30
0.0
  0
SPLINE
  5
EC
330
1F
100
AcDbEntity
  8
0
  6
K5LT32778
 62
   150
420
    33023
370
    60
100
AcDbSpline
210
0.0
220
0.0
230
1.0
 70
    11
 71
     3
 72
    26
 73
    22
 74
     0
 42
0.000000001
 43
0.0
 40
0.0
 40
0.0
 40
0.0
 40
0.0
 40
0.125
 40
0.125
 40
0.125
 40
0.25
 40
0.25
 40
0.25
 40
0.375
 40
0.375
 40
0.375
 40
0.5
 40
0.5
 40
0.5
 40
0.6250000000000001
 40
0.6250000000000001
 40
0.6250000000000001
 40
0.75
 40
0.75
 40
0.75
 40
1.0
 40
1.0
 40
1.0
 40
1.0
 10
499.0299461773532
 20
105.9250169908337
 30
0.0
 10
500.9007941773528
 20
106.4166329908303
 30
0.0
 10
501.0578981773534
 20
107.7002489908307
 30
0.0
 10
502.5053861773536
 20
107.6183129908311
 30
0.0
 10
503.4988421773533
 20
107.5637369908352
 30
0.0
 10
505.8782981773527
 20
104.8257209908327
 30
0.0
 10
508.7800421773525
 20
104.8257209908327
 30
0.0
 10
505.8782981773527
 20
104.8257209908327
 30
0.0
 10
503.4988421773531
 20
102.0946169908327
 30
0.0
 10
502.5053861773534
 20
102.0365849908317
 30
0.0
 10
501.0544421773528
 20
101.9546489908323
 30
0.0
 10
500.9042501773527
 20
103.2382649908327
 30
0.0
 10
499.0334021773527
 20
103.7298809908357
 30
0.0
 10
498.5793701773531
 20
103.8494009908352
 30
0.0
 10
497.7634661773526
 20
104.0200409908336
 30
0.0
 10
496.8826181773524
 20
104.0849849908302
 30
0.0
 10
496.8826181773524
 20
104.0849849908302
 30
0.0
 10
496.8826181773524
 20
105.5837369908306
 30
0.0
 10
496.8826181773524
 20
105.5837369908306
 30
0.0
 10
497.7634661773526
 20
105.6519929908352
 30
0.0
 10
498.5759141773527
 20
105.8054969908342
 30
0.0
 10
499.0299461773532
 20
105.9250169908337
 30
0.0
  0
LWPOLYLINE
  5
ED
330
1F
100
AcDbEntity
  8
0
  6
K5LT32774
 62
   150
420
    33023
370
    60
100
AcDbPolyline
 90
        8
 70
     1
 43
0.0
 10
491.7613853576048
 20
108.0102398221983
 10
492.1940959773029
 20
108.0118990417008
 42
-0.4157497827248181
 10
492.4199585056648
 20
107.7865839691127
 10
492.4116133124542
 20
101.8582340185263
 42
-0.4131806092842388
 10
492.1870906104781
 20
101.6335512509887
 10
491.749795152639
 20
101.6326240365749
 42
-0.4154740490049659
 10
491.5243186128299
 20
101.8581143266189
 10
491.5372486441814
 20
107.7857322721169
 42
-0.4124526779820904
  0
SPLINE
  5
EE
330
1F
100
AcDbEntity
  8
0
  6
K5LT32778
 62
   150
420
    33023
370
    60
100
AcDbSpline
210
0.0
220
0.0
230
1.0
 70
    11
 71
     3
 72
    20
 73
    16
 74
     0
 42
0.000000001
 43
0.0
 40
0.0
 40
0.0
 40
0.0
 40
0.0
 40
0.1666666666666667
 40
0.1666666666666667
 40
0.1666666666666667
 40
0.3333333333333333
 40
0.3333333333333333
 40
0.3333333333333333
 40
0.5
 40
0.5
 40
0.5
 40
0.6666666666666666
 40
0.6666666666666666
 40
0.6666666666666666
 40
1.0
 40
1.0
 40
1.0
 40
1.0
 10
488.385403646704
 20
107.8867849048373
 30
0.0
 10
488.1634996467036
 20
108.3510409048373
 30
0.0
 10
488.4980116467035
 20
109.0202089048408
 30
0.0
 10
488.9930836467037
 20
109.0439689048368
 30
0.0
 10
489.5562676467033
 20
109.0678729048353
 30
0.0
 10
489.9830836467039
 20
108.4329769048373
 30
0.0
 10
489.5597236467037
 20
107.8970089048413
 30
0.0
 10
489.5051476467032
 20
107.8287529048367
 30
0.0
 10
489.6962356467037
 20
107.6818729048408
 30
0.0
 10
490.1161396467036
 20
107.5727209048413
 30
0.0
 10
490.1161396467036
 20
107.5727209048413
 30
0.0
 10
490.1195956467039
 20
106.6610569048413
 30
0.0
 10
490.1195956467039
 20
106.6610569048413
 30
0.0
 10
489.3173716467035
 20
106.8659689048383
 30
0.0
 10
488.6790196467035
 20
107.3030089048383
 30
0.0
 10
488.385403646704
 20
107.8867849048373
 30
0.0
  0
SPLINE
  5
EF
330
1F
100
AcDbEntity
  8
0
  6
K5LT32778
 62
   150
420
    33023
370
    60
100
AcDbSpline
210
0.0
220
0.0
230
1.0
 70
    11
 71
     3
 72
    20
 73
    16
 74
     0
 42
0.000000001
 43
0.0
 40
0.0
 40
0.0
 40
0.0
 40
0.0
 40
0.1666666666666667
 40
0.1666666666666667
 40
0.1666666666666667
 40
0.3333333333333334
 40
0.3333333333333334
 40
0.3333333333333334
 40
0.5
 40
0.5
 40
0.5
 40
0.6666666666666666
 40
0.6666666666666666
 40
0.6666666666666666
 40
1.0
 40
1.0
 40
1.0
 40
1.0
 10
489.5878036467033
 20
101.7551209048419
 30
0.0
 10
490.0452916467042
 20
101.2328329048408
 30
0.0
 10
489.5332276467037
 20
100.5193129048383
 30
0.0
 10
488.9938036467032
 20
100.6149289048393
 30
0.0
 10
488.4850516467035
 20
100.7036329048372
 30
0.0
 10
488.1915796467036
 20
101.3385289048359
 30
0.0
 10
488.4065716467034
 20
101.7516649048374
 30
0.0
 10
488.662603646704
 20
102.3456649048404
 30
0.0
 10
489.318091646703
 20
102.7553449048372
 30
0.0
 10
490.1237716467039
 20
102.9635689048358
 30
0.0
 10
490.1237716467039
 20
102.9635689048358
 30
0.0
 10
490.1272276467033
 20
102.0759529048367
 30
0.0
 10
490.1272276467033
 20
102.0759529048367
 30
0.0
 10
489.6049396467032
 20
101.9804809048388
 30
0.0
 10
489.5058676467037
 20
101.8438249048403
 30
0.0
 10
489.5878036467033
 20
101.7551209048419
 30
0.0
  0
SPLINE
  5
F0
330
1F
100
AcDbEntity
  8
0
  6
K5LT32778
 62
   150
420
    33023
370
    60
100
AcDbSpline
210
0.0
220
0.0
230
1.0
 70
    11
 71
     3
 72
    26
 73
    22
 74
     0
 42
0.000000001
 43
0.0
 40
0.0
 40
0.0
 40
0.0
 40
0.0
 40
0.125
 40
0.125
 40
0.125
 40
0.25
 40
0.25
 40
0.25
 40
0.375
 40
0.375
 40
0.375
 40
0.5
 40
0.5
 40
0.5
 40
0.625
 40
0.625
 40
0.625
 40
0.75
 40
0.75
 40
0.75
 40
1.0
 40
1.0
 40
1.0
 40
1.0
 10
487.8114605692734
 20
103.7539849048404
 30
0.0
 10
486.9496205692739
 20
103.3867849048373
 30
0.0
 10
486.5039405692736
 20
102.2313289048408
 30
0.0
 10
485.9645165692735
 20
102.8048809048367
 30
0.0
 10
485.0701325692738
 20
103.7572969048352
 30
0.0
 10
483.8786765692729
 20
104.4708169048377
 30
0.0
 10
481.9293485692737
 20
104.7917929048364
 30
0.0
 10
483.8752205692734
 20
105.1091689048404
 30
0.0
 10
485.0632205692735
 20
105.8296009048389
 30
0.0
 10
485.9645165692735
 20
106.7820169048374
 30
0.0
 10
486.5039405692736
 20
107.3623369048388
 30
0.0
 10
487.0160045692732
 20
106.1880169048408
 30
0.0
 10
487.8114605692734
 20
105.8330569048363
 30
0.0
 10
488.0846285692741
 20
105.7135369048368
 30
0.0
 10
488.3952365692738
 20
105.6179209048363
 30
0.0
 10
488.7399725692734
 20
105.5701129048388
 30
0.0
 10
488.7399725692734
 20
105.5701129048388
 30
0.0
 10
488.7434285692738
 20
103.9894249048387
 30
0.0
 10
488.7434285692738
 20
103.9894249048387
 30
0.0
 10
488.4054605692735
 20
103.9417609048379
 30
0.0
 10
488.0824685692736
 20
103.8612649048413
 30
0.0
 10
487.8114605692734
 20
103.7539849048404
 30
0.0
  0
LWPOLYLINE
  5
F1
330
1F
100
AcDbEntity
  8
0
  6
K5LT_BASIC
 62
   150
420
    33023
370
    60
100
AcDbPolyline
 90
        2
 70
     0
 43
0.0
 10
407.0631910548245
 20
98.82240899381956
 10
-13.09976535831601
 20
98.82240899381956
  0
ENDSEC
  0
SECTION
  2
OBJECTS
  0
DICTIONARY
  5
C
330
0
100
AcDbDictionary
281
     1
  3
ACAD_DETAILVIEWSTYLE
350
F9
  3
ACAD_GROUP
350
D
  3
ACAD_LAYOUT
350
1A
  3
ACAD_MATERIAL
350
43
  3
ACAD_MLEADERSTYLE
350
6B
  3
ACAD_MLINESTYLE
350
17
  3
ACAD_PLOTSETTINGS
350
19
  3
ACAD_PLOTSTYLENAME
350
E
  3
ACAD_SCALELIST
350
47
  3
ACAD_SECTIONVIEWSTYLE
350
FA
  3
ACAD_TABLESTYLE
350
69
  3
ACAD_VISUALSTYLE
350
2A
  3
ACDB_RECOMPOSE_DATA
350
F6
  3
AcDbVariableDictionary
350
F2
  0
SUN
  5
6D
330
29
100
AcDbSun
 90
        1
290
     0
 63
     7
421
 16777215
 40
1.0
291
     1
 91
  2455826
 92
 54000000
292
     0
 70
     2
 71
   256
280
     1
  0
DICTIONARY
  5
F9
102
{ACAD_REACTORS
330
C
102
}
330
C
100
AcDbDictionary
281
     1
  0
DICTIONARY
  5
D
102
{ACAD_REACTORS
330
C
102
}
330
C
100
AcDbDictionary
281
     1
  0
DICTIONARY
  5
1A
102
{ACAD_REACTORS
330
C
102
}
330
C
100
AcDbDictionary
281
     1
  3
Layout1
350
1E
  3
Layout2
350
26
  3
Model
350
22
  0
DICTIONARY
  5
43
102
{ACAD_REACTORS
330
C
102
}
330
C
100
AcDbDictionary
281
     1
  3
ByBlock
350
45
  3
ByLayer
350
44
  3
Global
350
46
  0
DICTIONARY
  5
6B
102
{ACAD_REACTORS
330
C
102
}
330
C
100
AcDbDictionary
281
     1
  3
Standard
350
6C
  0
DICTIONARY
  5
17
102
{ACAD_REACTORS
330
C
102
}
330
C
100
AcDbDictionary
281
     1
  3
Standard
350
18
  0
DICTIONARY
  5
19
102
{ACAD_REACTORS
330
C
102
}
330
C
100
AcDbDictionary
281
     1
  0
ACDBDICTIONARYWDFLT
  5
E
102
{ACAD_REACTORS
330
C
102
}
330
C
100
AcDbDictionary
281
     1
  3
Normal
350
F
100
AcDbDictionaryWithDefault
340
F
  0
DICTIONARY
  5
47
102
{ACAD_REACTORS
330
C
102
}
330
C
100
AcDbDictionary
281
     1
  3
A0
350
48
  3
A1
350
49
  3
A2
350
4A
  3
A3
350
4B
  3
A4
350
4C
  3
A5
350
4D
  3
A6
350
4E
  3
A7
350
4F
  3
A8
350
50
  3
A9
350
51
  3
B0
350
52
  3
B1
350
53
  3
B2
350
54
  3
B3
350
55
  3
B4
350
56
  3
B5
350
57
  3
B6
350
58
  3
B7
350
59
  3
B8
350
5A
  3
B9
350
5B
  3
C0
350
5C
  3
C1
350
5D
  3
C2
350
5E
  3
C3
350
5F
  3
C4
350
60
  3
C5
350
61
  3
C6
350
62
  3
C7
350
63
  3
C8
350
64
  3
C9
350
65
  3
D0
350
66
  3
D1
350
67
  3
D2
350
68
  0
DICTIONARY
  5
FA
102
{ACAD_REACTORS
330
C
102
}
330
C
100
AcDbDictionary
281
     1
  0
DICTIONARY
  5
69
102
{ACAD_REACTORS
330
C
102
}
330
C
100
AcDbDictionary
281
     1
  3
Standard
350
6A
  0
DICTIONARY
  5
2A
102
{ACAD_REACTORS
330
C
102
}
330
C
100
AcDbDictionary
281
     1
  3
2dWireframe
350
2F
  3
Basic
350
32
  3
Brighten
350
36
  3
ColorChange
350
3A
  3
Conceptual
350
34
  3
Dim
350
35
  3
EdgeColorOff
350
3D
  3
Facepattern
350
39
  3
Flat
350
2B
  3
FlatWithEdges
350
2C
  3
Gouraud
350
2D
  3
GouraudWithEdges
350
2E
  3
Hidden
350
31
  3
JitterOff
350
3B
  3
Linepattern
350
38
  3
OverhangOff
350
3C
  3
Realistic
350
33
  3
Shaded
350
42
  3
Shaded with edges
350
41
  3
Shades of Gray
350
3E
  3
Sketchy
350
3F
  3
Thicken
350
37
  3
Wireframe
350
30
  3
X-Ray
350
40
  0
XRECORD
  5
F6
102
{ACAD_REACTORS
330
C
102
}
330
C
100
AcDbXrecord
280
     1
 90
        1
330
6A
  0
DICTIONARY
  5
F2
102
{ACAD_REACTORS
330
C
102
}
330
C
100
AcDbDictionary
281
     1
  3
CANNOSCALE
350
F3
  3
CENTEREXE
350
FC
  3
CENTERLTYPEFILE
350
FD
  3
CMLEADERSTYLE
350
F8
  3
CTABLESTYLE
350
F7
  3
WIPEOUTFRAME
350
FB
  0
LAYOUT
  5
1E
102
{ACAD_REACTORS
330
1A
102
}
330
1A
100
AcDbPlotSettings
  1

  2
none_device
  4

  6

 40
0.0
 41
0.0
 42
0.0
 43
0.0
 44
0.0
 45
0.0
 46
0.0
 47
0.0
 48
0.0
 49
0.0
140
0.0
141
0.0
142
1.0
143
1.0
 70
   688
 72
     1
 73
     0
 74
     5
  7

 75
    16
 76
     0
 77
     2
 78
   300
147
1.0
148
0.0
149
0.0
100
AcDbLayout
  1
Layout1
 70
     1
 71
     1
 10
0.0
 20
0.0
 11
420.0
 21
297.0
 12
0.0
 22
0.0
 32
0.0
 14
1.000000000000000E+20
 24
1.000000000000000E+20
 34
1.000000000000000E+20
 15
-1.000000000000000E+20
 25
-1.000000000000000E+20
 35
-1.000000000000000E+20
146
0.0
 13
0.0
 23
0.0
 33
0.0
 16
1.0
 26
0.0
 36
0.0
 17
0.0
 27
1.0
 37
0.0
 76
     0
330
1B
  0
LAYOUT
  5
26
102
{ACAD_REACTORS
330
1A
102
}
330
1A
100
AcDbPlotSettings
  1

  2
none_device
  4

  6

 40
0.0
 41
0.0
 42
0.0
 43
0.0
 44
0.0
 45
0.0
 46
0.0
 47
0.0
 48
0.0
 49
0.0
140
0.0
141
0.0
142
1.0
143
1.0
 70
   688
 72
     1
 73
     0
 74
     5
  7

 75
    16
 76
     0
 77
     2
 78
   300
147
1.0
148
0.0
149
0.0
100
AcDbLayout
  1
Layout2
 70
     1
 71
     2
 10
0.0
 20
0.0
 11
0.0
 21
0.0
 12
0.0
 22
0.0
 32
0.0
 14
0.0
 24
0.0
 34
0.0
 15
0.0
 25
0.0
 35
0.0
146
0.0
 13
0.0
 23
0.0
 33
0.0
 16
1.0
 26
0.0
 36
0.0
 17
0.0
 27
1.0
 37
0.0
 76
     0
330
23
  0
LAYOUT
  5
22
102
{ACAD_REACTORS
330
1A
102
}
330
1A
100
AcDbPlotSettings
  1

  2
none_device
  4
Letter_(8.50_x_11.00_Inches)
  6

 40
6.35
 41
6.35
 42
6.35000508
 43
6.35000508
 44
215.9
 45
279.4
 46
0.0
 47
0.0
 48
0.0
 49
0.0
140
0.0
141
0.0
142
1.0
143
1.0
 70
  1712
 72
     1
 73
     0
 74
     0
  7

 75
     0
 76
     0
 77
     2
 78
   300
147
1.0
148
0.0
149
0.0
100
AcDbLayout
  1
Model
 70
     1
 71
     0
 10
0.0
 20
0.0
 11
420.0
 21
297.0
 12
0.0
 22
0.0
 32
0.0
 14
-163.1491781775625
 24
36.46559224021883
 34
0.0
 15
570.2123692323869
 25
128.0672334202674
 35
0.0
146
0.0
 13
0.0
 23
0.0
 33
0.0
 16
1.0
 26
0.0
 36
0.0
 17
0.0
 27
1.0
 37
0.0
 76
     0
330
1F
331
29
  0
MATERIAL
  5
45
102
{ACAD_REACTORS
330
43
102
}
330
43
100
AcDbMaterial
  1
ByBlock
 72
     1
 94
      127
  0
MATERIAL
  5
44
102
{ACAD_REACTORS
330
43
102
}
330
43
100
AcDbMaterial
  1
ByLayer
 72
     1
 94
      127
  0
MATERIAL
  5
46
102
{ACAD_REACTORS
330
43
102
}
330
43
100
AcDbMaterial
  1
Global
 72
     1
 94
      127
  0
MLEADERSTYLE
  5
6C
102
{ACAD_REACTORS
330
6B
102
}
330
6B
100
AcDbMLeaderStyle
179
     2
170
     2
171
     1
172
     0
 90
        2
 40
0.0
 41
0.0
173
     1
 91
-1056964608
340
14
 92
       -2
290
     1
 42
2.0
291
     1
 43
8.0
  3
Standard
341
0
 44
4.0
300

342
11
174
     1
178
     6
175
     1
176
     0
 93
-1056964608
 45
4.0
292
     0
297
     0
 46
4.0
343
0
 94
-1056964608
 47
1.0
 49
1.0
140
1.0
293
     1
141
0.0
294
     1
177
     0
142
1.0
295
     0
296
     0
143
3.75
271
     0
272
     9
273
     9
298
     0
  0
MLINESTYLE
  5
18
102
{ACAD_REACTORS
330
17
102
}
330
17
100
AcDbMlineStyle
  2
Standard
 70
     0
  3

 62
   256
 51
90.0
 52
90.0
 71
     2
 49
0.5
 62
   256
  6
BYLAYER
 49
-0.5
 62
   256
  6
BYLAYER
  0
ACDBPLACEHOLDER
  5
F
102
{ACAD_REACTORS
330
E
102
}
330
E
  0
SCALE
  5
48
102
{ACAD_REACTORS
330
47
102
}
330
47
100
AcDbScale
 70
     0
300
1:1
140
1.0
141
1.0
290
     1
  0
SCALE
  5
49
102
{ACAD_REACTORS
330
47
102
}
330
47
100
AcDbScale
 70
     0
300
1:2
140
1.0
141
2.0
290
     0
  0
SCALE
  5
4A
102
{ACAD_REACTORS
330
47
102
}
330
47
100
AcDbScale
 70
     0
300
1:4
140
1.0
141
4.0
290
     0
  0
SCALE
  5
4B
102
{ACAD_REACTORS
330
47
102
}
330
47
100
AcDbScale
 70
     0
300
1:5
140
1.0
141
5.0
290
     0
  0
SCALE
  5
4C
102
{ACAD_REACTORS
330
47
102
}
330
47
100
AcDbScale
 70
     0
300
1:8
140
1.0
141
8.0
290
     0
  0
SCALE
  5
4D
102
{ACAD_REACTORS
330
47
102
}
330
47
100
AcDbScale
 70
     0
300
1:10
140
1.0
141
10.0
290
     0
  0
SCALE
  5
4E
102
{ACAD_REACTORS
330
47
102
}
330
47
100
AcDbScale
 70
     0
300
1:16
140
1.0
141
16.0
290
     0
  0
SCALE
  5
4F
102
{ACAD_REACTORS
330
47
102
}
330
47
100
AcDbScale
 70
     0
300
1:20
140
1.0
141
20.0
290
     0
  0
SCALE
  5
50
102
{ACAD_REACTORS
330
47
102
}
330
47
100
AcDbScale
 70
     0
300
1:30
140
1.0
141
30.0
290
     0
  0
SCALE
  5
51
102
{ACAD_REACTORS
330
47
102
}
330
47
100
AcDbScale
 70
     0
300
1:40
140
1.0
141
40.0
290
     0
  0
SCALE
  5
52
102
{ACAD_REACTORS
330
47
102
}
330
47
100
AcDbScale
 70
     0
300
1:50
140
1.0
141
50.0
290
     0
  0
SCALE
  5
53
102
{ACAD_REACTORS
330
47
102
}
330
47
100
AcDbScale
 70
     0
300
1:100
140
1.0
141
100.0
290
     0
  0
SCALE
  5
54
102
{ACAD_REACTORS
330
47
102
}
330
47
100
AcDbScale
 70
     0
300
2:1
140
2.0
141
1.0
290
     0
  0
SCALE
  5
55
102
{ACAD_REACTORS
330
47
102
}
330
47
100
AcDbScale
 70
     0
300
4:1
140
4.0
141
1.0
290
     0
  0
SCALE
  5
56
102
{ACAD_REACTORS
330
47
102
}
330
47
100
AcDbScale
 70
     0
300
8:1
140
8.0
141
1.0
290
     0
  0
SCALE
  5
57
102
{ACAD_REACTORS
330
47
102
}
330
47
100
AcDbScale
 70
     0
300
10:1
140
10.0
141
1.0
290
     0
  0
SCALE
  5
58
102
{ACAD_REACTORS
330
47
102
}
330
47
100
AcDbScale
 70
     0
300
100:1
140
100.0
141
1.0
290
     0
  0
SCALE
  5
59
102
{ACAD_REACTORS
330
47
102
}
330
47
100
AcDbScale
 70
     0
300
1/128" = 1'-0"
140
0.0078125
141
12.0
290
     0
  0
SCALE
  5
5A
102
{ACAD_REACTORS
330
47
102
}
330
47
100
AcDbScale
 70
     0
300
1/64" = 1'-0"
140
0.015625
141
12.0
290
     0
  0
SCALE
  5
5B
102
{ACAD_REACTORS
330
47
102
}
330
47
100
AcDbScale
 70
     0
300
1/32" = 1'-0"
140
0.03125
141
12.0
290
     0
  0
SCALE
  5
5C
102
{ACAD_REACTORS
330
47
102
}
330
47
100
AcDbScale
 70
     0
300
1/16" = 1'-0"
140
0.0625
141
12.0
290
     0
  0
SCALE
  5
5D
102
{ACAD_REACTORS
330
47
102
}
330
47
100
AcDbScale
 70
     0
300
3/32" = 1'-0"
140
0.09375
141
12.0
290
     0
  0
SCALE
  5
5E
102
{ACAD_REACTORS
330
47
102
}
330
47
100
AcDbScale
 70
     0
300
1/8" = 1'-0"
140
0.125
141
12.0
290
     0
  0
SCALE
  5
5F
102
{ACAD_REACTORS
330
47
102
}
330
47
100
AcDbScale
 70
     0
300
3/16" = 1'-0"
140
0.1875
141
12.0
290
     0
  0
SCALE
  5
60
102
{ACAD_REACTORS
330
47
102
}
330
47
100
AcDbScale
 70
     0
300
1/4" = 1'-0"
140
0.25
141
12.0
290
     0
  0
SCALE
  5
61
102
{ACAD_REACTORS
330
47
102
}
330
47
100
AcDbScale
 70
     0
300
3/8" = 1'-0"
140
0.375
141
12.0
290
     0
  0
SCALE
  5
62
102
{ACAD_REACTORS
330
47
102
}
330
47
100
AcDbScale
 70
     0
300
1/2" = 1'-0"
140
0.5
141
12.0
290
     0
  0
SCALE
  5
63
102
{ACAD_REACTORS
330
47
102
}
330
47
100
AcDbScale
 70
     0
300
3/4" = 1'-0"
140
0.75
141
12.0
290
     0
  0
SCALE
  5
64
102
{ACAD_REACTORS
330
47
102
}
330
47
100
AcDbScale
 70
     0
300
1" = 1'-0"
140
1.0
141
12.0
290
     0
  0
SCALE
  5
65
102
{ACAD_REACTORS
330
47
102
}
330
47
100
AcDbScale
 70
     0
300
1-1/2" = 1'-0"
140
1.5
141
12.0
290
     0
  0
SCALE
  5
66
102
{ACAD_REACTORS
330
47
102
}
330
47
100
AcDbScale
 70
     0
300
3" = 1'-0"
140
3.0
141
12.0
290
     0
  0
SCALE
  5
67
102
{ACAD_REACTORS
330
47
102
}
330
47
100
AcDbScale
 70
     0
300
6" = 1'-0"
140
6.0
141
12.0
290
     0
  0
SCALE
  5
68
102
{ACAD_REACTORS
330
47
102
}
330
47
100
AcDbScale
 70
     0
300
1'-0" = 1'-0"
140
12.0
141
12.0
290
     0
  0
TABLESTYLE
  5
6A
102
{ACAD_REACTORS
330
69
102
}
102
{ACAD_XDICTIONARY
360
F4
102
}
330
69
100
AcDbTableStyle
  3
Standard
 70
     0
 71
     0
 40
0.06
 41
0.06
280
     0
281
     0
  7
Standard
140
4.5
170
     2
 62
     0
 63
   257
283
     0
 90
        4
 91
        0
  1

274
    -2
284
     1
 64
     0
275
    -2
285
     1
 65
     0
276
    -2
286
     1
 66
     0
277
    -2
287
     1
 67
     0
278
    -2
288
     1
 68
     0
279
    -2
289
     1
 69
     0
  7
Standard
140
6.0
170
     5
 62
     0
 63
   257
283
     0
 90
        4
 91
        0
  1

274
    -2
284
     1
 64
     0
275
    -2
285
     1
 65
     0
276
    -2
286
     1
 66
     0
277
    -2
287
     1
 67
     0
278
    -2
288
     1
 68
     0
279
    -2
289
     1
 69
     0
  7
Standard
140
4.5
170
     5
 62
     0
 63
   257
283
     0
 90
        4
 91
        0
  1

274
    -2
284
     1
 64
     0
275
    -2
285
     1
 65
     0
276
    -2
286
     1
 66
     0
277
    -2
287
     1
 67
     0
278
    -2
288
     1
 68
     0
279
    -2
289
     1
 69
     0
  0
VISUALSTYLE
  5
2F
102
{ACAD_REACTORS
330
2A
102
}
330
2A
100
AcDbVisualStyle
  2
2dWireframe
 70
     4
177
     3
291
     0
 70
    58
 90
        0
176
     1
 90
        2
176
     1
 90
        0
176
     1
 90
        0
176
     1
 40
0.6
176
     1
 40
30.0
176
     1
 62
     7
420
 16777215
176
     1
 90
        1
176
     1
 90
        4
176
     1
 62
     7
176
     1
 62
   257
176
     1
 90
        1
176
     1
 90
        1
176
     1
 40
1.0
176
     1
 90
        0
176
     1
 62
   257
176
     1
 40
1.0
176
     1
 90
        1
176
     1
 90
        6
176
     1
 90
        2
176
     1
 62
     7
176
     1
 90
        5
176
     1
 90
        0
176
     1
 90
        0
176
     1
290
     0
176
     1
 90
        1
176
     1
 40
0.0
176
     1
 90
        0
176
     1
290
     1
176
     1
290
     1
176
     1
290
     0
176
     1
290
     0
176
     1
290
     0
176
     1
290
     0
176
     1
290
     0
176
     1
290
     0
176
     1
290
     0
176
     1
 90
       50
176
     1
 40
0.0
176
     1
 40
1.0
176
     1
 90
        0
176
     1
 62
    18
420
        0
176
     1
 90
       50
176
     1
 90
        3
176
     1
 62
     5
420
      255
176
     1
290
     0
176
     1
 90
       50
176
     1
 90
       50
176
     1
 90
       50
176
     1
290
     0
176
     1
 90
       50
176
     1
 62
   256
176
     0
 40
1.0
176
     0
 90
        2
176
     1
  1
strokes_ogs.tif
176
     1
290
     0
176
     1
 40
1.0
176
     1
 40
1.0
176
     1
  0
VISUALSTYLE
  5
32
102
{ACAD_REACTORS
330
2A
102
}
330
2A
100
AcDbVisualStyle
  2
Basic
 70
     7
177
     3
291
     1
 70
    58
 90
        1
176
     1
 90
        0
176
     1
 90
        1
176
     1
 90
        0
176
     1
 40
0.6
176
     1
 40
30.0
176
     1
 62
     7
420
 16777215
176
     1
 90
        0
176
     1
 90
        4
176
     1
 62
     7
176
     1
 62
   257
176
     1
 90
        1
176
     1
 90
        1
176
     1
 40
1.0
176
     1
 90
        8
176
     1
 62
     7
176
     1
 40
1.0
176
     1
 90
        1
176
     1
 90
        6
176
     1
 90
        2
176
     1
 62
     7
176
     1
 90
        5
176
     1
 90
        0
176
     1
 90
        0
176
     1
290
     0
176
     1
 90
        1
176
     1
 40
0.0
176
     1
 90
        0
176
     1
290
     0
176
     1
290
     1
176
     1
290
     1
176
     1
290
     0
176
     1
290
     0
176
     1
290
     0
176
     1
290
     0
176
     1
290
     0
176
     1
290
     0
176
     1
 90
       50
176
     1
 40
0.0
176
     1
 40
1.0
176
     1
 90
        0
176
     1
 62
    18
420
        0
176
     1
 90
       50
176
     1
 90
        3
176
     1
 62
     5
420
      255
176
     1
290
     0
176
     1
 90
       50
176
     1
 90
       50
176
     1
 90
       50
176
     1
290
     0
176
     1
 90
       50
176
     1
 62
   256
176
     0
 40
1.0
176
     0
 90
        2
176
     1
  1
strokes_ogs.tif
176
     1
290
     0
176
     1
 40
1.0
176
     1
 40
1.0
176
     1
  0
VISUALSTYLE
  5
36
102
{ACAD_REACTORS
330
2A
102
}
330
2A
100
AcDbVisualStyle
  2
Brighten
 70
    12
177
     3
291
     1
 70
    58
 90
        2
176
     1
 90
        2
176
     1
 90
        0
176
     1
 90
        0
176
     1
 40
0.6
176
     1
 40
30.0
176
     1
 62
     7
420
 16777215
176
     1
 90
        1
176
     1
 90
        4
176
     1
 62
     7
176
     1
 62
   257
176
     1
 90
        1
176
     1
 90
        1
176
     1
 40
1.0
176
     1
 90
        8
176
     1
 62
     7
176
     1
 40
1.0
176
     1
 90
        1
176
     1
 90
        6
176
     1
 90
        2
176
     1
 62
     7
176
     1
 90
        5
176
     1
 90
        0
176
     1
 90
        0
176
     1
290
     0
176
     1
 90
        1
176
     1
 40
50.0
176
     1
 90
        0
176
     1
290
     0
176
     1
290
     1
176
     1
290
     1
176
     1
290
     0
176
     1
290
     0
176
     1
290
     0
176
     1
290
     0
176
     1
290
     0
176
     1
290
     0
176
     1
 90
       50
176
     1
 40
0.0
176
     1
 40
1.0
176
     1
 90
        0
176
     1
 62
    18
420
        0
176
     1
 90
       50
176
     1
 90
        3
176
     1
 62
     5
420
      255
176
     1
290
     0
176
     1
 90
       50
176
     1
 90
       50
176
     1
 90
       50
176
     1
290
     0
176
     1
 90
       50
176
     1
 62
   256
176
     0
 40
1.0
176
     0
 90
        2
176
     1
  1
strokes_ogs.tif
176
     1
290
     0
176
     1
 40
1.0
176
     1
 40
1.0
176
     1
  0
VISUALSTYLE
  5
3A
102
{ACAD_REACTORS
330
2A
102
}
330
2A
100
AcDbVisualStyle
  2
ColorChange
 70
    16
177
     3
291
     1
 70
    58
 90
        2
176
     1
 90
        2
176
     1
 90
        3
176
     1
 90
        0
176
     1
 40
0.6
176
     1
 40
30.0
176
     1
 62
     8
420
  8421504
176
     1
 90
        1
176
     1
 90
        4
176
     1
 62
     7
176
     1
 62
   257
176
     1
 90
        1
176
     1
 90
        1
176
     1
 40
1.0
176
     1
 90
        8
176
     1
 62
     8
420
  8421504
176
     1
 40
1.0
176
     1
 90
        1
176
     1
 90
        6
176
     1
 90
        2
176
     1
 62
     7
176
     1
 90
        5
176
     1
 90
        0
176
     1
 90
        0
176
     1
290
     0
176
     1
 90
        1
176
     1
 40
0.0
176
     1
 90
        0
176
     1
290
     0
176
     1
290
     1
176
     1
290
     1
176
     1
290
     0
176
     1
290
     0
176
     1
290
     0
176
     1
290
     0
176
     1
290
     0
176
     1
290
     0
176
     1
 90
       50
176
     1
 40
0.0
176
     1
 40
1.0
176
     1
 90
        0
176
     1
 62
    18
420
        0
176
     1
 90
       50
176
     1
 90
        3
176
     1
 62
     5
420
      255
176
     1
290
     0
176
     1
 90
       50
176
     1
 90
       50
176
     1
 90
       50
176
     1
290
     0
176
     1
 90
       50
176
     1
 62
   256
176
     0
 40
1.0
176
     0
 90
        2
176
     1
  1
strokes_ogs.tif
176
     1
290
     0
176
     1
 40
1.0
176
     1
 40
1.0
176
     1
  0
VISUALSTYLE
  5
34
102
{ACAD_REACTORS
330
2A
102
}
330
2A
100
AcDbVisualStyle
  2
Conceptual
 70
     9
177
     3
291
     0
 70
    58
 90
        3
176
     1
 90
        2
176
     1
 90
        0
176
     1
 90
        0
176
     1
 40
0.6
176
     1
 40
30.0
176
     1
 62
     7
420
 16777215
176
     1
 90
        2
176
     1
 90
        2
176
     1
 62
     7
176
     1
 62
   257
176
     1
 90
        1
176
     1
 90
        1
176
     1
 40
179.0
176
     1
 90
        8
176
     1
 62
     7
176
     1
 40
1.0
176
     1
 90
        1
176
     1
 90
        6
176
     1
 90
        2
176
     1
 62
     7
176
     1
 90
        3
176
     1
 90
        0
176
     1
 90
        0
176
     1
290
     0
176
     1
 90
        1
176
     1
 40
0.0
176
     1
 90
        0
176
     1
290
     0
176
     1
290
     1
176
     1
290
     1
176
     1
290
     0
176
     1
290
     0
176
     1
290
     0
176
     1
290
     0
176
     1
290
     0
176
     1
290
     0
176
     1
 90
       50
176
     1
 40
0.0
176
     1
 40
1.0
176
     1
 90
        0
176
     1
 62
    18
420
        0
176
     1
 90
       50
176
     1
 90
        3
176
     1
 62
     5
420
      255
176
     1
290
     0
176
     1
 90
       50
176
     1
 90
       50
176
     1
 90
       50
176
     1
290
     0
176
     1
 90
       50
176
     1
 62
   256
176
     0
 40
1.0
176
     0
 90
        2
176
     1
  1
strokes_ogs.tif
176
     1
290
     0
176
     1
 40
1.0
176
     1
 40
1.0
176
     1
  0
VISUALSTYLE
  5
35
102
{ACAD_REACTORS
330
2A
102
}
330
2A
100
AcDbVisualStyle
  2
Dim
 70
    11
177
     3
291
     1
 70
    58
 90
        2
176
     1
 90
        2
176
     1
 90
        0
176
     1
 90
        0
176
     1
 40
0.6
176
     1
 40
30.0
176
     1
 62
     7
420
 16777215
176
     1
 90
        1
176
     1
 90
        4
176
     1
 62
     7
176
     1
 62
   257
176
     1
 90
        1
176
     1
 90
        1
176
     1
 40
1.0
176
     1
 90
        8
176
     1
 62
     7
176
     1
 40
1.0
176
     1
 90
        1
176
     1
 90
        6
176
     1
 90
        2
176
     1
 62
     7
176
     1
 90
        5
176
     1
 90
        0
176
     1
 90
        0
176
     1
290
     0
176
     1
 90
        1
176
     1
 40
-50.0
176
     1
 90
        0
176
     1
290
     0
176
     1
290
     1
176
     1
290
     1
176
     1
290
     0
176
     1
290
     0
176
     1
290
     0
176
     1
290
     0
176
     1
290
     0
176
     1
290
     0
176
     1
 90
       50
176
     1
 40
0.0
176
     1
 40
1.0
176
     1
 90
        0
176
     1
 62
    18
420
        0
176
     1
 90
       50
176
     1
 90
        3
176
     1
 62
     5
420
      255
176
     1
290
     0
176
     1
 90
       50
176
     1
 90
       50
176
     1
 90
       50
176
     1
290
     0
176
     1
 90
       50
176
     1
 62
   256
176
     0
 40
1.0
176
     0
 90
        2
176
     1
  1
strokes_ogs.tif
176
     1
290
     0
176
     1
 40
1.0
176
     1
 40
1.0
176
     1
  0
VISUALSTYLE
  5
3D
102
{ACAD_REACTORS
330
2A
102
}
330
2A
100
AcDbVisualStyle
  2
EdgeColorOff
 70
    22
177
     3
291
     1
 70
    58
 90
        2
176
     0
 90
        2
176
     0
 90
        0
176
     0
 90
        0
176
     0
 40
0.6
176
     0
 40
30.0
176
     0
 62
     7
420
 16777215
176
     0
 90
        1
176
     0
 90
        4
176
     0
 62
     7
176
     0
 62
   257
176
     0
 90
        1
176
     0
 90
        1
176
     0
 40
1.0
176
     0
 90
        8
176
     2
 62
     7
176
     0
 40
1.0
176
     0
 90
        1
176
     0
 90
        6
176
     0
 90
        2
176
     0
 62
     7
176
     0
 90
        5
176
     0
 90
        0
176
     0
 90
        0
176
     0
290
     0
176
     0
 90
        1
176
     0
 40
0.0
176
     0
 90
        0
176
     0
290
     0
176
     0
290
     1
176
     0
290
     1
176
     0
290
     0
176
     0
290
     0
176
     0
290
     0
176
     0
290
     0
176
     0
290
     0
176
     0
290
     0
176
     0
 90
       50
176
     0
 40
0.0
176
     0
 40
1.0
176
     0
 90
        0
176
     0
 62
    18
420
        0
176
     0
 90
       50
176
     0
 90
        3
176
     0
 62
     5
420
      255
176
     0
290
     0
176
     0
 90
       50
176
     0
 90
       50
176
     0
 90
       50
176
     0
290
     0
176
     0
 90
       50
176
     0
 62
   256
176
     0
 40
1.0
176
     0
 90
        2
176
     0
  1
strokes_ogs.tif
176
     0
290
     0
176
     0
 40
1.0
176
     0
 40
1.0
176
     0
  0
VISUALSTYLE
  5
39
102
{ACAD_REACTORS
330
2A
102
}
330
2A
100
AcDbVisualStyle
  2
Facepattern
 70
    15
177
     3
291
     1
 70
    58
 90
        2
176
     1
 90
        2
176
     1
 90
        0
176
     1
 90
        0
176
     1
 40
0.6
176
     1
 40
30.0
176
     1
 62
     7
420
 16777215
176
     1
 90
        1
176
     1
 90
        4
176
     1
 62
     7
176
     1
 62
   257
176
     1
 90
        1
176
     1
 90
        1
176
     1
 40
1.0
176
     1
 90
        8
176
     1
 62
     7
176
     1
 40
1.0
176
     1
 90
        1
176
     1
 90
        6
176
     1
 90
        2
176
     1
 62
     7
176
     1
 90
        5
176
     1
 90
        0
176
     1
 90
        0
176
     1
290
     0
176
     1
 90
        1
176
     1
 40
0.0
176
     1
 90
        0
176
     1
290
     0
176
     1
290
     1
176
     1
290
     1
176
     1
290
     0
176
     1
290
     0
176
     1
290
     0
176
     1
290
     0
176
     1
290
     0
176
     1
290
     0
176
     1
 90
       50
176
     1
 40
0.0
176
     1
 40
1.0
176
     1
 90
        0
176
     1
 62
    18
420
        0
176
     1
 90
       50
176
     1
 90
        3
176
     1
 62
     5
420
      255
176
     1
290
     0
176
     1
 90
       50
176
     1
 90
       50
176
     1
 90
       50
176
     1
290
     0
176
     1
 90
       50
176
     1
 62
   256
176
     0
 40
1.0
176
     0
 90
        2
176
     1
  1
strokes_ogs.tif
176
     1
290
     0
176
     1
 40
1.0
176
     1
 40
1.0
176
     1
  0
VISUALSTYLE
  5
2B
102
{ACAD_REACTORS
330
2A
102
}
330
2A
100
AcDbVisualStyle
  2
Flat
 70
     0
177
     3
291
     1
 70
    58
 90
        2
176
     1
 90
        1
176
     1
 90
        1
176
     1
 90
        2
176
     1
 40
0.6
176
     1
 40
30.0
176
     1
 62
     7
420
 16777215
176
     1
 90
        0
176
     1
 90
        0
176
     1
 62
     7
176
     1
 62
   257
176
     1
 90
        1
176
     1
 90
        1
176
     1
 40
1.0
176
     1
 90
        8
176
     1
 62
     7
176
     1
 40
1.0
176
     1
 90
        1
176
     1
 90
        6
176
     1
 90
        2
176
     1
 62
     7
176
     1
 90
        5
176
     1
 90
        0
176
     1
 90
        0
176
     1
290
     0
176
     1
 90
       13
176
     1
 40
0.0
176
     1
 90
        0
176
     1
290
     0
176
     1
290
     1
176
     1
290
     1
176
     1
290
     0
176
     1
290
     0
176
     1
290
     0
176
     1
290
     0
176
     1
290
     0
176
     1
290
     0
176
     1
 90
       50
176
     1
 40
0.0
176
     1
 40
1.0
176
     1
 90
        0
176
     1
 62
    18
420
        0
176
     1
 90
       50
176
     1
 90
        3
176
     1
 62
     5
420
      255
176
     1
290
     0
176
     1
 90
       50
176
     1
 90
       50
176
     1
 90
       50
176
     1
290
     0
176
     1
 90
       50
176
     1
 62
   256
176
     0
 40
1.0
176
     0
 90
        2
176
     1
  1
strokes_ogs.tif
176
     1
290
     0
176
     1
 40
1.0
176
     1
 40
1.0
176
     1
  0
VISUALSTYLE
  5
2C
102
{ACAD_REACTORS
330
2A
102
}
330
2A
100
AcDbVisualStyle
  2
FlatWithEdges
 70
     1
177
     3
291
     1
 70
    58
 90
        2
176
     1
 90
        1
176
     1
 90
        1
176
     1
 90
        2
176
     1
 40
0.6
176
     1
 40
30.0
176
     1
 62
     7
420
 16777215
176
     1
 90
        1
176
     1
 90
        0
176
     1
 62
     7
176
     1
 62
   257
176
     1
 90
        1
176
     1
 90
        1
176
     1
 40
1.0
176
     1
 90
        0
176
     1
 62
   257
176
     1
 40
1.0
176
     1
 90
        1
176
     1
 90
        6
176
     1
 90
        2
176
     1
 62
     7
176
     1
 90
        5
176
     1
 90
        0
176
     1
 90
        0
176
     1
290
     0
176
     1
 90
       13
176
     1
 40
0.0
176
     1
 90
        0
176
     1
290
     0
176
     1
290
     1
176
     1
290
     1
176
     1
290
     0
176
     1
290
     0
176
     1
290
     0
176
     1
290
     0
176
     1
290
     0
176
     1
290
     0
176
     1
 90
       50
176
     1
 40
0.0
176
     1
 40
1.0
176
     1
 90
        0
176
     1
 62
    18
420
        0
176
     1
 90
       50
176
     1
 90
        3
176
     1
 62
     5
420
      255
176
     1
290
     0
176
     1
 90
       50
176
     1
 90
       50
176
     1
 90
       50
176
     1
290
     0
176
     1
 90
       50
176
     1
 62
   256
176
     0
 40
1.0
176
     0
 90
        2
176
     1
  1
strokes_ogs.tif
176
     1
290
     0
176
     1
 40
1.0
176
     1
 40
1.0
176
     1
  0
VISUALSTYLE
  5
2D
102
{ACAD_REACTORS
330
2A
102
}
330
2A
100
AcDbVisualStyle
  2
Gouraud
 70
     2
177
     3
291
     1
 70
    58
 90
        2
176
     1
 90
        2
176
     1
 90
        1
176
     1
 90
        2
176
     1
 40
0.6
176
     1
 40
30.0
176
     1
 62
     7
420
 16777215
176
     1
 90
        0
176
     1
 90
        0
176
     1
 62
     7
176
     1
 62
   257
176
     1
 90
        1
176
     1
 90
        1
176
     1
 40
1.0
176
     1
 90
        0
176
     1
 62
     7
176
     1
 40
1.0
176
     1
 90
        1
176
     1
 90
        6
176
     1
 90
        2
176
     1
 62
     7
176
     1
 90
        5
176
     1
 90
        0
176
     1
 90
        0
176
     1
290
     0
176
     1
 90
       13
176
     1
 40
0.0
176
     1
 90
        0
176
     1
290
     0
176
     1
290
     1
176
     1
290
     1
176
     1
290
     0
176
     1
290
     0
176
     1
290
     0
176
     1
290
     0
176
     1
290
     0
176
     1
290
     0
176
     1
 90
       50
176
     1
 40
0.0
176
     1
 40
1.0
176
     1
 90
        0
176
     1
 62
    18
420
        0
176
     1
 90
       50
176
     1
 90
        3
176
     1
 62
     5
420
      255
176
     1
290
     0
176
     1
 90
       50
176
     1
 90
       50
176
     1
 90
       50
176
     1
290
     0
176
     1
 90
       50
176
     1
 62
   256
176
     0
 40
1.0
176
     0
 90
        2
176
     1
  1
strokes_ogs.tif
176
     1
290
     0
176
     1
 40
1.0
176
     1
 40
1.0
176
     1
  0
VISUALSTYLE
  5
2E
102
{ACAD_REACTORS
330
2A
102
}
330
2A
100
AcDbVisualStyle
  2
GouraudWithEdges
 70
     3
177
     3
291
     1
 70
    58
 90
        2
176
     1
 90
        2
176
     1
 90
        1
176
     1
 90
        2
176
     1
 40
0.6
176
     1
 40
30.0
176
     1
 62
     7
420
 16777215
176
     1
 90
        1
176
     1
 90
        0
176
     1
 62
     7
176
     1
 62
   257
176
     1
 90
        1
176
     1
 90
        1
176
     1
 40
1.0
176
     1
 90
        0
176
     1
 62
   257
176
     1
 40
1.0
176
     1
 90
        1
176
     1
 90
        6
176
     1
 90
        2
176
     1
 62
     7
176
     1
 90
        5
176
     1
 90
        0
176
     1
 90
        0
176
     1
290
     0
176
     1
 90
       13
176
     1
 40
0.0
176
     1
 90
        0
176
     1
290
     0
176
     1
290
     1
176
     1
290
     1
176
     1
290
     0
176
     1
290
     0
176
     1
290
     0
176
     1
290
     0
176
     1
290
     0
176
     1
290
     0
176
     1
 90
       50
176
     1
 40
0.0
176
     1
 40
1.0
176
     1
 90
        0
176
     1
 62
    18
420
        0
176
     1
 90
       50
176
     1
 90
        3
176
     1
 62
     5
420
      255
176
     1
290
     0
176
     1
 90
       50
176
     1
 90
       50
176
     1
 90
       50
176
     1
290
     0
176
     1
 90
       50
176
     1
 62
   256
176
     0
 40
1.0
176
     0
 90
        2
176
     1
  1
strokes_ogs.tif
176
     1
290
     0
176
     1
 40
1.0
176
     1
 40
1.0
176
     1
  0
VISUALSTYLE
  5
31
102
{ACAD_REACTORS
330
2A
102
}
330
2A
100
AcDbVisualStyle
  2
Hidden
 70
     6
177
     3
291
     0
 70
    58
 90
        1
176
     1
 90
        2
176
     1
 90
        2
176
     1
 90
        0
176
     1
 40
0.6
176
     1
 40
30.0
176
     1
 62
     7
420
 16777215
176
     1
 90
        2
176
     1
 90
        2
176
     1
 62
     7
176
     1
 62
   257
176
     1
 90
        2
176
     1
 90
        1
176
     1
 40
40.0
176
     1
 90
        0
176
     1
 62
   257
176
     1
 40
1.0
176
     1
 90
        1
176
     1
 90
        6
176
     1
 90
        2
176
     1
 62
     7
176
     1
 90
        3
176
     1
 90
        0
176
     1
 90
        0
176
     1
290
     0
176
     1
 90
        1
176
     1
 40
0.0
176
     1
 90
        0
176
     1
290
     0
176
     1
290
     1
176
     1
290
     1
176
     1
290
     0
176
     1
290
     0
176
     1
290
     0
176
     1
290
     0
176
     1
290
     0
176
     1
290
     0
176
     1
 90
       50
176
     1
 40
0.0
176
     1
 40
1.0
176
     1
 90
        0
176
     1
 62
    18
420
        0
176
     1
 90
       50
176
     1
 90
        3
176
     1
 62
     5
420
      255
176
     1
290
     0
176
     1
 90
       50
176
     1
 90
       50
176
     1
 90
       50
176
     1
290
     0
176
     1
 90
       50
176
     1
 62
   256
176
     0
 40
1.0
176
     0
 90
        2
176
     1
  1
strokes_ogs.tif
176
     1
290
     0
176
     1
 40
1.0
176
     1
 40
1.0
176
     1
  0
VISUALSTYLE
  5
3B
102
{ACAD_REACTORS
330
2A
102
}
330
2A
100
AcDbVisualStyle
  2
JitterOff
 70
    20
177
     3
291
     1
 70
    58
 90
        2
176
     0
 90
        2
176
     0
 90
        0
176
     0
 90
        0
176
     0
 40
0.6
176
     0
 40
30.0
176
     0
 62
     7
420
 16777215
176
     0
 90
        1
176
     0
 90
        4
176
     0
 62
     7
176
     0
 62
   257
176
     0
 90
        1
176
     0
 90
        1
176
     0
 40
1.0
176
     0
 90
       10
176
     2
 62
     7
176
     0
 40
1.0
176
     0
 90
        1
176
     0
 90
        6
176
     0
 90
        2
176
     0
 62
     7
176
     0
 90
        5
176
     0
 90
        0
176
     0
 90
        0
176
     0
290
     0
176
     0
 90
        1
176
     0
 40
0.0
176
     0
 90
        0
176
     0
290
     0
176
     0
290
     1
176
     0
290
     1
176
     0
290
     0
176
     0
290
     0
176
     0
290
     0
176
     0
290
     0
176
     0
290
     0
176
     0
290
     0
176
     0
 90
       50
176
     0
 40
0.0
176
     0
 40
1.0
176
     0
 90
        0
176
     0
 62
    18
420
        0
176
     0
 90
       50
176
     0
 90
        3
176
     0
 62
     5
420
      255
176
     0
290
     0
176
     0
 90
       50
176
     0
 90
       50
176
     0
 90
       50
176
     0
290
     0
176
     0
 90
       50
176
     0
 62
   256
176
     0
 40
1.0
176
     0
 90
        2
176
     0
  1
strokes_ogs.tif
176
     0
290
     0
176
     0
 40
1.0
176
     0
 40
1.0
176
     0
  0
VISUALSTYLE
  5
38
102
{ACAD_REACTORS
330
2A
102
}
330
2A
100
AcDbVisualStyle
  2
Linepattern
 70
    14
177
     3
291
     1
 70
    58
 90
        2
176
     1
 90
        2
176
     1
 90
        0
176
     1
 90
        0
176
     1
 40
0.6
176
     1
 40
30.0
176
     1
 62
     7
420
 16777215
176
     1
 90
        1
176
     1
 90
        4
176
     1
 62
     7
176
     1
 62
   257
176
     1
 90
        7
176
     1
 90
        7
176
     1
 40
1.0
176
     1
 90
        8
176
     1
 62
     7
176
     1
 40
1.0
176
     1
 90
        1
176
     1
 90
        6
176
     1
 90
        2
176
     1
 62
     7
176
     1
 90
        5
176
     1
 90
        0
176
     1
 90
        0
176
     1
290
     0
176
     1
 90
        1
176
     1
 40
0.0
176
     1
 90
        0
176
     1
290
     0
176
     1
290
     1
176
     1
290
     1
176
     1
290
     0
176
     1
290
     0
176
     1
290
     0
176
     1
290
     0
176
     1
290
     0
176
     1
290
     0
176
     1
 90
       50
176
     1
 40
0.0
176
     1
 40
1.0
176
     1
 90
        0
176
     1
 62
    18
420
        0
176
     1
 90
       50
176
     1
 90
        3
176
     1
 62
     5
420
      255
176
     1
290
     0
176
     1
 90
       50
176
     1
 90
       50
176
     1
 90
       50
176
     1
290
     0
176
     1
 90
       50
176
     1
 62
   256
176
     0
 40
1.0
176
     0
 90
        2
176
     1
  1
strokes_ogs.tif
176
     1
290
     0
176
     1
 40
1.0
176
     1
 40
1.0
176
     1
  0
VISUALSTYLE
  5
3C
102
{ACAD_REACTORS
330
2A
102
}
330
2A
100
AcDbVisualStyle
  2
OverhangOff
 70
    21
177
     3
291
     1
 70
    58
 90
        2
176
     0
 90
        2
176
     0
 90
        0
176
     0
 90
        0
176
     0
 40
0.6
176
     0
 40
30.0
176
     0
 62
     7
420
 16777215
176
     0
 90
        1
176
     0
 90
        4
176
     0
 62
     7
176
     0
 62
   257
176
     0
 90
        1
176
     0
 90
        1
176
     0
 40
1.0
176
     0
 90
        9
176
     2
 62
     7
176
     0
 40
1.0
176
     0
 90
        1
176
     0
 90
        6
176
     0
 90
        2
176
     0
 62
     7
176
     0
 90
        5
176
     0
 90
        0
176
     0
 90
        0
176
     0
290
     0
176
     0
 90
        1
176
     0
 40
0.0
176
     0
 90
        0
176
     0
290
     0
176
     0
290
     1
176
     0
290
     1
176
     0
290
     0
176
     0
290
     0
176
     0
290
     0
176
     0
290
     0
176
     0
290
     0
176
     0
290
     0
176
     0
 90
       50
176
     0
 40
0.0
176
     0
 40
1.0
176
     0
 90
        0
176
     0
 62
    18
420
        0
176
     0
 90
       50
176
     0
 90
        3
176
     0
 62
     5
420
      255
176
     0
290
     0
176
     0
 90
       50
176
     0
 90
       50
176
     0
 90
       50
176
     0
290
     0
176
     0
 90
       50
176
     0
 62
   256
176
     0
 40
1.0
176
     0
 90
        2
176
     0
  1
strokes_ogs.tif
176
     0
290
     0
176
     0
 40
1.0
176
     0
 40
1.0
176
     0
  0
VISUALSTYLE
  5
33
102
{ACAD_REACTORS
330
2A
102
}
330
2A
100
AcDbVisualStyle
  2
Realistic
 70
     8
177
     3
291
     0
 70
    58
 90
        2
176
     1
 90
        3
176
     1
 90
        0
176
     1
 90
        2
176
     1
 40
0.6
176
     1
 40
30.0
176
     1
 62
     7
420
 16777215
176
     1
 90
        0
176
     1
 90
        0
176
     1
 62
     7
176
     1
 62
   257
176
     1
 90
        1
176
     1
 90
        1
176
     1
 40
1.0
176
     1
 90
        8
176
     1
 62
   257
176
     1
 40
1.0
176
     1
 90
        1
176
     1
 90
        6
176
     1
 90
        2
176
     1
 62
     7
176
     1
 90
        3
176
     1
 90
        0
176
     1
 90
        0
176
     1
290
     0
176
     1
 90
       13
176
     1
 40
0.0
176
     1
 90
        0
176
     1
290
     0
176
     1
290
     1
176
     1
290
     1
176
     1
290
     0
176
     1
290
     0
176
     1
290
     0
176
     1
290
     0
176
     1
290
     0
176
     1
290
     0
176
     1
 90
       50
176
     1
 40
0.0
176
     1
 40
1.0
176
     1
 90
        0
176
     1
 62
    18
420
        0
176
     1
 90
       50
176
     1
 90
        3
176
     1
 62
     5
420
      255
176
     1
290
     0
176
     1
 90
       50
176
     1
 90
       50
176
     1
 90
       50
176
     1
290
     0
176
     1
 90
       50
176
     1
 62
   256
176
     0
 40
1.0
176
     0
 90
        2
176
     1
  1
strokes_ogs.tif
176
     1
290
     0
176
     1
 40
1.0
176
     1
 40
1.0
176
     1
  0
VISUALSTYLE
  5
42
102
{ACAD_REACTORS
330
2A
102
}
330
2A
100
AcDbVisualStyle
  2
Shaded
 70
    27
177
     3
291
     0
 70
    58
 90
        2
176
     1
 90
        2
176
     1
 90
        1
176
     1
 90
        2
176
     1
 40
0.6
176
     1
 40
30.0
176
     1
 62
     7
420
 16777215
176
     1
 90
        0
176
     1
 90
        4
176
     1
 62
     7
176
     1
 62
   257
176
     1
 90
        1
176
     1
 90
        1
176
     1
 40
1.0
176
     1
 90
        8
176
     1
 62
   257
176
     1
 40
1.0
176
     1
 90
        1
176
     1
 90
        6
176
     1
 90
        2
176
     1
 62
     8
420
  7895160
176
     1
 90
        3
176
     1
 90
        0
176
     1
 90
        0
176
     1
290
     0
176
     1
 90
        5
176
     1
 40
0.0
176
     1
 90
        0
176
     1
290
     0
176
     1
290
     1
176
     1
290
     1
176
     1
290
     0
176
     1
290
     0
176
     1
290
     0
176
     1
290
     0
176
     1
290
     0
176
     1
290
     0
176
     1
 90
       50
176
     1
 40
0.0
176
     1
 40
1.0
176
     1
 90
        0
176
     1
 62
    18
420
        0
176
     1
 90
       50
176
     1
 90
        3
176
     1
 62
     5
420
      255
176
     1
290
     0
176
     1
 90
       50
176
     1
 90
       50
176
     1
 90
       50
176
     1
290
     0
176
     1
 90
       50
176
     1
 62
   256
176
     0
 40
1.0
176
     0
 90
        2
176
     1
  1
strokes_ogs.tif
176
     1
290
     0
176
     1
 40
1.0
176
     1
 40
1.0
176
     1
  0
VISUALSTYLE
  5
41
102
{ACAD_REACTORS
330
2A
102
}
330
2A
100
AcDbVisualStyle
  2
Shaded with edges
 70
    26
177
     3
291
     0
 70
    58
 90
        2
176
     1
 90
        2
176
     1
 90
        1
176
     1
 90
        2
176
     1
 40
0.6
176
     1
 40
30.0
176
     1
 62
     7
420
 16777215
176
     1
 90
        1
176
     1
 90
       10
176
     1
 62
     7
176
     1
 62
   257
176
     1
 90
        2
176
     1
 90
        1
176
     1
 40
1.0
176
     1
 90
        8
176
     1
 62
   257
176
     1
 40
1.0
176
     1
 90
        1
176
     1
 90
        6
176
     1
 90
        2
176
     1
 62
     7
176
     1
 90
        3
176
     1
 90
        0
176
     1
 90
        0
176
     1
290
     0
176
     1
 90
        5
176
     1
 40
0.0
176
     1
 90
        0
176
     1
290
     0
176
     1
290
     1
176
     1
290
     1
176
     1
290
     0
176
     1
290
     0
176
     1
290
     0
176
     1
290
     0
176
     1
290
     0
176
     1
290
     0
176
     1
 90
       50
176
     1
 40
0.0
176
     1
 40
1.0
176
     1
 90
        0
176
     1
 62
    18
420
        0
176
     1
 90
       50
176
     1
 90
        3
176
     1
 62
     5
420
      255
176
     1
290
     0
176
     1
 90
       50
176
     1
 90
       50
176
     1
 90
       50
176
     1
290
     0
176
     1
 90
       50
176
     1
 62
   256
176
     0
 40
1.0
176
     0
 90
        2
176
     1
  1
strokes_ogs.tif
176
     1
290
     0
176
     1
 40
1.0
176
     1
 40
1.0
176
     1
  0
VISUALSTYLE
  5
3E
102
{ACAD_REACTORS
330
2A
102
}
330
2A
100
AcDbVisualStyle
  2
Shades of Gray
 70
    23
177
     3
291
     0
 70
    58
 90
        2
176
     1
 90
        2
176
     1
 90
        3
176
     1
 90
        0
176
     1
 40
0.6
176
     1
 40
30.0
176
     1
 62
     7
420
 16777215
176
     1
 90
        2
176
     1
 90
        2
176
     1
 62
     7
176
     1
 62
     7
176
     1
 90
        1
176
     1
 90
        1
176
     1
 40
40.0
176
     1
 90
        8
176
     1
 62
     7
176
     1
 40
1.0
176
     1
 90
        1
176
     1
 90
        6
176
     1
 90
        2
176
     1
 62
     7
176
     1
 90
        3
176
     1
 90
        0
176
     1
 90
        0
176
     1
290
     0
176
     1
 90
        1
176
     1
 40
0.0
176
     1
 90
        0
176
     1
290
     0
176
     1
290
     1
176
     1
290
     1
176
     1
290
     0
176
     1
290
     0
176
     1
290
     0
176
     1
290
     0
176
     1
290
     0
176
     1
290
     0
176
     1
 90
       50
176
     1
 40
0.0
176
     1
 40
1.0
176
     1
 90
        0
176
     1
 62
    18
420
        0
176
     1
 90
       50
176
     1
 90
        3
176
     1
 62
     5
420
      255
176
     1
290
     0
176
     1
 90
       50
176
     1
 90
       50
176
     1
 90
       50
176
     1
290
     0
176
     1
 90
       50
176
     1
 62
   256
176
     0
 40
1.0
176
     0
 90
        2
176
     1
  1
strokes_ogs.tif
176
     1
290
     0
176
     1
 40
1.0
176
     1
 40
1.0
176
     1
  0
VISUALSTYLE
  5
3F
102
{ACAD_REACTORS
330
2A
102
}
330
2A
100
AcDbVisualStyle
  2
Sketchy
 70
    24
177
     3
291
     0
 70
    58
 90
        1
176
     1
 90
        2
176
     1
 90
        2
176
     1
 90
        0
176
     1
 40
0.6
176
     1
 40
30.0
176
     1
 62
     7
420
 16777215
176
     1
 90
        2
176
     1
 90
        2
176
     1
 62
     7
176
     1
 62
     7
176
     1
 90
        1
176
     1
 90
        1
176
     1
 40
40.0
176
     1
 90
       11
176
     1
 62
     7
176
     1
 40
1.0
176
     1
 90
        1
176
     1
 90
        6
176
     1
 90
        2
176
     1
 62
     7
176
     1
 90
        6
176
     1
 90
        0
176
     1
 90
        0
176
     1
290
     0
176
     1
 90
        1
176
     1
 40
0.0
176
     1
 90
        0
176
     1
290
     0
176
     1
290
     1
176
     1
290
     1
176
     1
290
     0
176
     1
290
     0
176
     1
290
     0
176
     1
290
     0
176
     1
290
     0
176
     1
290
     0
176
     1
 90
       50
176
     1
 40
0.0
176
     1
 40
1.0
176
     1
 90
        0
176
     1
 62
    18
420
        0
176
     1
 90
       50
176
     1
 90
        3
176
     1
 62
     5
420
      255
176
     1
290
     0
176
     1
 90
       50
176
     1
 90
       50
176
     1
 90
       50
176
     1
290
     0
176
     1
 90
       50
176
     1
 62
   256
176
     0
 40
1.0
176
     0
 90
        2
176
     1
  1
strokes_ogs.tif
176
     1
290
     0
176
     1
 40
1.0
176
     1
 40
1.0
176
     1
  0
VISUALSTYLE
  5
37
102
{ACAD_REACTORS
330
2A
102
}
330
2A
100
AcDbVisualStyle
  2
Thicken
 70
    13
177
     3
291
     1
 70
    58
 90
        2
176
     1
 90
        2
176
     1
 90
        0
176
     1
 90
        0
176
     1
 40
0.6
176
     1
 40
30.0
176
     1
 62
     7
420
 16777215
176
     1
 90
        1
176
     1
 90
        4
176
     1
 62
     7
176
     1
 62
   257
176
     1
 90
        1
176
     1
 90
        1
176
     1
 40
1.0
176
     1
 90
       12
176
     1
 62
     7
176
     1
 40
1.0
176
     1
 90
        1
176
     1
 90
        6
176
     1
 90
        2
176
     1
 62
     7
176
     1
 90
        5
176
     1
 90
        0
176
     1
 90
        0
176
     1
290
     0
176
     1
 90
        1
176
     1
 40
0.0
176
     1
 90
        0
176
     1
290
     0
176
     1
290
     1
176
     1
290
     1
176
     1
290
     0
176
     1
290
     0
176
     1
290
     0
176
     1
290
     0
176
     1
290
     0
176
     1
290
     0
176
     1
 90
       50
176
     1
 40
0.0
176
     1
 40
1.0
176
     1
 90
        0
176
     1
 62
    18
420
        0
176
     1
 90
       50
176
     1
 90
        3
176
     1
 62
     5
420
      255
176
     1
290
     0
176
     1
 90
       50
176
     1
 90
       50
176
     1
 90
       50
176
     1
290
     0
176
     1
 90
       50
176
     1
 62
   256
176
     0
 40
1.0
176
     0
 90
        2
176
     1
  1
strokes_ogs.tif
176
     1
290
     0
176
     1
 40
1.0
176
     1
 40
1.0
176
     1
  0
VISUALSTYLE
  5
30
102
{ACAD_REACTORS
330
2A
102
}
330
2A
100
AcDbVisualStyle
  2
Wireframe
 70
     5
177
     3
291
     0
 70
    58
 90
        0
176
     1
 90
        2
176
     1
 90
        0
176
     1
 90
        0
176
     1
 40
0.6
176
     1
 40
30.0
176
     1
 62
     7
420
 16777215
176
     1
 90
        1
176
     1
 90
        4
176
     1
 62
     7
176
     1
 62
   257
176
     1
 90
        1
176
     1
 90
        1
176
     1
 40
1.0
176
     1
 90
        0
176
     1
 62
   257
176
     1
 40
1.0
176
     1
 90
        1
176
     1
 90
        6
176
     1
 90
        2
176
     1
 62
     7
176
     1
 90
        3
176
     1
 90
        0
176
     1
 90
        0
176
     1
290
     0
176
     1
 90
        1
176
     1
 40
0.0
176
     1
 90
        0
176
     1
290
     0
176
     1
290
     1
176
     1
290
     1
176
     1
290
     0
176
     1
290
     0
176
     1
290
     0
176
     1
290
     0
176
     1
290
     0
176
     1
290
     0
176
     1
 90
       50
176
     1
 40
0.0
176
     1
 40
1.0
176
     1
 90
        0
176
     1
 62
    18
420
        0
176
     1
 90
       50
176
     1
 90
        3
176
     1
 62
     5
420
      255
176
     1
290
     0
176
     1
 90
       50
176
     1
 90
       50
176
     1
 90
       50
176
     1
290
     0
176
     1
 90
       50
176
     1
 62
   256
176
     0
 40
1.0
176
     0
 90
        2
176
     1
  1
strokes_ogs.tif
176
     1
290
     0
176
     1
 40
1.0
176
     1
 40
1.0
176
     1
  0
VISUALSTYLE
  5
40
102
{ACAD_REACTORS
330
2A
102
}
330
2A
100
AcDbVisualStyle
  2
X-Ray
 70
    25
177
     3
291
     0
 70
    58
 90
        2
176
     1
 90
        2
176
     1
 90
        1
176
     1
 90
        1
176
     1
 40
0.5
176
     1
 40
30.0
176
     1
 62
     7
420
 16777215
176
     1
 90
        1
176
     1
 90
        0
176
     1
 62
     7
176
     1
 62
   257
176
     1
 90
        1
176
     1
 90
        1
176
     1
 40
1.0
176
     1
 90
        8
176
     1
 62
     7
176
     1
 40
1.0
176
     1
 90
        1
176
     1
 90
        6
176
     1
 90
        2
176
     1
 62
     7
176
     1
 90
        3
176
     1
 90
        0
176
     1
 90
        0
176
     1
290
     0
176
     1
 90
       13
176
     1
 40
0.0
176
     1
 90
        0
176
     1
290
     0
176
     1
290
     1
176
     1
290
     1
176
     1
290
     0
176
     1
290
     0
176
     1
290
     0
176
     1
290
     0
176
     1
290
     0
176
     1
290
     0
176
     1
 90
       50
176
     1
 40
0.0
176
     1
 40
1.0
176
     1
 90
        0
176
     1
 62
    18
420
        0
176
     1
 90
       50
176
     1
 90
        3
176
     1
 62
     5
420
      255
176
     1
290
     0
176
     1
 90
       50
176
     1
 90
       50
176
     1
 90
       50
176
     1
290
     0
176
     1
 90
       50
176
     1
 62
   256
176
     0
 40
1.0
176
     0
 90
        2
176
     1
  1
strokes_ogs.tif
176
     1
290
     0
176
     1
 40
1.0
176
     1
 40
1.0
176
     1
  0
DICTIONARYVAR
  5
F3
102
{ACAD_REACTORS
330
F2
102
}
330
F2
100
DictionaryVariables
280
     0
  1
1:1
  0
DICTIONARYVAR
  5
FC
102
{ACAD_REACTORS
330
F2
102
}
330
F2
100
DictionaryVariables
280
     0
  1
3.500000
  0
DICTIONARYVAR
  5
FD
102
{ACAD_REACTORS
330
F2
102
}
330
F2
100
DictionaryVariables
280
     0
  1
acadiso.lin
  0
DICTIONARYVAR
  5
F8
102
{ACAD_REACTORS
330
F2
102
}
330
F2
100
DictionaryVariables
280
     0
  1
Standard
  0
DICTIONARYVAR
  5
F7
102
{ACAD_REACTORS
330
F2
102
}
330
F2
100
DictionaryVariables
280
     0
  1
Standard
  0
DICTIONARYVAR
  5
FB
102
{ACAD_REACTORS
330
F2
102
}
330
F2
100
DictionaryVariables
280
     0
  1
0
  0
DICTIONARY
  5
F4
330
6A
100
AcDbDictionary
280
     1
281
     1
  3
ACAD_ROUNDTRIP_2008_TABLESTYLE_CELLSTYLEMAP
360
F5
  0
CELLSTYLEMAP
  5
F5
102
{ACAD_REACTORS
330
F4
102
}
330
F4
100
AcDbCellStyleMap
 90
        3
300
CELLSTYLE
  1
TABLEFORMAT_BEGIN
 90
        5
170
     1
 91
        0
 92
    32768
 62
   257
 93
        1
300
CONTENTFORMAT
  1
CONTENTFORMAT_BEGIN
 90
        0
 91
        0
 92
        4
 93
        0
300

 40
0.0
140
1.0
 94
        5
 62
     0
340
11
144
6.0
309
CONTENTFORMAT_END
171
     1
301
MARGIN
  1
CELLMARGIN_BEGIN
 40
1.5
 40
1.5
 40
1.5
 40
1.5
 40
1.5
 40
1.5
309
CELLMARGIN_END
 94
        6
 95
        1
302
GRIDFORMAT
  1
GRIDFORMAT_BEGIN
 90
        0
 91
        1
 62
     0
 92
       -2
340
14
 93
        0
 40
0.045
309
GRIDFORMAT_END
 95
        2
302
GRIDFORMAT
  1
GRIDFORMAT_BEGIN
 90
        0
 91
        1
 62
     0
 92
       -2
340
14
 93
        0
 40
0.045
309
GRIDFORMAT_END
 95
        4
302
GRIDFORMAT
  1
GRIDFORMAT_BEGIN
 90
        0
 91
        1
 62
     0
 92
       -2
340
14
 93
        0
 40
0.045
309
GRIDFORMAT_END
 95
        8
302
GRIDFORMAT
  1
GRIDFORMAT_BEGIN
 90
        0
 91
        1
 62
     0
 92
       -2
340
14
 93
        0
 40
0.045
309
GRIDFORMAT_END
 95
       16
302
GRIDFORMAT
  1
GRIDFORMAT_BEGIN
 90
        0
 91
        1
 62
     0
 92
       -2
340
14
 93
        0
 40
0.045
309
GRIDFORMAT_END
 95
       32
302
GRIDFORMAT
  1
GRIDFORMAT_BEGIN
 90
        0
 91
        1
 62
     0
 92
       -2
340
14
 93
        0
 40
0.045
309
GRIDFORMAT_END
309
TABLEFORMAT_END
  1
CELLSTYLE_BEGIN
 90
        1
 91
        1
300
_TITLE
309
CELLSTYLE_END
300
CELLSTYLE
  1
TABLEFORMAT_BEGIN
 90
        5
170
     1
 91
        0
 92
        0
 62
   257
 93
        1
300
CONTENTFORMAT
  1
CONTENTFORMAT_BEGIN
 90
        0
 91
        0
 92
        4
 93
        0
300

 40
0.0
140
1.0
 94
        5
 62
     0
340
11
144
4.5
309
CONTENTFORMAT_END
171
     1
301
MARGIN
  1
CELLMARGIN_BEGIN
 40
1.5
 40
1.5
 40
1.5
 40
1.5
 40
1.5
 40
1.5
309
CELLMARGIN_END
 94
        6
 95
        1
302
GRIDFORMAT
  1
GRIDFORMAT_BEGIN
 90
        0
 91
        1
 62
     0
 92
       -2
340
14
 93
        0
 40
0.045
309
GRIDFORMAT_END
 95
        2
302
GRIDFORMAT
  1
GRIDFORMAT_BEGIN
 90
        0
 91
        1
 62
     0
 92
       -2
340
14
 93
        0
 40
0.045
309
GRIDFORMAT_END
 95
        4
302
GRIDFORMAT
  1
GRIDFORMAT_BEGIN
 90
        0
 91
        1
 62
     0
 92
       -2
340
14
 93
        0
 40
0.045
309
GRIDFORMAT_END
 95
        8
302
GRIDFORMAT
  1
GRIDFORMAT_BEGIN
 90
        0
 91
        1
 62
     0
 92
       -2
340
14
 93
        0
 40
0.045
309
GRIDFORMAT_END
 95
       16
302
GRIDFORMAT
  1
GRIDFORMAT_BEGIN
 90
        0
 91
        1
 62
     0
 92
       -2
340
14
 93
        0
 40
0.045
309
GRIDFORMAT_END
 95
       32
302
GRIDFORMAT
  1
GRIDFORMAT_BEGIN
 90
        0
 91
        1
 62
     0
 92
       -2
340
14
 93
        0
 40
0.045
309
GRIDFORMAT_END
309
TABLEFORMAT_END
  1
CELLSTYLE_BEGIN
 90
        2
 91
        1
300
_HEADER
309
CELLSTYLE_END
300
CELLSTYLE
  1
TABLEFORMAT_BEGIN
 90
        5
170
     1
 91
        0
 92
        0
 62
   257
 93
        1
300
CONTENTFORMAT
  1
CONTENTFORMAT_BEGIN
 90
        0
 91
        0
 92
        4
 93
        0
300

 40
0.0
140
1.0
 94
        2
 62
     0
340
11
144
4.5
309
CONTENTFORMAT_END
171
     1
301
MARGIN
  1
CELLMARGIN_BEGIN
 40
1.5
 40
1.5
 40
1.5
 40
1.5
 40
1.5
 40
1.5
309
CELLMARGIN_END
 94
        6
 95
        1
302
GRIDFORMAT
  1
GRIDFORMAT_BEGIN
 90
        0
 91
        1
 62
     0
 92
       -2
340
14
 93
        0
 40
0.045
309
GRIDFORMAT_END
 95
        2
302
GRIDFORMAT
  1
GRIDFORMAT_BEGIN
 90
        0
 91
        1
 62
     0
 92
       -2
340
14
 93
        0
 40
0.045
309
GRIDFORMAT_END
 95
        4
302
GRIDFORMAT
  1
GRIDFORMAT_BEGIN
 90
        0
 91
        1
 62
     0
 92
       -2
340
14
 93
        0
 40
0.045
309
GRIDFORMAT_END
 95
        8
302
GRIDFORMAT
  1
GRIDFORMAT_BEGIN
 90
        0
 91
        1
 62
     0
 92
       -2
340
14
 93
        0
 40
0.045
309
GRIDFORMAT_END
 95
       16
302
GRIDFORMAT
  1
GRIDFORMAT_BEGIN
 90
        0
 91
        1
 62
     0
 92
       -2
340
14
 93
        0
 40
0.045
309
GRIDFORMAT_END
 95
       32
302
GRIDFORMAT
  1
GRIDFORMAT_BEGIN
 90
        0
 91
        1
 62
     0
 92
       -2
340
14
 93
        0
 40
0.045
309
GRIDFORMAT_END
309
TABLEFORMAT_END
  1
CELLSTYLE_BEGIN
 90
        3
 91
        2
300
_DATA
309
CELLSTYLE_END
  0
ENDSEC
  0
EOF
