  0
SECTION
  2
HEADER
  9
$ACADVER
  1
AC1014
  9
$ACADMAINTVER
 70
     9
  9
$DWGCODEPAGE
  3
ANSI_1252
  9
$INSBASE
 10
0.0
 20
0.0
 30
0.0
  9
$EXTMIN
 10
1.000000000000000E+20
 20
1.000000000000000E+20
 30
1.000000000000000E+20
  9
$EXTMAX
 10
-1.000000000000000E+20
 20
-1.000000000000000E+20
 30
-1.000000000000000E+20
  9
$LIMMIN
 10
0.0
 20
0.0
  9
$LIMMAX
 10
12.0
 20
9.0
  9
$ORTHOMODE
 70
     0
  9
$REGENMODE
 70
     1
  9
$FILLMODE
 70
     1
  9
$QTEXTMODE
 70
     0
  9
$MIRRTEXT
 70
     1
  9
$DRAGMODE
 70
     2
  9
$LTSCALE
 40
12.7
  9
$OSMODE
 70
    23
  9
$ATTMODE
 70
     1
  9
$TEXTSIZE
 40
3.5
  9
$TRACEWID
 40
0.05
  9
$TEXTSTYLE
  7
ONSHAPE-STANDARD
  9
$CLAYER
  8
0
  9
$CELTYPE
  6
BYLAYER
  9
$CECOLOR
 62
   256
  9
$CELTSCALE
 40
1.0
  9
$DELOBJ
 70
     1
  9
$DISPSILH
 70
     0
  9
$DIMSCALE
 40
1.0
  9
$DIMASZ
 40
2.5
  9
$DIMEXO
 40
0.625
  9
$DIMDLI
 40
3.75
  9
$DIMRND
 40
0.0
  9
$DIMDLE
 40
0.0
  9
$DIMEXE
 40
1.25
  9
$DIMTP
 40
0.0
  9
$DIMTM
 40
0.0
  9
$DIMTXT
 40
3.5
  9
$DIMCEN
 40
2.5
  9
$DIMTSZ
 40
0.0
  9
$DIMTOL
 70
     0
  9
$DIMLIM
 70
     0
  9
$DIMTIH
 70
     0
  9
$DIMTOH
 70
     0
  9
$DIMSE1
 70
     0
  9
$DIMSE2
 70
     0
  9
$DIMTAD
 70
     1
  9
$DIMZIN
 70
     8
  9
$DIMBLK
  1

  9
$DIMASO
 70
     1
  9
$DIMSHO
 70
     1
  9
$DIMPOST
  1

  9
$DIMAPOST
  1

  9
$DIMALT
 70
     0
  9
$DIMALTD
 70
     3
  9
$DIMALTF
 40
0.03937
  9
$DIMLFAC
 40
1.0
  9
$DIMTOFL
 70
     1
  9
$DIMTVP
 40
0.0
  9
$DIMTIX
 70
     0
  9
$DIMSOXD
 70
     0
  9
$DIMSAH
 70
     0
  9
$DIMBLK1
  1

  9
$DIMBLK2
  1

  9
$DIMSTYLE
  2
ONSHAPE-ISO-25
  9
$DIMCLRD
 70
     0
  9
$DIMCLRE
 70
     0
  9
$DIMCLRT
 70
     0
  9
$DIMTFAC
 40
1.0
  9
$DIMGAP
 40
0.625
  9
$DIMJUST
 70
     0
  9
$DIMSD1
 70
     0
  9
$DIMSD2
 70
     0
  9
$DIMTOLJ
 70
     0
  9
$DIMTZIN
 70
     8
  9
$DIMALTZ
 70
     0
  9
$DIMALTTZ
 70
     0
  9
$DIMFIT
 70
     3
  9
$DIMUPT
 70
     1
  9
$DIMUNIT
 70
     2
  9
$DIMDEC
 70
     2
  9
$DIMTDEC
 70
     2
  9
$DIMALTU
 70
     2
  9
$DIMALTTD
 70
     3
  9
$DIMTXSTY
  7
ONSHAPE-STANDARD-DIMENSION
  9
$DIMAUNIT
 70
     0
  9
$LUNITS
 70
     2
  9
$LUPREC
 70
     4
  9
$SKETCHINC
 40
0.1
  9
$FILLETRAD
 40
0.5
  9
$AUNITS
 70
     0
  9
$AUPREC
 70
     0
  9
$MENU
  1
.
  9
$ELEVATION
 40
0.0
  9
$PELEVATION
 40
0.0
  9
$THICKNESS
 40
0.0
  9
$LIMCHECK
 70
     0
  9
$CHAMFERA
 40
0.0
  9
$CHAMFERB
 40
0.0
  9
$CHAMFERC
 40
0.0
  9
$CHAMFERD
 40
0.0
  9
$SKPOLY
 70
     0
  9
$TDCREATE
 40
2457811.720671285
  9
$TDUPDATE
 40
2457811.720671285
  9
$TDINDWG
 40
0.0
  9
$TDUSRTIMER
 40
0.0
  9
$USRTIMER
 70
     1
  9
$ANGBASE
 50
0.0
  9
$ANGDIR
 70
     0
  9
$PDMODE
 70
     0
  9
$PDSIZE
 40
0.0
  9
$PLINEWID
 40
0.0
  9
$COORDS
 70
     1
  9
$SPLFRAME
 70
     0
  9
$SPLINETYPE
 70
     6
  9
$SPLINESEGS
 70
     8
  9
$ATTDIA
 70
     0
  9
$ATTREQ
 70
     1
  9
$HANDLING
 70
     1
  9
$HANDSEED
  5
2C5
  9
$SURFTAB1
 70
     6
  9
$SURFTAB2
 70
     6
  9
$SURFTYPE
 70
     6
  9
$SURFU
 70
     6
  9
$SURFV
 70
     6
  9
$UCSNAME
  2

  9
$UCSORG
 10
0.0
 20
0.0
 30
0.0
  9
$UCSXDIR
 10
1.0
 20
0.0
 30
0.0
  9
$UCSYDIR
 10
0.0
 20
1.0
 30
0.0
  9
$PUCSNAME
  2

  9
$PUCSORG
 10
0.0
 20
0.0
 30
0.0
  9
$PUCSXDIR
 10
1.0
 20
0.0
 30
0.0
  9
$PUCSYDIR
 10
0.0
 20
1.0
 30
0.0
  9
$USERI1
 70
     0
  9
$USERI2
 70
     0
  9
$USERI3
 70
     0
  9
$USERI4
 70
     0
  9
$USERI5
 70
     0
  9
$USERR1
 40
0.0
  9
$USERR2
 40
0.0
  9
$USERR3
 40
0.0
  9
$USERR4
 40
0.0
  9
$USERR5
 40
0.0
  9
$WORLDVIEW
 70
     1
  9
$SHADEDGE
 70
     3
  9
$SHADEDIF
 70
    70
  9
$TILEMODE
 70
     1
  9
$MAXACTVP
 70
    64
  9
$PINSBASE
 10
0.0
 20
0.0
 30
0.0
  9
$PLIMCHECK
 70
     0
  9
$PEXTMIN
 10
1.000000000000000E+20
 20
1.000000000000000E+20
 30
1.000000000000000E+20
  9
$PEXTMAX
 10
-1.000000000000000E+20
 20
-1.000000000000000E+20
 30
-1.000000000000000E+20
  9
$PLIMMIN
 10
0.0
 20
0.0
  9
$PLIMMAX
 10
12.0
 20
9.0
  9
$UNITMODE
 70
     0
  9
$VISRETAIN
 70
     1
  9
$PLINEGEN
 70
     0
  9
$PSLTSCALE
 70
     1
  9
$TREEDEPTH
 70
  3020
  9
$PICKSTYLE
 70
     1
  9
$CMLSTYLE
  2
STANDARD
  9
$CMLJUST
 70
     0
  9
$CMLSCALE
 40
1.0
  9
$PROXYGRAPHICS
 70
     1
  9
$MEASUREMENT
 70
     0
  0
ENDSEC
  0
SECTION
  2
CLASSES
  0
CLASS
  1
ACDBDICTIONARYWDFLT
  2
AcDbDictionaryWithDefault
  3
ObjectDBX Classes
 90
        0
280
     0
281
     0
  0
CLASS
  1
VISUALSTYLE
  2
AcDbVisualStyle
  3
ObjectDBX Classes
 90
     4095
280
     0
281
     0
  0
CLASS
  1
MATERIAL
  2
AcDbMaterial
  3
ObjectDBX Classes
 90
     1153
280
     0
281
     0
  0
CLASS
  1
SCALE
  2
AcDbScale
  3
ObjectDBX Classes
 90
     1153
280
     0
281
     0
  0
CLASS
  1
SUN
  2
AcDbSun
  3
SCENEOE
 90
     1153
280
     0
281
     0
  0
CLASS
  1
TABLESTYLE
  2
AcDbTableStyle
  3
ObjectDBX Classes
 90
     4095
280
     0
281
     0
  0
CLASS
  1
DICTIONARYVAR
  2
AcDbDictionaryVar
  3
ObjectDBX Classes
 90
        0
280
     0
281
     0
  0
CLASS
  1
XRECORD
  2
AcDbXrecord
  3
ObjectDBX Classes
 90
        0
280
     0
281
     0
  0
CLASS
  1
LWPOLYLINE
  2
AcDbPolyline
  3
ObjectDBX Classes
 90
        0
280
     0
281
     1
  0
CLASS
  1
HATCH
  2
AcDbHatch
  3
ObjectDBX Classes
 90
        0
280
     0
281
     1
  0
CLASS
  1
ACDBPLACEHOLDER
  2
AcDbPlaceHolder
  3
ObjectDBX Classes
 90
        0
280
     0
281
     0
  0
CLASS
  1
LAYOUT
  2
AcDbLayout
  3
ObjectDBX Classes
 90
        0
280
     0
281
     0
  0
ENDSEC
  0
SECTION
  2
TABLES
  0
TABLE
  2
VPORT
  5
8
330
0
100
AcDbSymbolTable
 70
     1
  0
VPORT
  5
29
330
8
100
AcDbSymbolTableRecord
100
AcDbViewportTableRecord
  2
*ACTIVE
 70
     0
 10
0.0
 20
0.0
 11
1.0
 21
1.0
 12
434.5000000000176
 22
589.7837042162428
 13
0.0
 23
0.0
 14
0.5
 24
0.5
 15
0.5
 25
0.5
 16
0.0
 26
0.0
 36
1.0
 17
0.0
 27
0.0
 37
0.0
 40
443.700000000058
 41
1.816091954022825
 42
50.0
 43
0.0
 44
0.0
 50
0.0
 51
0.0
 71
     0
 72
   100
 73
     1
 74
     3
 75
     0
 76
     0
 77
     0
 78
     0
  0
ENDTAB
  0
TABLE
  2
LTYPE
  5
5
330
0
100
AcDbSymbolTable
 70
     1
  0
LTYPE
  5
14
330
5
100
AcDbSymbolTableRecord
100
AcDbLinetypeTableRecord
  2
BYBLOCK
 70
     0
  3

 72
    65
 73
     0
 40
0.0
  0
LTYPE
  5
15
330
5
100
AcDbSymbolTableRecord
100
AcDbLinetypeTableRecord
  2
BYLAYER
 70
     0
  3

 72
    65
 73
     0
 40
0.0
  0
LTYPE
  5
16
330
5
100
AcDbSymbolTableRecord
100
AcDbLinetypeTableRecord
  2
CONTINUOUS
 70
     0
  3
Solid line
 72
    65
 73
     0
 40
0.0
  0
ENDTAB
  0
TABLE
  2
LAYER
  5
2
330
0
100
AcDbSymbolTable
 70
     2
  0
LAYER
  5
10
330
2
100
AcDbSymbolTableRecord
100
AcDbLayerTableRecord
  2
0
 70
     0
 62
     7
  6
CONTINUOUS
  0
LAYER
  5
71
330
2
100
AcDbSymbolTableRecord
100
AcDbLayerTableRecord
  2
VISIBLE
 70
     0
 62
     7
  6
CONTINUOUS
  0
ENDTAB
  0
TABLE
  2
STYLE
  5
3
330
0
100
AcDbSymbolTable
 70
     3
  0
STYLE
  5
11
330
3
100
AcDbSymbolTableRecord
100
AcDbTextStyleTableRecord
  2
STANDARD
 70
     0
 40
0.0
 41
1.0
 50
0.0
 71
     0
 42
3.5
  3
txt
  4

  0
STYLE
  5
6E
330
3
100
AcDbSymbolTableRecord
100
AcDbTextStyleTableRecord
  2
ONSHAPE-STANDARD
 70
     0
 40
0.0
 41
1.0
 50
0.0
 71
     0
 42
3.5
  3
NotoSans-Regular.ttf
  4

1001
ACAD
1000
Noto Sans
1071
        0
  0
STYLE
  5
70
330
3
100
AcDbSymbolTableRecord
100
AcDbTextStyleTableRecord
  2
ONSHAPE-STANDARD-DIMENSION
 70
     0
 40
0.0
 41
1.0
 50
0.0
 71
     0
 42
3.5
  3

  4

1001
ACAD
1000
Noto Sans
1071
        0
  0
ENDTAB
  0
TABLE
  2
VIEW
  5
6
330
0
100
AcDbSymbolTable
 70
     0
  0
ENDTAB
  0
TABLE
  2
UCS
  5
7
330
0
100
AcDbSymbolTable
 70
     0
  0
ENDTAB
  0
TABLE
  2
APPID
  5
9
330
0
100
AcDbSymbolTable
 70
     1
  0
APPID
  5
12
330
9
100
AcDbSymbolTableRecord
100
AcDbRegAppTableRecord
  2
ACAD
 70
     0
  0
ENDTAB
  0
TABLE
  2
DIMSTYLE
  5
A
330
0
100
AcDbSymbolTable
 70
     2
  0
DIMSTYLE
105
27
330
A
100
AcDbSymbolTableRecord
100
AcDbDimStyleTableRecord
  2
STANDARD
 70
     0
  3

  4

  5

  6

  7

 40
1.0
 41
0.18
 42
0.0625
 43
0.38
 44
0.18
 45
0.0
 46
0.0
 47
0.0
 48
0.0
140
0.18
141
0.09
142
0.0
143
25.4
144
1.0
145
0.0
146
1.0
147
0.09
 71
     0
 72
     0
 73
     1
 74
     1
 75
     0
 76
     0
 77
     0
 78
     0
170
     0
171
     2
172
     0
173
     0
174
     0
175
     0
176
     0
177
     0
178
     0
270
     2
271
     4
272
     4
273
     2
274
     2
340
11
275
     0
280
     0
281
     0
282
     0
283
     1
284
     0
285
     0
286
     0
287
     3
288
     0
  0
DIMSTYLE
105
6F
330
A
100
AcDbSymbolTableRecord
100
AcDbDimStyleTableRecord
  2
ONSHAPE-ISO-25
 70
     0
  3

  4

  5

  6

  7

 40
1.0
 41
2.5
 42
0.625
 43
3.75
 44
1.25
 45
0.0
 46
0.0
 47
0.0
 48
0.0
140
3.5
141
2.5
142
0.0
143
0.03937
144
1.0
145
0.0
146
1.0
147
0.625
 71
     0
 72
     0
 73
     0
 74
     0
 75
     0
 76
     0
 77
     1
 78
     8
170
     0
171
     3
172
     1
173
     0
174
     0
175
     0
176
     0
177
     0
178
     0
179
     1
270
     2
271
     2
272
     2
273
     2
274
     3
340
70
275
     0
280
     0
281
     0
282
     0
283
     0
284
     8
285
     0
286
     0
287
     3
288
     1
  0
ENDTAB
  0
TABLE
  2
BLOCK_RECORD
  5
1
330
0
100
AcDbSymbolTable
 70
     1
  0
BLOCK_RECORD
  5
1F
330
1
100
AcDbSymbolTableRecord
100
AcDbBlockTableRecord
  2
*MODEL_SPACE
  0
BLOCK_RECORD
  5
1B
330
1
100
AcDbSymbolTableRecord
100
AcDbBlockTableRecord
  2
*PAPER_SPACE
  0
ENDTAB
  0
ENDSEC
  0
SECTION
  2
BLOCKS
  0
BLOCK
  5
20
330
1F
100
AcDbEntity
  8
0
100
AcDbBlockBegin
  2
*MODEL_SPACE
 70
     0
 10
0.0
 20
0.0
 30
0.0
  3
*MODEL_SPACE
  1

  0
ENDBLK
  5
21
330
1F
100
AcDbEntity
  8
0
100
AcDbBlockEnd
  0
BLOCK
  5
1C
330
1B
100
AcDbEntity
 67
     1
  8
0
100
AcDbBlockBegin
  2
*PAPER_SPACE
 70
     0
 10
0.0
 20
0.0
 30
0.0
  3
*PAPER_SPACE
  1

  0
ENDBLK
  5
1D
330
1B
100
AcDbEntity
 67
     1
  8
0
100
AcDbBlockEnd
  0
ENDSEC
  0
SECTION
  2
ENTITIES
  0
LINE
  5
73
330
1F
100
AcDbEntity
  8
VISIBLE
100
AcDbLine
 10
531.5000000000016
 20
621.0772422413206
 30
0.0
 11
534.5000000000016
 21
621.0772422413206
 31
0.0
  0
LINE
  5
74
330
1F
100
AcDbEntity
  8
VISIBLE
100
AcDbLine
 10
531.5000000000016
 20
581.0772422413206
 30
0.0
 11
534.5000000000016
 21
581.0772422413206
 31
0.0
  0
LINE
  5
75
330
1F
100
AcDbEntity
  8
VISIBLE
100
AcDbLine
 10
242.5000000000016
 20
561.0772422413207
 30
0.0
 11
531.5000000000016
 21
561.0772422413207
 31
0.0
  0
LINE
  5
76
330
1F
100
AcDbEntity
  8
VISIBLE
100
AcDbLine
 10
239.5000000000016
 20
581.0772422413206
 30
0.0
 11
242.5000000000016
 21
581.0772422413206
 31
0.0
  0
LINE
  5
77
330
1F
100
AcDbEntity
  8
VISIBLE
100
AcDbLine
 10
242.5000000000016
 20
621.0772422413206
 30
0.0
 11
242.5000000000016
 21
601.0772422413206
 31
0.0
  0
LINE
  5
78
330
1F
100
AcDbEntity
  8
VISIBLE
100
AcDbLine
 10
239.5000000000016
 20
621.0772422413206
 30
0.0
 11
242.5000000000016
 21
621.0772422413206
 31
0.0
  0
LINE
  5
79
330
1F
100
AcDbEntity
  8
VISIBLE
100
AcDbLine
 10
239.5000000000016
 20
641.0772422413207
 30
0.0
 11
242.5000000000016
 21
641.0772422413207
 31
0.0
  0
LINE
  5
7A
330
1F
100
AcDbEntity
  8
VISIBLE
100
AcDbLine
 10
242.5000000000016
 20
661.0772422413207
 30
0.0
 11
242.5000000000016
 21
641.0772422413207
 31
0.0
  0
LINE
  5
7B
330
1F
100
AcDbEntity
  8
VISIBLE
100
AcDbLine
 10
242.5000000000016
 20
661.0772422413207
 30
0.0
 11
531.5000000000016
 21
661.0772422413207
 31
0.0
  0
LINE
  5
7C
330
1F
100
AcDbEntity
  8
VISIBLE
100
AcDbLine
 10
300.4999999999736
 20
577.0772422413206
 30
0.0
 11
300.4999999999736
 21
574.0772422413206
 31
0.0
  0
LINE
  5
7D
330
1F
100
AcDbEntity
  8
VISIBLE
100
AcDbLine
 10
357.9000000000166
 20
574.0772422413206
 30
0.0
 11
300.4999999999736
 21
574.0772422413206
 31
0.0
  0
LINE
  5
7E
330
1F
100
AcDbEntity
  8
VISIBLE
100
AcDbLine
 10
357.9000000000166
 20
577.0772422413206
 30
0.0
 11
357.9000000000166
 21
574.0772422413206
 31
0.0
  0
LINE
  5
7F
330
1F
100
AcDbEntity
  8
VISIBLE
100
AcDbLine
 10
357.9000000000166
 20
577.0772422413206
 30
0.0
 11
300.4999999999736
 21
577.0772422413206
 31
0.0
  0
LINE
  5
80
330
1F
100
AcDbEntity
  8
VISIBLE
100
AcDbLine
 10
300.4999999999736
 20
657.0772422413207
 30
0.0
 11
300.4999999999736
 21
654.0772422413207
 31
0.0
  0
LINE
  5
81
330
1F
100
AcDbEntity
  8
VISIBLE
100
AcDbLine
 10
357.9000000000166
 20
654.0772422413207
 30
0.0
 11
300.4999999999736
 21
654.0772422413207
 31
0.0
  0
LINE
  5
82
330
1F
100
AcDbEntity
  8
VISIBLE
100
AcDbLine
 10
357.9000000000166
 20
657.0772422413207
 30
0.0
 11
300.4999999999736
 21
657.0772422413207
 31
0.0
  0
LINE
  5
83
330
1F
100
AcDbEntity
  8
VISIBLE
100
AcDbLine
 10
416.0999999999961
 20
657.0772422413207
 30
0.0
 11
416.0999999999961
 21
654.0772422413207
 31
0.0
  0
LINE
  5
84
330
1F
100
AcDbEntity
  8
VISIBLE
100
AcDbLine
 10
473.5000000000016
 20
657.0772422413207
 30
0.0
 11
416.0999999999961
 21
657.0772422413207
 31
0.0
  0
LINE
  5
85
330
1F
100
AcDbEntity
  8
VISIBLE
100
AcDbLine
 10
416.0999999999961
 20
577.0772422413206
 30
0.0
 11
416.0999999999961
 21
574.0772422413206
 31
0.0
  0
LINE
  5
86
330
1F
100
AcDbEntity
  8
VISIBLE
100
AcDbLine
 10
473.5000000000016
 20
574.0772422413206
 30
0.0
 11
416.0999999999961
 21
574.0772422413206
 31
0.0
  0
LINE
  5
87
330
1F
100
AcDbEntity
  8
VISIBLE
100
AcDbLine
 10
473.5000000000016
 20
577.0772422413206
 30
0.0
 11
473.5000000000016
 21
574.0772422413206
 31
0.0
  0
LINE
  5
88
330
1F
100
AcDbEntity
  8
VISIBLE
100
AcDbLine
 10
531.5000000000016
 20
641.0772422413207
 30
0.0
 11
534.5000000000016
 21
641.0772422413207
 31
0.0
  0
LINE
  5
89
330
1F
100
AcDbEntity
  8
VISIBLE
100
AcDbLine
 10
531.5000000000016
 20
661.0772422413207
 30
0.0
 11
531.5000000000016
 21
641.0772422413207
 31
0.0
  0
LINE
  5
8A
330
1F
100
AcDbEntity
  8
VISIBLE
100
AcDbLine
 10
534.5000000000016
 20
621.0772422413206
 30
0.0
 11
534.5000000000016
 21
641.0772422413207
 31
0.0
  0
LINE
  5
8B
330
1F
100
AcDbEntity
  8
VISIBLE
100
AcDbLine
 10
531.5000000000016
 20
601.0772422413206
 30
0.0
 11
534.5000000000016
 21
601.0772422413206
 31
0.0
  0
LINE
  5
8C
330
1F
100
AcDbEntity
  8
VISIBLE
100
AcDbLine
 10
473.5000000000016
 20
657.0772422413207
 30
0.0
 11
473.5000000000016
 21
654.0772422413207
 31
0.0
  0
LINE
  5
8D
330
1F
100
AcDbEntity
  8
VISIBLE
100
AcDbLine
 10
239.5000000000016
 20
621.0772422413206
 30
0.0
 11
239.5000000000016
 21
641.0772422413207
 31
0.0
  0
LINE
  5
8E
330
1F
100
AcDbEntity
  8
VISIBLE
100
AcDbLine
 10
473.5000000000016
 20
577.0772422413206
 30
0.0
 11
416.0999999999961
 21
577.0772422413206
 31
0.0
  0
LINE
  5
8F
330
1F
100
AcDbEntity
  8
VISIBLE
100
AcDbLine
 10
357.9000000000166
 20
657.0772422413207
 30
0.0
 11
357.9000000000166
 21
654.0772422413207
 31
0.0
  0
LINE
  5
90
330
1F
100
AcDbEntity
  8
VISIBLE
100
AcDbLine
 10
531.5000000000016
 20
621.0772422413206
 30
0.0
 11
531.5000000000016
 21
601.0772422413206
 31
0.0
  0
LINE
  5
91
330
1F
100
AcDbEntity
  8
VISIBLE
100
AcDbLine
 10
239.5000000000016
 20
601.0772422413206
 30
0.0
 11
242.5000000000016
 21
601.0772422413206
 31
0.0
  0
LINE
  5
92
330
1F
100
AcDbEntity
  8
VISIBLE
100
AcDbLine
 10
242.5000000000016
 20
581.0772422413206
 30
0.0
 11
242.5000000000016
 21
561.0772422413207
 31
0.0
  0
LINE
  5
93
330
1F
100
AcDbEntity
  8
VISIBLE
100
AcDbLine
 10
239.5000000000016
 20
581.0772422413206
 30
0.0
 11
239.5000000000016
 21
601.0772422413206
 31
0.0
  0
LINE
  5
94
330
1F
100
AcDbEntity
  8
VISIBLE
100
AcDbLine
 10
534.5000000000016
 20
581.0772422413206
 30
0.0
 11
534.5000000000016
 21
601.0772422413206
 31
0.0
  0
LINE
  5
95
330
1F
100
AcDbEntity
  8
VISIBLE
100
AcDbLine
 10
473.5000000000016
 20
654.0772422413207
 30
0.0
 11
416.0999999999961
 21
654.0772422413207
 31
0.0
  0
LINE
  5
96
330
1F
100
AcDbEntity
  8
VISIBLE
100
AcDbLine
 10
531.5000000000016
 20
581.0772422413206
 30
0.0
 11
531.5000000000016
 21
561.0772422413207
 31
0.0
  0
LINE
  5
97
330
1F
100
AcDbEntity
  8
VISIBLE
100
AcDbLine
 10
99.70000000000158
 20
677.2837042162712
 30
0.0
 11
119.3000000000016
 21
677.2837042162712
 31
0.0
  0
LINE
  5
98
330
1F
100
AcDbEntity
  8
VISIBLE
100
AcDbLine
 10
119.3000000000016
 20
677.2837042162712
 30
0.0
 11
119.3000000000016
 21
680.2837042162712
 31
0.0
  0
LINE
  5
99
330
1F
100
AcDbEntity
  8
VISIBLE
100
AcDbLine
 10
99.70000000000158
 20
680.2837042162712
 30
0.0
 11
119.3000000000016
 21
680.2837042162712
 31
0.0
  0
LINE
  5
9A
330
1F
100
AcDbEntity
  8
VISIBLE
100
AcDbLine
 10
99.70000000000158
 20
677.2837042162712
 30
0.0
 11
99.70000000000158
 21
680.2837042162712
 31
0.0
  0
LINE
  5
9B
330
1F
100
AcDbEntity
  8
VISIBLE
100
AcDbLine
 10
59.70000000000159
 20
677.2837042162712
 30
0.0
 11
79.3000000000016
 21
677.2837042162712
 31
0.0
  0
LINE
  5
9C
330
1F
100
AcDbEntity
  8
VISIBLE
100
AcDbLine
 10
79.3000000000016
 20
677.2837042162712
 30
0.0
 11
79.3000000000016
 21
680.2837042162712
 31
0.0
  0
LINE
  5
9D
330
1F
100
AcDbEntity
  8
VISIBLE
100
AcDbLine
 10
59.70000000000159
 20
680.2837042162712
 30
0.0
 11
79.3000000000016
 21
680.2837042162712
 31
0.0
  0
LINE
  5
9E
330
1F
100
AcDbEntity
  8
VISIBLE
100
AcDbLine
 10
59.70000000000159
 20
677.2837042162712
 30
0.0
 11
59.70000000000159
 21
680.2837042162712
 31
0.0
  0
LINE
  5
9F
330
1F
100
AcDbEntity
  8
VISIBLE
100
AcDbLine
 10
79.3000000000016
 20
372.2837042162712
 30
0.0
 11
79.3000000000016
 21
375.2837042162712
 31
0.0
  0
LINE
  5
A0
330
1F
100
AcDbEntity
  8
VISIBLE
100
AcDbLine
 10
59.70000000000159
 20
375.2837042162712
 30
0.0
 11
79.3000000000016
 21
375.2837042162712
 31
0.0
  0
LINE
  5
A1
330
1F
100
AcDbEntity
  8
VISIBLE
100
AcDbLine
 10
59.70000000000159
 20
372.2837042162712
 30
0.0
 11
59.70000000000159
 21
375.2837042162712
 31
0.0
  0
LINE
  5
A2
330
1F
100
AcDbEntity
  8
VISIBLE
100
AcDbLine
 10
39.50000000000159
 20
372.2837042162712
 30
0.0
 11
59.70000000000159
 21
372.2837042162712
 31
0.0
  0
LINE
  5
A3
330
1F
100
AcDbEntity
  8
VISIBLE
100
AcDbLine
 10
39.50000000000159
 20
372.2837042162712
 30
0.0
 11
39.50000000000159
 21
717.2837042162712
 31
0.0
  0
LINE
  5
A4
330
1F
100
AcDbEntity
  8
VISIBLE
100
AcDbLine
 10
39.50000000000159
 20
717.2837042162712
 30
0.0
 11
109.5000000000016
 21
717.2837042162712
 31
0.0
  0
ARC
  5
A5
330
1F
100
AcDbEntity
  8
VISIBLE
100
AcDbCircle
 10
109.5000000000016
 20
687.2837042162712
 30
0.0
 40
30.0
100
AcDbArc
 50
0.0
 51
90.0
  0
LINE
  5
A6
330
1F
100
AcDbEntity
  8
VISIBLE
100
AcDbLine
 10
139.5000000000016
 20
372.2837042162712
 30
0.0
 11
139.5000000000016
 21
687.2837042162712
 31
0.0
  0
LINE
  5
A7
330
1F
100
AcDbEntity
  8
VISIBLE
100
AcDbLine
 10
119.3000000000016
 20
372.2837042162712
 30
0.0
 11
139.5000000000016
 21
372.2837042162712
 31
0.0
  0
LINE
  5
A8
330
1F
100
AcDbEntity
  8
VISIBLE
100
AcDbLine
 10
119.3000000000016
 20
372.2837042162712
 30
0.0
 11
119.3000000000016
 21
375.2837042162712
 31
0.0
  0
LINE
  5
A9
330
1F
100
AcDbEntity
  8
VISIBLE
100
AcDbLine
 10
99.70000000000158
 20
375.2837042162712
 30
0.0
 11
119.3000000000016
 21
375.2837042162712
 31
0.0
  0
LINE
  5
AA
330
1F
100
AcDbEntity
  8
VISIBLE
100
AcDbLine
 10
99.70000000000158
 20
372.2837042162712
 30
0.0
 11
99.70000000000158
 21
375.2837042162712
 31
0.0
  0
LINE
  5
AB
330
1F
100
AcDbEntity
  8
VISIBLE
100
AcDbLine
 10
79.3000000000016
 20
372.2837042162712
 30
0.0
 11
99.70000000000158
 21
372.2837042162712
 31
0.0
  0
LINE
  5
AC
330
1F
100
AcDbEntity
  8
VISIBLE
100
AcDbLine
 10
103.7000000000016
 20
524.7837042162712
 30
0.0
 11
121.3000000000016
 21
524.7837042162712
 31
0.0
  0
LINE
  5
AD
330
1F
100
AcDbEntity
  8
VISIBLE
100
AcDbLine
 10
103.7000000000016
 20
527.7837042162712
 30
0.0
 11
121.3000000000016
 21
527.7837042162712
 31
0.0
  0
LINE
  5
AE
330
1F
100
AcDbEntity
  8
VISIBLE
100
AcDbLine
 10
103.7000000000016
 20
524.7837042162712
 30
0.0
 11
103.7000000000016
 21
527.7837042162712
 31
0.0
  0
LINE
  5
AF
330
1F
100
AcDbEntity
  8
VISIBLE
100
AcDbLine
 10
67.7000000000016
 20
524.7837042162712
 30
0.0
 11
85.30000000000159
 21
524.7837042162712
 31
0.0
  0
LINE
  5
B0
330
1F
100
AcDbEntity
  8
VISIBLE
100
AcDbLine
 10
85.30000000000159
 20
524.7837042162712
 30
0.0
 11
85.30000000000159
 21
527.7837042162712
 31
0.0
  0
LINE
  5
B1
330
1F
100
AcDbEntity
  8
VISIBLE
100
AcDbLine
 10
67.7000000000016
 20
527.7837042162712
 30
0.0
 11
85.30000000000159
 21
527.7837042162712
 31
0.0
  0
LINE
  5
B2
330
1F
100
AcDbEntity
  8
VISIBLE
100
AcDbLine
 10
67.7000000000016
 20
524.7837042162712
 30
0.0
 11
67.7000000000016
 21
527.7837042162712
 31
0.0
  0
LINE
  5
B3
330
1F
100
AcDbEntity
  8
VISIBLE
100
AcDbLine
 10
42.22023681555096
 20
391.8167005089417
 30
0.0
 11
45.22023681555108
 21
391.8167005089417
 31
0.0
  0
LINE
  5
B4
330
1F
100
AcDbEntity
  8
VISIBLE
100
AcDbLine
 10
45.22023681555108
 20
395.4167005089417
 30
0.0
 11
45.22023681555108
 21
391.8167005089417
 31
0.0
  0
LINE
  5
B5
330
1F
100
AcDbEntity
  8
VISIBLE
100
AcDbLine
 10
42.22023681555096
 20
395.4167005089417
 30
0.0
 11
45.22023681555108
 21
395.4167005089417
 31
0.0
  0
LINE
  5
B6
330
1F
100
AcDbEntity
  8
VISIBLE
100
AcDbLine
 10
42.22023681555102
 20
403.4167005089612
 30
0.0
 11
42.22023681555102
 21
399.8167005089417
 31
0.0
  0
LINE
  5
B7
330
1F
100
AcDbEntity
  8
VISIBLE
100
AcDbLine
 10
42.22023681555102
 20
399.8167005089417
 30
0.0
 11
45.22023681555105
 21
399.8167005089417
 31
0.0
  0
LINE
  5
B8
330
1F
100
AcDbEntity
  8
VISIBLE
100
AcDbLine
 10
42.22023681555102
 20
403.4167005089612
 30
0.0
 11
45.22023681555105
 21
403.4167005089612
 31
0.0
  0
LINE
  5
B9
330
1F
100
AcDbEntity
  8
VISIBLE
100
AcDbLine
 10
46.22023681555098
 20
564.2102385340477
 30
0.0
 11
46.22023681555098
 21
560.6102385340477
 31
0.0
  0
LINE
  5
BA
330
1F
100
AcDbEntity
  8
VISIBLE
100
AcDbLine
 10
46.22023681555098
 20
560.6102385340477
 30
0.0
 11
49.22023681555108
 21
560.6102385340477
 31
0.0
  0
LINE
  5
BB
330
1F
100
AcDbEntity
  8
VISIBLE
100
AcDbLine
 10
49.22023681555108
 20
564.2102385340477
 30
0.0
 11
49.22023681555108
 21
560.6102385340477
 31
0.0
  0
LINE
  5
BC
330
1F
100
AcDbEntity
  8
VISIBLE
100
AcDbLine
 10
46.22023681555098
 20
564.2102385340477
 30
0.0
 11
49.22023681555108
 21
564.2102385340477
 31
0.0
  0
LINE
  5
BD
330
1F
100
AcDbEntity
  8
VISIBLE
100
AcDbLine
 10
46.22023681555098
 20
572.2102385340747
 30
0.0
 11
46.22023681555098
 21
568.6102385340477
 31
0.0
  0
LINE
  5
BE
330
1F
100
AcDbEntity
  8
VISIBLE
100
AcDbLine
 10
46.22023681555098
 20
568.6102385340477
 30
0.0
 11
49.22023681555105
 21
568.6102385340477
 31
0.0
  0
LINE
  5
BF
330
1F
100
AcDbEntity
  8
VISIBLE
100
AcDbLine
 10
46.22023681555098
 20
572.2102385340747
 30
0.0
 11
49.22023681555105
 21
572.2102385340747
 31
0.0
  0
LINE
  5
C0
330
1F
100
AcDbEntity
  8
VISIBLE
100
AcDbLine
 10
52.50000000000159
 20
381.8837042162712
 30
0.0
 11
52.50000000000159
 21
378.8837042162712
 31
0.0
  0
LINE
  5
C1
330
1F
100
AcDbEntity
  8
VISIBLE
100
AcDbLine
 10
52.50000000000159
 20
378.8837042162712
 30
0.0
 11
55.50000000000159
 21
378.8837042162712
 31
0.0
  0
LINE
  5
C2
330
1F
100
AcDbEntity
  8
VISIBLE
100
AcDbLine
 10
55.50000000000159
 20
381.8837042162712
 30
0.0
 11
55.50000000000159
 21
378.8837042162712
 31
0.0
  0
LINE
  5
C3
330
1F
100
AcDbEntity
  8
VISIBLE
100
AcDbLine
 10
52.50000000000159
 20
381.8837042162712
 30
0.0
 11
55.50000000000159
 21
381.8837042162712
 31
0.0
  0
LINE
  5
C4
330
1F
100
AcDbEntity
  8
VISIBLE
100
AcDbLine
 10
52.50000000000159
 20
388.6837042162712
 30
0.0
 11
52.50000000000159
 21
385.6837042162712
 31
0.0
  0
LINE
  5
C5
330
1F
100
AcDbEntity
  8
VISIBLE
100
AcDbLine
 10
52.50000000000159
 20
385.6837042162712
 30
0.0
 11
55.50000000000159
 21
385.6837042162712
 31
0.0
  0
LINE
  5
C6
330
1F
100
AcDbEntity
  8
VISIBLE
100
AcDbLine
 10
55.50000000000159
 20
388.6837042162712
 30
0.0
 11
55.50000000000159
 21
385.6837042162712
 31
0.0
  0
LINE
  5
C7
330
1F
100
AcDbEntity
  8
VISIBLE
100
AcDbLine
 10
52.50000000000159
 20
534.3837042162712
 30
0.0
 11
52.50000000000159
 21
531.3837042162712
 31
0.0
  0
LINE
  5
C8
330
1F
100
AcDbEntity
  8
VISIBLE
100
AcDbLine
 10
55.50000000000159
 20
534.3837042162712
 30
0.0
 11
55.50000000000159
 21
531.3837042162712
 31
0.0
  0
LINE
  5
C9
330
1F
100
AcDbEntity
  8
VISIBLE
100
AcDbLine
 10
52.50000000000159
 20
534.3837042162712
 30
0.0
 11
55.50000000000159
 21
534.3837042162712
 31
0.0
  0
LINE
  5
CA
330
1F
100
AcDbEntity
  8
VISIBLE
100
AcDbLine
 10
52.50000000000159
 20
541.1837042162712
 30
0.0
 11
52.50000000000159
 21
538.1837042162712
 31
0.0
  0
LINE
  5
CB
330
1F
100
AcDbEntity
  8
VISIBLE
100
AcDbLine
 10
52.50000000000159
 20
538.1837042162712
 30
0.0
 11
55.50000000000159
 21
538.1837042162712
 31
0.0
  0
LINE
  5
CC
330
1F
100
AcDbEntity
  8
VISIBLE
100
AcDbLine
 10
55.50000000000159
 20
541.1837042162712
 30
0.0
 11
55.50000000000159
 21
538.1837042162712
 31
0.0
  0
LINE
  5
CD
330
1F
100
AcDbEntity
  8
VISIBLE
100
AcDbLine
 10
52.50000000000159
 20
541.1837042162712
 30
0.0
 11
55.50000000000159
 21
541.1837042162712
 31
0.0
  0
LINE
  5
CE
330
1F
100
AcDbEntity
  8
VISIBLE
100
AcDbLine
 10
52.50000000000159
 20
686.8837042162711
 30
0.0
 11
52.50000000000159
 21
683.8837042162711
 31
0.0
  0
LINE
  5
CF
330
1F
100
AcDbEntity
  8
VISIBLE
100
AcDbLine
 10
52.50000000000159
 20
683.8837042162711
 30
0.0
 11
55.50000000000159
 21
683.8837042162711
 31
0.0
  0
LINE
  5
D0
330
1F
100
AcDbEntity
  8
VISIBLE
100
AcDbLine
 10
55.50000000000159
 20
686.8837042162711
 30
0.0
 11
55.50000000000159
 21
683.8837042162711
 31
0.0
  0
LINE
  5
D1
330
1F
100
AcDbEntity
  8
VISIBLE
100
AcDbLine
 10
52.50000000000159
 20
686.8837042162711
 30
0.0
 11
55.50000000000159
 21
686.8837042162711
 31
0.0
  0
LINE
  5
D2
330
1F
100
AcDbEntity
  8
VISIBLE
100
AcDbLine
 10
52.50000000000159
 20
693.6837042162713
 30
0.0
 11
52.50000000000159
 21
690.6837042162713
 31
0.0
  0
LINE
  5
D3
330
1F
100
AcDbEntity
  8
VISIBLE
100
AcDbLine
 10
52.50000000000159
 20
690.6837042162713
 30
0.0
 11
55.50000000000159
 21
690.6837042162713
 31
0.0
  0
LINE
  5
D4
330
1F
100
AcDbEntity
  8
VISIBLE
100
AcDbLine
 10
55.50000000000159
 20
693.6837042162713
 30
0.0
 11
55.50000000000159
 21
690.6837042162713
 31
0.0
  0
LINE
  5
D5
330
1F
100
AcDbEntity
  8
VISIBLE
100
AcDbLine
 10
52.50000000000159
 20
693.6837042162713
 30
0.0
 11
55.50000000000159
 21
693.6837042162713
 31
0.0
  0
LINE
  5
D6
330
1F
100
AcDbEntity
  8
VISIBLE
100
AcDbLine
 10
132.5000000000016
 20
381.8837042162712
 30
0.0
 11
132.5000000000016
 21
378.8837042162712
 31
0.0
  0
LINE
  5
D7
330
1F
100
AcDbEntity
  8
VISIBLE
100
AcDbLine
 10
132.5000000000016
 20
378.8837042162712
 30
0.0
 11
135.5000000000016
 21
378.8837042162712
 31
0.0
  0
LINE
  5
D8
330
1F
100
AcDbEntity
  8
VISIBLE
100
AcDbLine
 10
132.5000000000016
 20
381.8837042162712
 30
0.0
 11
135.5000000000016
 21
381.8837042162712
 31
0.0
  0
LINE
  5
D9
330
1F
100
AcDbEntity
  8
VISIBLE
100
AcDbLine
 10
132.5000000000016
 20
388.6837042162712
 30
0.0
 11
132.5000000000016
 21
385.6837042162712
 31
0.0
  0
LINE
  5
DA
330
1F
100
AcDbEntity
  8
VISIBLE
100
AcDbLine
 10
132.5000000000016
 20
385.6837042162712
 30
0.0
 11
135.5000000000016
 21
385.6837042162712
 31
0.0
  0
LINE
  5
DB
330
1F
100
AcDbEntity
  8
VISIBLE
100
AcDbLine
 10
132.5000000000016
 20
388.6837042162712
 30
0.0
 11
135.5000000000016
 21
388.6837042162712
 31
0.0
  0
LINE
  5
DC
330
1F
100
AcDbEntity
  8
VISIBLE
100
AcDbLine
 10
132.5000000000016
 20
683.8837042162711
 30
0.0
 11
135.5000000000016
 21
683.8837042162711
 31
0.0
  0
LINE
  5
DD
330
1F
100
AcDbEntity
  8
VISIBLE
100
AcDbLine
 10
135.5000000000016
 20
686.8837042162711
 30
0.0
 11
135.5000000000016
 21
683.8837042162711
 31
0.0
  0
LINE
  5
DE
330
1F
100
AcDbEntity
  8
VISIBLE
100
AcDbLine
 10
132.5000000000016
 20
693.6837042162713
 30
0.0
 11
132.5000000000016
 21
690.6837042162713
 31
0.0
  0
LINE
  5
DF
330
1F
100
AcDbEntity
  8
VISIBLE
100
AcDbLine
 10
132.5000000000016
 20
690.6837042162713
 30
0.0
 11
135.5000000000016
 21
690.6837042162713
 31
0.0
  0
LINE
  5
E0
330
1F
100
AcDbEntity
  8
VISIBLE
100
AcDbLine
 10
135.5000000000016
 20
693.6837042162713
 30
0.0
 11
135.5000000000016
 21
690.6837042162713
 31
0.0
  0
LINE
  5
E1
330
1F
100
AcDbEntity
  8
VISIBLE
100
AcDbLine
 10
132.5000000000016
 20
693.6837042162713
 30
0.0
 11
135.5000000000016
 21
693.6837042162713
 31
0.0
  0
LINE
  5
E2
330
1F
100
AcDbEntity
  8
VISIBLE
100
AcDbLine
 10
132.5000000000016
 20
534.3837042162712
 30
0.0
 11
132.5000000000016
 21
531.3837042162712
 31
0.0
  0
LINE
  5
E3
330
1F
100
AcDbEntity
  8
VISIBLE
100
AcDbLine
 10
132.5000000000016
 20
531.3837042162712
 30
0.0
 11
135.5000000000016
 21
531.3837042162712
 31
0.0
  0
LINE
  5
E4
330
1F
100
AcDbEntity
  8
VISIBLE
100
AcDbLine
 10
135.5000000000016
 20
534.3837042162712
 30
0.0
 11
135.5000000000016
 21
531.3837042162712
 31
0.0
  0
LINE
  5
E5
330
1F
100
AcDbEntity
  8
VISIBLE
100
AcDbLine
 10
132.5000000000016
 20
534.3837042162712
 30
0.0
 11
135.5000000000016
 21
534.3837042162712
 31
0.0
  0
LINE
  5
E6
330
1F
100
AcDbEntity
  8
VISIBLE
100
AcDbLine
 10
132.5000000000016
 20
541.1837042162712
 30
0.0
 11
132.5000000000016
 21
538.1837042162712
 31
0.0
  0
LINE
  5
E7
330
1F
100
AcDbEntity
  8
VISIBLE
100
AcDbLine
 10
132.5000000000016
 20
538.1837042162712
 30
0.0
 11
135.5000000000016
 21
538.1837042162712
 31
0.0
  0
LINE
  5
E8
330
1F
100
AcDbEntity
  8
VISIBLE
100
AcDbLine
 10
135.5000000000016
 20
541.1837042162712
 30
0.0
 11
135.5000000000016
 21
538.1837042162712
 31
0.0
  0
LINE
  5
E9
330
1F
100
AcDbEntity
  8
VISIBLE
100
AcDbLine
 10
132.5000000000016
 20
541.1837042162712
 30
0.0
 11
135.5000000000016
 21
541.1837042162712
 31
0.0
  0
LINE
  5
EA
330
1F
100
AcDbEntity
  8
VISIBLE
100
AcDbLine
 10
42.22023681555096
 20
395.4167005089417
 30
0.0
 11
42.22023681555096
 21
391.8167005089417
 31
0.0
  0
LINE
  5
EB
330
1F
100
AcDbEntity
  8
VISIBLE
100
AcDbLine
 10
45.22023681555105
 20
403.4167005089612
 30
0.0
 11
45.22023681555105
 21
399.8167005089417
 31
0.0
  0
LINE
  5
EC
330
1F
100
AcDbEntity
  8
VISIBLE
100
AcDbLine
 10
135.5000000000016
 20
388.6837042162712
 30
0.0
 11
135.5000000000016
 21
385.6837042162712
 31
0.0
  0
LINE
  5
ED
330
1F
100
AcDbEntity
  8
VISIBLE
100
AcDbLine
 10
121.3000000000016
 20
524.7837042162712
 30
0.0
 11
121.3000000000016
 21
527.7837042162712
 31
0.0
  0
LINE
  5
EE
330
1F
100
AcDbEntity
  8
VISIBLE
100
AcDbLine
 10
52.50000000000159
 20
388.6837042162712
 30
0.0
 11
55.50000000000159
 21
388.6837042162712
 31
0.0
  0
LINE
  5
EF
330
1F
100
AcDbEntity
  8
VISIBLE
100
AcDbLine
 10
52.50000000000159
 20
531.3837042162712
 30
0.0
 11
55.50000000000159
 21
531.3837042162712
 31
0.0
  0
LINE
  5
F0
330
1F
100
AcDbEntity
  8
VISIBLE
100
AcDbLine
 10
132.5000000000016
 20
686.8837042162711
 30
0.0
 11
132.5000000000016
 21
683.8837042162711
 31
0.0
  0
LINE
  5
F1
330
1F
100
AcDbEntity
  8
VISIBLE
100
AcDbLine
 10
132.5000000000016
 20
686.8837042162711
 30
0.0
 11
135.5000000000016
 21
686.8837042162711
 31
0.0
  0
LINE
  5
F2
330
1F
100
AcDbEntity
  8
VISIBLE
100
AcDbLine
 10
49.22023681555105
 20
572.2102385340747
 30
0.0
 11
49.22023681555105
 21
568.6102385340477
 31
0.0
  0
LINE
  5
F3
330
1F
100
AcDbEntity
  8
VISIBLE
100
AcDbLine
 10
135.5000000000016
 20
381.8837042162712
 30
0.0
 11
135.5000000000016
 21
378.8837042162712
 31
0.0
  0
LINE
  5
F4
330
1F
100
AcDbEntity
  8
VISIBLE
100
AcDbLine
 10
152.5000000000016
 20
388.5237042162712
 30
0.0
 11
152.5000000000016
 21
385.8437042162712
 31
0.0
  0
LINE
  5
F5
330
1F
100
AcDbEntity
  8
VISIBLE
100
AcDbLine
 10
152.5000000000016
 20
385.8437042162712
 30
0.0
 11
155.5000000000016
 21
385.8437042162712
 31
0.0
  0
LINE
  5
F6
330
1F
100
AcDbEntity
  8
VISIBLE
100
AcDbLine
 10
152.5000000000016
 20
388.5237042162712
 30
0.0
 11
155.5000000000016
 21
388.5237042162712
 31
0.0
  0
LINE
  5
F7
330
1F
100
AcDbEntity
  8
VISIBLE
100
AcDbLine
 10
152.5000000000016
 20
381.7237042162712
 30
0.0
 11
152.5000000000016
 21
379.0437042162712
 31
0.0
  0
LINE
  5
F8
330
1F
100
AcDbEntity
  8
VISIBLE
100
AcDbLine
 10
152.5000000000016
 20
379.0437042162712
 30
0.0
 11
155.5000000000016
 21
379.0437042162712
 31
0.0
  0
LINE
  5
F9
330
1F
100
AcDbEntity
  8
VISIBLE
100
AcDbLine
 10
155.5000000000016
 20
381.7237042162712
 30
0.0
 11
155.5000000000016
 21
379.0437042162712
 31
0.0
  0
LINE
  5
FA
330
1F
100
AcDbEntity
  8
VISIBLE
100
AcDbLine
 10
152.5000000000016
 20
381.7237042162712
 30
0.0
 11
155.5000000000016
 21
381.7237042162712
 31
0.0
  0
LINE
  5
FB
330
1F
100
AcDbEntity
  8
VISIBLE
100
AcDbLine
 10
219.3000000000016
 20
677.2837042162712
 30
0.0
 11
219.3000000000016
 21
680.2837042162712
 31
0.0
  0
LINE
  5
FC
330
1F
100
AcDbEntity
  8
VISIBLE
100
AcDbLine
 10
199.7000000000016
 20
680.2837042162712
 30
0.0
 11
219.3000000000016
 21
680.2837042162712
 31
0.0
  0
LINE
  5
FD
330
1F
100
AcDbEntity
  8
VISIBLE
100
AcDbLine
 10
199.7000000000016
 20
677.2837042162712
 30
0.0
 11
199.7000000000016
 21
680.2837042162712
 31
0.0
  0
LINE
  5
FE
330
1F
100
AcDbEntity
  8
VISIBLE
100
AcDbLine
 10
159.7000000000016
 20
677.2837042162712
 30
0.0
 11
179.3000000000016
 21
677.2837042162712
 31
0.0
  0
LINE
  5
FF
330
1F
100
AcDbEntity
  8
VISIBLE
100
AcDbLine
 10
179.3000000000016
 20
677.2837042162712
 30
0.0
 11
179.3000000000016
 21
680.2837042162712
 31
0.0
  0
LINE
  5
100
330
1F
100
AcDbEntity
  8
VISIBLE
100
AcDbLine
 10
159.7000000000016
 20
680.2837042162712
 30
0.0
 11
179.3000000000016
 21
680.2837042162712
 31
0.0
  0
LINE
  5
101
330
1F
100
AcDbEntity
  8
VISIBLE
100
AcDbLine
 10
159.7000000000016
 20
677.2837042162712
 30
0.0
 11
159.7000000000016
 21
680.2837042162712
 31
0.0
  0
LINE
  5
102
330
1F
100
AcDbEntity
  8
VISIBLE
100
AcDbLine
 10
179.3000000000016
 20
372.2837042162712
 30
0.0
 11
179.3000000000016
 21
375.2837042162712
 31
0.0
  0
LINE
  5
103
330
1F
100
AcDbEntity
  8
VISIBLE
100
AcDbLine
 10
159.7000000000016
 20
375.2837042162712
 30
0.0
 11
179.3000000000016
 21
375.2837042162712
 31
0.0
  0
LINE
  5
104
330
1F
100
AcDbEntity
  8
VISIBLE
100
AcDbLine
 10
159.7000000000016
 20
372.2837042162712
 30
0.0
 11
159.7000000000016
 21
375.2837042162712
 31
0.0
  0
LINE
  5
105
330
1F
100
AcDbEntity
  8
VISIBLE
100
AcDbLine
 10
139.5000000000016
 20
372.2837042162712
 30
0.0
 11
159.7000000000016
 21
372.2837042162712
 31
0.0
  0
LINE
  5
106
330
1F
100
AcDbEntity
  8
VISIBLE
100
AcDbLine
 10
139.5000000000016
 20
372.2837042162712
 30
0.0
 11
139.5000000000016
 21
717.2837042162712
 31
0.0
  0
LINE
  5
107
330
1F
100
AcDbEntity
  8
VISIBLE
100
AcDbLine
 10
139.5000000000016
 20
717.2837042162712
 30
0.0
 11
209.5000000000016
 21
717.2837042162712
 31
0.0
  0
ARC
  5
108
330
1F
100
AcDbEntity
  8
VISIBLE
100
AcDbCircle
 10
209.5000000000016
 20
687.2837042162712
 30
0.0
 40
30.0
100
AcDbArc
 50
0.0
 51
90.0
  0
LINE
  5
109
330
1F
100
AcDbEntity
  8
VISIBLE
100
AcDbLine
 10
239.5000000000016
 20
372.2837042162712
 30
0.0
 11
239.5000000000016
 21
687.2837042162712
 31
0.0
  0
LINE
  5
10A
330
1F
100
AcDbEntity
  8
VISIBLE
100
AcDbLine
 10
219.3000000000016
 20
372.2837042162712
 30
0.0
 11
219.3000000000016
 21
375.2837042162712
 31
0.0
  0
LINE
  5
10B
330
1F
100
AcDbEntity
  8
VISIBLE
100
AcDbLine
 10
199.7000000000016
 20
375.2837042162712
 30
0.0
 11
219.3000000000016
 21
375.2837042162712
 31
0.0
  0
LINE
  5
10C
330
1F
100
AcDbEntity
  8
VISIBLE
100
AcDbLine
 10
199.7000000000016
 20
372.2837042162712
 30
0.0
 11
199.7000000000016
 21
375.2837042162712
 31
0.0
  0
LINE
  5
10D
330
1F
100
AcDbEntity
  8
VISIBLE
100
AcDbLine
 10
179.3000000000016
 20
372.2837042162712
 30
0.0
 11
199.7000000000016
 21
372.2837042162712
 31
0.0
  0
LINE
  5
10E
330
1F
100
AcDbEntity
  8
VISIBLE
100
AcDbLine
 10
203.7000000000016
 20
524.7837042162712
 30
0.0
 11
221.3000000000016
 21
524.7837042162712
 31
0.0
  0
LINE
  5
10F
330
1F
100
AcDbEntity
  8
VISIBLE
100
AcDbLine
 10
221.3000000000016
 20
524.7837042162712
 30
0.0
 11
221.3000000000016
 21
527.7837042162712
 31
0.0
  0
LINE
  5
110
330
1F
100
AcDbEntity
  8
VISIBLE
100
AcDbLine
 10
203.7000000000016
 20
527.7837042162712
 30
0.0
 11
221.3000000000016
 21
527.7837042162712
 31
0.0
  0
LINE
  5
111
330
1F
100
AcDbEntity
  8
VISIBLE
100
AcDbLine
 10
203.7000000000016
 20
524.7837042162712
 30
0.0
 11
203.7000000000016
 21
527.7837042162712
 31
0.0
  0
LINE
  5
112
330
1F
100
AcDbEntity
  8
VISIBLE
100
AcDbLine
 10
167.7000000000016
 20
524.7837042162712
 30
0.0
 11
185.3000000000016
 21
524.7837042162712
 31
0.0
  0
LINE
  5
113
330
1F
100
AcDbEntity
  8
VISIBLE
100
AcDbLine
 10
185.3000000000016
 20
524.7837042162712
 30
0.0
 11
185.3000000000016
 21
527.7837042162712
 31
0.0
  0
LINE
  5
114
330
1F
100
AcDbEntity
  8
VISIBLE
100
AcDbLine
 10
167.7000000000016
 20
527.7837042162712
 30
0.0
 11
185.3000000000016
 21
527.7837042162712
 31
0.0
  0
LINE
  5
115
330
1F
100
AcDbEntity
  8
VISIBLE
100
AcDbLine
 10
167.7000000000016
 20
524.7837042162712
 30
0.0
 11
167.7000000000016
 21
527.7837042162712
 31
0.0
  0
LINE
  5
116
330
1F
100
AcDbEntity
  8
VISIBLE
100
AcDbLine
 10
142.220236815551
 20
564.2102385340477
 30
0.0
 11
142.220236815551
 21
560.6102385340477
 31
0.0
  0
LINE
  5
117
330
1F
100
AcDbEntity
  8
VISIBLE
100
AcDbLine
 10
142.220236815551
 20
560.6102385340477
 30
0.0
 11
145.220236815551
 21
560.6102385340477
 31
0.0
  0
LINE
  5
118
330
1F
100
AcDbEntity
  8
VISIBLE
100
AcDbLine
 10
145.220236815551
 20
564.2102385340477
 30
0.0
 11
145.220236815551
 21
560.6102385340477
 31
0.0
  0
LINE
  5
119
330
1F
100
AcDbEntity
  8
VISIBLE
100
AcDbLine
 10
142.220236815551
 20
564.2102385340477
 30
0.0
 11
145.220236815551
 21
564.2102385340477
 31
0.0
  0
LINE
  5
11A
330
1F
100
AcDbEntity
  8
VISIBLE
100
AcDbLine
 10
142.220236815551
 20
572.2102385340747
 30
0.0
 11
142.220236815551
 21
568.6102385340477
 31
0.0
  0
LINE
  5
11B
330
1F
100
AcDbEntity
  8
VISIBLE
100
AcDbLine
 10
142.220236815551
 20
568.6102385340477
 30
0.0
 11
145.220236815551
 21
568.6102385340477
 31
0.0
  0
LINE
  5
11C
330
1F
100
AcDbEntity
  8
VISIBLE
100
AcDbLine
 10
142.220236815551
 20
572.2102385340747
 30
0.0
 11
145.220236815551
 21
572.2102385340747
 31
0.0
  0
LINE
  5
11D
330
1F
100
AcDbEntity
  8
VISIBLE
100
AcDbLine
 10
146.220236815551
 20
395.4167005089417
 30
0.0
 11
146.220236815551
 21
391.8167005089417
 31
0.0
  0
LINE
  5
11E
330
1F
100
AcDbEntity
  8
VISIBLE
100
AcDbLine
 10
146.220236815551
 20
391.8167005089417
 30
0.0
 11
149.220236815551
 21
391.8167005089417
 31
0.0
  0
LINE
  5
11F
330
1F
100
AcDbEntity
  8
VISIBLE
100
AcDbLine
 10
149.220236815551
 20
395.4167005089417
 30
0.0
 11
149.220236815551
 21
391.8167005089417
 31
0.0
  0
LINE
  5
120
330
1F
100
AcDbEntity
  8
VISIBLE
100
AcDbLine
 10
146.220236815551
 20
395.4167005089417
 30
0.0
 11
149.220236815551
 21
395.4167005089417
 31
0.0
  0
LINE
  5
121
330
1F
100
AcDbEntity
  8
VISIBLE
100
AcDbLine
 10
146.220236815551
 20
403.4167005089612
 30
0.0
 11
146.220236815551
 21
399.8167005089417
 31
0.0
  0
LINE
  5
122
330
1F
100
AcDbEntity
  8
VISIBLE
100
AcDbLine
 10
146.220236815551
 20
399.8167005089417
 30
0.0
 11
149.220236815551
 21
399.8167005089417
 31
0.0
  0
LINE
  5
123
330
1F
100
AcDbEntity
  8
VISIBLE
100
AcDbLine
 10
149.220236815551
 20
403.4167005089612
 30
0.0
 11
149.220236815551
 21
399.8167005089417
 31
0.0
  0
LINE
  5
124
330
1F
100
AcDbEntity
  8
VISIBLE
100
AcDbLine
 10
146.220236815551
 20
403.4167005089612
 30
0.0
 11
149.220236815551
 21
403.4167005089612
 31
0.0
  0
LINE
  5
125
330
1F
100
AcDbEntity
  8
VISIBLE
100
AcDbLine
 10
152.5000000000016
 20
534.3837042162712
 30
0.0
 11
152.5000000000016
 21
531.3837042162712
 31
0.0
  0
LINE
  5
126
330
1F
100
AcDbEntity
  8
VISIBLE
100
AcDbLine
 10
152.5000000000016
 20
531.3837042162712
 30
0.0
 11
155.5000000000016
 21
531.3837042162712
 31
0.0
  0
LINE
  5
127
330
1F
100
AcDbEntity
  8
VISIBLE
100
AcDbLine
 10
155.5000000000016
 20
534.3837042162712
 30
0.0
 11
155.5000000000016
 21
531.3837042162712
 31
0.0
  0
LINE
  5
128
330
1F
100
AcDbEntity
  8
VISIBLE
100
AcDbLine
 10
152.5000000000016
 20
534.3837042162712
 30
0.0
 11
155.5000000000016
 21
534.3837042162712
 31
0.0
  0
LINE
  5
129
330
1F
100
AcDbEntity
  8
VISIBLE
100
AcDbLine
 10
152.5000000000016
 20
541.1837042162712
 30
0.0
 11
152.5000000000016
 21
538.1837042162712
 31
0.0
  0
LINE
  5
12A
330
1F
100
AcDbEntity
  8
VISIBLE
100
AcDbLine
 10
152.5000000000016
 20
538.1837042162712
 30
0.0
 11
155.5000000000016
 21
538.1837042162712
 31
0.0
  0
LINE
  5
12B
330
1F
100
AcDbEntity
  8
VISIBLE
100
AcDbLine
 10
155.5000000000016
 20
541.1837042162712
 30
0.0
 11
155.5000000000016
 21
538.1837042162712
 31
0.0
  0
LINE
  5
12C
330
1F
100
AcDbEntity
  8
VISIBLE
100
AcDbLine
 10
152.5000000000016
 20
541.1837042162712
 30
0.0
 11
155.5000000000016
 21
541.1837042162712
 31
0.0
  0
LINE
  5
12D
330
1F
100
AcDbEntity
  8
VISIBLE
100
AcDbLine
 10
152.5000000000016
 20
686.8837042162711
 30
0.0
 11
152.5000000000016
 21
683.8837042162711
 31
0.0
  0
LINE
  5
12E
330
1F
100
AcDbEntity
  8
VISIBLE
100
AcDbLine
 10
152.5000000000016
 20
683.8837042162711
 30
0.0
 11
155.5000000000016
 21
683.8837042162711
 31
0.0
  0
LINE
  5
12F
330
1F
100
AcDbEntity
  8
VISIBLE
100
AcDbLine
 10
155.5000000000016
 20
686.8837042162711
 30
0.0
 11
155.5000000000016
 21
683.8837042162711
 31
0.0
  0
LINE
  5
130
330
1F
100
AcDbEntity
  8
VISIBLE
100
AcDbLine
 10
152.5000000000016
 20
686.8837042162711
 30
0.0
 11
155.5000000000016
 21
686.8837042162711
 31
0.0
  0
LINE
  5
131
330
1F
100
AcDbEntity
  8
VISIBLE
100
AcDbLine
 10
152.5000000000016
 20
693.6837042162713
 30
0.0
 11
152.5000000000016
 21
690.6837042162713
 31
0.0
  0
LINE
  5
132
330
1F
100
AcDbEntity
  8
VISIBLE
100
AcDbLine
 10
152.5000000000016
 20
690.6837042162713
 30
0.0
 11
155.5000000000016
 21
690.6837042162713
 31
0.0
  0
LINE
  5
133
330
1F
100
AcDbEntity
  8
VISIBLE
100
AcDbLine
 10
155.5000000000016
 20
693.6837042162713
 30
0.0
 11
155.5000000000016
 21
690.6837042162713
 31
0.0
  0
LINE
  5
134
330
1F
100
AcDbEntity
  8
VISIBLE
100
AcDbLine
 10
152.5000000000016
 20
693.6837042162713
 30
0.0
 11
155.5000000000016
 21
693.6837042162713
 31
0.0
  0
LINE
  5
135
330
1F
100
AcDbEntity
  8
VISIBLE
100
AcDbLine
 10
232.5000000000016
 20
381.8837042162712
 30
0.0
 11
232.5000000000016
 21
378.8837042162712
 31
0.0
  0
LINE
  5
136
330
1F
100
AcDbEntity
  8
VISIBLE
100
AcDbLine
 10
235.5000000000016
 20
381.8837042162712
 30
0.0
 11
235.5000000000016
 21
378.8837042162712
 31
0.0
  0
LINE
  5
137
330
1F
100
AcDbEntity
  8
VISIBLE
100
AcDbLine
 10
232.5000000000016
 20
381.8837042162712
 30
0.0
 11
235.5000000000016
 21
381.8837042162712
 31
0.0
  0
LINE
  5
138
330
1F
100
AcDbEntity
  8
VISIBLE
100
AcDbLine
 10
232.5000000000016
 20
388.6837042162712
 30
0.0
 11
232.5000000000016
 21
385.6837042162712
 31
0.0
  0
LINE
  5
139
330
1F
100
AcDbEntity
  8
VISIBLE
100
AcDbLine
 10
232.5000000000016
 20
385.6837042162712
 30
0.0
 11
235.5000000000016
 21
385.6837042162712
 31
0.0
  0
LINE
  5
13A
330
1F
100
AcDbEntity
  8
VISIBLE
100
AcDbLine
 10
235.5000000000016
 20
388.6837042162712
 30
0.0
 11
235.5000000000016
 21
385.6837042162712
 31
0.0
  0
LINE
  5
13B
330
1F
100
AcDbEntity
  8
VISIBLE
100
AcDbLine
 10
232.5000000000016
 20
388.6837042162712
 30
0.0
 11
235.5000000000016
 21
388.6837042162712
 31
0.0
  0
LINE
  5
13C
330
1F
100
AcDbEntity
  8
VISIBLE
100
AcDbLine
 10
232.5000000000016
 20
686.8837042162711
 30
0.0
 11
232.5000000000016
 21
683.8837042162711
 31
0.0
  0
LINE
  5
13D
330
1F
100
AcDbEntity
  8
VISIBLE
100
AcDbLine
 10
232.5000000000016
 20
683.8837042162711
 30
0.0
 11
235.5000000000016
 21
683.8837042162711
 31
0.0
  0
LINE
  5
13E
330
1F
100
AcDbEntity
  8
VISIBLE
100
AcDbLine
 10
235.5000000000016
 20
686.8837042162711
 30
0.0
 11
235.5000000000016
 21
683.8837042162711
 31
0.0
  0
LINE
  5
13F
330
1F
100
AcDbEntity
  8
VISIBLE
100
AcDbLine
 10
232.5000000000016
 20
686.8837042162711
 30
0.0
 11
235.5000000000016
 21
686.8837042162711
 31
0.0
  0
LINE
  5
140
330
1F
100
AcDbEntity
  8
VISIBLE
100
AcDbLine
 10
232.5000000000016
 20
693.6837042162713
 30
0.0
 11
232.5000000000016
 21
690.6837042162713
 31
0.0
  0
LINE
  5
141
330
1F
100
AcDbEntity
  8
VISIBLE
100
AcDbLine
 10
232.5000000000016
 20
690.6837042162713
 30
0.0
 11
235.5000000000016
 21
690.6837042162713
 31
0.0
  0
LINE
  5
142
330
1F
100
AcDbEntity
  8
VISIBLE
100
AcDbLine
 10
235.5000000000016
 20
693.6837042162713
 30
0.0
 11
235.5000000000016
 21
690.6837042162713
 31
0.0
  0
LINE
  5
143
330
1F
100
AcDbEntity
  8
VISIBLE
100
AcDbLine
 10
232.5000000000016
 20
693.6837042162713
 30
0.0
 11
235.5000000000016
 21
693.6837042162713
 31
0.0
  0
LINE
  5
144
330
1F
100
AcDbEntity
  8
VISIBLE
100
AcDbLine
 10
232.5000000000016
 20
534.3837042162712
 30
0.0
 11
232.5000000000016
 21
531.3837042162712
 31
0.0
  0
LINE
  5
145
330
1F
100
AcDbEntity
  8
VISIBLE
100
AcDbLine
 10
232.5000000000016
 20
531.3837042162712
 30
0.0
 11
235.5000000000016
 21
531.3837042162712
 31
0.0
  0
LINE
  5
146
330
1F
100
AcDbEntity
  8
VISIBLE
100
AcDbLine
 10
235.5000000000016
 20
534.3837042162712
 30
0.0
 11
235.5000000000016
 21
531.3837042162712
 31
0.0
  0
LINE
  5
147
330
1F
100
AcDbEntity
  8
VISIBLE
100
AcDbLine
 10
232.5000000000016
 20
534.3837042162712
 30
0.0
 11
235.5000000000016
 21
534.3837042162712
 31
0.0
  0
LINE
  5
148
330
1F
100
AcDbEntity
  8
VISIBLE
100
AcDbLine
 10
232.5000000000016
 20
541.1837042162712
 30
0.0
 11
232.5000000000016
 21
538.1837042162712
 31
0.0
  0
LINE
  5
149
330
1F
100
AcDbEntity
  8
VISIBLE
100
AcDbLine
 10
232.5000000000016
 20
538.1837042162712
 30
0.0
 11
235.5000000000016
 21
538.1837042162712
 31
0.0
  0
LINE
  5
14A
330
1F
100
AcDbEntity
  8
VISIBLE
100
AcDbLine
 10
235.5000000000016
 20
541.1837042162712
 30
0.0
 11
235.5000000000016
 21
538.1837042162712
 31
0.0
  0
LINE
  5
14B
330
1F
100
AcDbEntity
  8
VISIBLE
100
AcDbLine
 10
232.5000000000016
 20
541.1837042162712
 30
0.0
 11
235.5000000000016
 21
541.1837042162712
 31
0.0
  0
LINE
  5
14C
330
1F
100
AcDbEntity
  8
VISIBLE
100
AcDbLine
 10
199.7000000000016
 20
677.2837042162712
 30
0.0
 11
219.3000000000016
 21
677.2837042162712
 31
0.0
  0
LINE
  5
14D
330
1F
100
AcDbEntity
  8
VISIBLE
100
AcDbLine
 10
155.5000000000016
 20
388.5237042162712
 30
0.0
 11
155.5000000000016
 21
385.8437042162712
 31
0.0
  0
LINE
  5
14E
330
1F
100
AcDbEntity
  8
VISIBLE
100
AcDbLine
 10
145.220236815551
 20
572.2102385340747
 30
0.0
 11
145.220236815551
 21
568.6102385340477
 31
0.0
  0
LINE
  5
14F
330
1F
100
AcDbEntity
  8
VISIBLE
100
AcDbLine
 10
232.5000000000016
 20
378.8837042162712
 30
0.0
 11
235.5000000000016
 21
378.8837042162712
 31
0.0
  0
LINE
  5
150
330
1F
100
AcDbEntity
  8
VISIBLE
100
AcDbLine
 10
219.3000000000016
 20
372.2837042162712
 30
0.0
 11
239.5000000000016
 21
372.2837042162712
 31
0.0
  0
LINE
  5
151
330
1F
100
AcDbEntity
  8
VISIBLE
100
AcDbLine
 10
473.7000000000016
 20
664.0772422413207
 30
0.0
 11
473.7000000000016
 21
661.0772422413207
 31
0.0
  0
LINE
  5
152
330
1F
100
AcDbEntity
  8
VISIBLE
100
AcDbLine
 10
415.8999999999961
 20
661.0772422413207
 30
0.0
 11
473.7000000000016
 21
661.0772422413207
 31
0.0
  0
LINE
  5
153
330
1F
100
AcDbEntity
  8
VISIBLE
100
AcDbLine
 10
415.8999999999961
 20
664.0772422413207
 30
0.0
 11
415.8999999999961
 21
661.0772422413207
 31
0.0
  0
LINE
  5
154
330
1F
100
AcDbEntity
  8
VISIBLE
100
AcDbLine
 10
358.0999999999931
 20
664.0772422413207
 30
0.0
 11
415.8999999999961
 21
664.0772422413207
 31
0.0
  0
LINE
  5
155
330
1F
100
AcDbEntity
  8
VISIBLE
100
AcDbLine
 10
358.0999999999931
 20
664.0772422413207
 30
0.0
 11
358.0999999999931
 21
661.0772422413207
 31
0.0
  0
LINE
  5
156
330
1F
100
AcDbEntity
  8
VISIBLE
100
AcDbLine
 10
300.2999999999906
 20
661.0772422413207
 30
0.0
 11
358.0999999999931
 21
661.0772422413207
 31
0.0
  0
LINE
  5
157
330
1F
100
AcDbEntity
  8
VISIBLE
100
AcDbLine
 10
300.2999999999906
 20
664.0772422413207
 30
0.0
 11
300.2999999999906
 21
661.0772422413207
 31
0.0
  0
LINE
  5
158
330
1F
100
AcDbEntity
  8
VISIBLE
100
AcDbLine
 10
300.2999999999906
 20
664.0772422413207
 30
0.0
 11
242.5000000000016
 21
664.0772422413207
 31
0.0
  0
LINE
  5
159
330
1F
100
AcDbEntity
  8
VISIBLE
100
AcDbLine
 10
242.5000000000016
 20
667.4772422413207
 30
0.0
 11
242.5000000000016
 21
664.0772422413207
 31
0.0
  0
LINE
  5
15A
330
1F
100
AcDbEntity
  8
VISIBLE
100
AcDbLine
 10
242.5000000000016
 20
667.4772422413207
 30
0.0
 11
239.5000000000016
 21
667.4772422413207
 31
0.0
  0
LINE
  5
15B
330
1F
100
AcDbEntity
  8
VISIBLE
100
AcDbLine
 10
239.5000000000016
 20
670.8772422413207
 30
0.0
 11
239.5000000000016
 21
667.4772422413207
 31
0.0
  0
LINE
  5
15C
330
1F
100
AcDbEntity
  8
VISIBLE
100
AcDbLine
 10
242.5000000000016
 20
670.8772422413207
 30
0.0
 11
239.5000000000016
 21
670.8772422413207
 31
0.0
  0
LINE
  5
15D
330
1F
100
AcDbEntity
  8
VISIBLE
100
AcDbLine
 10
242.5000000000016
 20
674.2772422413207
 30
0.0
 11
242.5000000000016
 21
670.8772422413207
 31
0.0
  0
LINE
  5
15E
330
1F
100
AcDbEntity
  8
VISIBLE
100
AcDbLine
 10
242.5000000000016
 20
674.2772422413207
 30
0.0
 11
239.5000000000016
 21
674.2772422413207
 31
0.0
  0
LINE
  5
15F
330
1F
100
AcDbEntity
  8
VISIBLE
100
AcDbLine
 10
239.5000000000016
 20
677.6772422413208
 30
0.0
 11
239.5000000000016
 21
674.2772422413207
 31
0.0
  0
LINE
  5
160
330
1F
100
AcDbEntity
  8
VISIBLE
100
AcDbLine
 10
242.5000000000016
 20
677.6772422413208
 30
0.0
 11
239.5000000000016
 21
677.6772422413208
 31
0.0
  0
LINE
  5
161
330
1F
100
AcDbEntity
  8
VISIBLE
100
AcDbLine
 10
242.5000000000016
 20
681.0772422413206
 30
0.0
 11
242.5000000000016
 21
677.6772422413208
 31
0.0
  0
LINE
  5
162
330
1F
100
AcDbEntity
  8
VISIBLE
100
AcDbLine
 10
531.4999999999745
 20
681.0772422413206
 30
0.0
 11
531.4999999999745
 21
677.6772422413208
 31
0.0
  0
LINE
  5
163
330
1F
100
AcDbEntity
  8
VISIBLE
100
AcDbLine
 10
534.5000000000016
 20
677.6772422413208
 30
0.0
 11
531.4999999999745
 21
677.6772422413208
 31
0.0
  0
LINE
  5
164
330
1F
100
AcDbEntity
  8
VISIBLE
100
AcDbLine
 10
534.5000000000016
 20
674.2772422413207
 30
0.0
 11
531.4999999999745
 21
674.2772422413207
 31
0.0
  0
LINE
  5
165
330
1F
100
AcDbEntity
  8
VISIBLE
100
AcDbLine
 10
531.4999999999745
 20
674.2772422413207
 30
0.0
 11
531.4999999999745
 21
670.8772422413207
 31
0.0
  0
LINE
  5
166
330
1F
100
AcDbEntity
  8
VISIBLE
100
AcDbLine
 10
534.5000000000016
 20
670.8772422413207
 30
0.0
 11
531.4999999999745
 21
670.8772422413207
 31
0.0
  0
LINE
  5
167
330
1F
100
AcDbEntity
  8
VISIBLE
100
AcDbLine
 10
534.5000000000016
 20
667.4772422413207
 30
0.0
 11
531.4999999999745
 21
667.4772422413207
 31
0.0
  0
LINE
  5
168
330
1F
100
AcDbEntity
  8
VISIBLE
100
AcDbLine
 10
531.4999999999745
 20
667.4772422413207
 30
0.0
 11
531.4999999999745
 21
664.0772422413207
 31
0.0
  0
LINE
  5
169
330
1F
100
AcDbEntity
  8
VISIBLE
100
AcDbLine
 10
534.5000000000016
 20
677.6772422413208
 30
0.0
 11
534.5000000000016
 21
674.2772422413207
 31
0.0
  0
LINE
  5
16A
330
1F
100
AcDbEntity
  8
VISIBLE
100
AcDbLine
 10
534.5000000000016
 20
670.8772422413207
 30
0.0
 11
534.5000000000016
 21
667.4772422413207
 31
0.0
  0
LINE
  5
16B
330
1F
100
AcDbEntity
  8
VISIBLE
100
AcDbLine
 10
473.7000000000016
 20
664.0772422413207
 30
0.0
 11
531.4999999999745
 21
664.0772422413207
 31
0.0
  0
LINE
  5
16C
330
1F
100
AcDbEntity
  8
VISIBLE
100
AcDbLine
 10
242.5000000000016
 20
681.0772422413206
 30
0.0
 11
531.4999999999745
 21
681.0772422413206
 31
0.0
  0
LINE
  5
16D
330
1F
100
AcDbEntity
  8
VISIBLE
100
AcDbLine
 10
42.50000000000159
 20
717.2837042162712
 30
0.0
 11
42.50000000000159
 21
735.2837042162712
 31
0.0
  0
LINE
  5
16E
330
1F
100
AcDbEntity
  8
VISIBLE
100
AcDbLine
 10
39.50000000000159
 20
735.2837042162712
 30
0.0
 11
42.50000000000159
 21
735.2837042162712
 31
0.0
  0
LINE
  5
16F
330
1F
100
AcDbEntity
  8
VISIBLE
100
AcDbLine
 10
39.50000000000159
 20
753.2837042162712
 30
0.0
 11
39.50000000000159
 21
735.2837042162712
 31
0.0
  0
LINE
  5
170
330
1F
100
AcDbEntity
  8
VISIBLE
100
AcDbLine
 10
39.50000000000159
 20
753.2837042162712
 30
0.0
 11
42.50000000000159
 21
753.2837042162712
 31
0.0
  0
LINE
  5
171
330
1F
100
AcDbEntity
  8
VISIBLE
100
AcDbLine
 10
42.50000000000159
 20
753.2837042162712
 30
0.0
 11
42.50000000000159
 21
771.2837042162712
 31
0.0
  0
LINE
  5
172
330
1F
100
AcDbEntity
  8
VISIBLE
100
AcDbLine
 10
39.50000000000159
 20
771.2837042162712
 30
0.0
 11
42.50000000000159
 21
771.2837042162712
 31
0.0
  0
LINE
  5
173
330
1F
100
AcDbEntity
  8
VISIBLE
100
AcDbLine
 10
39.50000000000159
 20
789.2837042162712
 30
0.0
 11
39.50000000000159
 21
771.2837042162712
 31
0.0
  0
LINE
  5
174
330
1F
100
AcDbEntity
  8
VISIBLE
100
AcDbLine
 10
39.50000000000159
 20
789.2837042162712
 30
0.0
 11
42.50000000000159
 21
789.2837042162712
 31
0.0
  0
LINE
  5
175
330
1F
100
AcDbEntity
  8
VISIBLE
100
AcDbLine
 10
42.50000000000159
 20
789.2837042162712
 30
0.0
 11
42.50000000000159
 21
807.2837042162712
 31
0.0
  0
LINE
  5
176
330
1F
100
AcDbEntity
  8
VISIBLE
100
AcDbLine
 10
42.50000000000159
 20
807.2837042162712
 30
0.0
 11
331.5000000000016
 21
807.2837042162712
 31
0.0
  0
LINE
  5
177
330
1F
100
AcDbEntity
  8
VISIBLE
100
AcDbLine
 10
331.5000000000016
 20
789.2837042162712
 30
0.0
 11
331.5000000000016
 21
807.2837042162712
 31
0.0
  0
LINE
  5
178
330
1F
100
AcDbEntity
  8
VISIBLE
100
AcDbLine
 10
331.5000000000016
 20
789.2837042162712
 30
0.0
 11
334.5000000000016
 21
789.2837042162712
 31
0.0
  0
LINE
  5
179
330
1F
100
AcDbEntity
  8
VISIBLE
100
AcDbLine
 10
331.5000000000016
 20
771.2837042162712
 30
0.0
 11
334.5000000000016
 21
771.2837042162712
 31
0.0
  0
LINE
  5
17A
330
1F
100
AcDbEntity
  8
VISIBLE
100
AcDbLine
 10
331.5000000000016
 20
753.2837042162712
 30
0.0
 11
331.5000000000016
 21
771.2837042162712
 31
0.0
  0
LINE
  5
17B
330
1F
100
AcDbEntity
  8
VISIBLE
100
AcDbLine
 10
331.5000000000016
 20
753.2837042162712
 30
0.0
 11
334.5000000000016
 21
753.2837042162712
 31
0.0
  0
LINE
  5
17C
330
1F
100
AcDbEntity
  8
VISIBLE
100
AcDbLine
 10
331.5000000000016
 20
735.2837042162712
 30
0.0
 11
334.5000000000016
 21
735.2837042162712
 31
0.0
  0
LINE
  5
17D
330
1F
100
AcDbEntity
  8
VISIBLE
100
AcDbLine
 10
331.5000000000016
 20
717.2837042162712
 30
0.0
 11
331.5000000000016
 21
735.2837042162712
 31
0.0
  0
LINE
  5
17E
330
1F
100
AcDbEntity
  8
VISIBLE
100
AcDbLine
 10
42.50000000000159
 20
717.2837042162712
 30
0.0
 11
331.5000000000016
 21
717.2837042162712
 31
0.0
  0
LINE
  5
17F
330
1F
100
AcDbEntity
  8
VISIBLE
100
AcDbLine
 10
273.4999999999986
 20
804.2837042162712
 30
0.0
 11
216.0999999999961
 21
804.2837042162712
 31
0.0
  0
LINE
  5
180
330
1F
100
AcDbEntity
  8
VISIBLE
100
AcDbLine
 10
216.0999999999961
 20
801.2837042162712
 30
0.0
 11
216.0999999999961
 21
804.2837042162712
 31
0.0
  0
LINE
  5
181
330
1F
100
AcDbEntity
  8
VISIBLE
100
AcDbLine
 10
273.4999999999986
 20
801.2837042162712
 30
0.0
 11
216.0999999999961
 21
801.2837042162712
 31
0.0
  0
LINE
  5
182
330
1F
100
AcDbEntity
  8
VISIBLE
100
AcDbLine
 10
273.4999999999986
 20
801.2837042162712
 30
0.0
 11
273.4999999999986
 21
804.2837042162712
 31
0.0
  0
LINE
  5
183
330
1F
100
AcDbEntity
  8
VISIBLE
100
AcDbLine
 10
157.9000000000166
 20
804.2837042162712
 30
0.0
 11
100.4999999999737
 21
804.2837042162712
 31
0.0
  0
LINE
  5
184
330
1F
100
AcDbEntity
  8
VISIBLE
100
AcDbLine
 10
100.4999999999737
 20
801.2837042162712
 30
0.0
 11
100.4999999999737
 21
804.2837042162712
 31
0.0
  0
LINE
  5
185
330
1F
100
AcDbEntity
  8
VISIBLE
100
AcDbLine
 10
157.9000000000166
 20
801.2837042162712
 30
0.0
 11
100.4999999999737
 21
801.2837042162712
 31
0.0
  0
LINE
  5
186
330
1F
100
AcDbEntity
  8
VISIBLE
100
AcDbLine
 10
157.9000000000166
 20
801.2837042162712
 30
0.0
 11
157.9000000000166
 21
804.2837042162712
 31
0.0
  0
LINE
  5
187
330
1F
100
AcDbEntity
  8
VISIBLE
100
AcDbLine
 10
216.0999999999961
 20
721.2837042162712
 30
0.0
 11
216.0999999999961
 21
724.2837042162712
 31
0.0
  0
LINE
  5
188
330
1F
100
AcDbEntity
  8
VISIBLE
100
AcDbLine
 10
273.4999999999986
 20
721.2837042162712
 30
0.0
 11
216.0999999999961
 21
721.2837042162712
 31
0.0
  0
LINE
  5
189
330
1F
100
AcDbEntity
  8
VISIBLE
100
AcDbLine
 10
273.4999999999986
 20
721.2837042162712
 30
0.0
 11
273.4999999999986
 21
724.2837042162712
 31
0.0
  0
LINE
  5
18A
330
1F
100
AcDbEntity
  8
VISIBLE
100
AcDbLine
 10
157.9000000000166
 20
724.2837042162712
 30
0.0
 11
100.4999999999737
 21
724.2837042162712
 31
0.0
  0
LINE
  5
18B
330
1F
100
AcDbEntity
  8
VISIBLE
100
AcDbLine
 10
100.4999999999737
 20
721.2837042162712
 30
0.0
 11
100.4999999999737
 21
724.2837042162712
 31
0.0
  0
LINE
  5
18C
330
1F
100
AcDbEntity
  8
VISIBLE
100
AcDbLine
 10
157.9000000000166
 20
721.2837042162712
 30
0.0
 11
100.4999999999737
 21
721.2837042162712
 31
0.0
  0
LINE
  5
18D
330
1F
100
AcDbEntity
  8
VISIBLE
100
AcDbLine
 10
157.9000000000166
 20
721.2837042162712
 30
0.0
 11
157.9000000000166
 21
724.2837042162712
 31
0.0
  0
LINE
  5
18E
330
1F
100
AcDbEntity
  8
VISIBLE
100
AcDbLine
 10
334.5000000000016
 20
789.2837042162712
 30
0.0
 11
334.5000000000016
 21
771.2837042162712
 31
0.0
  0
LINE
  5
18F
330
1F
100
AcDbEntity
  8
VISIBLE
100
AcDbLine
 10
334.5000000000016
 20
753.2837042162712
 30
0.0
 11
334.5000000000016
 21
735.2837042162712
 31
0.0
  0
LINE
  5
190
330
1F
100
AcDbEntity
  8
VISIBLE
100
AcDbLine
 10
273.4999999999986
 20
724.2837042162712
 30
0.0
 11
216.0999999999961
 21
724.2837042162712
 31
0.0
  0
LINE
  5
191
330
1F
100
AcDbEntity
  8
VISIBLE
100
AcDbLine
 10
473.7000000000016
 20
684.0772422413206
 30
0.0
 11
473.7000000000016
 21
681.0772422413206
 31
0.0
  0
LINE
  5
192
330
1F
100
AcDbEntity
  8
VISIBLE
100
AcDbLine
 10
415.8999999999961
 20
681.0772422413206
 30
0.0
 11
473.7000000000016
 21
681.0772422413206
 31
0.0
  0
LINE
  5
193
330
1F
100
AcDbEntity
  8
VISIBLE
100
AcDbLine
 10
415.8999999999961
 20
684.0772422413206
 30
0.0
 11
415.8999999999961
 21
681.0772422413206
 31
0.0
  0
LINE
  5
194
330
1F
100
AcDbEntity
  8
VISIBLE
100
AcDbLine
 10
358.0999999999931
 20
684.0772422413206
 30
0.0
 11
415.8999999999961
 21
684.0772422413206
 31
0.0
  0
LINE
  5
195
330
1F
100
AcDbEntity
  8
VISIBLE
100
AcDbLine
 10
358.0999999999931
 20
684.0772422413206
 30
0.0
 11
358.0999999999931
 21
681.0772422413206
 31
0.0
  0
LINE
  5
196
330
1F
100
AcDbEntity
  8
VISIBLE
100
AcDbLine
 10
300.2999999999906
 20
681.0772422413206
 30
0.0
 11
358.0999999999931
 21
681.0772422413206
 31
0.0
  0
LINE
  5
197
330
1F
100
AcDbEntity
  8
VISIBLE
100
AcDbLine
 10
300.2999999999906
 20
684.0772422413206
 30
0.0
 11
300.2999999999906
 21
681.0772422413206
 31
0.0
  0
LINE
  5
198
330
1F
100
AcDbEntity
  8
VISIBLE
100
AcDbLine
 10
300.2999999999906
 20
684.0772422413206
 30
0.0
 11
242.5000000000016
 21
684.0772422413206
 31
0.0
  0
LINE
  5
199
330
1F
100
AcDbEntity
  8
VISIBLE
100
AcDbLine
 10
242.5000000000016
 20
687.4772422413207
 30
0.0
 11
242.5000000000016
 21
684.0772422413206
 31
0.0
  0
LINE
  5
19A
330
1F
100
AcDbEntity
  8
VISIBLE
100
AcDbLine
 10
242.5000000000016
 20
687.4772422413207
 30
0.0
 11
239.5000000000016
 21
687.4772422413207
 31
0.0
  0
LINE
  5
19B
330
1F
100
AcDbEntity
  8
VISIBLE
100
AcDbLine
 10
239.5000000000016
 20
690.8772422413208
 30
0.0
 11
239.5000000000016
 21
687.4772422413207
 31
0.0
  0
LINE
  5
19C
330
1F
100
AcDbEntity
  8
VISIBLE
100
AcDbLine
 10
242.5000000000016
 20
690.8772422413208
 30
0.0
 11
239.5000000000016
 21
690.8772422413208
 31
0.0
  0
LINE
  5
19D
330
1F
100
AcDbEntity
  8
VISIBLE
100
AcDbLine
 10
242.5000000000016
 20
694.2772422413207
 30
0.0
 11
242.5000000000016
 21
690.8772422413208
 31
0.0
  0
LINE
  5
19E
330
1F
100
AcDbEntity
  8
VISIBLE
100
AcDbLine
 10
242.5000000000016
 20
694.2772422413207
 30
0.0
 11
239.5000000000016
 21
694.2772422413207
 31
0.0
  0
LINE
  5
19F
330
1F
100
AcDbEntity
  8
VISIBLE
100
AcDbLine
 10
239.5000000000016
 20
697.6772422413208
 30
0.0
 11
239.5000000000016
 21
694.2772422413207
 31
0.0
  0
LINE
  5
1A0
330
1F
100
AcDbEntity
  8
VISIBLE
100
AcDbLine
 10
242.5000000000016
 20
697.6772422413208
 30
0.0
 11
239.5000000000016
 21
697.6772422413208
 31
0.0
  0
LINE
  5
1A1
330
1F
100
AcDbEntity
  8
VISIBLE
100
AcDbLine
 10
242.5000000000016
 20
701.0772422413207
 30
0.0
 11
242.5000000000016
 21
697.6772422413208
 31
0.0
  0
LINE
  5
1A2
330
1F
100
AcDbEntity
  8
VISIBLE
100
AcDbLine
 10
242.5000000000016
 20
701.0772422413207
 30
0.0
 11
531.4999999999745
 21
701.0772422413207
 31
0.0
  0
LINE
  5
1A3
330
1F
100
AcDbEntity
  8
VISIBLE
100
AcDbLine
 10
531.4999999999745
 20
701.0772422413207
 30
0.0
 11
531.4999999999745
 21
697.6772422413208
 31
0.0
  0
LINE
  5
1A4
330
1F
100
AcDbEntity
  8
VISIBLE
100
AcDbLine
 10
534.5000000000016
 20
697.6772422413208
 30
0.0
 11
531.4999999999745
 21
697.6772422413208
 31
0.0
  0
LINE
  5
1A5
330
1F
100
AcDbEntity
  8
VISIBLE
100
AcDbLine
 10
534.5000000000016
 20
694.2772422413207
 30
0.0
 11
531.4999999999745
 21
694.2772422413207
 31
0.0
  0
LINE
  5
1A6
330
1F
100
AcDbEntity
  8
VISIBLE
100
AcDbLine
 10
531.4999999999745
 20
694.2772422413207
 30
0.0
 11
531.4999999999745
 21
690.8772422413208
 31
0.0
  0
LINE
  5
1A7
330
1F
100
AcDbEntity
  8
VISIBLE
100
AcDbLine
 10
534.5000000000016
 20
690.8772422413208
 30
0.0
 11
531.4999999999745
 21
690.8772422413208
 31
0.0
  0
LINE
  5
1A8
330
1F
100
AcDbEntity
  8
VISIBLE
100
AcDbLine
 10
534.5000000000016
 20
687.4772422413207
 30
0.0
 11
531.4999999999745
 21
687.4772422413207
 31
0.0
  0
LINE
  5
1A9
330
1F
100
AcDbEntity
  8
VISIBLE
100
AcDbLine
 10
531.4999999999745
 20
687.4772422413207
 30
0.0
 11
531.4999999999745
 21
684.0772422413206
 31
0.0
  0
LINE
  5
1AA
330
1F
100
AcDbEntity
  8
VISIBLE
100
AcDbLine
 10
534.5000000000016
 20
697.6772422413208
 30
0.0
 11
534.5000000000016
 21
694.2772422413207
 31
0.0
  0
LINE
  5
1AB
330
1F
100
AcDbEntity
  8
VISIBLE
100
AcDbLine
 10
534.5000000000016
 20
690.8772422413208
 30
0.0
 11
534.5000000000016
 21
687.4772422413207
 31
0.0
  0
LINE
  5
1AC
330
1F
100
AcDbEntity
  8
VISIBLE
100
AcDbLine
 10
473.7000000000016
 20
684.0772422413206
 30
0.0
 11
531.4999999999745
 21
684.0772422413206
 31
0.0
  0
LINE
  5
1AD
330
1F
100
AcDbEntity
  8
VISIBLE
100
AcDbLine
 10
826.5000000000016
 20
641.0772422413207
 30
0.0
 11
829.5000000000016
 21
641.0772422413207
 31
0.0
  0
LINE
  5
1AE
330
1F
100
AcDbEntity
  8
VISIBLE
100
AcDbLine
 10
826.5000000000016
 20
621.0772422413206
 30
0.0
 11
829.5000000000016
 21
621.0772422413206
 31
0.0
  0
LINE
  5
1AF
330
1F
100
AcDbEntity
  8
VISIBLE
100
AcDbLine
 10
826.5000000000016
 20
621.0772422413206
 30
0.0
 11
826.5000000000016
 21
601.0772422413206
 31
0.0
  0
LINE
  5
1B0
330
1F
100
AcDbEntity
  8
VISIBLE
100
AcDbLine
 10
826.5000000000016
 20
601.0772422413206
 30
0.0
 11
829.5000000000016
 21
601.0772422413206
 31
0.0
  0
LINE
  5
1B1
330
1F
100
AcDbEntity
  8
VISIBLE
100
AcDbLine
 10
826.5000000000016
 20
581.0772422413206
 30
0.0
 11
829.5000000000016
 21
581.0772422413206
 31
0.0
  0
LINE
  5
1B2
330
1F
100
AcDbEntity
  8
VISIBLE
100
AcDbLine
 10
826.5000000000016
 20
581.0772422413206
 30
0.0
 11
826.5000000000016
 21
561.0772422413207
 31
0.0
  0
LINE
  5
1B3
330
1F
100
AcDbEntity
  8
VISIBLE
100
AcDbLine
 10
537.5000000000016
 20
561.0772422413207
 30
0.0
 11
826.5000000000016
 21
561.0772422413207
 31
0.0
  0
LINE
  5
1B4
330
1F
100
AcDbEntity
  8
VISIBLE
100
AcDbLine
 10
537.5000000000016
 20
581.0772422413206
 30
0.0
 11
537.5000000000016
 21
561.0772422413207
 31
0.0
  0
LINE
  5
1B5
330
1F
100
AcDbEntity
  8
VISIBLE
100
AcDbLine
 10
534.5000000000016
 20
581.0772422413206
 30
0.0
 11
537.5000000000016
 21
581.0772422413206
 31
0.0
  0
LINE
  5
1B6
330
1F
100
AcDbEntity
  8
VISIBLE
100
AcDbLine
 10
534.5000000000016
 20
581.0772422413206
 30
0.0
 11
534.5000000000016
 21
601.0772422413206
 31
0.0
  0
LINE
  5
1B7
330
1F
100
AcDbEntity
  8
VISIBLE
100
AcDbLine
 10
534.5000000000016
 20
601.0772422413206
 30
0.0
 11
537.5000000000016
 21
601.0772422413206
 31
0.0
  0
LINE
  5
1B8
330
1F
100
AcDbEntity
  8
VISIBLE
100
AcDbLine
 10
537.5000000000016
 20
621.0772422413206
 30
0.0
 11
537.5000000000016
 21
601.0772422413206
 31
0.0
  0
LINE
  5
1B9
330
1F
100
AcDbEntity
  8
VISIBLE
100
AcDbLine
 10
534.5000000000016
 20
621.0772422413206
 30
0.0
 11
537.5000000000016
 21
621.0772422413206
 31
0.0
  0
LINE
  5
1BA
330
1F
100
AcDbEntity
  8
VISIBLE
100
AcDbLine
 10
534.5000000000016
 20
621.0772422413206
 30
0.0
 11
534.5000000000016
 21
641.0772422413207
 31
0.0
  0
LINE
  5
1BB
330
1F
100
AcDbEntity
  8
VISIBLE
100
AcDbLine
 10
534.5000000000016
 20
641.0772422413207
 30
0.0
 11
537.5000000000016
 21
641.0772422413207
 31
0.0
  0
LINE
  5
1BC
330
1F
100
AcDbEntity
  8
VISIBLE
100
AcDbLine
 10
537.5000000000016
 20
661.0772422413207
 30
0.0
 11
537.5000000000016
 21
641.0772422413207
 31
0.0
  0
LINE
  5
1BD
330
1F
100
AcDbEntity
  8
VISIBLE
100
AcDbLine
 10
537.5000000000016
 20
661.0772422413207
 30
0.0
 11
826.5000000000016
 21
661.0772422413207
 31
0.0
  0
LINE
  5
1BE
330
1F
100
AcDbEntity
  8
VISIBLE
100
AcDbLine
 10
826.5000000000016
 20
661.0772422413207
 30
0.0
 11
826.5000000000016
 21
641.0772422413207
 31
0.0
  0
LINE
  5
1BF
330
1F
100
AcDbEntity
  8
VISIBLE
100
AcDbLine
 10
595.4999999999734
 20
577.0772422413206
 30
0.0
 11
595.4999999999734
 21
574.0772422413206
 31
0.0
  0
LINE
  5
1C0
330
1F
100
AcDbEntity
  8
VISIBLE
100
AcDbLine
 10
652.9000000000165
 20
574.0772422413206
 30
0.0
 11
595.4999999999734
 21
574.0772422413206
 31
0.0
  0
LINE
  5
1C1
330
1F
100
AcDbEntity
  8
VISIBLE
100
AcDbLine
 10
652.9000000000165
 20
577.0772422413206
 30
0.0
 11
652.9000000000165
 21
574.0772422413206
 31
0.0
  0
LINE
  5
1C2
330
1F
100
AcDbEntity
  8
VISIBLE
100
AcDbLine
 10
652.9000000000165
 20
577.0772422413206
 30
0.0
 11
595.4999999999734
 21
577.0772422413206
 31
0.0
  0
LINE
  5
1C3
330
1F
100
AcDbEntity
  8
VISIBLE
100
AcDbLine
 10
595.4999999999734
 20
657.0772422413207
 30
0.0
 11
595.4999999999734
 21
654.0772422413207
 31
0.0
  0
LINE
  5
1C4
330
1F
100
AcDbEntity
  8
VISIBLE
100
AcDbLine
 10
652.9000000000165
 20
654.0772422413207
 30
0.0
 11
595.4999999999734
 21
654.0772422413207
 31
0.0
  0
LINE
  5
1C5
330
1F
100
AcDbEntity
  8
VISIBLE
100
AcDbLine
 10
652.9000000000165
 20
657.0772422413207
 30
0.0
 11
652.9000000000165
 21
654.0772422413207
 31
0.0
  0
LINE
  5
1C6
330
1F
100
AcDbEntity
  8
VISIBLE
100
AcDbLine
 10
652.9000000000165
 20
657.0772422413207
 30
0.0
 11
595.4999999999734
 21
657.0772422413207
 31
0.0
  0
LINE
  5
1C7
330
1F
100
AcDbEntity
  8
VISIBLE
100
AcDbLine
 10
711.1000000000015
 20
657.0772422413207
 30
0.0
 11
711.1000000000015
 21
654.0772422413207
 31
0.0
  0
LINE
  5
1C8
330
1F
100
AcDbEntity
  8
VISIBLE
100
AcDbLine
 10
768.5000000000016
 20
654.0772422413207
 30
0.0
 11
711.1000000000015
 21
654.0772422413207
 31
0.0
  0
LINE
  5
1C9
330
1F
100
AcDbEntity
  8
VISIBLE
100
AcDbLine
 10
768.5000000000016
 20
657.0772422413207
 30
0.0
 11
768.5000000000016
 21
654.0772422413207
 31
0.0
  0
LINE
  5
1CA
330
1F
100
AcDbEntity
  8
VISIBLE
100
AcDbLine
 10
768.5000000000016
 20
657.0772422413207
 30
0.0
 11
711.1000000000015
 21
657.0772422413207
 31
0.0
  0
LINE
  5
1CB
330
1F
100
AcDbEntity
  8
VISIBLE
100
AcDbLine
 10
711.1000000000015
 20
577.0772422413206
 30
0.0
 11
711.1000000000015
 21
574.0772422413206
 31
0.0
  0
LINE
  5
1CC
330
1F
100
AcDbEntity
  8
VISIBLE
100
AcDbLine
 10
768.5000000000016
 20
574.0772422413206
 30
0.0
 11
711.1000000000015
 21
574.0772422413206
 31
0.0
  0
LINE
  5
1CD
330
1F
100
AcDbEntity
  8
VISIBLE
100
AcDbLine
 10
768.5000000000016
 20
577.0772422413206
 30
0.0
 11
768.5000000000016
 21
574.0772422413206
 31
0.0
  0
LINE
  5
1CE
330
1F
100
AcDbEntity
  8
VISIBLE
100
AcDbLine
 10
768.5000000000016
 20
577.0772422413206
 30
0.0
 11
711.1000000000015
 21
577.0772422413206
 31
0.0
  0
LINE
  5
1CF
330
1F
100
AcDbEntity
  8
VISIBLE
100
AcDbLine
 10
829.5000000000016
 20
581.0772422413206
 30
0.0
 11
829.5000000000016
 21
601.0772422413206
 31
0.0
  0
LINE
  5
1D0
330
1F
100
AcDbEntity
  8
VISIBLE
100
AcDbLine
 10
829.5000000000016
 20
621.0772422413206
 30
0.0
 11
829.5000000000016
 21
641.0772422413207
 31
0.0
  0
LINE
  5
1D1
330
1F
100
AcDbEntity
  8
VISIBLE
100
AcDbLine
 10
768.7000000000014
 20
684.0772422413206
 30
0.0
 11
768.7000000000014
 21
681.0772422413206
 31
0.0
  0
LINE
  5
1D2
330
1F
100
AcDbEntity
  8
VISIBLE
100
AcDbLine
 10
710.9000000000015
 20
681.0772422413206
 30
0.0
 11
768.7000000000014
 21
681.0772422413206
 31
0.0
  0
LINE
  5
1D3
330
1F
100
AcDbEntity
  8
VISIBLE
100
AcDbLine
 10
710.9000000000015
 20
684.0772422413206
 30
0.0
 11
710.9000000000015
 21
681.0772422413206
 31
0.0
  0
LINE
  5
1D4
330
1F
100
AcDbEntity
  8
VISIBLE
100
AcDbLine
 10
653.0999999999935
 20
684.0772422413206
 30
0.0
 11
710.9000000000015
 21
684.0772422413206
 31
0.0
  0
LINE
  5
1D5
330
1F
100
AcDbEntity
  8
VISIBLE
100
AcDbLine
 10
653.0999999999935
 20
684.0772422413206
 30
0.0
 11
653.0999999999935
 21
681.0772422413206
 31
0.0
  0
LINE
  5
1D6
330
1F
100
AcDbEntity
  8
VISIBLE
100
AcDbLine
 10
595.2999999999904
 20
681.0772422413206
 30
0.0
 11
653.0999999999935
 21
681.0772422413206
 31
0.0
  0
LINE
  5
1D7
330
1F
100
AcDbEntity
  8
VISIBLE
100
AcDbLine
 10
595.2999999999904
 20
684.0772422413206
 30
0.0
 11
595.2999999999904
 21
681.0772422413206
 31
0.0
  0
LINE
  5
1D8
330
1F
100
AcDbEntity
  8
VISIBLE
100
AcDbLine
 10
595.2999999999904
 20
684.0772422413206
 30
0.0
 11
537.5000000000016
 21
684.0772422413206
 31
0.0
  0
LINE
  5
1D9
330
1F
100
AcDbEntity
  8
VISIBLE
100
AcDbLine
 10
537.5000000000016
 20
687.4772422413207
 30
0.0
 11
537.5000000000016
 21
684.0772422413206
 31
0.0
  0
LINE
  5
1DA
330
1F
100
AcDbEntity
  8
VISIBLE
100
AcDbLine
 10
537.5000000000016
 20
687.4772422413207
 30
0.0
 11
534.5000000000016
 21
687.4772422413207
 31
0.0
  0
LINE
  5
1DB
330
1F
100
AcDbEntity
  8
VISIBLE
100
AcDbLine
 10
534.5000000000016
 20
690.8772422413208
 30
0.0
 11
534.5000000000016
 21
687.4772422413207
 31
0.0
  0
LINE
  5
1DC
330
1F
100
AcDbEntity
  8
VISIBLE
100
AcDbLine
 10
537.5000000000016
 20
690.8772422413208
 30
0.0
 11
534.5000000000016
 21
690.8772422413208
 31
0.0
  0
LINE
  5
1DD
330
1F
100
AcDbEntity
  8
VISIBLE
100
AcDbLine
 10
537.5000000000016
 20
694.2772422413207
 30
0.0
 11
537.5000000000016
 21
690.8772422413208
 31
0.0
  0
LINE
  5
1DE
330
1F
100
AcDbEntity
  8
VISIBLE
100
AcDbLine
 10
537.5000000000016
 20
694.2772422413207
 30
0.0
 11
534.5000000000016
 21
694.2772422413207
 31
0.0
  0
LINE
  5
1DF
330
1F
100
AcDbEntity
  8
VISIBLE
100
AcDbLine
 10
534.5000000000016
 20
697.6772422413208
 30
0.0
 11
534.5000000000016
 21
694.2772422413207
 31
0.0
  0
LINE
  5
1E0
330
1F
100
AcDbEntity
  8
VISIBLE
100
AcDbLine
 10
537.5000000000016
 20
697.6772422413208
 30
0.0
 11
534.5000000000016
 21
697.6772422413208
 31
0.0
  0
LINE
  5
1E1
330
1F
100
AcDbEntity
  8
VISIBLE
100
AcDbLine
 10
537.5000000000016
 20
701.0772422413207
 30
0.0
 11
537.5000000000016
 21
697.6772422413208
 31
0.0
  0
LINE
  5
1E2
330
1F
100
AcDbEntity
  8
VISIBLE
100
AcDbLine
 10
537.5000000000016
 20
701.0772422413207
 30
0.0
 11
826.4999999999745
 21
701.0772422413207
 31
0.0
  0
LINE
  5
1E3
330
1F
100
AcDbEntity
  8
VISIBLE
100
AcDbLine
 10
826.4999999999745
 20
701.0772422413207
 30
0.0
 11
826.4999999999745
 21
697.6772422413208
 31
0.0
  0
LINE
  5
1E4
330
1F
100
AcDbEntity
  8
VISIBLE
100
AcDbLine
 10
829.5000000000016
 20
697.6772422413208
 30
0.0
 11
826.4999999999745
 21
697.6772422413208
 31
0.0
  0
LINE
  5
1E5
330
1F
100
AcDbEntity
  8
VISIBLE
100
AcDbLine
 10
829.5000000000016
 20
694.2772422413207
 30
0.0
 11
826.4999999999745
 21
694.2772422413207
 31
0.0
  0
LINE
  5
1E6
330
1F
100
AcDbEntity
  8
VISIBLE
100
AcDbLine
 10
826.4999999999745
 20
694.2772422413207
 30
0.0
 11
826.4999999999745
 21
690.8772422413208
 31
0.0
  0
LINE
  5
1E7
330
1F
100
AcDbEntity
  8
VISIBLE
100
AcDbLine
 10
829.5000000000016
 20
690.8772422413208
 30
0.0
 11
826.4999999999745
 21
690.8772422413208
 31
0.0
  0
LINE
  5
1E8
330
1F
100
AcDbEntity
  8
VISIBLE
100
AcDbLine
 10
829.5000000000016
 20
687.4772422413207
 30
0.0
 11
826.4999999999745
 21
687.4772422413207
 31
0.0
  0
LINE
  5
1E9
330
1F
100
AcDbEntity
  8
VISIBLE
100
AcDbLine
 10
826.4999999999745
 20
687.4772422413207
 30
0.0
 11
826.4999999999745
 21
684.0772422413206
 31
0.0
  0
LINE
  5
1EA
330
1F
100
AcDbEntity
  8
VISIBLE
100
AcDbLine
 10
829.5000000000016
 20
697.6772422413208
 30
0.0
 11
829.5000000000016
 21
694.2772422413207
 31
0.0
  0
LINE
  5
1EB
330
1F
100
AcDbEntity
  8
VISIBLE
100
AcDbLine
 10
829.5000000000016
 20
690.8772422413208
 30
0.0
 11
829.5000000000016
 21
687.4772422413207
 31
0.0
  0
LINE
  5
1EC
330
1F
100
AcDbEntity
  8
VISIBLE
100
AcDbLine
 10
768.7000000000014
 20
684.0772422413206
 30
0.0
 11
826.4999999999745
 21
684.0772422413206
 31
0.0
  0
LINE
  5
1ED
330
1F
100
AcDbEntity
  8
VISIBLE
100
AcDbLine
 10
826.4999999999745
 20
677.5572422413206
 30
0.0
 11
826.4999999999745
 21
677.5172422413207
 31
0.0
  0
LINE
  5
1EE
330
1F
100
AcDbEntity
  8
VISIBLE
100
AcDbLine
 10
829.5000000000016
 20
677.5172422413207
 30
0.0
 11
826.4999999999745
 21
677.5172422413207
 31
0.0
  0
LINE
  5
1EF
330
1F
100
AcDbEntity
  8
VISIBLE
100
AcDbLine
 10
829.5000000000016
 20
674.4372422413207
 30
0.0
 11
826.4999999999745
 21
674.4372422413207
 31
0.0
  0
LINE
  5
1F0
330
1F
100
AcDbEntity
  8
VISIBLE
100
AcDbLine
 10
826.4999999999745
 20
674.4372422413207
 30
0.0
 11
826.4999999999745
 21
674.3972422413208
 31
0.0
  0
LINE
  5
1F1
330
1F
100
AcDbEntity
  8
VISIBLE
100
AcDbLine
 10
829.5000000000016
 20
674.3972422413208
 30
0.0
 11
826.4999999999745
 21
674.3972422413208
 31
0.0
  0
LINE
  5
1F2
330
1F
100
AcDbEntity
  8
VISIBLE
100
AcDbLine
 10
829.5000000000016
 20
674.3972422413208
 30
0.0
 11
829.5000000000016
 21
674.3572422413207
 31
0.0
  0
LINE
  5
1F3
330
1F
100
AcDbEntity
  8
VISIBLE
100
AcDbLine
 10
829.5000000000016
 20
674.3572422413207
 30
0.0
 11
826.4999999999745
 21
674.3572422413207
 31
0.0
  0
LINE
  5
1F4
330
1F
100
AcDbEntity
  8
VISIBLE
100
AcDbLine
 10
826.4999999999745
 20
674.3572422413207
 30
0.0
 11
826.4999999999745
 21
674.3172422413206
 31
0.0
  0
LINE
  5
1F5
330
1F
100
AcDbEntity
  8
VISIBLE
100
AcDbLine
 10
829.5000000000016
 20
674.3172422413206
 30
0.0
 11
826.4999999999745
 21
674.3172422413206
 31
0.0
  0
LINE
  5
1F6
330
1F
100
AcDbEntity
  8
VISIBLE
100
AcDbLine
 10
829.5000000000016
 20
674.3172422413206
 30
0.0
 11
829.5000000000016
 21
674.2772422413207
 31
0.0
  0
LINE
  5
1F7
330
1F
100
AcDbEntity
  8
VISIBLE
100
AcDbLine
 10
829.5000000000016
 20
674.2772422413207
 30
0.0
 11
826.4999999999745
 21
674.2772422413207
 31
0.0
  0
LINE
  5
1F8
330
1F
100
AcDbEntity
  8
VISIBLE
100
AcDbLine
 10
826.4999999999745
 20
674.2772422413207
 30
0.0
 11
826.4999999999745
 21
670.8772422413207
 31
0.0
  0
LINE
  5
1F9
330
1F
100
AcDbEntity
  8
VISIBLE
100
AcDbLine
 10
829.5000000000016
 20
670.8772422413207
 30
0.0
 11
826.4999999999745
 21
670.8772422413207
 31
0.0
  0
LINE
  5
1FA
330
1F
100
AcDbEntity
  8
VISIBLE
100
AcDbLine
 10
829.5000000000016
 20
670.8772422413207
 30
0.0
 11
829.5000000000016
 21
670.8372422413207
 31
0.0
  0
LINE
  5
1FB
330
1F
100
AcDbEntity
  8
VISIBLE
100
AcDbLine
 10
829.5000000000016
 20
670.8372422413207
 30
0.0
 11
826.4999999999745
 21
670.8372422413207
 31
0.0
  0
LINE
  5
1FC
330
1F
100
AcDbEntity
  8
VISIBLE
100
AcDbLine
 10
826.4999999999745
 20
670.8372422413207
 30
0.0
 11
826.4999999999745
 21
670.7972422413206
 31
0.0
  0
LINE
  5
1FD
330
1F
100
AcDbEntity
  8
VISIBLE
100
AcDbLine
 10
829.5000000000016
 20
670.7972422413206
 30
0.0
 11
826.4999999999745
 21
670.7972422413206
 31
0.0
  0
LINE
  5
1FE
330
1F
100
AcDbEntity
  8
VISIBLE
100
AcDbLine
 10
829.5000000000016
 20
670.7972422413206
 30
0.0
 11
829.5000000000016
 21
670.7572422413207
 31
0.0
  0
LINE
  5
1FF
330
1F
100
AcDbEntity
  8
VISIBLE
100
AcDbLine
 10
829.5000000000016
 20
670.7572422413207
 30
0.0
 11
826.4999999999745
 21
670.7572422413207
 31
0.0
  0
LINE
  5
200
330
1F
100
AcDbEntity
  8
VISIBLE
100
AcDbLine
 10
826.4999999999745
 20
670.7572422413207
 30
0.0
 11
826.4999999999745
 21
670.7172422413207
 31
0.0
  0
LINE
  5
201
330
1F
100
AcDbEntity
  8
VISIBLE
100
AcDbLine
 10
829.5000000000016
 20
670.7172422413207
 30
0.0
 11
826.4999999999745
 21
670.7172422413207
 31
0.0
  0
LINE
  5
202
330
1F
100
AcDbEntity
  8
VISIBLE
100
AcDbLine
 10
829.5000000000016
 20
670.7172422413207
 30
0.0
 11
829.5000000000016
 21
667.6372422413208
 31
0.0
  0
LINE
  5
203
330
1F
100
AcDbEntity
  8
VISIBLE
100
AcDbLine
 10
829.5000000000016
 20
667.6372422413208
 30
0.0
 11
826.4999999999745
 21
667.6372422413208
 31
0.0
  0
LINE
  5
204
330
1F
100
AcDbEntity
  8
VISIBLE
100
AcDbLine
 10
826.4999999999745
 20
667.6372422413208
 30
0.0
 11
826.4999999999745
 21
667.5972422413207
 31
0.0
  0
LINE
  5
205
330
1F
100
AcDbEntity
  8
VISIBLE
100
AcDbLine
 10
829.5000000000016
 20
667.5972422413207
 30
0.0
 11
826.4999999999745
 21
667.5972422413207
 31
0.0
  0
LINE
  5
206
330
1F
100
AcDbEntity
  8
VISIBLE
100
AcDbLine
 10
829.5000000000016
 20
667.5972422413207
 30
0.0
 11
829.5000000000016
 21
667.5572422413206
 31
0.0
  0
LINE
  5
207
330
1F
100
AcDbEntity
  8
VISIBLE
100
AcDbLine
 10
829.5000000000016
 20
667.5572422413206
 30
0.0
 11
826.4999999999745
 21
667.5572422413206
 31
0.0
  0
LINE
  5
208
330
1F
100
AcDbEntity
  8
VISIBLE
100
AcDbLine
 10
826.4999999999745
 20
667.5572422413206
 30
0.0
 11
826.4999999999745
 21
667.5172422413207
 31
0.0
  0
LINE
  5
209
330
1F
100
AcDbEntity
  8
VISIBLE
100
AcDbLine
 10
829.5000000000016
 20
667.5172422413207
 30
0.0
 11
826.4999999999745
 21
667.5172422413207
 31
0.0
  0
LINE
  5
20A
330
1F
100
AcDbEntity
  8
VISIBLE
100
AcDbLine
 10
829.5000000000016
 20
667.5172422413207
 30
0.0
 11
829.5000000000016
 21
667.4772422413207
 31
0.0
  0
LINE
  5
20B
330
1F
100
AcDbEntity
  8
VISIBLE
100
AcDbLine
 10
829.5000000000016
 20
667.4772422413207
 30
0.0
 11
826.4999999999745
 21
667.4772422413207
 31
0.0
  0
LINE
  5
20C
330
1F
100
AcDbEntity
  8
VISIBLE
100
AcDbLine
 10
826.4999999999745
 20
667.4772422413207
 30
0.0
 11
826.4999999999745
 21
664.0772422413207
 31
0.0
  0
LINE
  5
20D
330
1F
100
AcDbEntity
  8
VISIBLE
100
AcDbLine
 10
768.7000000000014
 20
664.0772422413207
 30
0.0
 11
826.4999999999745
 21
664.0772422413207
 31
0.0
  0
LINE
  5
20E
330
1F
100
AcDbEntity
  8
VISIBLE
100
AcDbLine
 10
768.7000000000014
 20
664.0772422413207
 30
0.0
 11
768.7000000000014
 21
661.0772422413207
 31
0.0
  0
LINE
  5
20F
330
1F
100
AcDbEntity
  8
VISIBLE
100
AcDbLine
 10
710.9000000000015
 20
661.0772422413207
 30
0.0
 11
768.7000000000014
 21
661.0772422413207
 31
0.0
  0
LINE
  5
210
330
1F
100
AcDbEntity
  8
VISIBLE
100
AcDbLine
 10
710.9000000000015
 20
664.0772422413207
 30
0.0
 11
710.9000000000015
 21
661.0772422413207
 31
0.0
  0
LINE
  5
211
330
1F
100
AcDbEntity
  8
VISIBLE
100
AcDbLine
 10
653.0999999999935
 20
664.0772422413207
 30
0.0
 11
710.9000000000015
 21
664.0772422413207
 31
0.0
  0
LINE
  5
212
330
1F
100
AcDbEntity
  8
VISIBLE
100
AcDbLine
 10
653.0999999999935
 20
664.0772422413207
 30
0.0
 11
653.0999999999935
 21
661.0772422413207
 31
0.0
  0
LINE
  5
213
330
1F
100
AcDbEntity
  8
VISIBLE
100
AcDbLine
 10
595.2999999999904
 20
661.0772422413207
 30
0.0
 11
653.0999999999935
 21
661.0772422413207
 31
0.0
  0
LINE
  5
214
330
1F
100
AcDbEntity
  8
VISIBLE
100
AcDbLine
 10
595.2999999999904
 20
664.0772422413207
 30
0.0
 11
595.2999999999904
 21
661.0772422413207
 31
0.0
  0
LINE
  5
215
330
1F
100
AcDbEntity
  8
VISIBLE
100
AcDbLine
 10
595.2999999999904
 20
664.0772422413207
 30
0.0
 11
537.5000000000016
 21
664.0772422413207
 31
0.0
  0
LINE
  5
216
330
1F
100
AcDbEntity
  8
VISIBLE
100
AcDbLine
 10
537.5000000000016
 20
667.4772422413207
 30
0.0
 11
537.5000000000016
 21
664.0772422413207
 31
0.0
  0
LINE
  5
217
330
1F
100
AcDbEntity
  8
VISIBLE
100
AcDbLine
 10
537.5000000000016
 20
667.4772422413207
 30
0.0
 11
534.5000000000016
 21
667.4772422413207
 31
0.0
  0
LINE
  5
218
330
1F
100
AcDbEntity
  8
VISIBLE
100
AcDbLine
 10
534.5000000000016
 20
670.8772422413207
 30
0.0
 11
534.5000000000016
 21
667.4772422413207
 31
0.0
  0
LINE
  5
219
330
1F
100
AcDbEntity
  8
VISIBLE
100
AcDbLine
 10
537.5000000000016
 20
670.8772422413207
 30
0.0
 11
534.5000000000016
 21
670.8772422413207
 31
0.0
  0
LINE
  5
21A
330
1F
100
AcDbEntity
  8
VISIBLE
100
AcDbLine
 10
537.5000000000016
 20
674.2772422413207
 30
0.0
 11
537.5000000000016
 21
670.8772422413207
 31
0.0
  0
LINE
  5
21B
330
1F
100
AcDbEntity
  8
VISIBLE
100
AcDbLine
 10
537.5000000000016
 20
674.2772422413207
 30
0.0
 11
534.5000000000016
 21
674.2772422413207
 31
0.0
  0
LINE
  5
21C
330
1F
100
AcDbEntity
  8
VISIBLE
100
AcDbLine
 10
534.5000000000016
 20
677.6772422413208
 30
0.0
 11
534.5000000000016
 21
674.2772422413207
 31
0.0
  0
LINE
  5
21D
330
1F
100
AcDbEntity
  8
VISIBLE
100
AcDbLine
 10
537.5000000000016
 20
677.6772422413208
 30
0.0
 11
534.5000000000016
 21
677.6772422413208
 31
0.0
  0
LINE
  5
21E
330
1F
100
AcDbEntity
  8
VISIBLE
100
AcDbLine
 10
537.5000000000016
 20
681.0772422413206
 30
0.0
 11
537.5000000000016
 21
677.6772422413208
 31
0.0
  0
LINE
  5
21F
330
1F
100
AcDbEntity
  8
VISIBLE
100
AcDbLine
 10
537.5000000000016
 20
681.0772422413206
 30
0.0
 11
826.4999999999745
 21
681.0772422413206
 31
0.0
  0
LINE
  5
220
330
1F
100
AcDbEntity
  8
VISIBLE
100
AcDbLine
 10
826.4999999999745
 20
681.0772422413206
 30
0.0
 11
826.4999999999745
 21
677.6772422413208
 31
0.0
  0
LINE
  5
221
330
1F
100
AcDbEntity
  8
VISIBLE
100
AcDbLine
 10
829.5000000000016
 20
677.6772422413208
 30
0.0
 11
826.4999999999745
 21
677.6772422413208
 31
0.0
  0
LINE
  5
222
330
1F
100
AcDbEntity
  8
VISIBLE
100
AcDbLine
 10
829.5000000000016
 20
677.6772422413208
 30
0.0
 11
829.5000000000016
 21
677.6372422413207
 31
0.0
  0
LINE
  5
223
330
1F
100
AcDbEntity
  8
VISIBLE
100
AcDbLine
 10
829.5000000000016
 20
677.6372422413207
 30
0.0
 11
826.4999999999745
 21
677.6372422413207
 31
0.0
  0
LINE
  5
224
330
1F
100
AcDbEntity
  8
VISIBLE
100
AcDbLine
 10
826.4999999999745
 20
677.6372422413207
 30
0.0
 11
826.4999999999745
 21
677.5972422413207
 31
0.0
  0
LINE
  5
225
330
1F
100
AcDbEntity
  8
VISIBLE
100
AcDbLine
 10
829.5000000000016
 20
677.5972422413207
 30
0.0
 11
826.4999999999745
 21
677.5972422413207
 31
0.0
  0
LINE
  5
226
330
1F
100
AcDbEntity
  8
VISIBLE
100
AcDbLine
 10
829.5000000000016
 20
677.5572422413206
 30
0.0
 11
826.4999999999745
 21
677.5572422413206
 31
0.0
  0
LINE
  5
227
330
1F
100
AcDbEntity
  8
VISIBLE
100
AcDbLine
 10
829.5000000000016
 20
677.5972422413207
 30
0.0
 11
829.5000000000016
 21
677.5572422413206
 31
0.0
  0
LINE
  5
228
330
1F
100
AcDbEntity
  8
VISIBLE
100
AcDbLine
 10
829.5000000000016
 20
677.5172422413207
 30
0.0
 11
829.5000000000016
 21
674.4372422413207
 31
0.0
  0
LINE
  5
229
330
1F
100
AcDbEntity
  8
VISIBLE
100
AcDbLine
 10
568.7000000000016
 20
720.2837042162712
 30
0.0
 11
568.7000000000016
 21
717.2837042162712
 31
0.0
  0
LINE
  5
22A
330
1F
100
AcDbEntity
  8
VISIBLE
100
AcDbLine
 10
510.8999999999956
 20
717.2837042162712
 30
0.0
 11
568.7000000000016
 21
717.2837042162712
 31
0.0
  0
LINE
  5
22B
330
1F
100
AcDbEntity
  8
VISIBLE
100
AcDbLine
 10
510.8999999999956
 20
720.2837042162712
 30
0.0
 11
510.8999999999956
 21
717.2837042162712
 31
0.0
  0
LINE
  5
22C
330
1F
100
AcDbEntity
  8
VISIBLE
100
AcDbLine
 10
453.0999999999931
 20
720.2837042162712
 30
0.0
 11
510.8999999999956
 21
720.2837042162712
 31
0.0
  0
LINE
  5
22D
330
1F
100
AcDbEntity
  8
VISIBLE
100
AcDbLine
 10
453.0999999999931
 20
720.2837042162712
 30
0.0
 11
453.0999999999931
 21
717.2837042162712
 31
0.0
  0
LINE
  5
22E
330
1F
100
AcDbEntity
  8
VISIBLE
100
AcDbLine
 10
395.2999999999906
 20
717.2837042162712
 30
0.0
 11
453.0999999999931
 21
717.2837042162712
 31
0.0
  0
LINE
  5
22F
330
1F
100
AcDbEntity
  8
VISIBLE
100
AcDbLine
 10
395.2999999999906
 20
720.2837042162712
 30
0.0
 11
395.2999999999906
 21
717.2837042162712
 31
0.0
  0
LINE
  5
230
330
1F
100
AcDbEntity
  8
VISIBLE
100
AcDbLine
 10
395.2999999999906
 20
720.2837042162712
 30
0.0
 11
337.5000000000016
 21
720.2837042162712
 31
0.0
  0
LINE
  5
231
330
1F
100
AcDbEntity
  8
VISIBLE
100
AcDbLine
 10
337.5000000000016
 20
723.6837042162712
 30
0.0
 11
337.5000000000016
 21
720.2837042162712
 31
0.0
  0
LINE
  5
232
330
1F
100
AcDbEntity
  8
VISIBLE
100
AcDbLine
 10
337.5000000000016
 20
723.6837042162712
 30
0.0
 11
334.5000000000016
 21
723.6837042162712
 31
0.0
  0
LINE
  5
233
330
1F
100
AcDbEntity
  8
VISIBLE
100
AcDbLine
 10
334.5000000000016
 20
727.0837042162711
 30
0.0
 11
334.5000000000016
 21
723.6837042162712
 31
0.0
  0
LINE
  5
234
330
1F
100
AcDbEntity
  8
VISIBLE
100
AcDbLine
 10
337.5000000000016
 20
727.0837042162711
 30
0.0
 11
334.5000000000016
 21
727.0837042162711
 31
0.0
  0
LINE
  5
235
330
1F
100
AcDbEntity
  8
VISIBLE
100
AcDbLine
 10
337.5000000000016
 20
730.4837042162712
 30
0.0
 11
337.5000000000016
 21
727.0837042162711
 31
0.0
  0
LINE
  5
236
330
1F
100
AcDbEntity
  8
VISIBLE
100
AcDbLine
 10
337.5000000000016
 20
730.4837042162712
 30
0.0
 11
334.5000000000016
 21
730.4837042162712
 31
0.0
  0
LINE
  5
237
330
1F
100
AcDbEntity
  8
VISIBLE
100
AcDbLine
 10
334.5000000000016
 20
733.8837042162711
 30
0.0
 11
334.5000000000016
 21
730.4837042162712
 31
0.0
  0
LINE
  5
238
330
1F
100
AcDbEntity
  8
VISIBLE
100
AcDbLine
 10
337.5000000000016
 20
733.8837042162711
 30
0.0
 11
334.5000000000016
 21
733.8837042162711
 31
0.0
  0
LINE
  5
239
330
1F
100
AcDbEntity
  8
VISIBLE
100
AcDbLine
 10
337.5000000000016
 20
737.2837042162712
 30
0.0
 11
337.5000000000016
 21
733.8837042162711
 31
0.0
  0
LINE
  5
23A
330
1F
100
AcDbEntity
  8
VISIBLE
100
AcDbLine
 10
337.5000000000016
 20
737.2837042162712
 30
0.0
 11
626.4999999999745
 21
737.2837042162712
 31
0.0
  0
LINE
  5
23B
330
1F
100
AcDbEntity
  8
VISIBLE
100
AcDbLine
 10
626.4999999999745
 20
737.2837042162712
 30
0.0
 11
626.4999999999745
 21
733.8837042162711
 31
0.0
  0
LINE
  5
23C
330
1F
100
AcDbEntity
  8
VISIBLE
100
AcDbLine
 10
629.5000000000016
 20
733.8837042162711
 30
0.0
 11
626.4999999999745
 21
733.8837042162711
 31
0.0
  0
LINE
  5
23D
330
1F
100
AcDbEntity
  8
VISIBLE
100
AcDbLine
 10
629.5000000000016
 20
730.4837042162712
 30
0.0
 11
626.4999999999745
 21
730.4837042162712
 31
0.0
  0
LINE
  5
23E
330
1F
100
AcDbEntity
  8
VISIBLE
100
AcDbLine
 10
626.4999999999745
 20
730.4837042162712
 30
0.0
 11
626.4999999999745
 21
727.0837042162711
 31
0.0
  0
LINE
  5
23F
330
1F
100
AcDbEntity
  8
VISIBLE
100
AcDbLine
 10
629.5000000000016
 20
727.0837042162711
 30
0.0
 11
626.4999999999745
 21
727.0837042162711
 31
0.0
  0
LINE
  5
240
330
1F
100
AcDbEntity
  8
VISIBLE
100
AcDbLine
 10
629.5000000000016
 20
723.6837042162712
 30
0.0
 11
626.4999999999745
 21
723.6837042162712
 31
0.0
  0
LINE
  5
241
330
1F
100
AcDbEntity
  8
VISIBLE
100
AcDbLine
 10
626.4999999999745
 20
723.6837042162712
 30
0.0
 11
626.4999999999745
 21
720.2837042162712
 31
0.0
  0
LINE
  5
242
330
1F
100
AcDbEntity
  8
VISIBLE
100
AcDbLine
 10
629.5000000000016
 20
733.8837042162711
 30
0.0
 11
629.5000000000016
 21
730.4837042162712
 31
0.0
  0
LINE
  5
243
330
1F
100
AcDbEntity
  8
VISIBLE
100
AcDbLine
 10
629.5000000000016
 20
727.0837042162711
 30
0.0
 11
629.5000000000016
 21
723.6837042162712
 31
0.0
  0
LINE
  5
244
330
1F
100
AcDbEntity
  8
VISIBLE
100
AcDbLine
 10
568.7000000000016
 20
720.2837042162712
 30
0.0
 11
626.4999999999745
 21
720.2837042162712
 31
0.0
  0
LINE
  5
245
330
1F
100
AcDbEntity
  8
VISIBLE
100
AcDbLine
 10
568.7000000000016
 20
740.2837042162712
 30
0.0
 11
568.7000000000016
 21
737.2837042162712
 31
0.0
  0
LINE
  5
246
330
1F
100
AcDbEntity
  8
VISIBLE
100
AcDbLine
 10
510.8999999999956
 20
737.2837042162712
 30
0.0
 11
568.7000000000016
 21
737.2837042162712
 31
0.0
  0
LINE
  5
247
330
1F
100
AcDbEntity
  8
VISIBLE
100
AcDbLine
 10
510.8999999999956
 20
740.2837042162712
 30
0.0
 11
510.8999999999956
 21
737.2837042162712
 31
0.0
  0
LINE
  5
248
330
1F
100
AcDbEntity
  8
VISIBLE
100
AcDbLine
 10
453.0999999999931
 20
740.2837042162712
 30
0.0
 11
510.8999999999956
 21
740.2837042162712
 31
0.0
  0
LINE
  5
249
330
1F
100
AcDbEntity
  8
VISIBLE
100
AcDbLine
 10
453.0999999999931
 20
740.2837042162712
 30
0.0
 11
453.0999999999931
 21
737.2837042162712
 31
0.0
  0
LINE
  5
24A
330
1F
100
AcDbEntity
  8
VISIBLE
100
AcDbLine
 10
395.2999999999906
 20
737.2837042162712
 30
0.0
 11
453.0999999999931
 21
737.2837042162712
 31
0.0
  0
LINE
  5
24B
330
1F
100
AcDbEntity
  8
VISIBLE
100
AcDbLine
 10
395.2999999999906
 20
740.2837042162712
 30
0.0
 11
395.2999999999906
 21
737.2837042162712
 31
0.0
  0
LINE
  5
24C
330
1F
100
AcDbEntity
  8
VISIBLE
100
AcDbLine
 10
395.2999999999906
 20
740.2837042162712
 30
0.0
 11
337.5000000000016
 21
740.2837042162712
 31
0.0
  0
LINE
  5
24D
330
1F
100
AcDbEntity
  8
VISIBLE
100
AcDbLine
 10
337.5000000000016
 20
743.6837042162713
 30
0.0
 11
337.5000000000016
 21
740.2837042162712
 31
0.0
  0
LINE
  5
24E
330
1F
100
AcDbEntity
  8
VISIBLE
100
AcDbLine
 10
337.5000000000016
 20
743.6837042162713
 30
0.0
 11
334.5000000000016
 21
743.6837042162713
 31
0.0
  0
LINE
  5
24F
330
1F
100
AcDbEntity
  8
VISIBLE
100
AcDbLine
 10
334.5000000000016
 20
747.0837042162711
 30
0.0
 11
334.5000000000016
 21
743.6837042162713
 31
0.0
  0
LINE
  5
250
330
1F
100
AcDbEntity
  8
VISIBLE
100
AcDbLine
 10
337.5000000000016
 20
747.0837042162711
 30
0.0
 11
334.5000000000016
 21
747.0837042162711
 31
0.0
  0
LINE
  5
251
330
1F
100
AcDbEntity
  8
VISIBLE
100
AcDbLine
 10
337.5000000000016
 20
750.4837042162712
 30
0.0
 11
337.5000000000016
 21
747.0837042162711
 31
0.0
  0
LINE
  5
252
330
1F
100
AcDbEntity
  8
VISIBLE
100
AcDbLine
 10
337.5000000000016
 20
750.4837042162712
 30
0.0
 11
334.5000000000016
 21
750.4837042162712
 31
0.0
  0
LINE
  5
253
330
1F
100
AcDbEntity
  8
VISIBLE
100
AcDbLine
 10
334.5000000000016
 20
753.8837042162712
 30
0.0
 11
334.5000000000016
 21
750.4837042162712
 31
0.0
  0
LINE
  5
254
330
1F
100
AcDbEntity
  8
VISIBLE
100
AcDbLine
 10
337.5000000000016
 20
753.8837042162712
 30
0.0
 11
334.5000000000016
 21
753.8837042162712
 31
0.0
  0
LINE
  5
255
330
1F
100
AcDbEntity
  8
VISIBLE
100
AcDbLine
 10
337.5000000000016
 20
757.2837042162712
 30
0.0
 11
337.5000000000016
 21
753.8837042162712
 31
0.0
  0
LINE
  5
256
330
1F
100
AcDbEntity
  8
VISIBLE
100
AcDbLine
 10
337.5000000000016
 20
757.2837042162712
 30
0.0
 11
626.4999999999745
 21
757.2837042162712
 31
0.0
  0
LINE
  5
257
330
1F
100
AcDbEntity
  8
VISIBLE
100
AcDbLine
 10
626.4999999999745
 20
757.2837042162712
 30
0.0
 11
626.4999999999745
 21
753.8837042162712
 31
0.0
  0
LINE
  5
258
330
1F
100
AcDbEntity
  8
VISIBLE
100
AcDbLine
 10
629.5000000000016
 20
753.8837042162712
 30
0.0
 11
626.4999999999745
 21
753.8837042162712
 31
0.0
  0
LINE
  5
259
330
1F
100
AcDbEntity
  8
VISIBLE
100
AcDbLine
 10
629.5000000000016
 20
750.4837042162712
 30
0.0
 11
626.4999999999745
 21
750.4837042162712
 31
0.0
  0
LINE
  5
25A
330
1F
100
AcDbEntity
  8
VISIBLE
100
AcDbLine
 10
626.4999999999745
 20
750.4837042162712
 30
0.0
 11
626.4999999999745
 21
747.0837042162711
 31
0.0
  0
LINE
  5
25B
330
1F
100
AcDbEntity
  8
VISIBLE
100
AcDbLine
 10
629.5000000000016
 20
747.0837042162711
 30
0.0
 11
626.4999999999745
 21
747.0837042162711
 31
0.0
  0
LINE
  5
25C
330
1F
100
AcDbEntity
  8
VISIBLE
100
AcDbLine
 10
629.5000000000016
 20
743.6837042162713
 30
0.0
 11
626.4999999999745
 21
743.6837042162713
 31
0.0
  0
LINE
  5
25D
330
1F
100
AcDbEntity
  8
VISIBLE
100
AcDbLine
 10
626.4999999999745
 20
743.6837042162713
 30
0.0
 11
626.4999999999745
 21
740.2837042162712
 31
0.0
  0
LINE
  5
25E
330
1F
100
AcDbEntity
  8
VISIBLE
100
AcDbLine
 10
629.5000000000016
 20
753.8837042162712
 30
0.0
 11
629.5000000000016
 21
750.4837042162712
 31
0.0
  0
LINE
  5
25F
330
1F
100
AcDbEntity
  8
VISIBLE
100
AcDbLine
 10
629.5000000000016
 20
747.0837042162711
 30
0.0
 11
629.5000000000016
 21
743.6837042162713
 31
0.0
  0
LINE
  5
260
330
1F
100
AcDbEntity
  8
VISIBLE
100
AcDbLine
 10
568.7000000000016
 20
740.2837042162712
 30
0.0
 11
626.4999999999745
 21
740.2837042162712
 31
0.0
  0
LINE
  5
261
330
1F
100
AcDbEntity
  8
VISIBLE
100
AcDbLine
 10
537.5000000000605
 20
545.0772422413772
 30
0.0
 11
534.5000000000175
 21
545.0772422413772
 31
0.0
  0
LINE
  5
262
330
1F
100
AcDbEntity
  8
VISIBLE
100
AcDbLine
 10
537.5000000000605
 20
549.0772422413772
 30
0.0
 11
534.5000000000175
 21
549.0772422413772
 31
0.0
  0
LINE
  5
263
330
1F
100
AcDbEntity
  8
VISIBLE
100
AcDbLine
 10
537.5000000000605
 20
549.0772422413772
 30
0.0
 11
537.5000000000605
 21
553.0772422413772
 31
0.0
  0
LINE
  5
264
330
1F
100
AcDbEntity
  8
VISIBLE
100
AcDbLine
 10
537.5000000000605
 20
553.0772422413772
 30
0.0
 11
534.5000000000175
 21
553.0772422413772
 31
0.0
  0
LINE
  5
265
330
1F
100
AcDbEntity
  8
VISIBLE
100
AcDbLine
 10
537.5000000000605
 20
557.0772422413772
 30
0.0
 11
534.5000000000175
 21
557.0772422413772
 31
0.0
  0
LINE
  5
266
330
1F
100
AcDbEntity
  8
VISIBLE
100
AcDbLine
 10
537.5000000000605
 20
557.0772422413772
 30
0.0
 11
537.5000000000605
 21
561.0772422413772
 31
0.0
  0
LINE
  5
267
330
1F
100
AcDbEntity
  8
VISIBLE
100
AcDbLine
 10
825.5000000001476
 20
395.3777149839073
 30
0.0
 11
538.5000000002076
 21
561.0772422413152
 31
0.0
  0
LINE
  5
268
330
1F
100
AcDbEntity
  8
VISIBLE
100
AcDbLine
 10
825.5000000001476
 20
392.2837042162712
 30
0.0
 11
825.5000000001476
 21
395.3777149839073
 31
0.0
  0
LINE
  5
269
330
1F
100
AcDbEntity
  8
VISIBLE
100
AcDbLine
 10
826.5000000000337
 20
392.2837042162712
 30
0.0
 11
825.5000000001476
 21
392.2837042162712
 31
0.0
  0
LINE
  5
26A
330
1F
100
AcDbEntity
  8
VISIBLE
100
AcDbLine
 10
826.5000000000337
 20
388.2837042162712
 30
0.0
 11
826.5000000000337
 21
392.2837042162712
 31
0.0
  0
LINE
  5
26B
330
1F
100
AcDbEntity
  8
VISIBLE
100
AcDbLine
 10
829.5000000000337
 20
388.2837042162712
 30
0.0
 11
826.5000000000337
 21
388.2837042162712
 31
0.0
  0
LINE
  5
26C
330
1F
100
AcDbEntity
  8
VISIBLE
100
AcDbLine
 10
829.5000000000337
 20
388.2837042162712
 30
0.0
 11
829.5000000000337
 21
384.2837042162712
 31
0.0
  0
LINE
  5
26D
330
1F
100
AcDbEntity
  8
VISIBLE
100
AcDbLine
 10
829.5000000000337
 20
384.2837042162712
 30
0.0
 11
826.5000000000337
 21
384.2837042162712
 31
0.0
  0
LINE
  5
26E
330
1F
100
AcDbEntity
  8
VISIBLE
100
AcDbLine
 10
826.5000000000337
 20
380.2837042162712
 30
0.0
 11
826.5000000000337
 21
384.2837042162712
 31
0.0
  0
LINE
  5
26F
330
1F
100
AcDbEntity
  8
VISIBLE
100
AcDbLine
 10
829.5000000000337
 20
380.2837042162712
 30
0.0
 11
826.5000000000337
 21
380.2837042162712
 31
0.0
  0
LINE
  5
270
330
1F
100
AcDbEntity
  8
VISIBLE
100
AcDbLine
 10
829.5000000000337
 20
380.2837042162712
 30
0.0
 11
829.5000000000337
 21
376.2837042162712
 31
0.0
  0
LINE
  5
271
330
1F
100
AcDbEntity
  8
VISIBLE
100
AcDbLine
 10
829.5000000000337
 20
376.2837042162712
 30
0.0
 11
826.5000000000337
 21
376.2837042162712
 31
0.0
  0
LINE
  5
272
330
1F
100
AcDbEntity
  8
VISIBLE
100
AcDbLine
 10
826.5000000000337
 20
372.2837042162712
 30
0.0
 11
826.5000000000337
 21
376.2837042162712
 31
0.0
  0
LINE
  5
273
330
1F
100
AcDbEntity
  8
VISIBLE
100
AcDbLine
 10
825.5000000000146
 20
372.283704216328
 30
0.0
 11
826.5000000000337
 21
372.2837042162712
 31
0.0
  0
LINE
  5
274
330
1F
100
AcDbEntity
  8
VISIBLE
100
AcDbLine
 10
825.5000000000146
 20
372.283704216328
 30
0.0
 11
538.5000000000366
 21
537.9832314737497
 31
0.0
  0
LINE
  5
275
330
1F
100
AcDbEntity
  8
VISIBLE
100
AcDbLine
 10
538.5000000000366
 20
537.9832314737497
 30
0.0
 11
538.5000000000175
 21
541.0772422413772
 31
0.0
  0
LINE
  5
276
330
1F
100
AcDbEntity
  8
VISIBLE
100
AcDbLine
 10
537.5000000000605
 20
541.0772422413772
 30
0.0
 11
537.5000000000605
 21
545.0772422413772
 31
0.0
  0
LINE
  5
277
330
1F
100
AcDbEntity
  8
VISIBLE
100
AcDbLine
 10
537.5000000000605
 20
561.0772422413772
 30
0.0
 11
538.5000000002076
 21
561.0772422413152
 31
0.0
  0
LINE
  5
278
330
1F
100
AcDbEntity
  8
VISIBLE
100
AcDbLine
 10
537.5000000000605
 20
541.0772422413772
 30
0.0
 11
538.5000000000175
 21
541.0772422413772
 31
0.0
  0
LINE
  5
279
330
1F
100
AcDbEntity
  8
VISIBLE
100
AcDbLine
 10
534.5000000000175
 20
553.0772422413772
 30
0.0
 11
534.5000000000175
 21
557.0772422413772
 31
0.0
  0
LINE
  5
27A
330
1F
100
AcDbEntity
  8
VISIBLE
100
AcDbLine
 10
534.5000000000175
 20
545.0772422413772
 30
0.0
 11
534.5000000000175
 21
549.0772422413772
 31
0.0
  0
LINE
  5
27B
330
1F
100
AcDbEntity
  8
VISIBLE
100
AcDbLine
 10
242.5000000000286
 20
376.2837042162143
 30
0.0
 11
239.5000000000016
 21
376.2837042162143
 31
0.0
  0
LINE
  5
27C
330
1F
100
AcDbEntity
  8
VISIBLE
100
AcDbLine
 10
242.5000000000286
 20
380.2837042162143
 30
0.0
 11
239.5000000000016
 21
380.2837042162143
 31
0.0
  0
LINE
  5
27D
330
1F
100
AcDbEntity
  8
VISIBLE
100
AcDbLine
 10
242.5000000000286
 20
380.2837042162143
 30
0.0
 11
242.5000000000286
 21
384.2837042162143
 31
0.0
  0
LINE
  5
27E
330
1F
100
AcDbEntity
  8
VISIBLE
100
AcDbLine
 10
242.5000000000286
 20
384.2837042162143
 30
0.0
 11
239.5000000000016
 21
384.2837042162143
 31
0.0
  0
LINE
  5
27F
330
1F
100
AcDbEntity
  8
VISIBLE
100
AcDbLine
 10
242.5000000000286
 20
388.2837042162143
 30
0.0
 11
239.5000000000016
 21
388.2837042162143
 31
0.0
  0
LINE
  5
280
330
1F
100
AcDbEntity
  8
VISIBLE
100
AcDbLine
 10
242.5000000000286
 20
388.2837042162143
 30
0.0
 11
242.5000000000286
 21
392.2837042162143
 31
0.0
  0
LINE
  5
281
330
1F
100
AcDbEntity
  8
VISIBLE
100
AcDbLine
 10
242.5000000000286
 20
392.2837042162143
 30
0.0
 11
243.4999999998881
 21
392.2837042162143
 31
0.0
  0
LINE
  5
282
330
1F
100
AcDbEntity
  8
VISIBLE
100
AcDbLine
 10
243.4999999998881
 20
392.2837042162143
 30
0.0
 11
243.4999999998881
 21
395.3777149838504
 31
0.0
  0
LINE
  5
283
330
1F
100
AcDbEntity
  8
VISIBLE
100
AcDbLine
 10
243.4999999998881
 20
395.3777149838504
 30
0.0
 11
530.4999999998277
 21
561.0772422412582
 31
0.0
  0
LINE
  5
284
330
1F
100
AcDbEntity
  8
VISIBLE
100
AcDbLine
 10
531.5000000000016
 20
561.0772422413207
 30
0.0
 11
530.4999999998277
 21
561.0772422412582
 31
0.0
  0
LINE
  5
285
330
1F
100
AcDbEntity
  8
VISIBLE
100
AcDbLine
 10
531.5000000000016
 20
557.0772422413206
 30
0.0
 11
531.5000000000016
 21
561.0772422413207
 31
0.0
  0
LINE
  5
286
330
1F
100
AcDbEntity
  8
VISIBLE
100
AcDbLine
 10
534.5000000000175
 20
557.0772422413206
 30
0.0
 11
531.5000000000016
 21
557.0772422413206
 31
0.0
  0
LINE
  5
287
330
1F
100
AcDbEntity
  8
VISIBLE
100
AcDbLine
 10
534.5000000000175
 20
553.0772422413206
 30
0.0
 11
534.5000000000175
 21
557.0772422413206
 31
0.0
  0
LINE
  5
288
330
1F
100
AcDbEntity
  8
VISIBLE
100
AcDbLine
 10
534.5000000000175
 20
553.0772422413206
 30
0.0
 11
531.5000000000016
 21
553.0772422413206
 31
0.0
  0
LINE
  5
289
330
1F
100
AcDbEntity
  8
VISIBLE
100
AcDbLine
 10
531.5000000000016
 20
549.0772422413206
 30
0.0
 11
531.5000000000016
 21
553.0772422413206
 31
0.0
  0
LINE
  5
28A
330
1F
100
AcDbEntity
  8
VISIBLE
100
AcDbLine
 10
534.5000000000175
 20
549.0772422413206
 30
0.0
 11
531.5000000000016
 21
549.0772422413206
 31
0.0
  0
LINE
  5
28B
330
1F
100
AcDbEntity
  8
VISIBLE
100
AcDbLine
 10
534.5000000000175
 20
545.0772422413206
 30
0.0
 11
534.5000000000175
 21
549.0772422413206
 31
0.0
  0
LINE
  5
28C
330
1F
100
AcDbEntity
  8
VISIBLE
100
AcDbLine
 10
534.5000000000175
 20
545.0772422413206
 30
0.0
 11
531.5000000000016
 21
545.0772422413206
 31
0.0
  0
LINE
  5
28D
330
1F
100
AcDbEntity
  8
VISIBLE
100
AcDbLine
 10
531.5000000000016
 20
541.0772422413206
 30
0.0
 11
531.5000000000016
 21
545.0772422413206
 31
0.0
  0
LINE
  5
28E
330
1F
100
AcDbEntity
  8
VISIBLE
100
AcDbLine
 10
531.5000000000016
 20
541.0772422413206
 30
0.0
 11
530.5000000000175
 21
541.0772422413206
 31
0.0
  0
LINE
  5
28F
330
1F
100
AcDbEntity
  8
VISIBLE
100
AcDbLine
 10
530.5000000000016
 20
537.9832314736932
 30
0.0
 11
530.5000000000175
 21
541.0772422413206
 31
0.0
  0
LINE
  5
290
330
1F
100
AcDbEntity
  8
VISIBLE
100
AcDbLine
 10
243.5000000000206
 20
372.2837042162712
 30
0.0
 11
530.5000000000016
 21
537.9832314736932
 31
0.0
  0
LINE
  5
291
330
1F
100
AcDbEntity
  8
VISIBLE
100
AcDbLine
 10
242.5000000000286
 20
372.2837042162143
 30
0.0
 11
242.5000000000286
 21
376.2837042162143
 31
0.0
  0
LINE
  5
292
330
1F
100
AcDbEntity
  8
VISIBLE
100
AcDbLine
 10
243.5000000000206
 20
372.2837042162712
 30
0.0
 11
242.5000000000286
 21
372.2837042162143
 31
0.0
  0
LINE
  5
293
330
1F
100
AcDbEntity
  8
VISIBLE
100
AcDbLine
 10
239.5000000000016
 20
388.2837042162143
 30
0.0
 11
239.5000000000016
 21
384.2837042162143
 31
0.0
  0
LINE
  5
294
330
1F
100
AcDbEntity
  8
VISIBLE
100
AcDbLine
 10
239.5000000000016
 20
380.2837042162143
 30
0.0
 11
239.5000000000016
 21
376.2837042162143
 31
0.0
  0
ENDSEC
  0
SECTION
  2
OBJECTS
  0
DICTIONARY
  5
C
330
0
100
AcDbDictionary
  3
ACAD_GROUP
350
D
  3
ACAD_LAYOUT
350
1A
  3
ACAD_MATERIAL
350
43
  3
ACAD_MLEADERSTYLE
350
2B8
  3
ACAD_MLINESTYLE
350
17
  3
ACAD_PLOTSETTINGS
350
19
  3
ACAD_SCALELIST
350
47
  3
ACAD_VISUALSTYLE
350
2A
  3
ACDBHEADERROUNDTRIPXREC
350
297
  3
ACDBVARIABLEDICTIONARY
350
6C
  3
ONSHAPE_DATA
350
295
  0
DICTIONARY
  5
D
102
{ACAD_REACTORS
330
C
102
}
330
C
100
AcDbDictionary
  0
DICTIONARY
  5
1A
102
{ACAD_REACTORS
330
C
102
}
330
C
100
AcDbDictionary
  0
DICTIONARY
  5
43
102
{ACAD_REACTORS
330
C
102
}
330
C
100
AcDbDictionary
  3
BYBLOCK
350
45
  3
BYLAYER
350
44
  3
GLOBAL
350
46
  0
DICTIONARY
  5
2B8
102
{ACAD_REACTORS
330
C
102
}
330
C
100
AcDbDictionary
  0
DICTIONARY
  5
17
102
{ACAD_REACTORS
330
C
102
}
330
C
100
AcDbDictionary
  3
STANDARD
350
18
  0
DICTIONARY
  5
19
102
{ACAD_REACTORS
330
C
102
}
330
C
100
AcDbDictionary
  0
DICTIONARY
  5
47
102
{ACAD_REACTORS
330
C
102
}
330
C
100
AcDbDictionary
  3
A0
350
48
  3
A1
350
49
  3
A2
350
4A
  3
A3
350
4B
  3
A4
350
4C
  3
A5
350
4D
  3
A6
350
4E
  3
A7
350
4F
  3
A8
350
50
  3
A9
350
51
  3
B0
350
52
  3
B1
350
53
  3
B2
350
54
  3
B3
350
55
  3
B4
350
56
  3
B5
350
57
  3
B6
350
58
  3
B7
350
59
  3
B8
350
5A
  3
B9
350
5B
  3
C0
350
5C
  3
C1
350
5D
  3
C2
350
5E
  3
C3
350
5F
  3
C4
350
60
  3
C5
350
61
  3
C6
350
62
  3
C7
350
63
  3
C8
350
64
  3
C9
350
65
  3
D0
350
66
  3
D1
350
67
  3
D2
350
68
  0
DICTIONARY
  5
2A
102
{ACAD_REACTORS
330
C
102
}
330
C
100
AcDbDictionary
  3
2DWIREFRAME
350
2F
  3
BASIC
350
32
  3
BRIGHTEN
350
36
  3
COLORCHANGE
350
3A
  3
CONCEPTUAL
350
34
  3
DIM
350
35
  3
EDGECOLOROFF
350
3D
  3
FACEPATTERN
350
39
  3
FLAT
350
2B
  3
FLATWITHEDGES
350
2C
  3
GOURAUD
350
2D
  3
GOURAUDWITHEDGES
350
2E
  3
HIDDEN
350
31
  3
JITTEROFF
350
3B
  3
LINEPATTERN
350
38
  3
OVERHANGOFF
350
3C
  3
REALISTIC
350
33
  3
SHADED
350
42
  3
SHADED_WITH_EDGES
350
41
  3
SHADES_OF_GRAY
350
3E
  3
SKETCHY
350
3F
  3
THICKEN
350
37
  3
WIREFRAME
350
30
  3
X-RAY
350
40
  0
DICTIONARY
  5
297
102
{ACAD_REACTORS
330
C
102
}
330
C
100
AcDbDictionary
  3
CEPSNTYPE
350
2A0
  3
DIMSTYLEDATA
350
2B6
  3
FINGERPRINTGUID
350
2A1
  3
HYPERLINKBASE
350
29A
  3
INSUNITS
350
29F
  3
LAYOUTDICT
350
29C
  3
LWETCUNION
350
29E
  3
PLOTSETDICT
350
29D
  3
PSVPSCALE
350
2A3
  3
PUCSBASE
350
2A6
  3
PUCSORGBACK
350
2AC
  3
PUCSORGBOTTOM
350
2A8
  3
PUCSORGFRONT
350
2AB
  3
PUCSORGLEFT
350
2A9
  3
PUCSORGRIGHT
350
2AA
  3
PUCSORGTOP
350
2A7
  3
PUCSORTHOREF
350
2A4
  3
PUCSORTHOVIEW
350
2A5
  3
STYLESHEET
350
29B
  3
TSTACKALIGN
350
298
  3
TSTACKSIZE
350
299
  3
UCSBASE
350
2AF
  3
UCSORGBACK
350
2B5
  3
UCSORGBOTTOM
350
2B1
  3
UCSORGFRONT
350
2B4
  3
UCSORGLEFT
350
2B2
  3
UCSORGRIGHT
350
2B3
  3
UCSORGTOP
350
2B0
  3
UCSORTHOREF
350
2AD
  3
UCSORTHOVIEW
350
2AE
  3
VERSIONGUID
350
2A2
  0
DICTIONARY
  5
6C
102
{ACAD_REACTORS
330
C
102
}
330
C
100
AcDbDictionary
  3
CANNOSCALE
350
2BD
  3
CTABLESTYLE
350
2B7
  3
DIMASSOC
350
2BB
  3
HIDETEXT
350
2BC
  3
MSLTSCALE
350
2BE
  3
OLEFRAME
350
6D
  0
DICTIONARY
  5
295
102
{ACAD_REACTORS
330
C
102
}
330
C
100
AcDbDictionary
280
     1
  3
DIM_UNITS
360
296
  0
MATERIAL
  5
45
102
{ACAD_REACTORS
330
43
102
}
102
{ACAD_XDICTIONARY
360
2C1
102
}
330
43
100
AcDbMaterial
  1
BYBLOCK
  0
MATERIAL
  5
44
102
{ACAD_REACTORS
330
43
102
}
102
{ACAD_XDICTIONARY
360
2BF
102
}
330
43
100
AcDbMaterial
  1
BYLAYER
  0
MATERIAL
  5
46
102
{ACAD_REACTORS
330
43
102
}
102
{ACAD_XDICTIONARY
360
2C3
102
}
330
43
100
AcDbMaterial
  1
GLOBAL
  0
MLINESTYLE
  5
18
102
{ACAD_REACTORS
330
17
102
}
330
17
100
AcDbMlineStyle
  2
Standard
 70
     0
  3

 62
   256
 51
90.0
 52
90.0
 71
     2
 49
0.5
 62
   256
  6
BYLAYER
 49
-0.5
 62
   256
  6
BYLAYER
  0
ACAD_PROXY_OBJECT
  5
48
102
{ACAD_REACTORS
330
47
102
}
330
47
100
AcDbProxyObject
 90
      499
 91
      503
 93
       41
310
903313A31580
  0
ACAD_PROXY_OBJECT
  5
49
102
{ACAD_REACTORS
330
47
102
}
330
47
100
AcDbProxyObject
 90
      499
 91
      503
 93
      105
310
903313A324000000000000004000
  0
ACAD_PROXY_OBJECT
  5
4A
102
{ACAD_REACTORS
330
47
102
}
330
47
100
AcDbProxyObject
 90
      499
 91
      503
 93
      105
310
903313A344000000000000104000
  0
ACAD_PROXY_OBJECT
  5
4B
102
{ACAD_REACTORS
330
47
102
}
330
47
100
AcDbProxyObject
 90
      499
 91
      503
 93
      105
310
903313A354000000000000144000
  0
ACAD_PROXY_OBJECT
  5
4C
102
{ACAD_REACTORS
330
47
102
}
330
47
100
AcDbProxyObject
 90
      499
 91
      503
 93
      105
310
903313A384000000000000204000
  0
ACAD_PROXY_OBJECT
  5
4D
102
{ACAD_REACTORS
330
47
102
}
330
47
100
AcDbProxyObject
 90
      499
 91
      503
 93
      113
310
904313A31304000000000000244000
  0
ACAD_PROXY_OBJECT
  5
4E
102
{ACAD_REACTORS
330
47
102
}
330
47
100
AcDbProxyObject
 90
      499
 91
      503
 93
      113
310
904313A31364000000000000304000
  0
ACAD_PROXY_OBJECT
  5
4F
102
{ACAD_REACTORS
330
47
102
}
330
47
100
AcDbProxyObject
 90
      499
 91
      503
 93
      113
310
904313A32304000000000000344000
  0
ACAD_PROXY_OBJECT
  5
50
102
{ACAD_REACTORS
330
47
102
}
330
47
100
AcDbProxyObject
 90
      499
 91
      503
 93
      113
310
904313A333040000000000003E4000
  0
ACAD_PROXY_OBJECT
  5
51
102
{ACAD_REACTORS
330
47
102
}
330
47
100
AcDbProxyObject
 90
      499
 91
      503
 93
      113
310
904313A34304000000000000444000
  0
ACAD_PROXY_OBJECT
  5
52
102
{ACAD_REACTORS
330
47
102
}
330
47
100
AcDbProxyObject
 90
      499
 91
      503
 93
      113
310
904313A35304000000000000494000
  0
ACAD_PROXY_OBJECT
  5
53
102
{ACAD_REACTORS
330
47
102
}
330
47
100
AcDbProxyObject
 90
      499
 91
      503
 93
      121
310
905313A3130304000000000000594000
  0
ACAD_PROXY_OBJECT
  5
54
102
{ACAD_REACTORS
330
47
102
}
330
47
100
AcDbProxyObject
 90
      499
 91
      503
 93
      105
310
903323A310000000000000010100
  0
ACAD_PROXY_OBJECT
  5
55
102
{ACAD_REACTORS
330
47
102
}
330
47
100
AcDbProxyObject
 90
      499
 91
      503
 93
      105
310
903343A310000000000000410100
  0
ACAD_PROXY_OBJECT
  5
56
102
{ACAD_REACTORS
330
47
102
}
330
47
100
AcDbProxyObject
 90
      499
 91
      503
 93
      105
310
903383A310000000000000810100
  0
ACAD_PROXY_OBJECT
  5
57
102
{ACAD_REACTORS
330
47
102
}
330
47
100
AcDbProxyObject
 90
      499
 91
      503
 93
      113
310
90431303A310000000000000910100
  0
ACAD_PROXY_OBJECT
  5
58
102
{ACAD_REACTORS
330
47
102
}
330
47
100
AcDbProxyObject
 90
      499
 91
      503
 93
      121
310
9053130303A310000000000001650100
  0
ACAD_PROXY_OBJECT
  5
59
102
{ACAD_REACTORS
330
47
102
}
330
47
100
AcDbProxyObject
 90
      499
 91
      503
 93
      257
310
90E312F31323822203D2031272D3022000000000000200FC000000000000284000
  0
ACAD_PROXY_OBJECT
  5
5A
102
{ACAD_REACTORS
330
47
102
}
330
47
100
AcDbProxyObject
 90
      499
 91
      503
 93
      249
310
90D312F363422203D2031272D3022000000000000240FC000000000000284000
  0
ACAD_PROXY_OBJECT
  5
5B
102
{ACAD_REACTORS
330
47
102
}
330
47
100
AcDbProxyObject
 90
      499
 91
      503
 93
      249
310
90D312F333222203D2031272D3022000000000000280FC000000000000284000
  0
ACAD_PROXY_OBJECT
  5
5C
102
{ACAD_REACTORS
330
47
102
}
330
47
100
AcDbProxyObject
 90
      499
 91
      503
 93
      249
310
90D312F313622203D2031272D30220000000000002C0FC000000000000284000
  0
ACAD_PROXY_OBJECT
  5
5D
102
{ACAD_REACTORS
330
47
102
}
330
47
100
AcDbProxyObject
 90
      499
 91
      503
 93
      249
310
90D332F333222203D2031272D30220000000000002E0FC000000000000284000
  0
ACAD_PROXY_OBJECT
  5
5E
102
{ACAD_REACTORS
330
47
102
}
330
47
100
AcDbProxyObject
 90
      499
 91
      503
 93
      241
310
90C312F3822203D2031272D3022000000000000300FC000000000000284000
  0
ACAD_PROXY_OBJECT
  5
5F
102
{ACAD_REACTORS
330
47
102
}
330
47
100
AcDbProxyObject
 90
      499
 91
      503
 93
      249
310
90D332F313622203D2031272D3022000000000000320FC000000000000284000
  0
ACAD_PROXY_OBJECT
  5
60
102
{ACAD_REACTORS
330
47
102
}
330
47
100
AcDbProxyObject
 90
      499
 91
      503
 93
      241
310
90C312F3422203D2031272D3022000000000000340FC000000000000284000
  0
ACAD_PROXY_OBJECT
  5
61
102
{ACAD_REACTORS
330
47
102
}
330
47
100
AcDbProxyObject
 90
      499
 91
      503
 93
      241
310
90C332F3822203D2031272D3022000000000000360FC000000000000284000
  0
ACAD_PROXY_OBJECT
  5
62
102
{ACAD_REACTORS
330
47
102
}
330
47
100
AcDbProxyObject
 90
      499
 91
      503
 93
      241
310
90C312F3222203D2031272D3022000000000000380FC000000000000284000
  0
ACAD_PROXY_OBJECT
  5
63
102
{ACAD_REACTORS
330
47
102
}
330
47
100
AcDbProxyObject
 90
      499
 91
      503
 93
      241
310
90C332F3422203D2031272D30220000000000003A0FC000000000000284000
  0
ACAD_PROXY_OBJECT
  5
64
102
{ACAD_REACTORS
330
47
102
}
330
47
100
AcDbProxyObject
 90
      499
 91
      503
 93
      161
310
90A3122203D2031272D30224000000000000284000
  0
ACAD_PROXY_OBJECT
  5
65
102
{ACAD_REACTORS
330
47
102
}
330
47
100
AcDbProxyObject
 90
      499
 91
      503
 93
      257
310
90E312D312F3222203D2031272D30220000000000003E0FC000000000000284000
  0
ACAD_PROXY_OBJECT
  5
66
102
{ACAD_REACTORS
330
47
102
}
330
47
100
AcDbProxyObject
 90
      499
 91
      503
 93
      225
310
90A3322203D2031272D302200000000000002100000000000000284000
  0
ACAD_PROXY_OBJECT
  5
67
102
{ACAD_REACTORS
330
47
102
}
330
47
100
AcDbProxyObject
 90
      499
 91
      503
 93
      225
310
90A3622203D2031272D302200000000000006100000000000000284000
  0
ACAD_PROXY_OBJECT
  5
68
102
{ACAD_REACTORS
330
47
102
}
330
47
100
AcDbProxyObject
 90
      499
 91
      503
 93
      249
310
90D31272D3022203D2031272D30220000000000000A100000000000000284000
  0
ACAD_PROXY_OBJECT
  5
2F
102
{ACAD_REACTORS
330
2A
102
}
330
2A
100
AcDbProxyObject
 90
      499
 91
      501
 93
      436
310
42CC9915DA5C99599C985B595049028333333333333E33F0000000000000F90107901411070040501600405405064090741402480A0340
1001
ACAD
1000
AcDbSavedByObjectVersion
1070
     0
  0
ACAD_PROXY_OBJECT
  5
32
102
{ACAD_REACTORS
330
2A
102
}
330
2A
100
AcDbProxyObject
 90
      499
 91
      501
 93
      388
310
4150985CDA58D07406404333333333333E33F0000000000000F90107A41107004050150841D405064090741402480A0350
1001
ACAD
1000
AcDbSavedByObjectVersion
1070
     0
  0
ACAD_PROXY_OBJECT
  5
36
102
{ACAD_REACTORS
330
2A
102
}
330
2A
100
AcDbProxyObject
 90
      499
 91
      501
 93
      428
310
42109C9A59DA1D195B90C409028333333333333E33F0000000000000F9010790141107004050150841D405064090741402480A029950
1001
ACAD
1000
AcDbSavedByObjectVersion
1070
     0
  0
ACAD_PROXY_OBJECT
  5
3A
102
{ACAD_REACTORS
330
2A
102
}
330
2A
100
AcDbProxyObject
 90
      499
 91
      501
 93
      452
310
42D0DBDB1BDC90DA185B99D95104090240C333333333333E33F0000000000000F90108901411070040501508421405064090741402480A0350
1001
ACAD
1000
AcDbSavedByObjectVersion
1070
     0
  0
ACAD_PROXY_OBJECT
  5
34
102
{ACAD_REACTORS
330
2A
102
}
330
2A
100
AcDbProxyObject
 90
      499
 91
      501
 93
      500
310
4290DBDB98D95C1D1D585B10940D028333333333333E33F0000000000000F90107902409070040501000000000018199010841D405064090740C02480A0340
1001
ACAD
1000
AcDbSavedByObjectVersion
1070
     0
  0
ACAD_PROXY_OBJECT
  5
35
102
{ACAD_REACTORS
330
2A
102
}
330
2A
100
AcDbProxyObject
 90
      499
 91
      501
 93
      412
310
40D11A5B50B409028333333333333E33F0000000000000F9010790141107004050150841D405064090741402480A02677FFFFFD0
1001
ACAD
1000
AcDbSavedByObjectVersion
1070
     0
  0
ACAD_PROXY_OBJECT
  5
3D
102
{ACAD_REACTORS
330
2A
102
}
330
2A
100
AcDbProxyObject
 90
      499
 91
      501
 93
      452
310
43115919D950DBDB1BDC93D999916409028333333333333E33F0000000000000F9010790141107004050150841D405064090741402480A0350
1001
ACAD
1000
AcDbSavedByObjectVersion
1070
     0
  0
ACAD_PROXY_OBJECT
  5
39
102
{ACAD_REACTORS
330
2A
102
}
330
2A
100
AcDbProxyObject
 90
      499
 91
      501
 93
      444
310
42D19858D95C185D1D195C9B90F409028333333333333E33F0000000000000F9010790141107004050150841D405064090741402480A0350
1001
ACAD
1000
AcDbSavedByObjectVersion
1070
     0
  0
ACAD_PROXY_OBJECT
  5
2B
102
{ACAD_REACTORS
330
2A
102
}
330
2A
100
AcDbProxyObject
 90
      499
 91
      501
 93
      380
310
41119B185D240901404333333333333E33F0000000000000F9010740A907004050150841D405064090741402480A1B50
1001
ACAD
1000
AcDbSavedByObjectVersion
1070
     0
  0
ACAD_PROXY_OBJECT
  5
2C
102
{ACAD_REACTORS
330
2A
102
}
330
2A
100
AcDbProxyObject
 90
      499
 91
      501
 93
      468
310
43519B185D15DA5D1A115919D95CD0140901404333333333333E33F0000000000000F90107409019070040501600405405064090741402480A1B50
1001
ACAD
1000
AcDbSavedByObjectVersion
1070
     0
  0
ACAD_PROXY_OBJECT
  5
2D
102
{ACAD_REACTORS
330
2A
102
}
330
2A
100
AcDbProxyObject
 90
      499
 91
      501
 93
      404
310
41D1DBDD5C985D5910240902404333333333333E33F0000000000000F9010740A9070040501641D405064090741402480A1B50
1001
ACAD
1000
AcDbSavedByObjectVersion
1070
     0
  0
ACAD_PROXY_OBJECT
  5
2E
102
{ACAD_REACTORS
330
2A
102
}
330
2A
100
AcDbProxyObject
 90
      499
 91
      501
 93
      492
310
4411DBDD5C985D5915DA5D1A115919D95CD0340902404333333333333E33F0000000000000F90107409019070040501600405405064090741402480A1B50
1001
ACAD
1000
AcDbSavedByObjectVersion
1070
     0
  0
ACAD_PROXY_OBJECT
  5
31
102
{ACAD_REACTORS
330
2A
102
}
330
2A
100
AcDbProxyObject
 90
      499
 91
      501
 93
      476
310
41921A5919195B90640502408333333333333E33F0000000000000F901079024090700405020000000000001110200405405064090740C02480A0340
1001
ACAD
1000
AcDbSavedByObjectVersion
1070
     0
  0
ACAD_PROXY_OBJECT
  5
3B
102
{ACAD_REACTORS
330
2A
102
}
330
2A
100
AcDbProxyObject
 90
      499
 91
      501
 93
      428
310
42529A5D1D195C93D999914409028333333333333E33F0000000000000F9010790141107004050150A41D405064090741402480A0350
1001
ACAD
1000
AcDbSavedByObjectVersion
1070
     0
  0
ACAD_PROXY_OBJECT
  5
38
102
{ACAD_REACTORS
330
2A
102
}
330
2A
100
AcDbProxyObject
 90
      499
 91
      501
 93
      444
310
42D31A5B995C185D1D195C9B90E409028333333333333E33F0000000000000F9010790141107004050750841D405064090741402483A0350
1001
ACAD
1000
AcDbSavedByObjectVersion
1070
     0
  0
ACAD_PROXY_OBJECT
  5
3C
102
{ACAD_REACTORS
330
2A
102
}
330
2A
100
AcDbProxyObject
 90
      499
 91
      501
 93
      444
310
42D3DD995C9A185B99D3D999915409028333333333333E33F0000000000000F9010790141107004050150941D405064090741402480A0350
1001
ACAD
1000
AcDbSavedByObjectVersion
1070
     0
  0
ACAD_PROXY_OBJECT
  5
33
102
{ACAD_REACTORS
330
2A
102
}
330
2A
100
AcDbProxyObject
 90
      499
 91
      501
 93
      428
310
425499585B1A5CDD1A58D08409038333333333333E33F0000000000000F9010740A907004050150800405405064090740C02480A1B40
1001
ACAD
1000
AcDbSavedByObjectVersion
1070
     0
  0
ACAD_PROXY_OBJECT
  5
42
102
{ACAD_REACTORS
330
2A
102
}
330
2A
100
AcDbProxyObject
 90
      499
 91
      501
 93
      420
310
4194DA1859195911B40902404333333333333E33F0000000000000F9010740A41107004050150800405405064090840C02480A0B40
1001
ACAD
1000
AcDbSavedByObjectVersion
1070
     0
  0
ACAD_PROXY_OBJECT
  5
41
102
{ACAD_REACTORS
330
2A
102
}
330
2A
100
AcDbProxyObject
 90
      499
 91
      501
 93
      516
310
4454DA18591959081DDA5D1A08195919D95CD1A40902404333333333333E33F0000000000000F901074090142907004050250800405405064090740C02480A0B40
1001
ACAD
1000
AcDbSavedByObjectVersion
1070
     0
  0
ACAD_PROXY_OBJECT
  5
3E
102
{ACAD_REACTORS
330
2A
102
}
330
2A
100
AcDbProxyObject
 90
      499
 91
      501
 93
      532
310
4394DA1859195CC81BD98811DC985E5174090240C333333333333E33F0000000000000F901079024090741D01000000000000111010841D405064090740C02480A0340
1001
ACAD
1000
AcDbSavedByObjectVersion
1070
     0
  0
ACAD_PROXY_OBJECT
  5
3F
102
{ACAD_REACTORS
330
2A
102
}
330
2A
100
AcDbProxyObject
 90
      499
 91
      501
 93
      476
310
41D4DAD95D18DA1E51840502408333333333333E33F0000000000000F901079024090741D01000000000000111010B41D405064090741802480A0340
1001
ACAD
1000
AcDbSavedByObjectVersion
1070
     0
  0
ACAD_PROXY_OBJECT
  5
37
102
{ACAD_REACTORS
330
2A
102
}
330
2A
100
AcDbProxyObject
 90
      499
 91
      501
 93
      412
310
41D51A1A58DAD95B90D409028333333333333E33F0000000000000F9010790141107004050150C41D405064090741402480A0350
1001
ACAD
1000
AcDbSavedByObjectVersion
1070
     0
  0
ACAD_PROXY_OBJECT
  5
30
102
{ACAD_REACTORS
330
2A
102
}
330
2A
100
AcDbProxyObject
 90
      499
 91
      501
 93
      420
310
4255DA5C99599C985B595059028333333333333E33F0000000000000F90107901411070040501600405405064090740C02480A0340
1001
ACAD
1000
AcDbSavedByObjectVersion
1070
     0
  0
ACAD_PROXY_OBJECT
  5
40
102
{ACAD_REACTORS
330
2A
102
}
330
2A
100
AcDbProxyObject
 90
      499
 91
      501
 93
      404
310
41560B54985E51940902404000000000000E03F0000000000000F9010740501907004050150841D405064090740C02480A1B40
1001
ACAD
1000
AcDbSavedByObjectVersion
1070
     0
  0
XRECORD
  5
2A0
102
{ACAD_REACTORS
330
297
102
}
330
297
100
AcDbXrecord
 90
        0
  0
XRECORD
  5
2B6
102
{ACAD_REACTORS
330
297
102
}
330
297
100
AcDbXrecord
1000
DSTYLE
1002
{
1070
   179
 70
     1
1070
   171
 70
     3
1070
   143
 40
0.03937
1070
   274
 70
     3
1070
    41
 40
2.5
1070
   141
 40
2.5
1070
   271
 70
     2
1070
    43
 40
3.75
1070
   278
 70
    44
1070
    44
 40
1.25
1070
    42
 40
0.625
1070
   147
 40
0.625
1070
   371
 70
    13
1070
   372
 70
    13
1070
    77
 70
     1
1070
   272
 70
     2
1070
    73
 70
     0
1070
   172
 70
     1
1070
    74
 70
     0
1070
   283
 70
     0
1070
   340
340
70
1070
   140
 40
3.5
1070
   284
 70
     8
1070
   288
 70
     1
1070
    78
 70
     8
1002
}
  0
XRECORD
  5
2A1
102
{ACAD_REACTORS
330
297
102
}
330
297
100
AcDbXrecord
  1
{0BF0CC7B-EFE0-F26A-7E43-67A7EE1605F9}
  0
XRECORD
  5
29A
102
{ACAD_REACTORS
330
297
102
}
330
297
100
AcDbXrecord
  1

  0
XRECORD
  5
29F
102
{ACAD_REACTORS
330
297
102
}
330
297
100
AcDbXrecord
 90
        1
  0
XRECORD
  5
29C
102
{ACAD_REACTORS
330
297
102
}
330
297
100
AcDbXrecord
340
1A
  0
XRECORD
  5
29E
102
{ACAD_REACTORS
330
297
102
}
330
297
100
AcDbXrecord
 90
    10269
  0
XRECORD
  5
29D
102
{ACAD_REACTORS
330
297
102
}
330
297
100
AcDbXrecord
340
19
  0
XRECORD
  5
2A3
102
{ACAD_REACTORS
330
297
102
}
330
297
100
AcDbXrecord
 40
0.0
  0
XRECORD
  5
2A6
102
{ACAD_REACTORS
330
297
102
}
330
297
100
AcDbXrecord
340
0
  0
XRECORD
  5
2AC
102
{ACAD_REACTORS
330
297
102
}
330
297
100
AcDbXrecord
 10
0.0
 20
0.0
 30
0.0
  0
XRECORD
  5
2A8
102
{ACAD_REACTORS
330
297
102
}
330
297
100
AcDbXrecord
 10
0.0
 20
0.0
 30
0.0
  0
XRECORD
  5
2AB
102
{ACAD_REACTORS
330
297
102
}
330
297
100
AcDbXrecord
 10
0.0
 20
0.0
 30
0.0
  0
XRECORD
  5
2A9
102
{ACAD_REACTORS
330
297
102
}
330
297
100
AcDbXrecord
 10
0.0
 20
0.0
 30
0.0
  0
XRECORD
  5
2AA
102
{ACAD_REACTORS
330
297
102
}
330
297
100
AcDbXrecord
 10
0.0
 20
0.0
 30
0.0
  0
XRECORD
  5
2A7
102
{ACAD_REACTORS
330
297
102
}
330
297
100
AcDbXrecord
 10
0.0
 20
0.0
 30
0.0
  0
XRECORD
  5
2A4
102
{ACAD_REACTORS
330
297
102
}
330
297
100
AcDbXrecord
340
0
  0
XRECORD
  5
2A5
102
{ACAD_REACTORS
330
297
102
}
330
297
100
AcDbXrecord
 70
     0
  0
XRECORD
  5
29B
102
{ACAD_REACTORS
330
297
102
}
330
297
100
AcDbXrecord
  1

  0
XRECORD
  5
298
102
{ACAD_REACTORS
330
297
102
}
330
297
100
AcDbXrecord
 90
        1
  0
XRECORD
  5
299
102
{ACAD_REACTORS
330
297
102
}
330
297
100
AcDbXrecord
 90
       70
  0
XRECORD
  5
2AF
102
{ACAD_REACTORS
330
297
102
}
330
297
100
AcDbXrecord
340
0
  0
XRECORD
  5
2B5
102
{ACAD_REACTORS
330
297
102
}
330
297
100
AcDbXrecord
 10
0.0
 20
0.0
 30
0.0
  0
XRECORD
  5
2B1
102
{ACAD_REACTORS
330
297
102
}
330
297
100
AcDbXrecord
 10
0.0
 20
0.0
 30
0.0
  0
XRECORD
  5
2B4
102
{ACAD_REACTORS
330
297
102
}
330
297
100
AcDbXrecord
 10
0.0
 20
0.0
 30
0.0
  0
XRECORD
  5
2B2
102
{ACAD_REACTORS
330
297
102
}
330
297
100
AcDbXrecord
 10
0.0
 20
0.0
 30
0.0
  0
XRECORD
  5
2B3
102
{ACAD_REACTORS
330
297
102
}
330
297
100
AcDbXrecord
 10
0.0
 20
0.0
 30
0.0
  0
XRECORD
  5
2B0
102
{ACAD_REACTORS
330
297
102
}
330
297
100
AcDbXrecord
 10
0.0
 20
0.0
 30
0.0
  0
XRECORD
  5
2AD
102
{ACAD_REACTORS
330
297
102
}
330
297
100
AcDbXrecord
340
0
  0
XRECORD
  5
2AE
102
{ACAD_REACTORS
330
297
102
}
330
297
100
AcDbXrecord
 70
     0
  0
XRECORD
  5
2A2
102
{ACAD_REACTORS
330
297
102
}
330
297
100
AcDbXrecord
  1
{FAEB1C32-E019-11D5-929B-00C0DF256EC4}
  0
DICTIONARYVAR
  5
2BD
102
{ACAD_REACTORS
330
6C
102
}
330
6C
100
DictionaryVariables
280
     0
  1
1:1
  0
DICTIONARYVAR
  5
2B7
102
{ACAD_REACTORS
330
6C
102
}
330
6C
100
DictionaryVariables
280
     0
  1
Standard
  0
DICTIONARYVAR
  5
2BB
102
{ACAD_REACTORS
330
6C
102
}
330
6C
100
DictionaryVariables
280
     0
  1
2
  0
DICTIONARYVAR
  5
2BC
102
{ACAD_REACTORS
330
6C
102
}
330
6C
100
DictionaryVariables
280
     0
  1
1
  0
DICTIONARYVAR
  5
2BE
102
{ACAD_REACTORS
330
6C
102
}
330
6C
100
DictionaryVariables
280
     0
  1
1
  0
DICTIONARYVAR
  5
6D
102
{ACAD_REACTORS
330
6C
102
}
330
6C
100
DictionaryVariables
280
     0
  1
0
  0
XRECORD
  5
296
102
{ACAD_REACTORS
330
295
102
}
330
295
100
AcDbXrecord
 70
     4
  0
DICTIONARY
  5
2C1
330
45
100
AcDbDictionary
280
     1
  3
ACAD_XREC_ROUNDTRIP
360
2C2
  0
DICTIONARY
  5
2BF
330
44
100
AcDbDictionary
280
     1
  3
ACAD_XREC_ROUNDTRIP
360
2C0
  0
DICTIONARY
  5
2C3
330
46
100
AcDbDictionary
280
     1
  3
ACAD_XREC_ROUNDTRIP
360
2C4
  0
XRECORD
  5
2C2
102
{ACAD_REACTORS
330
2C1
102
}
330
2C1
100
AcDbXrecord
102
MATERIAL
148
0.0
149
0.0
149
0.0
 93
        0
 94
      127
282
     0
 72
     1
 77
     1
171
     1
175
     1
179
     1
273
     0
  0
XRECORD
  5
2C0
102
{ACAD_REACTORS
330
2BF
102
}
330
2BF
100
AcDbXrecord
102
MATERIAL
148
0.0
149
0.0
149
0.0
 93
        0
 94
      127
282
     0
 72
     1
 77
     1
171
     1
175
     1
179
     1
273
     0
  0
XRECORD
  5
2C4
102
{ACAD_REACTORS
330
2C3
102
}
330
2C3
100
AcDbXrecord
102
MATERIAL
148
0.0
149
0.0
149
0.0
 93
        0
 94
      127
282
     0
 72
     1
 77
     1
171
     1
175
     1
179
     1
273
     0
  0
ENDSEC
  0
EOF
