  0
SECTION
  2
HEADER
  9
$ACADVER
  1
AC1014
  9
$HANDSEED
  5
FFFF
  9
$MEASUREMENT
 70
     1
  0
ENDSEC
  0
SECTION
  2
TABLES
  0
TABLE
  2
VPORT
  5
8
330
0
100
AcDbSymbolTable
 70
     4
  0
VPORT
  5
2E
330
8
100
AcDbSymbolTableRecord
100
AcDbViewportTableRecord
  2
*ACTIVE
 70
     0
 10
0.0
 20
0.0
 11
1.0
 21
1.0
 12
210.0
 22
148.5
 13
0.0
 23
0.0
 14
10.0
 24
10.0
 15
10.0
 25
10.0
 16
0.0
 26
0.0
 36
1.0
 17
0.0
 27
0.0
 37
0.0
 40
341.0
 41
1.24
 42
50.0
 43
0.0
 44
0.0
 50
0.0
 51
0.0
 71
     0
 72
   100
 73
     1
 74
     3
 75
     0
 76
     0
 77
     0
 78
     0
  0
ENDTAB
  0
TABLE
  2
LTYPE
  5
5
330
0
100
AcDbSymbolTable
 70
     1
  0
LTYPE
  5
14
330
5
100
AcDbSymbolTableRecord
100
AcDbLinetypeTableRecord
  2
BYBLOCK
 70
     0
  3

 72
    65
 73
     0
 40
0.0
  0
LTYPE
  5
15
330
5
100
AcDbSymbolTableRecord
100
AcDbLinetypeTableRecord
  2
BYLAYER
 70
     0
  3

 72
    65
 73
     0
 40
0.0
  0
LTYPE
  5
16
330
5
100
AcDbSymbolTableRecord
100
AcDbLinetypeTableRecord
  2
CONTINUOUS
 70
     0
  3
Solid line
 72
    65
 73
     0
 40
0.0
  0
ENDTAB
  0
TABLE
  2
LAYER
  5
2
100
AcDbSymbolTable
 70
2
  0
LAYER
  5
50
100
AcDbSymbolTableRecord
100
AcDbLayerTableRecord
  2
0
 70
0
  6
CONTINUOUS
  0
LAYER
  5
51
100
AcDbSymbolTableRecord
100
AcDbLayerTableRecord
  2
Layer_1
 70
0
  6
CONTINUOUS
  0
ENDTAB
  0
TABLE
  2
STYLE
  5
3
330
0
100
AcDbSymbolTable
 70
     1
  0
STYLE
  5
11
330
3
100
AcDbSymbolTableRecord
100
AcDbTextStyleTableRecord
  2
STANDARD
 70
     0
 40
0.0
 41
1.0
 50
0.0
 71
     0
 42
2.5
  3
txt
  4

  0
ENDTAB
  0
TABLE
  2
VIEW
  5
6
330
0
100
AcDbSymbolTable
 70
     0
  0
ENDTAB
  0
TABLE
  2
UCS
  5
7
330
0
100
AcDbSymbolTable
 70
     0
  0
ENDTAB
  0
TABLE
  2
APPID
  5
9
330
0
100
AcDbSymbolTable
 70
     2
  0
APPID
  5
12
330
9
100
AcDbSymbolTableRecord
100
AcDbRegAppTableRecord
  2
ACAD
 70
     0
  0
ENDTAB
  0
TABLE
  2
DIMSTYLE
  5
A
330
0
100
AcDbSymbolTable
 70
     1
  0
DIMSTYLE
105
27
330
A
100
AcDbSymbolTableRecord
100
AcDbDimStyleTableRecord
  2
ISO-25
 70
     0
  3

  4

  5

  6

  7

 40
1.0
 41
2.5
 42
0.625
 43
3.75
 44
1.25
 45
0.0
 46
0.0
 47
0.0
 48
0.0
140
2.5
141
2.5
142
0.0
143
0.03937007874016
144
1.0
145
0.0
146
1.0
147
0.625
 71
     0
 72
     0
 73
     0
 74
     0
 75
     0
 76
     0
 77
     1
 78
     8
170
     0
171
     3
172
     1
173
     0
174
     0
175
     0
176
     0
177
     0
178
     0
270
     2
271
     2
272
     2
273
     2
274
     3
340
11
275
     0
280
     0
281
     0
282
     0
283
     0
284
     8
285
     0
286
     0
287
     3
288
     0
  0
ENDTAB
  0
TABLE
  2
BLOCK_RECORD
  5
1
330
0
100
AcDbSymbolTable
 70
     1
  0
BLOCK_RECORD
  5
1F
330
1
100
AcDbSymbolTableRecord
100
AcDbBlockTableRecord
  2
*MODEL_SPACE
  0
BLOCK_RECORD
  5
1B
330
1
100
AcDbSymbolTableRecord
100
AcDbBlockTableRecord
  2
*PAPER_SPACE
  0
ENDTAB
  0
ENDSEC
  0
SECTION
  2
BLOCKS
  0
BLOCK
  5
20
330
1F
100
AcDbEntity
  8
0
100
AcDbBlockBegin
  2
*MODEL_SPACE
 70
     0
 10
0.0
 20
0.0
 30
0.0
  3
*MODEL_SPACE
  1

  0
ENDBLK
  5
21
330
1F
100
AcDbEntity
  8
0
100
AcDbBlockEnd
  0
BLOCK
  5
1C
330
1B
100
AcDbEntity
 67
     1
  8
0
100
AcDbBlockBegin
  2
*PAPER_SPACE
  1

  0
ENDBLK
  5
1D
330
1B
100
AcDbEntity
 67
     1
  8
0
100
AcDbBlockEnd
  0
ENDSEC
  0
SECTION
  2
ENTITIES
  0
LWPOLYLINE
  5
100
100
AcDbEntity
  8
Layer_1
 62
7
100
AcDbPolyline
 90
37
 70
1
 10
5649.096493
 20
-2939.068286
 30
0.0
 10
5978.769952
 20
-2939.103536
 30
0.0
 10
5976.128077
 20
-2837.036633
 30
0.0
 10
5908.542950
 20
-2760.239931
 30
0.0
 10
5847.424098
 20
-2744.960556
 30
0.0
 10
5870.614474
 20
-2613.139427
 30
0.0
 10
5747.359620
 20
-2366.932420
 30
0.0
 10
5564.829565
 20
-2183.772440
 30
0.0
 10
5517.266139
 20
-2114.805813
 30
0.0
 10
5531.499264
 20
-2087.071337
 30
0.0
 10
5617.316142
 20
-2087.071337
 30
0.0
 10
5576.158091
 20
-1998.873660
 30
0.0
 10
5519.985264
 20
-1967.353934
 30
0.0
 10
5480.865488
 20
-1832.956855
 30
0.0
 10
5427.189861
 20
-1805.172129
 30
0.0
 10
5381.964485
 20
-1663.513025
 30
0.0
 10
5300.473383
 20
-1730.452252
 30
0.0
 10
5297.726658
 20
-1806.838929
 30
0.0
 10
5255.116307
 20
-1772.858078
 30
0.0
 10
5207.263830
 20
-1804.759179
 30
0.0
 10
5253.475832
 20
-1889.261532
 30
0.0
 10
5243.967931
 20
-1967.111159
 30
0.0
 10
5193.337980
 20
-2020.868985
 30
0.0
 10
5144.921654
 20
-2190.652490
 30
0.0
 10
5245.630981
 20
-2464.637548
 30
0.0
 10
5232.622906
 20
-2867.129184
 30
0.0
 10
5176.436804
 20
-2881.707234
 30
0.0
 10
5147.119004
 20
-2939.102711
 30
0.0
 10
5271.949007
 20
-2939.102711
 30
0.0
 10
5382.063485
 20
-2691.087679
 30
0.0
 10
5378.096735
 20
-2620.757252
 30
0.0
 10
5412.997836
 20
-2667.146553
 30
0.0
 10
5398.987236
 20
-2769.892431
 30
0.0
 10
5462.474587
 20
-2861.082309
 30
0.0
 10
5406.214686
 20
-2864.328234
 30
0.0
 10
5359.359035
 20
-2939.102711
 30
0.0
 10
5649.060493
 20
-2939.102711
 30
0.0
  0
LWPOLYLINE
  5
101
100
AcDbEntity
  8
Layer_1
 62
7
100
AcDbPolyline
 90
5
 70
1
 10
5435.448337
 20
-2796.622507
 30
0.0
 10
5622.455367
 20
-2924.451986
 30
0.0
 10
5385.828635
 20
-2924.451986
 30
0.0
 10
5414.611911
 20
-2878.518309
 30
0.0
 10
5489.458613
 20
-2874.200034
 30
0.0
  0
LWPOLYLINE
  5
102
100
AcDbEntity
  8
Layer_1
 62
7
100
AcDbPolyline
 90
3
 70
1
 10
5423.607861
 20
-2770.782681
 30
0.0
 10
5551.256815
 20
-2734.002005
 30
0.0
 10
5629.145142
 20
-2911.278760
 30
0.0
  0
LWPOLYLINE
  5
103
100
AcDbEntity
  8
Layer_1
 62
7
100
AcDbPolyline
 90
3
 70
1
 10
5698.596719
 20
-2924.423111
 30
0.0
 10
5961.795501
 20
-2849.512209
 30
0.0
 10
5963.735227
 20
-2924.451161
 30
0.0
  0
LWPOLYLINE
  5
104
100
AcDbEntity
  8
Layer_1
 62
7
100
AcDbPolyline
 90
4
 70
1
 10
5673.073393
 20
-2916.455410
 30
0.0
 10
5841.094923
 20
-2758.478856
 30
0.0
 10
5900.560925
 20
-2773.345506
 30
0.0
 10
5955.710601
 20
-2836.011833
 30
0.0
  0
LWPOLYLINE
  5
105
100
AcDbEntity
  8
Layer_1
 62
7
100
AcDbPolyline
 90
4
 70
1
 10
5648.687968
 20
-2919.337586
 30
0.0
 10
5565.231640
 20
-2729.387930
 30
0.0
 10
5772.809296
 20
-2653.474728
 30
0.0
 10
5829.726348
 20
-2749.095081
 30
0.0
  0
LWPOLYLINE
  5
106
100
AcDbEntity
  8
Layer_1
 62
7
100
AcDbPolyline
 90
3
 70
1
 10
5853.604848
 20
-2625.270752
 30
0.0
 10
5835.232848
 20
-2729.703155
 30
0.0
 10
5786.884322
 20
-2648.477853
 30
0.0
  0
LWPOLYLINE
  5
107
100
AcDbEntity
  8
Layer_1
 62
7
100
AcDbPolyline
 90
3
 70
1
 10
5782.126921
 20
-2634.621303
 30
0.0
 10
5754.007546
 20
-2412.938846
 30
0.0
 10
5852.696973
 20
-2610.075152
 30
0.0
  0
LWPOLYLINE
  5
108
100
AcDbEntity
  8
Layer_1
 62
7
100
AcDbPolyline
 90
4
 70
1
 10
5561.413915
 20
-2715.184580
 30
0.0
 10
5528.875989
 20
-2476.668823
 30
0.0
 10
5735.325345
 20
-2382.078970
 30
0.0
 10
5767.995121
 20
-2639.635728
 30
0.0
  0
LWPOLYLINE
  5
109
100
AcDbEntity
  8
Layer_1
 62
7
100
AcDbPolyline
 90
4
 70
1
 10
5427.749136
 20
-2667.399678
 30
0.0
 10
5516.744139
 20
-2496.126224
 30
0.0
 10
5547.271690
 20
-2719.903655
 30
0.0
 10
5415.408636
 20
-2757.898881
 30
0.0
  0
LWPOLYLINE
  5
10a
100
AcDbEntity
  8
Layer_1
 62
7
100
AcDbPolyline
 90
5
 70
1
 10
5506.562364
 20
-2103.575538
 30
0.0
 10
5479.019513
 20
-2078.944862
 30
0.0
 10
5489.939738
 20
-2051.638561
 30
0.0
 10
5557.254865
 20
-2072.420612
 30
0.0
 10
5522.550789
 20
-2072.420612
 30
0.0
  0
LWPOLYLINE
  5
10b
100
AcDbEntity
  8
Layer_1
 62
7
100
AcDbPolyline
 90
4
 70
1
 10
5495.397638
 20
-2037.990811
 30
0.0
 10
5517.488814
 20
-1982.752034
 30
0.0
 10
5564.876440
 20
-2009.342160
 30
0.0
 10
5592.190466
 20
-2067.873287
 30
0.0
  0
LWPOLYLINE
  5
10c
100
AcDbEntity
  8
Layer_1
 62
7
100
AcDbPolyline
 90
4
 70
1
 10
5467.397588
 20
-2068.551212
 30
0.0
 10
5364.718160
 20
-1976.723384
 30
0.0
 10
5442.150037
 20
-1908.350982
 30
0.0
 10
5505.231864
 20
-1973.946134
 30
0.0
  0
LWPOLYLINE
  5
10d
100
AcDbEntity
  8
Layer_1
 62
7
100
AcDbPolyline
 90
4
 70
1
 10
5431.985812
 20
-1897.781682
 30
0.0
 10
5356.721809
 20
-1964.239784
 30
0.0
 10
5330.405659
 20
-1896.345957
 30
0.0
 10
5372.273810
 20
-1835.690755
 30
0.0
  0
LWPOLYLINE
  5
10e
100
AcDbEntity
  8
Layer_1
 62
7
100
AcDbPolyline
 90
5
 70
1
 10
5498.437013
 20
-1945.745083
 30
0.0
 10
5378.803310
 20
-1821.344830
 30
0.0
 10
5383.682960
 20
-1717.066927
 30
0.0
 10
5415.075486
 20
-1815.397780
 30
0.0
 10
5468.553713
 20
-1843.080430
 30
0.0
  0
LWPOLYLINE
  5
10f
100
AcDbEntity
  8
Layer_1
 62
7
100
AcDbPolyline
 90
4
 70
1
 10
5312.108133
 20
-1814.584930
 30
0.0
 10
5314.876833
 20
-1737.580027
 30
0.0
 10
5370.182585
 20
-1692.150051
 30
0.0
 10
5364.360935
 20
-1816.556830
 30
0.0
  0
LWPOLYLINE
  5
110
100
AcDbEntity
  8
Layer_1
 62
7
100
AcDbPolyline
 90
5
 70
1
 10
5320.715058
 20
-1884.595107
 30
0.0
 10
5229.111556
 20
-1807.801329
 30
0.0
 10
5254.343582
 20
-1790.980329
 30
0.0
 10
5301.841083
 20
-1828.858405
 30
0.0
 10
5357.732434
 20
-1830.967630
 30
0.0
  0
LWPOLYLINE
  5
111
100
AcDbEntity
  8
Layer_1
 62
7
100
AcDbPolyline
 90
6
 70
1
 10
5224.358806
 20
-2009.299860
 30
0.0
 10
5257.927682
 20
-1973.657084
 30
0.0
 10
5268.589232
 20
-1886.363382
 30
0.0
 10
5241.980506
 20
-1837.707280
 30
0.0
 10
5316.024408
 20
-1899.780282
 30
0.0
 10
5344.027159
 20
-1972.026059
 30
0.0
  0
LWPOLYLINE
  5
112
100
AcDbEntity
  8
Layer_1
 62
7
100
AcDbPolyline
 90
3
 70
1
 10
5167.923479
 20
-2163.414139
 30
0.0
 10
5205.851730
 20
-2030.409061
 30
0.0
 10
5329.248709
 20
-1991.973885
 30
0.0
  0
LWPOLYLINE
  5
113
100
AcDbEntity
  8
Layer_1
 62
7
100
AcDbPolyline
 90
5
 70
1
 10
5391.555485
 20
-2256.123667
 30
0.0
 10
5166.016604
 20
-2186.818640
 30
0.0
 10
5354.130934
 20
-1986.909659
 30
0.0
 10
5503.214739
 20
-2120.236188
 30
0.0
 10
5548.162390
 20
-2185.409840
 30
0.0
  0
LWPOLYLINE
  5
114
100
AcDbEntity
  8
Layer_1
 62
7
100
AcDbPolyline
 90
3
 70
1
 10
5412.739536
 20
-2262.633067
 30
0.0
 10
5557.566340
 20
-2197.238390
 30
0.0
 10
5715.423795
 20
-2355.640870
 30
0.0
  0
LWPOLYLINE
  5
115
100
AcDbEntity
  8
Layer_1
 62
7
100
AcDbPolyline
 90
3
 70
1
 10
5720.799870
 20
-2372.619220
 30
0.0
 10
5528.039439
 20
-2460.937198
 30
0.0
 10
5525.817189
 20
-2312.705469
 30
0.0
  0
LWPOLYLINE
  5
116
100
AcDbEntity
  8
Layer_1
 62
7
100
AcDbPolyline
 90
3
 70
1
 10
5513.332314
 20
-2457.268123
 30
0.0
 10
5189.476755
 20
-2209.353891
 30
0.0
 10
5511.097464
 20
-2308.182518
 30
0.0
  0
LWPOLYLINE
  5
117
100
AcDbEntity
  8
Layer_1
 62
7
100
AcDbPolyline
 90
3
 70
1
 10
5258.171507
 20
-2456.289673
 30
0.0
 10
5168.199554
 20
-2211.516291
 30
0.0
 10
5498.285663
 20
-2464.199848
 30
0.0
  0
LWPOLYLINE
  5
118
100
AcDbEntity
  8
Layer_1
 62
7
100
AcDbPolyline
 90
3
 70
1
 10
5265.476432
 20
-2471.188723
 30
0.0
 10
5355.154384
 20
-2474.143498
 30
0.0
 10
5365.478585
 20
-2657.202828
 30
0.0
  0
LWPOLYLINE
  5
119
100
AcDbEntity
  8
Layer_1
 62
7
100
AcDbPolyline
 90
4
 70
1
 10
5376.610985
 20
-2594.413651
 30
0.0
 10
5369.855435
 20
-2474.627773
 30
0.0
 10
5509.022964
 20
-2479.211923
 30
0.0
 10
5419.524786
 20
-2651.453328
 30
0.0
  0
LWPOLYLINE
  5
11a
100
AcDbEntity
  8
Layer_1
 62
7
100
AcDbPolyline
 90
4
 70
1
 10
5267.030657
 20
-2914.076560
 30
0.0
 10
5247.502681
 20
-2872.103934
 30
0.0
 10
5316.338733
 20
-2596.737376
 30
0.0
 10
5366.498885
 20
-2690.040229
 30
0.0
  0
LWPOLYLINE
  5
11b
100
AcDbEntity
  8
Layer_1
 62
7
100
AcDbPolyline
 90
3
 70
1
 10
5249.305756
 20
-2804.481157
 30
0.0
 10
5259.440282
 20
-2490.900674
 30
0.0
 10
5306.030508
 20
-2577.563101
 30
0.0
  0
LWPOLYLINE
  5
11c
100
AcDbEntity
  8
Layer_1
 62
7
100
AcDbPolyline
 90
4
 70
1
 10
5171.053604
 20
-2924.451986
 30
0.0
 10
5186.488680
 20
-2894.234260
 30
0.0
 10
5235.699856
 20
-2881.466034
 30
0.0
 10
5255.699357
 20
-2924.451986
 30
0.0
  0
ENDSEC
  0
SECTION
  2
OBJECTS
  0
DICTIONARY
  5
C
330
0
100
AcDbDictionary
  3
ACAD_GROUP
350
D
  3
ACAD_MLINESTYLE
350
17
  0
DICTIONARY
  5
D
330
C
100
AcDbDictionary
  0
DICTIONARY
  5
1A
330
C
100
AcDbDictionary
  0
DICTIONARY
  5
17
330
C
100
AcDbDictionary
  3
STANDARD
350
18
  0
DICTIONARY
  5
19
330
C
100
AcDbDictionary
  0
ENDSEC
  0
EOF
