  0
SECTION
  2
HEADER
  9
$ACADVER
  1
AC1024
  9
$ACADMAINTVER
 70
   205
  9
$DWGCODEPAGE
  3
ANSI_1251
  9
$LASTSAVEDBY
  1
Martyshev
  9
$INSBASE
 10
0.0
 20
0.0
 30
0.0
  9
$EXTMIN
 10
-86.83240039669195
 20
-10.68598757678117
 30
-0.0015258207003583
  9
$EXTMAX
 10
-7.922563650891561
 20
45.21746801991246
 30
0.0000000349246037
  9
$LIMMIN
 10
0.0
 20
0.0
  9
$LIMMAX
 10
12.0
 20
9.0
  9
$ORTHOMODE
 70
     0
  9
$REGENMODE
 70
     1
  9
$FILLMODE
 70
     1
  9
$QTEXTMODE
 70
     0
  9
$MIRRTEXT
 70
     1
  9
$LTSCALE
 40
1.0
  9
$ATTMODE
 70
     1
  9
$TEXTSIZE
 40
0.2
  9
$TRACEWID
 40
0.05
  9
$TEXTSTYLE
  7
Standard
  9
$CLAYER
  8
0
  9
$CELTYPE
  6
ByLayer
  9
$CECOLOR
 62
   256
  9
$CELTSCALE
 40
1.0
  9
$DISPSILH
 70
     0
  9
$DIMSCALE
 40
1.0
  9
$DIMASZ
 40
0.18
  9
$DIMEXO
 40
0.0625
  9
$DIMDLI
 40
0.38
  9
$DIMRND
 40
0.0
  9
$DIMDLE
 40
0.0
  9
$DIMEXE
 40
0.18
  9
$DIMTP
 40
0.0
  9
$DIMTM
 40
0.0
  9
$DIMTXT
 40
0.18
  9
$DIMCEN
 40
0.09
  9
$DIMTSZ
 40
0.0
  9
$DIMTOL
 70
     0
  9
$DIMLIM
 70
     0
  9
$DIMTIH
 70
     1
  9
$DIMTOH
 70
     1
  9
$DIMSE1
 70
     0
  9
$DIMSE2
 70
     0
  9
$DIMTAD
 70
     0
  9
$DIMZIN
 70
     0
  9
$DIMBLK
  1

  9
$DIMASO
 70
     1
  9
$DIMSHO
 70
     1
  9
$DIMPOST
  1

  9
$DIMAPOST
  1

  9
$DIMALT
 70
     0
  9
$DIMALTD
 70
     2
  9
$DIMALTF
 40
25.4
  9
$DIMLFAC
 40
1.0
  9
$DIMTOFL
 70
     0
  9
$DIMTVP
 40
0.0
  9
$DIMTIX
 70
     0
  9
$DIMSOXD
 70
     0
  9
$DIMSAH
 70
     0
  9
$DIMBLK1
  1

  9
$DIMBLK2
  1

  9
$DIMSTYLE
  2
Standard
  9
$DIMCLRD
 70
     0
  9
$DIMCLRE
 70
     0
  9
$DIMCLRT
 70
     0
  9
$DIMTFAC
 40
1.0
  9
$DIMGAP
 40
0.09
  9
$DIMJUST
 70
     0
  9
$DIMSD1
 70
     0
  9
$DIMSD2
 70
     0
  9
$DIMTOLJ
 70
     1
  9
$DIMTZIN
 70
     0
  9
$DIMALTZ
 70
     0
  9
$DIMALTTZ
 70
     0
  9
$DIMUPT
 70
     0
  9
$DIMDEC
 70
     4
  9
$DIMTDEC
 70
     4
  9
$DIMALTU
 70
     2
  9
$DIMALTTD
 70
     2
  9
$DIMTXSTY
  7
Standard
  9
$DIMAUNIT
 70
     0
  9
$DIMADEC
 70
     0
  9
$DIMALTRND
 40
0.0
  9
$DIMAZIN
 70
     0
  9
$DIMDSEP
 70
    46
  9
$DIMATFIT
 70
     3
  9
$DIMFRAC
 70
     0
  9
$DIMLDRBLK
  1

  9
$DIMLUNIT
 70
     2
  9
$DIMLWD
 70
    -2
  9
$DIMLWE
 70
    -2
  9
$DIMTMOVE
 70
     0
  9
$DIMFXL
 40
1.0
  9
$DIMFXLON
 70
     0
  9
$DIMJOGANG
 40
0.7853981633974483
  9
$DIMTFILL
 70
     0
  9
$DIMTFILLCLR
 70
     0
  9
$DIMARCSYM
 70
     0
  9
$DIMLTYPE
  6

  9
$DIMLTEX1
  6

  9
$DIMLTEX2
  6

  9
$DIMTXTDIRECTION
 70
     0
  9
$LUNITS
 70
     2
  9
$LUPREC
 70
     4
  9
$SKETCHINC
 40
0.1
  9
$FILLETRAD
 40
0.5
  9
$AUNITS
 70
     0
  9
$AUPREC
 70
     0
  9
$MENU
  1
.
  9
$ELEVATION
 40
0.0
  9
$PELEVATION
 40
0.0
  9
$THICKNESS
 40
0.0
  9
$LIMCHECK
 70
     0
  9
$CHAMFERA
 40
0.0
  9
$CHAMFERB
 40
0.0
  9
$CHAMFERC
 40
0.0
  9
$CHAMFERD
 40
0.0
  9
$SKPOLY
 70
     0
  9
$TDCREATE
 40
2459114.912585625
  9
$TDUCREATE
 40
2459114.787585625
  9
$TDUPDATE
 40
2459114.913989965
  9
$TDUUPDATE
 40
2459114.788989965
  9
$TDINDWG
 40
0.0013163657
  9
$TDUSRTIMER
 40
0.0013163310
  9
$USRTIMER
 70
     1
  9
$ANGBASE
 50
0.0
  9
$ANGDIR
 70
     0
  9
$PDMODE
 70
     0
  9
$PDSIZE
 40
0.0
  9
$PLINEWID
 40
0.0
  9
$SPLFRAME
 70
     0
  9
$SPLINETYPE
 70
     6
  9
$SPLINESEGS
 70
     8
  9
$HANDSEED
  5
190
  9
$SURFTAB1
 70
     6
  9
$SURFTAB2
 70
     6
  9
$SURFTYPE
 70
     6
  9
$SURFU
 70
     6
  9
$SURFV
 70
     6
  9
$UCSBASE
  2

  9
$UCSNAME
  2

  9
$UCSORG
 10
0.0
 20
0.0
 30
0.0
  9
$UCSXDIR
 10
1.0
 20
0.0
 30
0.0
  9
$UCSYDIR
 10
0.0
 20
1.0
 30
0.0
  9
$UCSORTHOREF
  2

  9
$UCSORTHOVIEW
 70
     0
  9
$UCSORGTOP
 10
0.0
 20
0.0
 30
0.0
  9
$UCSORGBOTTOM
 10
0.0
 20
0.0
 30
0.0
  9
$UCSORGLEFT
 10
0.0
 20
0.0
 30
0.0
  9
$UCSORGRIGHT
 10
0.0
 20
0.0
 30
0.0
  9
$UCSORGFRONT
 10
0.0
 20
0.0
 30
0.0
  9
$UCSORGBACK
 10
0.0
 20
0.0
 30
0.0
  9
$PUCSBASE
  2

  9
$PUCSNAME
  2

  9
$PUCSORG
 10
0.0
 20
0.0
 30
0.0
  9
$PUCSXDIR
 10
1.0
 20
0.0
 30
0.0
  9
$PUCSYDIR
 10
0.0
 20
1.0
 30
0.0
  9
$PUCSORTHOREF
  2

  9
$PUCSORTHOVIEW
 70
     0
  9
$PUCSORGTOP
 10
0.0
 20
0.0
 30
0.0
  9
$PUCSORGBOTTOM
 10
0.0
 20
0.0
 30
0.0
  9
$PUCSORGLEFT
 10
0.0
 20
0.0
 30
0.0
  9
$PUCSORGRIGHT
 10
0.0
 20
0.0
 30
0.0
  9
$PUCSORGFRONT
 10
0.0
 20
0.0
 30
0.0
  9
$PUCSORGBACK
 10
0.0
 20
0.0
 30
0.0
  9
$USERI1
 70
     0
  9
$USERI2
 70
     0
  9
$USERI3
 70
     0
  9
$USERI4
 70
     0
  9
$USERI5
 70
     0
  9
$USERR1
 40
0.0
  9
$USERR2
 40
0.0
  9
$USERR3
 40
0.0
  9
$USERR4
 40
0.0
  9
$USERR5
 40
0.0
  9
$WORLDVIEW
 70
     1
  9
$SHADEDGE
 70
     3
  9
$SHADEDIF
 70
    70
  9
$TILEMODE
 70
     1
  9
$MAXACTVP
 70
    64
  9
$PINSBASE
 10
0.0
 20
0.0
 30
0.0
  9
$PLIMCHECK
 70
     0
  9
$PEXTMIN
 10
1.000000000000000E+20
 20
1.000000000000000E+20
 30
1.000000000000000E+20
  9
$PEXTMAX
 10
-1.000000000000000E+20
 20
-1.000000000000000E+20
 30
-1.000000000000000E+20
  9
$PLIMMIN
 10
0.0
 20
0.0
  9
$PLIMMAX
 10
12.0
 20
9.0
  9
$UNITMODE
 70
     0
  9
$VISRETAIN
 70
     1
  9
$PLINEGEN
 70
     0
  9
$PSLTSCALE
 70
     1
  9
$TREEDEPTH
 70
  3020
  9
$CMLSTYLE
  2
Standard
  9
$CMLJUST
 70
     0
  9
$CMLSCALE
 40
1.0
  9
$PROXYGRAPHICS
 70
     1
  9
$MEASUREMENT
 70
     0
  9
$CELWEIGHT
370
    -1
  9
$ENDCAPS
280
     0
  9
$JOINSTYLE
280
     0
  9
$LWDISPLAY
290
     0
  9
$INSUNITS
 70
     4
  9
$HYPERLINKBASE
  1

  9
$STYLESHEET
  1

  9
$XEDIT
290
     1
  9
$CEPSNTYPE
380
     0
  9
$PSTYLEMODE
290
     1
  9
$FINGERPRINTGUID
  2
{4ADB6313-93FA-4B5A-95E4-0FC434FF3D95}
  9
$VERSIONGUID
  2
{82BEA687-E8D4-4346-8DD4-BAF598ACBAE0}
  9
$EXTNAMES
290
     1
  9
$PSVPSCALE
 40
0.0
  9
$OLESTARTUP
290
     0
  9
$SORTENTS
280
   127
  9
$INDEXCTL
280
     0
  9
$HIDETEXT
280
     1
  9
$XCLIPFRAME
280
     2
  9
$HALOGAP
280
     0
  9
$OBSCOLOR
 70
   257
  9
$OBSLTYPE
280
     0
  9
$INTERSECTIONDISPLAY
280
     0
  9
$INTERSECTIONCOLOR
 70
   257
  9
$DIMASSOC
280
     2
  9
$PROJECTNAME
  1

  9
$CAMERADISPLAY
290
     0
  9
$LENSLENGTH
 40
50.0
  9
$CAMERAHEIGHT
 40
0.0
  9
$STEPSPERSEC
 40
2.0
  9
$STEPSIZE
 40
6.0
  9
$3DDWFPREC
 40
2.0
  9
$PSOLWIDTH
 40
0.25
  9
$PSOLHEIGHT
 40
4.0
  9
$LOFTANG1
 40
1.570796326794897
  9
$LOFTANG2
 40
1.570796326794897
  9
$LOFTMAG1
 40
0.0
  9
$LOFTMAG2
 40
0.0
  9
$LOFTPARAM
 70
     7
  9
$LOFTNORMALS
280
     1
  9
$LATITUDE
 40
37.795
  9
$LONGITUDE
 40
-122.394
  9
$NORTHDIRECTION
 40
0.0
  9
$TIMEZONE
 70
 -8000
  9
$LIGHTGLYPHDISPLAY
280
     1
  9
$TILEMODELIGHTSYNCH
280
     1
  9
$CMATERIAL
347
44
  9
$SOLIDHIST
280
     0
  9
$SHOWHIST
280
     1
  9
$DWFFRAME
280
     2
  9
$DGNFRAME
280
     2
  9
$REALWORLDSCALE
290
     1
  9
$INTERFERECOLOR
 62
   256
  9
$INTERFEREOBJVS
345
33
  9
$INTERFEREVPVS
346
30
  9
$CSHADOW
280
     0
  9
$SHADOWPLANELOCATION
 40
0.0
  0
ENDSEC
  0
SECTION
  2
CLASSES
  0
CLASS
  1
ACDBDICTIONARYWDFLT
  2
AcDbDictionaryWithDefault
  3
ObjectDBX Classes
 90
        0
 91
        1
280
     0
281
     0
  0
CLASS
  1
VISUALSTYLE
  2
AcDbVisualStyle
  3
ObjectDBX Classes
 90
     4095
 91
       24
280
     0
281
     0
  0
CLASS
  1
MATERIAL
  2
AcDbMaterial
  3
ObjectDBX Classes
 90
     1153
 91
        3
280
     0
281
     0
  0
CLASS
  1
SCALE
  2
AcDbScale
  3
ObjectDBX Classes
 90
     1153
 91
       33
280
     0
281
     0
  0
CLASS
  1
TABLESTYLE
  2
AcDbTableStyle
  3
ObjectDBX Classes
 90
     4095
 91
        1
280
     0
281
     0
  0
CLASS
  1
MLEADERSTYLE
  2
AcDbMLeaderStyle
  3
ACDB_MLEADERSTYLE_CLASS
 90
     4095
 91
        1
280
     0
281
     0
  0
CLASS
  1
SUN
  2
AcDbSun
  3
SCENEOE
 90
     1153
 91
        1
280
     0
281
     0
  0
CLASS
  1
DICTIONARYVAR
  2
AcDbDictionaryVar
  3
ObjectDBX Classes
 90
        0
 91
        8
280
     0
281
     0
  0
CLASS
  1
CELLSTYLEMAP
  2
AcDbCellStyleMap
  3
ObjectDBX Classes
 90
     1152
 91
        2
280
     0
281
     0
  0
CLASS
  1
ACDBSECTIONVIEWSTYLE
  2
AcDbSectionViewStyle
  3
ObjectDBX Classes
 90
     1025
 91
        1
280
     0
281
     0
  0
CLASS
  1
ACDBDETAILVIEWSTYLE
  2
AcDbDetailViewStyle
  3
ObjectDBX Classes
 90
     1025
 91
        1
280
     0
281
     0
  0
ENDSEC
  0
SECTION
  2
TABLES
  0
TABLE
  2
VPORT
  5
8
330
0
100
AcDbSymbolTable
 70
     1
  0
VPORT
  5
29
330
8
100
AcDbSymbolTableRecord
100
AcDbViewportTableRecord
  2
*Active
 70
     0
 10
0.0
 20
0.0
 11
1.0
 21
1.0
 12
-37.63564636614714
 22
3.094873852826253
 13
0.0
 23
0.0
 14
0.5
 24
0.5
 15
0.5
 25
0.5
 16
0.0
 26
0.0
 36
1.0
 17
0.0
 27
0.0
 37
0.0
 40
90.70027851055829
 41
2.179019384264538
 42
50.0
 43
0.0
 44
0.0
 50
0.0
 51
0.0
 71
     0
 72
   100
 73
     1
 74
     3
 75
     0
 76
     0
 77
     0
 78
     0
281
     0
 65
     1
110
0.0
120
0.0
130
0.0
111
1.0
121
0.0
131
0.0
112
0.0
122
1.0
132
0.0
 79
     0
146
0.0
348
2F
 60
     3
 61
     5
292
     1
282
     1
141
0.0
142
0.0
 63
   250
361
6D
1001
ACAD_NAV_VCDISPLAY
1070
     3
  0
ENDTAB
  0
TABLE
  2
LTYPE
  5
5
330
0
100
AcDbSymbolTable
 70
     1
  0
LTYPE
  5
14
330
5
100
AcDbSymbolTableRecord
100
AcDbLinetypeTableRecord
  2
ByBlock
 70
     0
  3

 72
    65
 73
     0
 40
0.0
  0
LTYPE
  5
15
330
5
100
AcDbSymbolTableRecord
100
AcDbLinetypeTableRecord
  2
ByLayer
 70
     0
  3

 72
    65
 73
     0
 40
0.0
  0
LTYPE
  5
16
330
5
100
AcDbSymbolTableRecord
100
AcDbLinetypeTableRecord
  2
Continuous
 70
     0
  3
Solid line
 72
    65
 73
     0
 40
0.0
  0
ENDTAB
  0
TABLE
  2
LAYER
  5
2
330
0
100
AcDbSymbolTable
 70
     2
  0
LAYER
  5
10
102
{ACAD_XDICTIONARY
360
151
102
}
330
2
100
AcDbSymbolTableRecord
100
AcDbLayerTableRecord
  2
0
 70
     0
 62
     7
  6
Continuous
370
    -3
390
F
347
46
  0
LAYER
  5
6F
102
{ACAD_XDICTIONARY
360
153
102
}
330
2
100
AcDbSymbolTableRecord
100
AcDbLayerTableRecord
  2
Layer 1
 70
     0
 62
     7
  6
Continuous
370
    -3
390
F
347
46
  0
ENDTAB
  0
TABLE
  2
STYLE
  5
3
330
0
100
AcDbSymbolTable
 70
     1
  0
STYLE
  5
11
330
3
100
AcDbSymbolTableRecord
100
AcDbTextStyleTableRecord
  2
Standard
 70
     0
 40
0.0
 41
1.0
 50
0.0
 71
     0
 42
0.2
  3
txt
  4

  0
ENDTAB
  0
TABLE
  2
VIEW
  5
6
330
0
100
AcDbSymbolTable
 70
     0
  0
ENDTAB
  0
TABLE
  2
UCS
  5
7
330
0
100
AcDbSymbolTable
 70
     0
  0
ENDTAB
  0
TABLE
  2
APPID
  5
9
330
0
100
AcDbSymbolTable
 70
     4
  0
APPID
  5
12
330
9
100
AcDbSymbolTableRecord
100
AcDbRegAppTableRecord
  2
ACAD
 70
     0
  0
APPID
  5
6E
330
9
100
AcDbSymbolTableRecord
100
AcDbRegAppTableRecord
  2
ODA
 70
     0
  0
APPID
  5
141
330
9
100
AcDbSymbolTableRecord
100
AcDbRegAppTableRecord
  2
ACAD_MLEADERVER
 70
     0
  0
APPID
  5
159
330
9
100
AcDbSymbolTableRecord
100
AcDbRegAppTableRecord
  2
ACAD_NAV_VCDISPLAY
 70
     0
  0
ENDTAB
  0
TABLE
  2
DIMSTYLE
  5
A
330
0
100
AcDbSymbolTable
 70
     1
100
AcDbDimStyleTable
 71
     0
  0
DIMSTYLE
105
27
330
A
100
AcDbSymbolTableRecord
100
AcDbDimStyleTableRecord
  2
Standard
 70
     0
340
11
  0
ENDTAB
  0
TABLE
  2
BLOCK_RECORD
  5
1
330
0
100
AcDbSymbolTable
 70
     1
  0
BLOCK_RECORD
  5
1F
330
1
100
AcDbSymbolTableRecord
100
AcDbBlockTableRecord
  2
*Model_Space
340
22
 70
     0
280
     1
281
     0
  0
BLOCK_RECORD
  5
1B
330
1
100
AcDbSymbolTableRecord
100
AcDbBlockTableRecord
  2
*Paper_Space
340
1E
 70
     0
280
     1
281
     0
  0
BLOCK_RECORD
  5
23
330
1
100
AcDbSymbolTableRecord
100
AcDbBlockTableRecord
  2
*Paper_Space0
340
26
 70
     0
280
     1
281
     0
  0
ENDTAB
  0
ENDSEC
  0
SECTION
  2
BLOCKS
  0
BLOCK
  5
20
330
1F
100
AcDbEntity
  8
0
100
AcDbBlockBegin
  2
*Model_Space
 70
     0
 10
0.0
 20
0.0
 30
0.0
  3
*Model_Space
  1

  0
ENDBLK
  5
21
330
1F
100
AcDbEntity
  8
0
100
AcDbBlockEnd
  0
BLOCK
  5
1C
330
1B
100
AcDbEntity
 67
     1
  8
0
100
AcDbBlockBegin
  2
*Paper_Space
 70
     0
 10
0.0
 20
0.0
 30
0.0
  3
*Paper_Space
  1

  0
ENDBLK
  5
1D
330
1B
100
AcDbEntity
 67
     1
  8
0
100
AcDbBlockEnd
  0
BLOCK
  5
24
330
23
100
AcDbEntity
 67
     1
  8
0
100
AcDbBlockBegin
  2
*Paper_Space0
 70
     0
 10
0.0
 20
0.0
 30
0.0
  3
*Paper_Space0
  1

  0
ENDBLK
  5
25
330
23
100
AcDbEntity
 67
     1
  8
0
100
AcDbBlockEnd
  0
ENDSEC
  0
SECTION
  2
ENTITIES
  0
SPLINE
  5
70
330
1F
100
AcDbEntity
  8
Layer 1
 62
     3
370
    20
100
AcDbSpline
210
0.0
220
0.0
230
1.0
 70
     9
 71
     3
 72
    32
 73
    28
 74
     0
 42
0.000000001
 43
0.0000000001
 40
0.0
 40
0.0
 40
0.0
 40
0.0
 40
0.1111111111111111
 40
0.1111111111111111
 40
0.1111111111111111
 40
0.2222222222222222
 40
0.2222222222222222
 40
0.2222222222222222
 40
0.3333333333333333
 40
0.3333333333333333
 40
0.3333333333333333
 40
0.4444444444444445
 40
0.4444444444444445
 40
0.4444444444444445
 40
0.5555555555555556
 40
0.5555555555555556
 40
0.5555555555555556
 40
0.6666666666666666
 40
0.6666666666666666
 40
0.6666666666666666
 40
0.7777777777777777
 40
0.7777777777777777
 40
0.7777777777777777
 40
0.8888888888888889
 40
0.8888888888888889
 40
0.8888888888888889
 40
1.0
 40
1.0
 40
1.0
 40
1.0
 10
-50.283
 20
-8.434499999999999
 30
0.0
 10
-50.3175
 20
-8.7161
 30
0.0
 10
-50.55749999999999
 20
-8.9341
 30
0.0
 10
-50.84839999999999
 20
-8.9341
 30
0.0
 10
-51.0462
 20
-8.9341
 30
0.0
 10
-51.2205
 20
-8.833199999999999
 30
0.0
 10
-51.3226
 20
-8.679999999999999
 30
0.0
 10
-51.3226
 20
-8.679999999999999
 30
0.0
 10
-53.8109
 20
-9.9242
 30
0.0
 10
-53.8109
 20
-9.9242
 30
0.0
 10
-53.8109
 20
-9.9242
 30
0.0
 10
-42.70859999999999
 20
-9.707499999999999
 30
0.0
 10
-42.70859999999999
 20
-9.707499999999999
 30
0.0
 10
-42.68849999999999
 20
-9.621
 30
0.0
 10
-42.6488
 20
-9.542099999999999
 30
0.0
 10
-42.5943
 20
-9.475799999999999
 30
0.0
 10
-42.5943
 20
-9.475799999999999
 30
0.0
 10
-44.3352
 20
-8.666399999999999
 30
0.0
 10
-44.3352
 20
-8.666399999999999
 30
0.0
 10
-44.43589999999999
 20
-8.827199999999999
 30
0.0
 10
-44.6145
 20
-8.9341
 30
0.0
 10
-44.8183
 20
-8.9341
 30
0.0
 10
-45.1092
 20
-8.9341
 30
0.0
 10
-45.34889999999999
 20
-8.7161
 30
0.0
 10
-45.3835
 20
-8.434499999999999
 30
0.0
 10
-45.3835
 20
-8.434499999999999
 30
0.0
 10
-50.283
 20
-8.434499999999999
 30
0.0
 10
-50.283
 20
-8.434499999999999
 30
0.0
  0
SPLINE
  5
72
330
1F
100
AcDbEntity
  8
Layer 1
 62
     3
370
    20
100
AcDbSpline
210
0.0
220
0.0
230
1.0
 70
     9
 71
     3
 72
    26
 73
    22
 74
     0
 42
0.000000001
 43
0.0000000001
 40
0.0
 40
0.0
 40
0.0
 40
0.0
 40
0.1428571428571428
 40
0.1428571428571428
 40
0.1428571428571428
 40
0.2857142857142857
 40
0.2857142857142857
 40
0.2857142857142857
 40
0.4285714285714285
 40
0.4285714285714285
 40
0.4285714285714285
 40
0.5714285714285714
 40
0.5714285714285714
 40
0.5714285714285714
 40
0.7142857142857143
 40
0.7142857142857143
 40
0.7142857142857143
 40
0.8571428571428571
 40
0.8571428571428571
 40
0.8571428571428571
 40
1.0
 40
1.0
 40
1.0
 40
1.0
 10
-74.8503
 20
-2.851599999999999
 30
0.0
 10
-74.8503
 20
-2.851599999999999
 30
0.0
 10
-63.6765
 20
-0.5257
 30
0.0
 10
-63.6765
 20
-0.5257
 30
0.0
 10
-63.7286
 20
-0.4397000000000001
 30
0.0
 10
-63.75869999999999
 20
-0.3388
 30
0.0
 10
-63.75869999999999
 20
-0.2307
 30
0.0
 10
-63.75869999999999
 20
-0.171
 30
0.0
 10
-63.7495
 20
-0.1135
 30
0.0
 10
-63.7325
 20
-0.0595
 30
0.0
 10
-63.7325
 20
-0.0595
 30
0.0
 10
-75.1537
 20
5.164799999999999
 30
0.0
 10
-75.1537
 20
5.164799999999999
 30
0.0
 10
-75.23690000000001
 20
5.059899999999999
 30
0.0
 10
-75.35639999999999
 20
4.985199999999999
 30
0.0
 10
-75.4932
 20
4.959299999999999
 30
0.0
 10
-75.4932
 20
4.959299999999999
 30
0.0
 10
-75.0022
 20
-2.6177
 30
0.0
 10
-75.0022
 20
-2.6177
 30
0.0
 10
-74.93389999999999
 20
-2.6812
 30
0.0
 10
-74.8811
 20
-2.761299999999999
 30
0.0
 10
-74.8503
 20
-2.851599999999999
 30
0.0
  0
SPLINE
  5
74
330
1F
100
AcDbEntity
  8
Layer 1
 62
     3
370
    20
100
AcDbSpline
210
0.0
220
0.0
230
1.0
 70
     9
 71
     3
 72
    38
 73
    34
 74
     0
 42
0.000000001
 43
0.0000000001
 40
0.0
 40
0.0
 40
0.0
 40
0.0
 40
0.0909090909090909
 40
0.0909090909090909
 40
0.0909090909090909
 40
0.1818181818181818
 40
0.1818181818181818
 40
0.1818181818181818
 40
0.2727272727272727
 40
0.2727272727272727
 40
0.2727272727272727
 40
0.3636363636363636
 40
0.3636363636363636
 40
0.3636363636363636
 40
0.4545454545454546
 40
0.4545454545454546
 40
0.4545454545454546
 40
0.5454545454545455
 40
0.5454545454545455
 40
0.5454545454545455
 40
0.6363636363636364
 40
0.6363636363636364
 40
0.6363636363636364
 40
0.7272727272727274
 40
0.7272727272727274
 40
0.7272727272727274
 40
0.8181818181818181
 40
0.8181818181818181
 40
0.8181818181818181
 40
0.9090909090909091
 40
0.9090909090909091
 40
0.9090909090909091
 40
1.0
 40
1.0
 40
1.0
 40
1.0
 10
-63.5765
 20
-0.6483
 30
0.0
 10
-63.5765
 20
-0.6483
 30
0.0
 10
-74.82179999999999
 20
-2.988999999999999
 30
0.0
 10
-74.82179999999999
 20
-2.988999999999999
 30
0.0
 10
-74.8206
 20
-3.0043
 30
0.0
 10
-74.8199
 20
-3.0198
 30
0.0
 10
-74.8199
 20
-3.035499999999999
 30
0.0
 10
-74.8199
 20
-3.350099999999999
 30
0.0
 10
-75.0749
 20
-3.6051
 30
0.0
 10
-75.3896
 20
-3.6051
 30
0.0
 10
-75.3896
 20
-3.6051
 30
0.0
 10
-75.40519999999999
 20
-3.6049
 30
0.0
 10
-75.40519999999999
 20
-3.6049
 30
0.0
 10
-75.40519999999999
 20
-3.6049
 30
0.0
 10
-76.2962
 20
-6.7495
 30
0.0
 10
-76.2962
 20
-6.7495
 30
0.0
 10
-76.1926
 20
-6.809499999999999
 30
0.0
 10
-76.10980000000001
 20
-6.9012
 30
0.0
 10
-76.0608
 20
-7.0114
 30
0.0
 10
-76.0608
 20
-7.0114
 30
0.0
 10
-65.22929999999999
 20
-5.1637
 30
0.0
 10
-65.22929999999999
 20
-5.1637
 30
0.0
 10
-65.20610000000001
 20
-4.870199999999999
 30
0.0
 10
-64.96089999999999
 20
-4.639499999999999
 30
0.0
 10
-64.6615
 20
-4.639499999999999
 30
0.0
 10
-64.62990000000001
 20
-4.639499999999999
 30
0.0
 10
-64.5988
 20
-4.6421
 30
0.0
 10
-64.5685
 20
-4.6471
 30
0.0
 10
-64.5685
 20
-4.6471
 30
0.0
 10
-63.4167
 20
-0.7530000000000001
 30
0.0
 10
-63.4167
 20
-0.7530000000000001
 30
0.0
 10
-63.4759
 20
-0.7271
 30
0.0
 10
-63.5299
 20
-0.6916000000000001
 30
0.0
 10
-63.5765
 20
-0.6483
 30
0.0
  0
SPLINE
  5
76
330
1F
100
AcDbEntity
  8
Layer 1
 62
     3
370
    20
100
AcDbSpline
210
0.0
220
0.0
230
1.0
 70
     9
 71
     3
 72
    38
 73
    34
 74
     0
 42
0.000000001
 43
0.0000000001
 40
0.0
 40
0.0
 40
0.0
 40
0.0
 40
0.0909090909090909
 40
0.0909090909090909
 40
0.0909090909090909
 40
0.1818181818181818
 40
0.1818181818181818
 40
0.1818181818181818
 40
0.2727272727272727
 40
0.2727272727272727
 40
0.2727272727272727
 40
0.3636363636363636
 40
0.3636363636363636
 40
0.3636363636363636
 40
0.4545454545454546
 40
0.4545454545454546
 40
0.4545454545454546
 40
0.5454545454545455
 40
0.5454545454545455
 40
0.5454545454545455
 40
0.6363636363636364
 40
0.6363636363636364
 40
0.6363636363636364
 40
0.7272727272727274
 40
0.7272727272727274
 40
0.7272727272727274
 40
0.8181818181818181
 40
0.8181818181818181
 40
0.8181818181818181
 40
0.9090909090909091
 40
0.9090909090909091
 40
0.9090909090909091
 40
1.0
 40
1.0
 40
1.0
 40
1.0
 10
-21.8187
 20
-3.4214
 30
0.0
 10
-21.8187
 20
-3.4214
 30
0.0
 10
-32.6976
 20
0.0459
 30
0.0
 10
-32.6976
 20
0.0459
 30
0.0
 10
-32.7441
 20
-0.1327
 30
0.0
 10
-32.875
 20
-0.2771
 30
0.0
 10
-33.0451
 20
-0.3422
 30
0.0
 10
-33.0451
 20
-0.3422
 30
0.0
 10
-31.9139
 20
-4.923899999999999
 30
0.0
 10
-31.9139
 20
-4.923899999999999
 30
0.0
 10
-31.8919
 20
-4.921299999999999
 30
0.0
 10
-31.8693
 20
-4.9199
 30
0.0
 10
-31.8465
 20
-4.9199
 30
0.0
 10
-31.5431
 20
-4.9199
 30
0.0
 10
-31.2951
 20
-5.157
 30
0.0
 10
-31.2778
 20
-5.456
 30
0.0
 10
-31.2778
 20
-5.456
 30
0.0
 10
-19.9516
 20
-7.6317
 30
0.0
 10
-19.9516
 20
-7.6317
 30
0.0
 10
-19.902
 20
-7.5262
 30
0.0
 10
-19.8211
 20
-7.438399999999999
 30
0.0
 10
-19.7208
 20
-7.3803
 30
0.0
 10
-19.7208
 20
-7.3803
 30
0.0
 10
-21.1653
 20
-4.0883
 30
0.0
 10
-21.1653
 20
-4.0883
 30
0.0
 10
-21.1956
 20
-4.0933
 30
0.0
 10
-21.227
 20
-4.0959
 30
0.0
 10
-21.2588
 20
-4.0959
 30
0.0
 10
-21.5734
 20
-4.0959
 30
0.0
 10
-21.8284
 20
-3.841
 30
0.0
 10
-21.8284
 20
-3.526299999999999
 30
0.0
 10
-21.8284
 20
-3.4904
 30
0.0
 10
-21.825
 20
-3.4554
 30
0.0
 10
-21.8187
 20
-3.4214
 30
0.0
  0
SPLINE
  5
78
330
1F
100
AcDbEntity
  8
Layer 1
 62
     3
370
    20
100
AcDbSpline
210
0.0
220
0.0
230
1.0
 70
    11
 71
     3
 72
    26
 73
    22
 74
     0
 42
0.000000001
 43
0.0000000001
 40
0.0
 40
0.0
 40
0.0
 40
0.0
 40
0.1428571428571428
 40
0.1428571428571428
 40
0.1428571428571428
 40
0.2857142857142857
 40
0.2857142857142857
 40
0.2857142857142857
 40
0.4285714285714285
 40
0.4285714285714285
 40
0.4285714285714285
 40
0.5714285714285714
 40
0.5714285714285714
 40
0.5714285714285714
 40
0.7142857142857143
 40
0.7142857142857143
 40
0.7142857142857143
 40
0.8571428571428571
 40
0.8571428571428571
 40
0.8571428571428571
 40
1.0
 40
1.0
 40
1.0
 40
1.0
 10
-32.6792
 20
0.1873
 30
0.0
 10
-32.6792
 20
0.1873
 30
0.0
 10
-21.7762
 20
-3.287799999999999
 30
0.0
 10
-21.7762
 20
-3.287799999999999
 30
0.0
 10
-21.6931
 20
-3.107499999999999
 30
0.0
 10
-21.5184
 20
-2.978099999999999
 30
0.0
 10
-21.3118
 20
-2.959099999999999
 30
0.0
 10
-21.3118
 20
-2.959099999999999
 30
0.0
 10
-21.0655
 20
5.166299999999999
 30
0.0
 10
-21.0655
 20
5.166299999999999
 30
0.0
 10
-21.2333
 20
5.192099999999999
 30
0.0
 10
-21.377
 20
5.291
 30
0.0
 10
-21.4628
 20
5.4297
 30
0.0
 10
-21.4628
 20
5.4297
 30
0.0
 10
-32.6857
 20
0.2761
 30
0.0
 10
-32.6857
 20
0.2761
 30
0.0
 10
-32.6814
 20
0.248
 30
0.0
 10
-32.6792
 20
0.2193
 30
0.0
 10
-32.6792
 20
0.1899
 30
0.0
 10
-32.6792
 20
0.1899
 30
0.0
 10
-32.6792
 20
0.1873
 30
0.0
 10
-32.6792
 20
0.1873
 30
0.0
  0
SPLINE
  5
7A
330
1F
100
AcDbEntity
  8
Layer 1
 62
     3
370
    20
100
AcDbSpline
210
0.0
220
0.0
230
1.0
 70
     9
 71
     3
 72
    41
 73
    37
 74
     0
 42
0.000000001
 43
0.0000000001
 40
0.0
 40
0.0
 40
0.0
 40
0.0
 40
0.0833333333333333
 40
0.0833333333333333
 40
0.0833333333333333
 40
0.1666666666666667
 40
0.1666666666666667
 40
0.1666666666666667
 40
0.25
 40
0.25
 40
0.25
 40
0.3333333333333333
 40
0.3333333333333333
 40
0.3333333333333333
 40
0.4166666666666666
 40
0.4166666666666666
 40
0.4166666666666666
 40
0.5
 40
0.5
 40
0.5
 40
0.5833333333333333
 40
0.5833333333333333
 40
0.5833333333333333
 40
0.6666666666666666
 40
0.6666666666666666
 40
0.6666666666666666
 40
0.75
 40
0.75
 40
0.75
 40
0.8333333333333332
 40
0.8333333333333332
 40
0.8333333333333332
 40
0.9166666666666666
 40
0.9166666666666666
 40
0.9166666666666666
 40
1.0
 40
1.0
 40
1.0
 40
1.0
 10
-75.0801
 20
5.285499999999999
 30
0.0
 10
-75.0801
 20
5.285499999999999
 30
0.0
 10
-63.6739
 20
0.0683
 30
0.0
 10
-63.6739
 20
0.0683
 30
0.0
 10
-63.57359999999999
 20
0.2306
 30
0.0
 10
-63.394
 20
0.3388
 30
0.0
 10
-63.18899999999999
 20
0.3388
 30
0.0
 10
-62.9285
 20
0.3388
 30
0.0
 10
-62.7091
 20
0.1642
 30
0.0
 10
-62.6412
 20
-0.0746
 30
0.0
 10
-62.6412
 20
-0.0746
 30
0.0
 10
-60.6032
 20
0.2425
 30
0.0
 10
-60.6032
 20
0.2425
 30
0.0
 10
-60.6032
 20
0.2425
 30
0.0
 10
-60.6034
 20
0.26
 30
0.0
 10
-60.6034
 20
0.26
 30
0.0
 10
-60.6034
 20
0.4258
 30
0.0
 10
-60.5326
 20
0.575
 30
0.0
 10
-60.4196
 20
0.6791000000000001
 30
0.0
 10
-60.4196
 20
0.6791000000000001
 30
0.0
 10
-69.0876
 20
12.8012
 30
0.0
 10
-69.0876
 20
12.8012
 30
0.0
 10
-69.1683
 20
12.7572
 30
0.0
 10
-69.26100000000001
 20
12.7323
 30
0.0
 10
-69.3595
 20
12.7323
 30
0.0
 10
-69.4692
 20
12.7323
 30
0.0
 10
-69.57170000000001
 20
12.7634
 30
0.0
 10
-69.6585
 20
12.8171
 30
0.0
 10
-69.6585
 20
12.8171
 30
0.0
 10
-75.19169999999999
 20
5.916199999999999
 30
0.0
 10
-75.19169999999999
 20
5.916199999999999
 30
0.0
 10
-75.0918
 20
5.8136
 30
0.0
 10
-75.03029999999999
 20
5.673399999999999
 30
0.0
 10
-75.03029999999999
 20
5.5189
 30
0.0
 10
-75.03029999999999
 20
5.435699999999999
 30
0.0
 10
-75.0481
 20
5.3567
 30
0.0
 10
-75.0801
 20
5.285499999999999
 30
0.0
  0
SPLINE
  5
7C
330
1F
100
AcDbEntity
  8
Layer 1
 62
     3
370
    20
100
AcDbSpline
210
0.0
220
0.0
230
1.0
 70
     9
 71
     3
 72
    50
 73
    46
 74
     0
 42
0.000000001
 43
0.0000000001
 40
0.0
 40
0.0
 40
0.0
 40
0.0
 40
0.0666666666666667
 40
0.0666666666666667
 40
0.0666666666666667
 40
0.1333333333333333
 40
0.1333333333333333
 40
0.1333333333333333
 40
0.2
 40
0.2
 40
0.2
 40
0.2666666666666667
 40
0.2666666666666667
 40
0.2666666666666667
 40
0.3333333333333333
 40
0.3333333333333333
 40
0.3333333333333333
 40
0.4
 40
0.4
 40
0.4
 40
0.4666666666666667
 40
0.4666666666666667
 40
0.4666666666666667
 40
0.5333333333333333
 40
0.5333333333333333
 40
0.5333333333333333
 40
0.6
 40
0.6
 40
0.6
 40
0.6666666666666666
 40
0.6666666666666666
 40
0.6666666666666666
 40
0.7333333333333333
 40
0.7333333333333333
 40
0.7333333333333333
 40
0.8
 40
0.8
 40
0.8
 40
0.8666666666666667
 40
0.8666666666666667
 40
0.8666666666666667
 40
0.9333333333333332
 40
0.9333333333333332
 40
0.9333333333333332
 40
1.0
 40
1.0
 40
1.0
 40
1.0
 10
-68.9736
 20
12.883
 30
0.0
 10
-68.9736
 20
12.883
 30
0.0
 10
-60.3056
 20
0.7608000000000001
 30
0.0
 10
-60.3056
 20
0.7608000000000001
 30
0.0
 10
-60.2249
 20
0.8047
 30
0.0
 10
-60.1322
 20
0.8297
 30
0.0
 10
-60.03379999999999
 20
0.8297
 30
0.0
 10
-59.92840000000001
 20
0.8297
 30
0.0
 10
-59.8297
 20
0.8011000000000001
 30
0.0
 10
-59.74499999999999
 20
0.7512
 30
0.0
 10
-59.74499999999999
 20
0.7512
 30
0.0
 10
-55.8058
 20
5.884299999999999
 30
0.0
 10
-55.8058
 20
5.884299999999999
 30
0.0
 10
-55.9107
 20
5.987599999999999
 30
0.0
 10
-55.97570000000001
 20
6.131199999999999
 30
0.0
 10
-55.97570000000001
 20
6.290099999999999
 30
0.0
 10
-55.97570000000001
 20
6.3512
 30
0.0
 10
-55.9661
 20
6.41
 30
0.0
 10
-55.9483
 20
6.465099999999999
 30
0.0
 10
-55.9483
 20
6.465099999999999
 30
0.0
 10
-60.1817
 20
8.4336
 30
0.0
 10
-60.1817
 20
8.4336
 30
0.0
 10
-60.2824
 20
8.2727
 30
0.0
 10
-60.461
 20
8.165699999999999
 30
0.0
 10
-60.6648
 20
8.165699999999999
 30
0.0
 10
-60.9796
 20
8.165699999999999
 30
0.0
 10
-61.2345
 20
8.420899999999999
 30
0.0
 10
-61.2345
 20
8.735599999999999
 30
0.0
 10
-61.2345
 20
8.9374
 30
0.0
 10
-61.1294
 20
9.114599999999999
 30
0.0
 10
-60.97129999999999
 20
9.215799999999999
 30
0.0
 10
-60.97129999999999
 20
9.215799999999999
 30
0.0
 10
-62.5886
 20
12.6121
 30
0.0
 10
-62.5886
 20
12.6121
 30
0.0
 10
-62.6451
 20
12.5933
 30
0.0
 10
-62.7055
 20
12.5831
 30
0.0
 10
-62.76839999999999
 20
12.5831
 30
0.0
 10
-63.0638
 20
12.5831
 30
0.0
 10
-63.3065
 20
12.8078
 30
0.0
 10
-63.3352
 20
13.0957
 30
0.0
 10
-63.3352
 20
13.0957
 30
0.0
 10
-68.7959
 20
13.219
 30
0.0
 10
-68.7959
 20
13.219
 30
0.0
 10
-68.8151
 20
13.0868
 30
0.0
 10
-68.8798
 20
12.9694
 30
0.0
 10
-68.9736
 20
12.883
 30
0.0
  0
SPLINE
  5
7E
330
1F
100
AcDbEntity
  8
Layer 1
 62
     3
370
    20
100
AcDbSpline
210
0.0
220
0.0
230
1.0
 70
     9
 71
     3
 72
    41
 73
    37
 74
     0
 42
0.000000001
 43
0.0000000001
 40
0.0
 40
0.0
 40
0.0
 40
0.0
 40
0.0833333333333333
 40
0.0833333333333333
 40
0.0833333333333333
 40
0.1666666666666667
 40
0.1666666666666667
 40
0.1666666666666667
 40
0.25
 40
0.25
 40
0.25
 40
0.3333333333333333
 40
0.3333333333333333
 40
0.3333333333333333
 40
0.4166666666666666
 40
0.4166666666666666
 40
0.4166666666666666
 40
0.5
 40
0.5
 40
0.5
 40
0.5833333333333333
 40
0.5833333333333333
 40
0.5833333333333333
 40
0.6666666666666666
 40
0.6666666666666666
 40
0.6666666666666666
 40
0.75
 40
0.75
 40
0.75
 40
0.8333333333333332
 40
0.8333333333333332
 40
0.8333333333333332
 40
0.9166666666666666
 40
0.9166666666666666
 40
0.9166666666666666
 40
1.0
 40
1.0
 40
1.0
 40
1.0
 10
-32.7245
 20
0.4129
 30
0.0
 10
-32.7245
 20
0.4129
 30
0.0
 10
-21.5214
 20
5.557
 30
0.0
 10
-21.5214
 20
5.557
 30
0.0
 10
-21.5386
 20
5.611299999999999
 30
0.0
 10
-21.5479
 20
5.6691
 30
0.0
 10
-21.5479
 20
5.7293
 30
0.0
 10
-21.5479
 20
5.877999999999999
 30
0.0
 10
-21.4909
 20
6.013399999999999
 30
0.0
 10
-21.3976
 20
6.114799999999999
 30
0.0
 10
-21.3976
 20
6.114799999999999
 30
0.0
 10
-26.9763
 20
12.6854
 30
0.0
 10
-26.9763
 20
12.6854
 30
0.0
 10
-27.0661
 20
12.6264
 30
0.0
 10
-27.1734
 20
12.5921
 30
0.0
 10
-27.2889
 20
12.5921
 30
0.0
 10
-27.3836
 20
12.5921
 30
0.0
 10
-27.4731
 20
12.6152
 30
0.0
 10
-27.5517
 20
12.6562
 30
0.0
 10
-27.5517
 20
12.6562
 30
0.0
 10
-35.7453
 20
0.7559999999999999
 30
0.0
 10
-35.7453
 20
0.7559999999999999
 30
0.0
 10
-35.62810000000001
 20
0.6517
 30
0.0
 10
-35.55400000000001
 20
0.4995
 30
0.0
 10
-35.55400000000001
 20
0.3302
 30
0.0
 10
-35.55400000000001
 20
0.2863
 30
0.0
 10
-35.559
 20
0.2436
 30
0.0
 10
-35.5683
 20
0.2026
 30
0.0
 10
-35.5683
 20
0.2026
 30
0.0
 10
-33.8157
 20
0.2461
 30
0.0
 10
-33.8157
 20
0.2461
 30
0.0
 10
-33.7875
 20
0.5343
 30
0.0
 10
-33.5446
 20
0.7596
 30
0.0
 10
-33.2488
 20
0.7596
 30
0.0
 10
-33.0133
 20
0.7596
 30
0.0
 10
-32.8112
 20
0.6167
 30
0.0
 10
-32.7245
 20
0.4129
 30
0.0
  0
SPLINE
  5
80
330
1F
100
AcDbEntity
  8
Layer 1
 62
     3
370
    20
100
AcDbSpline
210
0.0
220
0.0
230
1.0
 70
     9
 71
     3
 72
    50
 73
    46
 74
     0
 42
0.000000001
 43
0.0000000001
 40
0.0
 40
0.0
 40
0.0
 40
0.0
 40
0.0666666666666667
 40
0.0666666666666667
 40
0.0666666666666667
 40
0.1333333333333333
 40
0.1333333333333333
 40
0.1333333333333333
 40
0.2
 40
0.2
 40
0.2
 40
0.2666666666666667
 40
0.2666666666666667
 40
0.2666666666666667
 40
0.3333333333333333
 40
0.3333333333333333
 40
0.3333333333333333
 40
0.4
 40
0.4
 40
0.4
 40
0.4666666666666667
 40
0.4666666666666667
 40
0.4666666666666667
 40
0.5333333333333333
 40
0.5333333333333333
 40
0.5333333333333333
 40
0.6
 40
0.6
 40
0.6
 40
0.6666666666666666
 40
0.6666666666666666
 40
0.6666666666666666
 40
0.7333333333333333
 40
0.7333333333333333
 40
0.7333333333333333
 40
0.8
 40
0.8
 40
0.8
 40
0.8666666666666667
 40
0.8666666666666667
 40
0.8666666666666667
 40
0.9333333333333332
 40
0.9333333333333332
 40
0.9333333333333332
 40
1.0
 40
1.0
 40
1.0
 40
1.0
 10
-35.8608
 20
0.8356999999999999
 30
0.0
 10
-35.8608
 20
0.8356999999999999
 30
0.0
 10
-27.6673
 20
12.7359
 30
0.0
 10
-27.6673
 20
12.7359
 30
0.0
 10
-27.737
 20
12.7979
 30
0.0
 10
-27.7914
 20
12.8768
 30
0.0
 10
-27.824
 20
12.9661
 30
0.0
 10
-27.824
 20
12.9661
 30
0.0
 10
-33.3162
 20
13.0799
 30
0.0
 10
-33.3162
 20
13.0799
 30
0.0
 10
-33.3558
 20
12.804
 30
0.0
 10
-33.59300000000001
 20
12.5921
 30
0.0
 10
-33.8799
 20
12.5921
 30
0.0
 10
-33.9532
 20
12.5921
 30
0.0
 10
-34.0231
 20
12.6058
 30
0.0
 10
-34.0874
 20
12.631
 30
0.0
 10
-34.0874
 20
12.631
 30
0.0
 10
-35.7929
 20
9.4799
 30
0.0
 10
-35.7929
 20
9.4799
 30
0.0
 10
-35.6483
 20
9.376599999999999
 30
0.0
 10
-35.55400000000001
 20
9.207399999999999
 30
0.0
 10
-35.55400000000001
 20
9.016099999999999
 30
0.0
 10
-35.55400000000001
 20
8.701399999999999
 30
0.0
 10
-35.809
 20
8.446099999999999
 30
0.0
 10
-36.1237
 20
8.446099999999999
 30
0.0
 10
-36.3112
 20
8.446099999999999
 30
0.0
 10
-36.4775
 20
8.536799999999999
 30
0.0
 10
-36.5814
 20
8.6767
 30
0.0
 10
-36.5814
 20
8.6767
 30
0.0
 10
-40.29469999999999
 20
6.577399999999999
 30
0.0
 10
-40.29469999999999
 20
6.577399999999999
 30
0.0
 10
-40.2672
 20
6.5105
 30
0.0
 10
-40.2519
 20
6.437199999999999
 30
0.0
 10
-40.2519
 20
6.360299999999999
 30
0.0
 10
-40.2519
 20
6.200499999999999
 30
0.0
 10
-40.3176
 20
6.056099999999999
 30
0.0
 10
-40.42349999999999
 20
5.9527
 30
0.0
 10
-40.42349999999999
 20
5.9527
 30
0.0
 10
-36.484
 20
0.7714
 30
0.0
 10
-36.484
 20
0.7714
 30
0.0
 10
-36.3859
 20
0.8516999999999999
 30
0.0
 10
-36.2604
 20
0.8998000000000001
 30
0.0
 10
-36.1237
 20
0.8998000000000001
 30
0.0
 10
-36.0288
 20
0.8998000000000001
 30
0.0
 10
-35.9395
 20
0.8766
 30
0.0
 10
-35.8608
 20
0.8356999999999999
 30
0.0
  0
SPLINE
  5
82
330
1F
100
AcDbEntity
  8
Layer 1
 62
     3
370
    20
100
AcDbSpline
210
0.0
220
0.0
230
1.0
 70
     9
 71
     3
 72
    50
 73
    46
 74
     0
 42
0.000000001
 43
0.0000000001
 40
0.0
 40
0.0
 40
0.0
 40
0.0
 40
0.0666666666666667
 40
0.0666666666666667
 40
0.0666666666666667
 40
0.1333333333333333
 40
0.1333333333333333
 40
0.1333333333333333
 40
0.2
 40
0.2
 40
0.2
 40
0.2666666666666667
 40
0.2666666666666667
 40
0.2666666666666667
 40
0.3333333333333333
 40
0.3333333333333333
 40
0.3333333333333333
 40
0.4
 40
0.4
 40
0.4
 40
0.4666666666666667
 40
0.4666666666666667
 40
0.4666666666666667
 40
0.5333333333333333
 40
0.5333333333333333
 40
0.5333333333333333
 40
0.6
 40
0.6
 40
0.6
 40
0.6666666666666666
 40
0.6666666666666666
 40
0.6666666666666666
 40
0.7333333333333333
 40
0.7333333333333333
 40
0.7333333333333333
 40
0.8
 40
0.8
 40
0.8
 40
0.8666666666666667
 40
0.8666666666666667
 40
0.8666666666666667
 40
0.9333333333333332
 40
0.9333333333333332
 40
0.9333333333333332
 40
1.0
 40
1.0
 40
1.0
 40
1.0
 10
-40.3586
 20
12.5357
 30
0.0
 10
-40.3586
 20
12.5357
 30
0.0
 10
-40.75899999999999
 20
14.7658
 30
0.0
 10
-40.75899999999999
 20
14.7658
 30
0.0
 10
-40.8298
 20
14.7667
 30
0.0
 10
-40.8975
 20
14.7805
 30
0.0
 10
-40.95979999999999
 20
14.805
 30
0.0
 10
-40.95979999999999
 20
14.805
 30
0.0
 10
-44.3462
 20
8.576399999999999
 30
0.0
 10
-44.3462
 20
8.576399999999999
 30
0.0
 10
-44.20219999999999
 20
8.472999999999998
 30
0.0
 10
-44.1084
 20
8.3041
 30
0.0
 10
-44.1084
 20
8.1132
 30
0.0
 10
-44.1084
 20
8.054
 30
0.0
 10
-44.1174
 20
7.9969
 30
0.0
 10
-44.13409999999999
 20
7.943299999999999
 30
0.0
 10
-44.13409999999999
 20
7.943299999999999
 30
0.0
 10
-41.30709999999999
 20
6.658199999999999
 30
0.0
 10
-41.30709999999999
 20
6.658199999999999
 30
0.0
 10
-41.207
 20
6.821299999999999
 30
0.0
 10
-41.027
 20
6.929899999999999
 30
0.0
 10
-40.8215
 20
6.929899999999999
 30
0.0
 10
-40.6341
 20
6.929899999999999
 30
0.0
 10
-40.4677
 20
6.839299999999999
 30
0.0
 10
-40.36389999999999
 20
6.6996
 30
0.0
 10
-40.36389999999999
 20
6.6996
 30
0.0
 10
-36.6505
 20
8.798999999999999
 30
0.0
 10
-36.6505
 20
8.798999999999999
 30
0.0
 10
-36.6781
 20
8.865899999999999
 30
0.0
 10
-36.6933
 20
8.939199999999999
 30
0.0
 10
-36.6933
 20
9.016099999999999
 30
0.0
 10
-36.6933
 20
9.116899999999999
 30
0.0
 10
-36.6672
 20
9.211499999999999
 30
0.0
 10
-36.6213
 20
9.293599999999999
 30
0.0
 10
-36.6213
 20
9.293599999999999
 30
0.0
 10
-39.7542
 20
11.587
 30
0.0
 10
-39.7542
 20
11.587
 30
0.0
 10
-39.8235
 20
11.557
 30
0.0
 10
-39.8999
 20
11.5403
 30
0.0
 10
-39.9802
 20
11.5403
 30
0.0
 10
-40.2948
 20
11.5403
 30
0.0
 10
-40.54979999999999
 20
11.7953
 30
0.0
 10
-40.54979999999999
 20
12.11
 30
0.0
 10
-40.54979999999999
 20
12.2793
 30
0.0
 10
-40.4759
 20
12.4314
 30
0.0
 10
-40.3586
 20
12.5357
 30
0.0
  0
SPLINE
  5
84
330
1F
100
AcDbEntity
  8
Layer 1
 62
     3
370
    20
100
AcDbSpline
210
0.0
220
0.0
230
1.0
 70
     9
 71
     3
 72
    53
 73
    49
 74
     0
 42
0.000000001
 43
0.0000000001
 40
0.0
 40
0.0
 40
0.0
 40
0.0
 40
0.0625
 40
0.0625
 40
0.0625
 40
0.125
 40
0.125
 40
0.125
 40
0.1875
 40
0.1875
 40
0.1875
 40
0.25
 40
0.25
 40
0.25
 40
0.3125
 40
0.3125
 40
0.3125
 40
0.375
 40
0.375
 40
0.375
 40
0.4375
 40
0.4375
 40
0.4375
 40
0.5
 40
0.5
 40
0.5
 40
0.5625
 40
0.5625
 40
0.5625
 40
0.625
 40
0.625
 40
0.625
 40
0.6875
 40
0.6875
 40
0.6875
 40
0.75
 40
0.75
 40
0.75
 40
0.8125
 40
0.8125
 40
0.8125
 40
0.875
 40
0.875
 40
0.875
 40
0.9375
 40
0.9375
 40
0.9375
 40
1.0
 40
1.0
 40
1.0
 40
1.0
 10
-60.1227
 20
8.560499999999999
 30
0.0
 10
-60.1227
 20
8.560499999999999
 30
0.0
 10
-55.8891
 20
6.5922
 30
0.0
 10
-55.8891
 20
6.5922
 30
0.0
 10
-55.7884
 20
6.7529
 30
0.0
 10
-55.6098
 20
6.859799999999999
 30
0.0
 10
-55.4061
 20
6.859799999999999
 30
0.0
 10
-55.1876
 20
6.859799999999999
 30
0.0
 10
-54.998
 20
6.7369
 30
0.0
 10
-54.9024
 20
6.5566
 30
0.0
 10
-54.9024
 20
6.5566
 30
0.0
 10
-51.6094
 20
7.807199999999999
 30
0.0
 10
-51.6094
 20
7.807199999999999
 30
0.0
 10
-51.6657
 20
7.895599999999999
 30
0.0
 10
-51.6985
 20
8.0006
 30
0.0
 10
-51.6985
 20
8.1132
 30
0.0
 10
-51.6985
 20
8.294
 30
0.0
 10
-51.6145
 20
8.4549
 30
0.0
 10
-51.4833
 20
8.5593
 30
0.0
 10
-51.4833
 20
8.5593
 30
0.0
 10
-55.17100000000001
 20
14.597
 30
0.0
 10
-55.17100000000001
 20
14.597
 30
0.0
 10
-55.2428
 20
14.5645
 30
0.0
 10
-55.3223
 20
14.5464
 30
0.0
 10
-55.4061
 20
14.5464
 30
0.0
 10
-55.4401
 20
14.5464
 30
0.0
 10
-55.4736
 20
14.5494
 30
0.0
 10
-55.50589999999999
 20
14.5551
 30
0.0
 10
-55.50589999999999
 20
14.5551
 30
0.0
 10
-56.15529999999999
 20
12.4525
 30
0.0
 10
-56.15529999999999
 20
12.4525
 30
0.0
 10
-55.9949
 20
12.3517
 30
0.0
 10
-55.8882
 20
12.1732
 30
0.0
 10
-55.8882
 20
11.9697
 30
0.0
 10
-55.8882
 20
11.655
 30
0.0
 10
-56.14309999999999
 20
11.4001
 30
0.0
 10
-56.4578
 20
11.4001
 30
0.0
 10
-56.54469999999999
 20
11.4001
 30
0.0
 10
-56.627
 20
11.4195
 30
0.0
 10
-56.70069999999999
 20
11.4543
 30
0.0
 10
-56.70069999999999
 20
11.4543
 30
0.0
 10
-60.1627
 20
9.004799999999999
 30
0.0
 10
-60.1627
 20
9.004799999999999
 30
0.0
 10
-60.1197
 20
8.924699999999999
 30
0.0
 10
-60.0952
 20
8.833
 30
0.0
 10
-60.0952
 20
8.735599999999999
 30
0.0
 10
-60.0952
 20
8.6745
 30
0.0
 10
-60.1049
 20
8.6157
 30
0.0
 10
-60.1227
 20
8.560499999999999
 30
0.0
  0
SPLINE
  5
86
102
{ACAD_REACTORS
330
87
102
}
330
1F
100
AcDbEntity
  8
Layer 1
 62
     3
370
    20
100
AcDbSpline
210
0.0
220
0.0
230
1.0
 70
    11
 71
     3
 72
    17
 73
    13
 74
     0
 42
0.000000001
 43
0.0000000001
 40
0.0
 40
0.0
 40
0.0
 40
0.0
 40
0.25
 40
0.25
 40
0.25
 40
0.5
 40
0.5
 40
0.5
 40
0.75
 40
0.75
 40
0.75
 40
1.0
 40
1.0
 40
1.0
 40
1.0
 10
-56.2836
 20
12.5122
 30
0.0
 10
-56.2836
 20
12.5122
 30
0.0
 10
-55.64
 20
14.5965
 30
0.0
 10
-55.64
 20
14.5965
 30
0.0
 10
-55.64
 20
14.5965
 30
0.0
 10
-55.641
 20
14.597
 30
0.0
 10
-55.641
 20
14.597
 30
0.0
 10
-55.641
 20
14.597
 30
0.0
 10
-56.2886
 20
12.5138
 30
0.0
 10
-56.2886
 20
12.5138
 30
0.0
 10
-56.2886
 20
12.5138
 30
0.0
 10
-56.2836
 20
12.5122
 30
0.0
 10
-56.2836
 20
12.5122
 30
0.0
  0
HATCH
  5
87
330
1F
100
AcDbEntity
  8
Layer 1
 62
     3
100
AcDbHatch
 10
0.0
 20
0.0
 30
0.0
210
0.0
220
0.0
230
1.0
  2
SOLID
 70
     1
 71
     1
 91
        1
 92
        1
 93
        1
 72
     4
 94
        3
 73
     0
 74
     0
 95
       17
 96
       13
 40
0.0
 40
0.0
 40
0.0
 40
0.0
 40
0.25
 40
0.25
 40
0.25
 40
0.5
 40
0.5
 40
0.5
 40
0.75
 40
0.75
 40
0.75
 40
1.0
 40
1.0
 40
1.0
 40
1.0
 10
-56.2836
 20
12.5122
 10
-56.2836
 20
12.5122
 10
-55.64
 20
14.5965
 10
-55.64
 20
14.5965
 10
-55.64
 20
14.5965
 10
-55.641
 20
14.597
 10
-55.641
 20
14.597
 10
-55.641
 20
14.597
 10
-56.2886
 20
12.5138
 10
-56.2886
 20
12.5138
 10
-56.2886
 20
12.5138
 10
-56.2836
 20
12.5122
 10
-56.2836
 20
12.5122
 97
        0
 97
        1
330
86
 75
     0
 76
     1
 98
        1
 10
0.0
 20
0.0
450
        0
451
        0
460
0.0
461
0.0
452
        0
462
0.0
453
        0
470

  0
SPLINE
  5
88
330
1F
100
AcDbEntity
  8
Layer 1
 62
     3
370
    20
100
AcDbSpline
210
0.0
220
0.0
230
1.0
 70
     9
 71
     3
 72
    26
 73
    22
 74
     0
 42
0.000000001
 43
0.0000000001
 40
0.0
 40
0.0
 40
0.0
 40
0.0
 40
0.1428571428571428
 40
0.1428571428571428
 40
0.1428571428571428
 40
0.2857142857142857
 40
0.2857142857142857
 40
0.2857142857142857
 40
0.4285714285714285
 40
0.4285714285714285
 40
0.4285714285714285
 40
0.5714285714285714
 40
0.5714285714285714
 40
0.5714285714285714
 40
0.7142857142857143
 40
0.7142857142857143
 40
0.7142857142857143
 40
0.8571428571428571
 40
0.8571428571428571
 40
0.8571428571428571
 40
1.0
 40
1.0
 40
1.0
 40
1.0
 10
-78.64239999999999
 20
2.201799999999999
 30
0.0
 10
-78.64239999999999
 20
2.201799999999999
 30
0.0
 10
-76.0279
 20
5.1429
 30
0.0
 10
-76.0279
 20
5.1429
 30
0.0
 10
-76.07510000000001
 20
5.1965
 30
0.0
 10
-76.1123
 20
5.258999999999999
 30
0.0
 10
-76.1367
 20
5.3276
 30
0.0
 10
-76.1367
 20
5.3276
 30
0.0
 10
-85.65940000000001
 20
3.208699999999999
 30
0.0
 10
-85.65940000000001
 20
3.208699999999999
 30
0.0
 10
-85.63779999999999
 20
3.155199999999999
 30
0.0
 10
-85.62409999999999
 20
3.097799999999999
 30
0.0
 10
-85.61950000000001
 20
3.037799999999999
 30
0.0
 10
-85.61950000000001
 20
3.037799999999999
 30
0.0
 10
-79.4854
 20
1.965899999999999
 30
0.0
 10
-79.4854
 20
1.965899999999999
 30
0.0
 10
-79.3963
 20
2.1642
 30
0.0
 10
-79.19719999999999
 20
2.3022
 30
0.0
 10
-78.9656
 20
2.3022
 30
0.0
 10
-78.8455
 20
2.3022
 30
0.0
 10
-78.7342
 20
2.265099999999999
 30
0.0
 10
-78.64239999999999
 20
2.201799999999999
 30
0.0
  0
SPLINE
  5
8A
330
1F
100
AcDbEntity
  8
Layer 1
 62
     3
370
    20
100
AcDbSpline
210
0.0
220
0.0
230
1.0
 70
     9
 71
     3
 72
    38
 73
    34
 74
     0
 42
0.000000001
 43
0.0000000001
 40
0.0
 40
0.0
 40
0.0
 40
0.0
 40
0.0909090909090909
 40
0.0909090909090909
 40
0.0909090909090909
 40
0.1818181818181818
 40
0.1818181818181818
 40
0.1818181818181818
 40
0.2727272727272727
 40
0.2727272727272727
 40
0.2727272727272727
 40
0.3636363636363636
 40
0.3636363636363636
 40
0.3636363636363636
 40
0.4545454545454546
 40
0.4545454545454546
 40
0.4545454545454546
 40
0.5454545454545455
 40
0.5454545454545455
 40
0.5454545454545455
 40
0.6363636363636364
 40
0.6363636363636364
 40
0.6363636363636364
 40
0.7272727272727274
 40
0.7272727272727274
 40
0.7272727272727274
 40
0.8181818181818181
 40
0.8181818181818181
 40
0.8181818181818181
 40
0.9090909090909091
 40
0.9090909090909091
 40
0.9090909090909091
 40
1.0
 40
1.0
 40
1.0
 40
1.0
 10
-75.923
 20
5.049699999999999
 30
0.0
 10
-75.923
 20
5.049699999999999
 30
0.0
 10
-78.53749999999999
 20
2.1084
 30
0.0
 10
-78.53749999999999
 20
2.1084
 30
0.0
 10
-78.44929999999999
 20
2.0081
 30
0.0
 10
-78.3959
 20
1.8766
 30
0.0
 10
-78.3959
 20
1.732499999999999
 30
0.0
 10
-78.3959
 20
1.417899999999999
 30
0.0
 10
-78.6508
 20
1.1629
 30
0.0
 10
-78.9656
 20
1.1629
 30
0.0
 10
-79.012
 20
1.1629
 30
0.0
 10
-79.0571
 20
1.1685
 30
0.0
 10
-79.1003
 20
1.1789
 30
0.0
 10
-79.1003
 20
1.1789
 30
0.0
 10
-81.03699999999999
 20
-2.4731
 30
0.0
 10
-81.03699999999999
 20
-2.4731
 30
0.0
 10
-80.95220000000001
 20
-2.5501
 30
0.0
 10
-80.89069999999999
 20
-2.6522
 30
0.0
 10
-80.8643
 20
-2.767799999999999
 30
0.0
 10
-80.8643
 20
-2.767799999999999
 30
0.0
 10
-75.9384
 20
-2.882299999999999
 30
0.0
 10
-75.9384
 20
-2.882299999999999
 30
0.0
 10
-75.8716
 20
-2.6421
 30
0.0
 10
-75.6512
 20
-2.4658
 30
0.0
 10
-75.3896
 20
-2.4658
 30
0.0
 10
-75.3036
 20
-2.4658
 30
0.0
 10
-75.2222
 20
-2.484799999999999
 30
0.0
 10
-75.1492
 20
-2.5188
 30
0.0
 10
-75.1492
 20
-2.5188
 30
0.0
 10
-75.63349999999999
 20
4.950199999999999
 30
0.0
 10
-75.63349999999999
 20
4.950199999999999
 30
0.0
 10
-75.7407
 20
4.9565
 30
0.0
 10
-75.8398
 20
4.9923
 30
0.0
 10
-75.923
 20
5.049699999999999
 30
0.0
  0
SPLINE
  5
8C
330
1F
100
AcDbEntity
  8
Layer 1
 62
     3
370
    20
100
AcDbSpline
210
0.0
220
0.0
230
1.0
 70
     9
 71
     3
 72
    29
 73
    25
 74
     0
 42
0.000000001
 43
0.0000000001
 40
0.0
 40
0.0
 40
0.0
 40
0.0
 40
0.125
 40
0.125
 40
0.125
 40
0.25
 40
0.25
 40
0.25
 40
0.375
 40
0.375
 40
0.375
 40
0.5
 40
0.5
 40
0.5
 40
0.625
 40
0.625
 40
0.625
 40
0.75
 40
0.75
 40
0.75
 40
0.875
 40
0.875
 40
0.875
 40
1.0
 40
1.0
 40
1.0
 40
1.0
 10
-85.73159999999999
 20
3.3363
 30
0.0
 10
-85.73159999999999
 20
3.3363
 30
0.0
 10
-76.167
 20
5.4645
 30
0.0
 10
-76.167
 20
5.4645
 30
0.0
 10
-76.1687
 20
5.4824
 30
0.0
 10
-76.1696
 20
5.500499999999999
 30
0.0
 10
-76.1696
 20
5.5189
 30
0.0
 10
-76.1696
 20
5.5971
 30
0.0
 10
-76.1538
 20
5.671499999999999
 30
0.0
 10
-76.12529999999999
 20
5.739399999999999
 30
0.0
 10
-76.12529999999999
 20
5.739399999999999
 30
0.0
 10
-82.7172
 20
9.523799999999999
 30
0.0
 10
-82.7172
 20
9.523799999999999
 30
0.0
 10
-82.82110000000001
 20
9.385799999999999
 30
0.0
 10
-82.9864
 20
9.296599999999999
 30
0.0
 10
-83.1726
 20
9.296599999999999
 30
0.0
 10
-83.2168
 20
9.296599999999999
 30
0.0
 10
-83.2599
 20
9.3015
 30
0.0
 10
-83.30099999999999
 20
9.310999999999999
 30
0.0
 10
-83.30099999999999
 20
9.310999999999999
 30
0.0
 10
-85.83960000000001
 20
3.445699999999999
 30
0.0
 10
-85.83960000000001
 20
3.445699999999999
 30
0.0
 10
-85.7989
 20
3.414299999999999
 30
0.0
 10
-85.76249999999999
 20
3.377499999999999
 30
0.0
 10
-85.73159999999999
 20
3.3363
 30
0.0
  0
SPLINE
  5
8E
330
1F
100
AcDbEntity
  8
Layer 1
 62
     3
370
    20
100
AcDbSpline
210
0.0
220
0.0
230
1.0
 70
     9
 71
     3
 72
    35
 73
    31
 74
     0
 42
0.000000001
 43
0.0000000001
 40
0.0
 40
0.0
 40
0.0
 40
0.0
 40
0.1
 40
0.1
 40
0.1
 40
0.2
 40
0.2
 40
0.2
 40
0.3
 40
0.3
 40
0.3
 40
0.4
 40
0.4
 40
0.4
 40
0.5
 40
0.5
 40
0.5
 40
0.6000000000000001
 40
0.6000000000000001
 40
0.6000000000000001
 40
0.7000000000000001
 40
0.7000000000000001
 40
0.7000000000000001
 40
0.8
 40
0.8
 40
0.8
 40
0.9
 40
0.9
 40
0.9
 40
1.0
 40
1.0
 40
1.0
 40
1.0
 10
-82.6472
 20
9.6455
 30
0.0
 10
-82.6472
 20
9.6455
 30
0.0
 10
-76.0553
 20
5.8612
 30
0.0
 10
-76.0553
 20
5.8612
 30
0.0
 10
-75.95130000000001
 20
5.9992
 30
0.0
 10
-75.78610000000001
 20
6.088499999999999
 30
0.0
 10
-75.5999
 20
6.088499999999999
 30
0.0
 10
-75.4902
 20
6.088499999999999
 30
0.0
 10
-75.38769999999999
 20
6.0574
 30
0.0
 10
-75.30079999999999
 20
6.0038
 30
0.0
 10
-75.30079999999999
 20
6.0038
 30
0.0
 10
-69.7676
 20
12.9047
 30
0.0
 10
-69.7676
 20
12.9047
 30
0.0
 10
-69.8584
 20
12.9979
 30
0.0
 10
-69.9175
 20
13.1221
 30
0.0
 10
-69.9275
 20
13.26
 30
0.0
 10
-69.9275
 20
13.26
 30
0.0
 10
-85.69650000000001
 20
14.0451
 30
0.0
 10
-85.69650000000001
 20
14.0451
 30
0.0
 10
-85.7126
 20
13.9522
 30
0.0
 10
-85.75129999999999
 20
13.8671
 30
0.0
 10
-85.8065
 20
13.7955
 30
0.0
 10
-85.8065
 20
13.7955
 30
0.0
 10
-83.16930000000001
 20
10.4358
 30
0.0
 10
-83.16930000000001
 20
10.4358
 30
0.0
 10
-82.856
 20
10.4339
 30
0.0
 10
-82.60290000000001
 20
10.1798
 30
0.0
 10
-82.60290000000001
 20
9.866199999999999
 30
0.0
 10
-82.60290000000001
 20
9.7879
 30
0.0
 10
-82.6187
 20
9.7134
 30
0.0
 10
-82.6472
 20
9.6455
 30
0.0
  0
SPLINE
  5
90
330
1F
100
AcDbEntity
  8
Layer 1
 62
     3
370
    20
100
AcDbSpline
210
0.0
220
0.0
230
1.0
 70
     9
 71
     3
 72
    26
 73
    22
 74
     0
 42
0.000000001
 43
0.0000000001
 40
0.0
 40
0.0
 40
0.0
 40
0.0
 40
0.1428571428571428
 40
0.1428571428571428
 40
0.1428571428571428
 40
0.2857142857142857
 40
0.2857142857142857
 40
0.2857142857142857
 40
0.4285714285714285
 40
0.4285714285714285
 40
0.4285714285714285
 40
0.5714285714285714
 40
0.5714285714285714
 40
0.5714285714285714
 40
0.7142857142857143
 40
0.7142857142857143
 40
0.7142857142857143
 40
0.8571428571428571
 40
0.8571428571428571
 40
0.8571428571428571
 40
1.0
 40
1.0
 40
1.0
 40
1.0
 10
-85.6896
 20
14.1853
 30
0.0
 10
-85.6896
 20
14.1853
 30
0.0
 10
-69.92059999999999
 20
13.4002
 30
0.0
 10
-69.92059999999999
 20
13.4002
 30
0.0
 10
-69.9161
 20
13.4263
 30
0.0
 10
-69.9097
 20
13.4517
 30
0.0
 10
-69.90179999999999
 20
13.4765
 30
0.0
 10
-69.90179999999999
 20
13.4765
 30
0.0
 10
-81.7077
 20
18.9601
 30
0.0
 10
-81.7077
 20
18.9601
 30
0.0
 10
-81.80840000000001
 20
18.7993
 30
0.0
 10
-81.9871
 20
18.6923
 30
0.0
 10
-82.19089999999999
 20
18.6923
 30
0.0
 10
-82.2367
 20
18.6923
 30
0.0
 10
-82.28109999999999
 20
18.6977
 30
0.0
 10
-82.32359999999999
 20
18.7078
 30
0.0
 10
-82.32359999999999
 20
18.7078
 30
0.0
 10
-85.79880000000001
 20
14.4809
 30
0.0
 10
-85.79880000000001
 20
14.4809
 30
0.0
 10
-85.737
 20
14.397
 30
0.0
 10
-85.6976
 20
14.2955
 30
0.0
 10
-85.6896
 20
14.1853
 30
0.0
  0
SPLINE
  5
92
330
1F
100
AcDbEntity
  8
Layer 1
 62
     3
370
    20
100
AcDbSpline
210
0.0
220
0.0
230
1.0
 70
     9
 71
     3
 72
    38
 73
    34
 74
     0
 42
0.000000001
 43
0.0000000001
 40
0.0
 40
0.0
 40
0.0
 40
0.0
 40
0.0909090909090909
 40
0.0909090909090909
 40
0.0909090909090909
 40
0.1818181818181818
 40
0.1818181818181818
 40
0.1818181818181818
 40
0.2727272727272727
 40
0.2727272727272727
 40
0.2727272727272727
 40
0.3636363636363636
 40
0.3636363636363636
 40
0.3636363636363636
 40
0.4545454545454546
 40
0.4545454545454546
 40
0.4545454545454546
 40
0.5454545454545455
 40
0.5454545454545455
 40
0.5454545454545455
 40
0.6363636363636364
 40
0.6363636363636364
 40
0.6363636363636364
 40
0.7272727272727274
 40
0.7272727272727274
 40
0.7272727272727274
 40
0.8181818181818181
 40
0.8181818181818181
 40
0.8181818181818181
 40
0.9090909090909091
 40
0.9090909090909091
 40
0.9090909090909091
 40
1.0
 40
1.0
 40
1.0
 40
1.0
 10
-81.64849999999999
 20
19.0874
 30
0.0
 10
-81.64849999999999
 20
19.0874
 30
0.0
 10
-69.8426
 20
13.6038
 30
0.0
 10
-69.8426
 20
13.6038
 30
0.0
 10
-69.742
 20
13.7646
 30
0.0
 10
-69.5633
 20
13.8716
 30
0.0
 10
-69.3595
 20
13.8716
 30
0.0
 10
-69.06399999999999
 20
13.8716
 30
0.0
 10
-68.82139999999999
 20
13.647
 30
0.0
 10
-68.79269999999999
 20
13.3593
 30
0.0
 10
-68.79269999999999
 20
13.3593
 30
0.0
 10
-63.332
 20
13.2359
 30
0.0
 10
-63.332
 20
13.2359
 30
0.0
 10
-63.3157
 20
13.3476
 30
0.0
 10
-63.26699999999999
 20
13.4487
 30
0.0
 10
-63.1958
 20
13.5296
 30
0.0
 10
-63.1958
 20
13.5296
 30
0.0
 10
-73.4544
 20
25.1029
 30
0.0
 10
-73.4544
 20
25.1029
 30
0.0
 10
-73.54600000000001
 20
25.0398
 30
0.0
 10
-73.65709999999999
 20
25.0029
 30
0.0
 10
-73.77679999999999
 20
25.0029
 30
0.0
 10
-73.938
 20
25.0029
 30
0.0
 10
-74.0835
 20
25.0697
 30
0.0
 10
-74.1871
 20
25.1772
 30
0.0
 10
-74.1871
 20
25.1772
 30
0.0
 10
-81.6965
 20
19.5451
 30
0.0
 10
-81.6965
 20
19.5451
 30
0.0
 10
-81.6486
 20
19.4616
 30
0.0
 10
-81.62119999999999
 20
19.3651
 30
0.0
 10
-81.62119999999999
 20
19.2619
 30
0.0
 10
-81.62119999999999
 20
19.201
 30
0.0
 10
-81.63079999999999
 20
19.1424
 30
0.0
 10
-81.64849999999999
 20
19.0874
 30
0.0
  0
SPLINE
  5
94
330
1F
100
AcDbEntity
  8
Layer 1
 62
     3
370
    20
100
AcDbSpline
210
0.0
220
0.0
230
1.0
 70
     9
 71
     3
 72
    41
 73
    37
 74
     0
 42
0.000000001
 43
0.0000000001
 40
0.0
 40
0.0
 40
0.0
 40
0.0
 40
0.0833333333333333
 40
0.0833333333333333
 40
0.0833333333333333
 40
0.1666666666666667
 40
0.1666666666666667
 40
0.1666666666666667
 40
0.25
 40
0.25
 40
0.25
 40
0.3333333333333333
 40
0.3333333333333333
 40
0.3333333333333333
 40
0.4166666666666666
 40
0.4166666666666666
 40
0.4166666666666666
 40
0.5
 40
0.5
 40
0.5
 40
0.5833333333333333
 40
0.5833333333333333
 40
0.5833333333333333
 40
0.6666666666666666
 40
0.6666666666666666
 40
0.6666666666666666
 40
0.75
 40
0.75
 40
0.75
 40
0.8333333333333332
 40
0.8333333333333332
 40
0.8333333333333332
 40
0.9166666666666666
 40
0.9166666666666666
 40
0.9166666666666666
 40
1.0
 40
1.0
 40
1.0
 40
1.0
 10
-73.3494
 20
25.196
 30
0.0
 10
-73.3494
 20
25.196
 30
0.0
 10
-63.0909
 20
13.6226
 30
0.0
 10
-63.0909
 20
13.6226
 30
0.0
 10
-62.9992
 20
13.6857
 30
0.0
 10
-62.8881
 20
13.7226
 30
0.0
 10
-62.76839999999999
 20
13.7226
 30
0.0
 10
-62.6987
 20
13.7226
 30
0.0
 10
-62.6319
 20
13.71
 30
0.0
 10
-62.5701
 20
13.6871
 30
0.0
 10
-62.5701
 20
13.6871
 30
0.0
 10
-61.3601
 20
15.1464
 30
0.0
 10
-61.3601
 20
15.1464
 30
0.0
 10
-61.456
 20
15.2484
 30
0.0
 10
-61.51489999999999
 20
15.3859
 30
0.0
 10
-61.51489999999999
 20
15.537
 30
0.0
 10
-61.51489999999999
 20
15.6805
 30
0.0
 10
-61.4618
 20
15.8115
 30
0.0
 10
-61.3744
 20
15.9117
 30
0.0
 10
-61.3744
 20
15.9117
 30
0.0
 10
-71.03950000000001
 20
26.727
 30
0.0
 10
-71.03950000000001
 20
26.727
 30
0.0
 10
-71.1053
 20
26.7004
 30
0.0
 10
-71.1772
 20
26.6857
 30
0.0
 10
-71.2526
 20
26.6857
 30
0.0
 10
-71.4251
 20
26.6857
 30
0.0
 10
-71.5796
 20
26.7624
 30
0.0
 10
-71.6841
 20
26.8834
 30
0.0
 10
-71.6841
 20
26.8834
 30
0.0
 10
-73.2675
 20
25.8278
 30
0.0
 10
-73.2675
 20
25.8278
 30
0.0
 10
-73.2289
 20
25.751
 30
0.0
 10
-73.2072
 20
25.6644
 30
0.0
 10
-73.2072
 20
25.5725
 30
0.0
 10
-73.2072
 20
25.4281
 30
0.0
 10
-73.2609
 20
25.2964
 30
0.0
 10
-73.3494
 20
25.196
 30
0.0
  0
SPLINE
  5
96
330
1F
100
AcDbEntity
  8
Layer 1
 62
     3
370
    20
100
AcDbSpline
210
0.0
220
0.0
230
1.0
 70
     9
 71
     3
 72
    77
 73
    73
 74
     0
 42
0.000000001
 43
0.0000000001
 40
0.0
 40
0.0
 40
0.0
 40
0.0
 40
0.0416666666666667
 40
0.0416666666666667
 40
0.0416666666666667
 40
0.0833333333333333
 40
0.0833333333333333
 40
0.0833333333333333
 40
0.125
 40
0.125
 40
0.125
 40
0.1666666666666667
 40
0.1666666666666667
 40
0.1666666666666667
 40
0.2083333333333333
 40
0.2083333333333333
 40
0.2083333333333333
 40
0.25
 40
0.25
 40
0.25
 40
0.2916666666666666
 40
0.2916666666666666
 40
0.2916666666666666
 40
0.3333333333333333
 40
0.3333333333333333
 40
0.3333333333333333
 40
0.375
 40
0.375
 40
0.375
 40
0.4166666666666666
 40
0.4166666666666666
 40
0.4166666666666666
 40
0.4583333333333333
 40
0.4583333333333333
 40
0.4583333333333333
 40
0.5
 40
0.5
 40
0.5
 40
0.5416666666666666
 40
0.5416666666666666
 40
0.5416666666666666
 40
0.5833333333333333
 40
0.5833333333333333
 40
0.5833333333333333
 40
0.625
 40
0.625
 40
0.625
 40
0.6666666666666666
 40
0.6666666666666666
 40
0.6666666666666666
 40
0.7083333333333333
 40
0.7083333333333333
 40
0.7083333333333333
 40
0.75
 40
0.75
 40
0.75
 40
0.7916666666666666
 40
0.7916666666666666
 40
0.7916666666666666
 40
0.8333333333333332
 40
0.8333333333333332
 40
0.8333333333333332
 40
0.875
 40
0.875
 40
0.875
 40
0.9166666666666666
 40
0.9166666666666666
 40
0.9166666666666666
 40
0.9583333333333332
 40
0.9583333333333332
 40
0.9583333333333332
 40
1.0
 40
1.0
 40
1.0
 40
1.0
 10
-70.9139
 20
26.7973
 30
0.0
 10
-70.9139
 20
26.7973
 30
0.0
 10
-61.26979999999999
 20
16.0052
 30
0.0
 10
-61.26979999999999
 20
16.0052
 30
0.0
 10
-61.1777
 20
16.0692
 30
0.0
 10
-61.0659
 20
16.1067
 30
0.0
 10
-60.9453
 20
16.1067
 30
0.0
 10
-60.7077
 20
16.1067
 30
0.0
 10
-60.5043
 20
15.9613
 30
0.0
 10
-60.4187
 20
15.7547
 30
0.0
 10
-60.4187
 20
15.7547
 30
0.0
 10
-60.3241
 20
15.7429
 30
0.0
 10
-60.3241
 20
15.7429
 30
0.0
 10
-60.3241
 20
15.7429
 30
0.0
 10
-55.9386
 20
15.3185
 30
0.0
 10
-55.9386
 20
15.3185
 30
0.0
 10
-55.8571
 20
15.5334
 30
0.0
 10
-55.6495
 20
15.6859
 30
0.0
 10
-55.4061
 20
15.6859
 30
0.0
 10
-55.09129999999999
 20
15.6859
 30
0.0
 10
-54.8364
 20
15.431
 30
0.0
 10
-54.8364
 20
15.1163
 30
0.0
 10
-54.8364
 20
14.9357
 30
0.0
 10
-54.9204
 20
14.7747
 30
0.0
 10
-55.0515
 20
14.6702
 30
0.0
 10
-55.0515
 20
14.6702
 30
0.0
 10
-51.3639
 20
8.6323
 30
0.0
 10
-51.3639
 20
8.6323
 30
0.0
 10
-51.2922
 20
8.664799999999999
 30
0.0
 10
-51.2126
 20
8.6829
 30
0.0
 10
-51.1288
 20
8.6829
 30
0.0
 10
-51.1288
 20
8.6829
 30
0.0
 10
-51.12619999999999
 20
8.6829
 30
0.0
 10
-51.12619999999999
 20
8.6829
 30
0.0
 10
-51.12619999999999
 20
8.6829
 30
0.0
 10
-48.3257
 20
30.4198
 30
0.0
 10
-48.3257
 20
30.4198
 30
0.0
 10
-48.57169999999999
 20
30.4827
 30
0.0
 10
-48.7535
 20
30.7059
 30
0.0
 10
-48.7535
 20
30.9716
 30
0.0
 10
-48.7535
 20
31.0087
 30
0.0
 10
-48.75
 20
31.0448
 30
0.0
 10
-48.7433
 20
31.0799
 30
0.0
 10
-48.7433
 20
31.0799
 30
0.0
 10
-56.9235
 20
33.7448
 30
0.0
 10
-56.9235
 20
33.7448
 30
0.0
 10
-57.0145
 20
33.5511
 30
0.0
 10
-57.2113
 20
33.417
 30
0.0
 10
-57.4394
 20
33.417
 30
0.0
 10
-57.6438
 20
33.417
 30
0.0
 10
-57.82289999999999
 20
33.52450000000001
 30
0.0
 10
-57.9234
 20
33.6861
 30
0.0
 10
-57.9234
 20
33.6861
 30
0.0
 10
-65.1004
 20
30.3736
 30
0.0
 10
-65.1004
 20
30.3736
 30
0.0
 10
-65.08289999999999
 20
30.319
 30
0.0
 10
-65.0736
 20
30.2607
 30
0.0
 10
-65.0736
 20
30.2003
 30
0.0
 10
-65.0736
 20
29.8856
 30
0.0
 10
-65.3285
 20
29.6306
 30
0.0
 10
-65.64319999999999
 20
29.6306
 30
0.0
 10
-65.8122
 20
29.6306
 30
0.0
 10
-65.964
 20
29.7042
 30
0.0
 10
-66.06829999999999
 20
29.821
 30
0.0
 10
-66.06829999999999
 20
29.821
 30
0.0
 10
-70.71699999999999
 20
27.4497
 30
0.0
 10
-70.71699999999999
 20
27.4497
 30
0.0
 10
-70.6951
 20
27.389
 30
0.0
 10
-70.683
 20
27.3236
 30
0.0
 10
-70.683
 20
27.2554
 30
0.0
 10
-70.683
 20
27.0676
 30
0.0
 10
-70.77379999999999
 20
26.901
 30
0.0
 10
-70.9139
 20
26.7973
 30
0.0
  0
SPLINE
  5
98
330
1F
100
AcDbEntity
  8
Layer 1
 62
     3
370
    20
100
AcDbSpline
210
0.0
220
0.0
230
1.0
 70
     9
 71
     3
 72
    74
 73
    70
 74
     0
 42
0.000000001
 43
0.0000000001
 40
0.0
 40
0.0
 40
0.0
 40
0.0
 40
0.0434782608695652
 40
0.0434782608695652
 40
0.0434782608695652
 40
0.0869565217391304
 40
0.0869565217391304
 40
0.0869565217391304
 40
0.1304347826086956
 40
0.1304347826086956
 40
0.1304347826086956
 40
0.1739130434782609
 40
0.1739130434782609
 40
0.1739130434782609
 40
0.2173913043478261
 40
0.2173913043478261
 40
0.2173913043478261
 40
0.2608695652173913
 40
0.2608695652173913
 40
0.2608695652173913
 40
0.3043478260869565
 40
0.3043478260869565
 40
0.3043478260869565
 40
0.3478260869565217
 40
0.3478260869565217
 40
0.3478260869565217
 40
0.3913043478260869
 40
0.3913043478260869
 40
0.3913043478260869
 40
0.4347826086956523
 40
0.4347826086956523
 40
0.4347826086956523
 40
0.4782608695652174
 40
0.4782608695652174
 40
0.4782608695652174
 40
0.5217391304347827
 40
0.5217391304347827
 40
0.5217391304347827
 40
0.5652173913043478
 40
0.5652173913043478
 40
0.5652173913043478
 40
0.6086956521739131
 40
0.6086956521739131
 40
0.6086956521739131
 40
0.6521739130434784
 40
0.6521739130434784
 40
0.6521739130434784
 40
0.6956521739130435
 40
0.6956521739130435
 40
0.6956521739130435
 40
0.7391304347826086
 40
0.7391304347826086
 40
0.7391304347826086
 40
0.7826086956521739
 40
0.7826086956521739
 40
0.7826086956521739
 40
0.826086956521739
 40
0.826086956521739
 40
0.826086956521739
 40
0.8695652173913043
 40
0.8695652173913043
 40
0.8695652173913043
 40
0.9130434782608695
 40
0.9130434782608695
 40
0.9130434782608695
 40
0.9565217391304347
 40
0.9565217391304347
 40
0.9565217391304347
 40
1.0
 40
1.0
 40
1.0
 40
1.0
 10
-35.2122
 20
16.3958
 30
0.0
 10
-35.2122
 20
16.3958
 30
0.0
 10
-35.2632
 20
16.444
 30
0.0
 10
-35.2632
 20
16.444
 30
0.0
 10
-35.2632
 20
16.444
 30
0.0
 10
-24.9235
 20
27.3835
 30
0.0
 10
-24.9235
 20
27.3835
 30
0.0
 10
-25.0049
 20
27.482
 30
0.0
 10
-25.0538
 20
27.6084
 30
0.0
 10
-25.0538
 20
27.7462
 30
0.0
 10
-25.0538
 20
27.7878
 30
0.0
 10
-25.0493
 20
27.8284
 30
0.0
 10
-25.0408
 20
27.8676
 30
0.0
 10
-25.0408
 20
27.8676
 30
0.0
 10
-30.3547
 20
29.7362
 30
0.0
 10
-30.3547
 20
29.7362
 30
0.0
 10
-30.4481
 20
29.5489
 30
0.0
 10
-30.6414
 20
29.4203
 30
0.0
 10
-30.8648
 20
29.4203
 30
0.0
 10
-31.1795
 20
29.4203
 30
0.0
 10
-31.4345
 20
29.6752
 30
0.0
 10
-31.4345
 20
29.99
 30
0.0
 10
-31.4345
 20
30.0048
 30
0.0
 10
-31.4339
 20
30.0196
 30
0.0
 10
-31.4328
 20
30.0342
 30
0.0
 10
-31.4328
 20
30.0342
 30
0.0
 10
-38.3895
 20
33.6629
 30
0.0
 10
-38.3895
 20
33.6629
 30
0.0
 10
-38.4922
 20
33.5143
 30
0.0
 10
-38.6639
 20
33.417
 30
0.0
 10
-38.8583
 20
33.417
 30
0.0
 10
-39.0431
 20
33.417
 30
0.0
 10
-39.2075
 20
33.505
 30
0.0
 10
-39.3114
 20
33.6414
 30
0.0
 10
-39.3114
 20
33.6414
 30
0.0
 10
-47.623
 20
31.0716
 30
0.0
 10
-47.623
 20
31.0716
 30
0.0
 10
-47.6173
 20
31.0391
 30
0.0
 10
-47.6142
 20
31.0057
 30
0.0
 10
-47.6142
 20
30.9716
 30
0.0
 10
-47.6142
 20
30.7107
 30
0.0
 10
-47.7895
 20
30.4908
 30
0.0
 10
-48.0289
 20
30.4234
 30
0.0
 10
-48.0289
 20
30.4234
 30
0.0
 10
-44.6945
 20
8.6826
 30
0.0
 10
-44.6945
 20
8.6826
 30
0.0
 10
-44.6945
 20
8.6826
 30
0.0
 10
-44.678
 20
8.6829
 30
0.0
 10
-44.678
 20
8.6829
 30
0.0
 10
-44.6045
 20
8.6829
 30
0.0
 10
-44.5341
 20
8.669
 30
0.0
 10
-44.46959999999999
 20
8.643599999999999
 30
0.0
 10
-44.46959999999999
 20
8.643599999999999
 30
0.0
 10
-41.08319999999999
 20
14.8722
 30
0.0
 10
-41.08319999999999
 20
14.8722
 30
0.0
 10
-41.2272
 20
14.9756
 30
0.0
 10
-41.32109999999999
 20
15.1445
 30
0.0
 10
-41.32109999999999
 20
15.3353
 30
0.0
 10
-41.32109999999999
 20
15.65
 30
0.0
 10
-41.06609999999999
 20
15.905
 30
0.0
 10
-40.7514
 20
15.905
 30
0.0
 10
-40.4778
 20
15.905
 30
0.0
 10
-40.24949999999999
 20
15.7123
 30
0.0
 10
-40.19449999999999
 20
15.4552
 30
0.0
 10
-40.19449999999999
 20
15.4552
 30
0.0
 10
-35.7815
 20
15.8461
 30
0.0
 10
-35.7815
 20
15.8461
 30
0.0
 10
-35.771
 20
16.1515
 30
0.0
 10
-35.52020000000001
 20
16.3958
 30
0.0
 10
-35.2122
 20
16.3958
 30
0.0
  0
SPLINE
  5
9A
330
1F
100
AcDbEntity
  8
Layer 1
 62
     3
370
    20
100
AcDbSpline
210
0.0
220
0.0
230
1.0
 70
     9
 71
     3
 72
    41
 73
    37
 74
     0
 42
0.000000001
 43
0.0000000001
 40
0.0
 40
0.0
 40
0.0
 40
0.0
 40
0.0833333333333333
 40
0.0833333333333333
 40
0.0833333333333333
 40
0.1666666666666667
 40
0.1666666666666667
 40
0.1666666666666667
 40
0.25
 40
0.25
 40
0.25
 40
0.3333333333333333
 40
0.3333333333333333
 40
0.3333333333333333
 40
0.4166666666666666
 40
0.4166666666666666
 40
0.4166666666666666
 40
0.5
 40
0.5
 40
0.5
 40
0.5833333333333333
 40
0.5833333333333333
 40
0.5833333333333333
 40
0.6666666666666666
 40
0.6666666666666666
 40
0.6666666666666666
 40
0.75
 40
0.75
 40
0.75
 40
0.8333333333333332
 40
0.8333333333333332
 40
0.8333333333333332
 40
0.9166666666666666
 40
0.9166666666666666
 40
0.9166666666666666
 40
1.0
 40
1.0
 40
1.0
 40
1.0
 10
-24.8215
 20
27.2871
 30
0.0
 10
-24.8215
 20
27.2871
 30
0.0
 10
-35.12230000000001
 20
16.3888
 30
0.0
 10
-35.12230000000001
 20
16.3888
 30
0.0
 10
-34.8503
 20
16.3457
 30
0.0
 10
-34.6425
 20
16.1103
 30
0.0
 10
-34.6425
 20
15.8262
 30
0.0
 10
-34.6425
 20
15.6283
 30
0.0
 10
-34.7433
 20
15.454
 30
0.0
 10
-34.89650000000001
 20
15.352
 30
0.0
 10
-34.89650000000001
 20
15.352
 30
0.0
 10
-34.0699
 20
13.6989
 30
0.0
 10
-34.0699
 20
13.6989
 30
0.0
 10
-34.0106
 20
13.7199
 30
0.0
 10
-33.9466
 20
13.7314
 30
0.0
 10
-33.8799
 20
13.7314
 30
0.0
 10
-33.7547
 20
13.7314
 30
0.0
 10
-33.63900000000001
 20
13.691
 30
0.0
 10
-33.5451
 20
13.6227
 30
0.0
 10
-33.5451
 20
13.6227
 30
0.0
 10
-22.0823
 20
25.8815
 30
0.0
 10
-22.0823
 20
25.8815
 30
0.0
 10
-22.2258
 20
25.9848
 30
0.0
 10
-22.3192
 20
26.1534
 30
0.0
 10
-22.3192
 20
26.3438
 30
0.0
 10
-22.3192
 20
26.4125
 30
0.0
 10
-22.3069
 20
26.4784
 30
0.0
 10
-22.2847
 20
26.5394
 30
0.0
 10
-22.2847
 20
26.5394
 30
0.0
 10
-24.0131
 20
27.4257
 30
0.0
 10
-24.0131
 20
27.4257
 30
0.0
 10
-24.1156
 20
27.2753
 30
0.0
 10
-24.2883
 20
27.1765
 30
0.0
 10
-24.4841
 20
27.1765
 30
0.0
 10
-24.6104
 20
27.1765
 30
0.0
 10
-24.727
 20
27.2176
 30
0.0
 10
-24.8215
 20
27.2871
 30
0.0
  0
SPLINE
  5
9C
330
1F
100
AcDbEntity
  8
Layer 1
 62
     3
370
    20
100
AcDbSpline
210
0.0
220
0.0
230
1.0
 70
     9
 71
     3
 72
    41
 73
    37
 74
     0
 42
0.000000001
 43
0.0000000001
 40
0.0
 40
0.0
 40
0.0
 40
0.0
 40
0.0833333333333333
 40
0.0833333333333333
 40
0.0833333333333333
 40
0.1666666666666667
 40
0.1666666666666667
 40
0.1666666666666667
 40
0.25
 40
0.25
 40
0.25
 40
0.3333333333333333
 40
0.3333333333333333
 40
0.3333333333333333
 40
0.4166666666666666
 40
0.4166666666666666
 40
0.4166666666666666
 40
0.5
 40
0.5
 40
0.5
 40
0.5833333333333333
 40
0.5833333333333333
 40
0.5833333333333333
 40
0.6666666666666666
 40
0.6666666666666666
 40
0.6666666666666666
 40
0.75
 40
0.75
 40
0.75
 40
0.8333333333333332
 40
0.8333333333333332
 40
0.8333333333333332
 40
0.9166666666666666
 40
0.9166666666666666
 40
0.9166666666666666
 40
1.0
 40
1.0
 40
1.0
 40
1.0
 10
-21.9546
 20
25.8123
 30
0.0
 10
-21.9546
 20
25.8123
 30
0.0
 10
-33.44250000000001
 20
13.5266
 30
0.0
 10
-33.44250000000001
 20
13.5266
 30
0.0
 10
-33.3717
 20
13.4418
 30
0.0
 10
-33.3251
 20
13.3362
 30
0.0
 10
-33.3132
 20
13.2201
 30
0.0
 10
-33.3132
 20
13.2201
 30
0.0
 10
-27.8559
 20
13.1069
 30
0.0
 10
-27.8559
 20
13.1069
 30
0.0
 10
-27.8576
 20
13.125
 30
0.0
 10
-27.8585
 20
13.1433
 30
0.0
 10
-27.8585
 20
13.1617
 30
0.0
 10
-27.8585
 20
13.4764
 30
0.0
 10
-27.6035
 20
13.7314
 30
0.0
 10
-27.2889
 20
13.7314
 30
0.0
 10
-27.0794
 20
13.7314
 30
0.0
 10
-26.8966
 20
13.6185
 30
0.0
 10
-26.7976
 20
13.4502
 30
0.0
 10
-26.7976
 20
13.4502
 30
0.0
 10
-14.9891
 20
19.7587
 30
0.0
 10
-14.9891
 20
19.7587
 30
0.0
 10
-15.0135
 20
19.8222
 30
0.0
 10
-15.027
 20
19.891
 30
0.0
 10
-15.027
 20
19.9632
 30
0.0
 10
-15.027
 20
20.0133
 30
0.0
 10
-15.0204
 20
20.0621
 30
0.0
 10
-15.0083
 20
20.1084
 30
0.0
 10
-15.0083
 20
20.1084
 30
0.0
 10
-21.3788
 20
25.9113
 30
0.0
 10
-21.3788
 20
25.9113
 30
0.0
 10
-21.4785
 20
25.8258
 30
0.0
 10
-21.6079
 20
25.7742
 30
0.0
 10
-21.7495
 20
25.7742
 30
0.0
 10
-21.8219
 20
25.7742
 30
0.0
 10
-21.891
 20
25.7877
 30
0.0
 10
-21.9546
 20
25.8123
 30
0.0
  0
SPLINE
  5
9E
330
1F
100
AcDbEntity
  8
Layer 1
 62
     3
370
    20
100
AcDbSpline
210
0.0
220
0.0
230
1.0
 70
     9
 71
     3
 72
    26
 73
    22
 74
     0
 42
0.000000001
 43
0.0000000001
 40
0.0
 40
0.0
 40
0.0
 40
0.0
 40
0.1428571428571428
 40
0.1428571428571428
 40
0.1428571428571428
 40
0.2857142857142857
 40
0.2857142857142857
 40
0.2857142857142857
 40
0.4285714285714285
 40
0.4285714285714285
 40
0.4285714285714285
 40
0.5714285714285714
 40
0.5714285714285714
 40
0.5714285714285714
 40
0.7142857142857143
 40
0.7142857142857143
 40
0.7142857142857143
 40
0.8571428571428571
 40
0.8571428571428571
 40
0.8571428571428571
 40
1.0
 40
1.0
 40
1.0
 40
1.0
 10
-14.9229
 20
19.6347
 30
0.0
 10
-14.9229
 20
19.6347
 30
0.0
 10
-26.6889
 20
13.349
 30
0.0
 10
-26.6889
 20
13.349
 30
0.0
 10
-26.6889
 20
13.349
 30
0.0
 10
-9.604599999999999
 20
16.2254
 30
0.0
 10
-9.604599999999999
 20
16.2254
 30
0.0
 10
-9.619799999999999
 20
16.2767
 30
0.0
 10
-9.6279
 20
16.3309
 30
0.0
 10
-9.6279
 20
16.3871
 30
0.0
 10
-9.6279
 20
16.5025
 30
0.0
 10
-9.5935
 20
16.6098
 30
0.0
 10
-9.5347
 20
16.6994
 30
0.0
 10
-9.5347
 20
16.6994
 30
0.0
 10
-14.2796
 20
19.4218
 30
0.0
 10
-14.2796
 20
19.4218
 30
0.0
 10
-14.3355
 20
19.4035
 30
0.0
 10
-14.3952
 20
19.3935
 30
0.0
 10
-14.4573
 20
19.3935
 30
0.0
 10
-14.6497
 20
19.3935
 30
0.0
 10
-14.8198
 20
19.4888
 30
0.0
 10
-14.9229
 20
19.6347
 30
0.0
  0
SPLINE
  5
A0
330
1F
100
AcDbEntity
  8
Layer 1
 62
     3
370
    20
100
AcDbSpline
210
0.0
220
0.0
230
1.0
 70
     9
 71
     3
 72
    41
 73
    37
 74
     0
 42
0.000000001
 43
0.0000000001
 40
0.0
 40
0.0
 40
0.0
 40
0.0
 40
0.0833333333333333
 40
0.0833333333333333
 40
0.0833333333333333
 40
0.1666666666666667
 40
0.1666666666666667
 40
0.1666666666666667
 40
0.25
 40
0.25
 40
0.25
 40
0.3333333333333333
 40
0.3333333333333333
 40
0.3333333333333333
 40
0.4166666666666666
 40
0.4166666666666666
 40
0.4166666666666666
 40
0.5
 40
0.5
 40
0.5
 40
0.5833333333333333
 40
0.5833333333333333
 40
0.5833333333333333
 40
0.6666666666666666
 40
0.6666666666666666
 40
0.6666666666666666
 40
0.75
 40
0.75
 40
0.75
 40
0.8333333333333332
 40
0.8333333333333332
 40
0.8333333333333332
 40
0.9166666666666666
 40
0.9166666666666666
 40
0.9166666666666666
 40
1.0
 40
1.0
 40
1.0
 40
1.0
 10
-9.546099999999999
 20
16.0928
 30
0.0
 10
-9.546099999999999
 20
16.0928
 30
0.0
 10
-26.7206
 20
13.2011
 30
0.0
 10
-26.7206
 20
13.2011
 30
0.0
 10
-26.7197
 20
13.188
 30
0.0
 10
-26.7192
 20
13.175
 30
0.0
 10
-26.7192
 20
13.1617
 30
0.0
 10
-26.7192
 20
13.013
 30
0.0
 10
-26.7763
 20
12.8775
 30
0.0
 10
-26.8696
 20
12.776
 30
0.0
 10
-26.8696
 20
12.776
 30
0.0
 10
-21.2909
 20
6.205599999999999
 30
0.0
 10
-21.2909
 20
6.205599999999999
 30
0.0
 10
-21.2012
 20
6.264499999999999
 30
0.0
 10
-21.0937
 20
6.298899999999999
 30
0.0
 10
-20.9783
 20
6.298899999999999
 30
0.0
 10
-20.81
 20
6.298899999999999
 30
0.0
 10
-20.6588
 20
6.2259
 30
0.0
 10
-20.5546
 20
6.11
 30
0.0
 10
-20.5546
 20
6.11
 30
0.0
 10
-13.56
 20
12.0224
 30
0.0
 10
-13.56
 20
12.0224
 30
0.0
 10
-13.644
 20
12.1217
 30
0.0
 10
-13.6947
 20
12.2501
 30
0.0
 10
-13.6947
 20
12.3905
 30
0.0
 10
-13.6947
 20
12.7051
 30
0.0
 10
-13.4397
 20
12.96
 30
0.0
 10
-13.1251
 20
12.96
 30
0.0
 10
-12.9972
 20
12.96
 30
0.0
 10
-12.8792
 20
12.9179
 30
0.0
 10
-12.7842
 20
12.8468
 30
0.0
 10
-12.7842
 20
12.8468
 30
0.0
 10
-9.5149
 20
16.0465
 30
0.0
 10
-9.5149
 20
16.0465
 30
0.0
 10
-9.525999999999999
 20
16.0614
 30
0.0
 10
-9.5364
 20
16.0768
 30
0.0
 10
-9.546099999999999
 20
16.0928
 30
0.0
  0
SPLINE
  5
A2
330
1F
100
AcDbEntity
  8
Layer 1
 62
     3
370
    20
100
AcDbSpline
210
0.0
220
0.0
230
1.0
 70
     9
 71
     3
 72
    68
 73
    64
 74
     0
 42
0.000000001
 43
0.0000000001
 40
0.0
 40
0.0
 40
0.0
 40
0.0
 40
0.0476190476190476
 40
0.0476190476190476
 40
0.0476190476190476
 40
0.0952380952380952
 40
0.0952380952380952
 40
0.0952380952380952
 40
0.1428571428571428
 40
0.1428571428571428
 40
0.1428571428571428
 40
0.1904761904761905
 40
0.1904761904761905
 40
0.1904761904761905
 40
0.2380952380952381
 40
0.2380952380952381
 40
0.2380952380952381
 40
0.2857142857142857
 40
0.2857142857142857
 40
0.2857142857142857
 40
0.3333333333333333
 40
0.3333333333333333
 40
0.3333333333333333
 40
0.3809523809523809
 40
0.3809523809523809
 40
0.3809523809523809
 40
0.4285714285714285
 40
0.4285714285714285
 40
0.4285714285714285
 40
0.4761904761904762
 40
0.4761904761904762
 40
0.4761904761904762
 40
0.5238095238095238
 40
0.5238095238095238
 40
0.5238095238095238
 40
0.5714285714285714
 40
0.5714285714285714
 40
0.5714285714285714
 40
0.6190476190476191
 40
0.6190476190476191
 40
0.6190476190476191
 40
0.6666666666666666
 40
0.6666666666666666
 40
0.6666666666666666
 40
0.7142857142857143
 40
0.7142857142857143
 40
0.7142857142857143
 40
0.7619047619047619
 40
0.7619047619047619
 40
0.7619047619047619
 40
0.8095238095238094
 40
0.8095238095238094
 40
0.8095238095238094
 40
0.8571428571428571
 40
0.8571428571428571
 40
0.8571428571428571
 40
0.9047619047619047
 40
0.9047619047619047
 40
0.9047619047619047
 40
0.9523809523809523
 40
0.9523809523809523
 40
0.9523809523809523
 40
1.0
 40
1.0
 40
1.0
 40
1.0
 10
-13.4561
 20
11.9268
 30
0.0
 10
-13.4561
 20
11.9268
 30
0.0
 10
-20.4741
 20
5.9946
 30
0.0
 10
-20.4741
 20
5.9946
 30
0.0
 10
-20.4323
 20
5.915399999999999
 30
0.0
 10
-20.4086
 20
5.825099999999999
 30
0.0
 10
-20.4086
 20
5.7293
 30
0.0
 10
-20.4086
 20
5.7141
 30
0.0
 10
-20.4092
 20
5.6992
 30
0.0
 10
-20.4104
 20
5.6843
 30
0.0
 10
-20.4104
 20
5.6843
 30
0.0
 10
-15.4945
 20
4.675799999999999
 30
0.0
 10
-15.4945
 20
4.675799999999999
 30
0.0
 10
-15.4945
 20
4.675799999999999
 30
0.0
 10
-15.5228
 20
4.5384
 30
0.0
 10
-15.5228
 20
4.5384
 30
0.0
 10
-15.5228
 20
4.5384
 30
0.0
 10
-20.4385
 20
5.546899999999999
 30
0.0
 10
-20.4385
 20
5.546899999999999
 30
0.0
 10
-20.4582
 20
5.4888
 30
0.0
 10
-20.4869
 20
5.4348
 30
0.0
 10
-20.5229
 20
5.386899999999999
 30
0.0
 10
-20.5229
 20
5.386899999999999
 30
0.0
 10
-17.0189
 20
2.000999999999999
 30
0.0
 10
-17.0189
 20
2.000999999999999
 30
0.0
 10
-16.9152
 20
2.141099999999999
 30
0.0
 10
-16.7487
 20
2.232099999999999
 30
0.0
 10
-16.5608
 20
2.232099999999999
 30
0.0
 10
-16.2928
 20
2.232099999999999
 30
0.0
 10
-16.0681
 20
2.046999999999999
 30
0.0
 10
-16.0074
 20
1.7977
 30
0.0
 10
-16.0074
 20
1.7977
 30
0.0
 10
-12.2648
 20
1.557299999999999
 30
0.0
 10
-12.2648
 20
1.557299999999999
 30
0.0
 10
-12.2532
 20
1.593099999999999
 30
0.0
 10
-12.2383
 20
1.6272
 30
0.0
 10
-12.2202
 20
1.659499999999999
 30
0.0
 10
-12.2202
 20
1.659499999999999
 30
0.0
 10
-14.6222
 20
3.9298
 30
0.0
 10
-14.6222
 20
3.9298
 30
0.0
 10
-14.7145
 20
3.8652
 30
0.0
 10
-14.8269
 20
3.827399999999999
 30
0.0
 10
-14.9482
 20
3.827399999999999
 30
0.0
 10
-15.2628
 20
3.827399999999999
 30
0.0
 10
-15.5178
 20
4.0823
 30
0.0
 10
-15.5178
 20
4.397
 30
0.0
 10
-15.5178
 20
4.7117
 30
0.0
 10
-15.2628
 20
4.9667
 30
0.0
 10
-14.9482
 20
4.9667
 30
0.0
 10
-14.8245
 20
4.9667
 30
0.0
 10
-14.71
 20
4.9271
 30
0.0
 10
-14.6166
 20
4.860199999999999
 30
0.0
 10
-14.6166
 20
4.860199999999999
 30
0.0
 10
-9.066499999999999
 20
6.032799999999999
 30
0.0
 10
-9.066499999999999
 20
6.032799999999999
 30
0.0
 10
-9.059699999999999
 20
6.205099999999999
 30
0.0
 10
-8.9763
 20
6.3577
 30
0.0
 10
-8.8495
 20
6.457499999999999
 30
0.0
 10
-8.8495
 20
6.457499999999999
 30
0.0
 10
-13.1571
 20
11.8217
 30
0.0
 10
-13.1571
 20
11.8217
 30
0.0
 10
-13.2683
 20
11.8279
 30
0.0
 10
-13.371
 20
11.866
 30
0.0
 10
-13.4561
 20
11.9268
 30
0.0
  0
SPLINE
  5
A4
330
1F
100
AcDbEntity
  8
Layer 1
 62
     3
370
    20
100
AcDbSpline
210
0.0
220
0.0
230
1.0
 70
     9
 71
     3
 72
    32
 73
    28
 74
     0
 42
0.000000001
 43
0.0000000001
 40
0.0
 40
0.0
 40
0.0
 40
0.0
 40
0.1111111111111111
 40
0.1111111111111111
 40
0.1111111111111111
 40
0.2222222222222222
 40
0.2222222222222222
 40
0.2222222222222222
 40
0.3333333333333333
 40
0.3333333333333333
 40
0.3333333333333333
 40
0.4444444444444445
 40
0.4444444444444445
 40
0.4444444444444445
 40
0.5555555555555556
 40
0.5555555555555556
 40
0.5555555555555556
 40
0.6666666666666666
 40
0.6666666666666666
 40
0.6666666666666666
 40
0.7777777777777777
 40
0.7777777777777777
 40
0.7777777777777777
 40
0.8888888888888889
 40
0.8888888888888889
 40
0.8888888888888889
 40
1.0
 40
1.0
 40
1.0
 40
1.0
 10
-17.0897
 20
1.874399999999999
 30
0.0
 10
-17.0897
 20
1.874399999999999
 30
0.0
 10
-20.6205
 20
5.285899999999999
 30
0.0
 10
-20.6205
 20
5.285899999999999
 30
0.0
 10
-20.7054
 20
5.217299999999999
 30
0.0
 10
-20.8104
 20
5.1726
 30
0.0
 10
-20.9252
 20
5.162099999999999
 30
0.0
 10
-20.9252
 20
5.162099999999999
 30
0.0
 10
-21.1715
 20
-2.963299999999999
 30
0.0
 10
-21.1715
 20
-2.963299999999999
 30
0.0
 10
-20.9447
 20
-2.9982
 30
0.0
 10
-20.762
 20
-3.1667
 30
0.0
 10
-20.7065
 20
-3.386099999999999
 30
0.0
 10
-20.7065
 20
-3.386099999999999
 30
0.0
 10
-15.7476
 20
-3.386099999999999
 30
0.0
 10
-15.7476
 20
-3.386099999999999
 30
0.0
 10
-15.7023
 20
-3.3281
 30
0.0
 10
-15.646
 20
-3.2791
 30
0.0
 10
-15.582
 20
-3.2423
 30
0.0
 10
-15.582
 20
-3.2423
 30
0.0
 10
-16.8068
 20
1.1484
 30
0.0
 10
-16.8068
 20
1.1484
 30
0.0
 10
-16.9983
 20
1.240199999999999
 30
0.0
 10
-17.1305
 20
1.435799999999999
 30
0.0
 10
-17.1305
 20
1.6624
 30
0.0
 10
-17.1305
 20
1.7373
 30
0.0
 10
-17.116
 20
1.808899999999999
 30
0.0
 10
-17.0897
 20
1.874399999999999
 30
0.0
  0
SPLINE
  5
A6
330
1F
100
AcDbEntity
  8
Layer 1
 62
     3
370
    20
100
AcDbSpline
210
0.0
220
0.0
230
1.0
 70
     9
 71
     3
 72
    26
 73
    22
 74
     0
 42
0.000000001
 43
0.0000000001
 40
0.0
 40
0.0
 40
0.0
 40
0.0
 40
0.1428571428571428
 40
0.1428571428571428
 40
0.1428571428571428
 40
0.2857142857142857
 40
0.2857142857142857
 40
0.2857142857142857
 40
0.4285714285714285
 40
0.4285714285714285
 40
0.4285714285714285
 40
0.5714285714285714
 40
0.5714285714285714
 40
0.5714285714285714
 40
0.7142857142857143
 40
0.7142857142857143
 40
0.7142857142857143
 40
0.8571428571428571
 40
0.8571428571428571
 40
0.8571428571428571
 40
1.0
 40
1.0
 40
1.0
 40
1.0
 10
-44.83299999999999
 20
8.661599999999999
 30
0.0
 10
-44.83299999999999
 20
8.661599999999999
 30
0.0
 10
-48.16749999999999
 20
30.4022
 30
0.0
 10
-48.16749999999999
 20
30.4022
 30
0.0
 10
-48.16749999999999
 20
30.4022
 30
0.0
 10
-48.1839
 20
30.402
 30
0.0
 10
-48.1839
 20
30.402
 30
0.0
 10
-48.1839
 20
30.402
 30
0.0
 10
-48.1866
 20
30.402
 30
0.0
 10
-48.1866
 20
30.402
 30
0.0
 10
-48.1866
 20
30.402
 30
0.0
 10
-50.987
 20
8.6651
 30
0.0
 10
-50.987
 20
8.6651
 30
0.0
 10
-50.763
 20
8.607699999999999
 30
0.0
 10
-50.59219999999999
 20
8.4176
 30
0.0
 10
-50.5635
 20
8.1834
 30
0.0
 10
-50.5635
 20
8.1834
 30
0.0
 10
-45.2434
 20
8.1834
 30
0.0
 10
-45.2434
 20
8.1834
 30
0.0
 10
-45.2152
 20
8.413
 30
0.0
 10
-45.0506
 20
8.600199999999999
 30
0.0
 10
-44.83299999999999
 20
8.661599999999999
 30
0.0
  0
SPLINE
  5
A8
330
1F
100
AcDbEntity
  8
Layer 1
 62
     3
370
    20
100
AcDbSpline
210
0.0
220
0.0
230
1.0
 70
     9
 71
     3
 72
    38
 73
    34
 74
     0
 42
0.000000001
 43
0.0000000001
 40
0.0
 40
0.0
 40
0.0
 40
0.0
 40
0.0909090909090909
 40
0.0909090909090909
 40
0.0909090909090909
 40
0.1818181818181818
 40
0.1818181818181818
 40
0.1818181818181818
 40
0.2727272727272727
 40
0.2727272727272727
 40
0.2727272727272727
 40
0.3636363636363636
 40
0.3636363636363636
 40
0.3636363636363636
 40
0.4545454545454546
 40
0.4545454545454546
 40
0.4545454545454546
 40
0.5454545454545455
 40
0.5454545454545455
 40
0.5454545454545455
 40
0.6363636363636364
 40
0.6363636363636364
 40
0.6363636363636364
 40
0.7272727272727274
 40
0.7272727272727274
 40
0.7272727272727274
 40
0.8181818181818181
 40
0.8181818181818181
 40
0.8181818181818181
 40
0.9090909090909091
 40
0.9090909090909091
 40
0.9090909090909091
 40
1.0
 40
1.0
 40
1.0
 40
1.0
 10
-54.4321
 20
-5.9438
 30
0.0
 10
-54.4321
 20
-5.9438
 30
0.0
 10
-64.102
 20
-5.3158
 30
0.0
 10
-64.102
 20
-5.3158
 30
0.0
 10
-64.102
 20
-5.3158
 30
0.0
 10
-64.1027
 20
-5.3197
 30
0.0
 10
-64.1027
 20
-5.3197
 30
0.0
 10
-64.1027
 20
-5.3197
 30
0.0
 10
-54.7924
 20
-9.753299999999999
 30
0.0
 10
-54.7924
 20
-9.753299999999999
 30
0.0
 10
-54.6879
 20
-9.627599999999999
 30
0.0
 10
-54.53050000000001
 20
-9.5477
 30
0.0
 10
-54.3542
 20
-9.5477
 30
0.0
 10
-54.1563
 20
-9.5477
 30
0.0
 10
-53.9821
 20
-9.6486
 30
0.0
 10
-53.8801
 20
-9.8017
 30
0.0
 10
-53.8801
 20
-9.8017
 30
0.0
 10
-51.3855
 20
-8.554399999999999
 30
0.0
 10
-51.3855
 20
-8.554399999999999
 30
0.0
 10
-51.4065
 20
-8.494999999999999
 30
0.0
 10
-51.41799999999999
 20
-8.431
 30
0.0
 10
-51.41799999999999
 20
-8.364399999999999
 30
0.0
 10
-51.41799999999999
 20
-8.323999999999999
 30
0.0
 10
-51.4138
 20
-8.284599999999999
 30
0.0
 10
-51.40579999999999
 20
-8.246499999999999
 30
0.0
 10
-51.40579999999999
 20
-8.246499999999999
 30
0.0
 10
-53.493
 20
-6.342999999999999
 30
0.0
 10
-53.493
 20
-6.342999999999999
 30
0.0
 10
-53.59259999999999
 20
-6.4283
 30
0.0
 10
-53.722
 20
-6.479899999999999
 30
0.0
 10
-53.8634
 20
-6.479899999999999
 30
0.0
 10
-54.1669
 20
-6.479899999999999
 30
0.0
 10
-54.4148
 20
-6.242899999999999
 30
0.0
 10
-54.4321
 20
-5.9438
 30
0.0
  0
SPLINE
  5
AA
330
1F
100
AcDbEntity
  8
Layer 1
 62
     3
370
    20
100
AcDbSpline
210
0.0
220
0.0
230
1.0
 70
     9
 71
     3
 72
    35
 73
    31
 74
     0
 42
0.000000001
 43
0.0000000001
 40
0.0
 40
0.0
 40
0.0
 40
0.0
 40
0.1
 40
0.1
 40
0.1
 40
0.2
 40
0.2
 40
0.2
 40
0.3
 40
0.3
 40
0.3
 40
0.4
 40
0.4
 40
0.4
 40
0.5
 40
0.5
 40
0.5
 40
0.6000000000000001
 40
0.6000000000000001
 40
0.6000000000000001
 40
0.7000000000000001
 40
0.7000000000000001
 40
0.7000000000000001
 40
0.8
 40
0.8
 40
0.8
 40
0.9
 40
0.9
 40
0.9
 40
1.0
 40
1.0
 40
1.0
 40
1.0
 10
-64.0929
 20
-5.175699999999999
 30
0.0
 10
-64.0929
 20
-5.175699999999999
 30
0.0
 10
-54.42309999999999
 20
-5.803499999999999
 30
0.0
 10
-54.42309999999999
 20
-5.803499999999999
 30
0.0
 10
-54.3755
 20
-5.552299999999999
 30
0.0
 10
-54.163
 20
-5.359499999999999
 30
0.0
 10
-53.9022
 20
-5.342
 30
0.0
 10
-53.9022
 20
-5.342
 30
0.0
 10
-53.8247
 20
-3.9466
 30
0.0
 10
-53.8247
 20
-3.9466
 30
0.0
 10
-54.09089999999999
 20
-3.898899999999999
 30
0.0
 10
-54.2928
 20
-3.6661
 30
0.0
 10
-54.2928
 20
-3.386099999999999
 30
0.0
 10
-54.2928
 20
-3.3252
 30
0.0
 10
-54.28329999999999
 20
-3.2665
 30
0.0
 10
-54.2656
 20
-3.2115
 30
0.0
 10
-54.2656
 20
-3.2115
 30
0.0
 10
-62.6733
 20
-0.4727000000000001
 30
0.0
 10
-62.6733
 20
-0.4727000000000001
 30
0.0
 10
-62.7643
 20
-0.6663000000000001
 30
0.0
 10
-62.9609
 20
-0.8003999999999999
 30
0.0
 10
-63.18899999999999
 20
-0.8003999999999999
 30
0.0
 10
-63.22079999999999
 20
-0.8003999999999999
 30
0.0
 10
-63.2519
 20
-0.7977
 30
0.0
 10
-63.2821
 20
-0.7927
 30
0.0
 10
-63.2821
 20
-0.7927
 30
0.0
 10
-64.43389999999999
 20
-4.686799999999999
 30
0.0
 10
-64.43389999999999
 20
-4.686799999999999
 30
0.0
 10
-64.2423
 20
-4.7704
 30
0.0
 10
-64.1056
 20
-4.956299999999999
 30
0.0
 10
-64.0929
 20
-5.175699999999999
 30
0.0
  0
SPLINE
  5
AC
330
1F
100
AcDbEntity
  8
Layer 1
 62
     3
370
    20
100
AcDbSpline
210
0.0
220
0.0
230
1.0
 70
     9
 71
     3
 72
    38
 73
    34
 74
     0
 42
0.000000001
 43
0.0000000001
 40
0.0
 40
0.0
 40
0.0
 40
0.0
 40
0.0909090909090909
 40
0.0909090909090909
 40
0.0909090909090909
 40
0.1818181818181818
 40
0.1818181818181818
 40
0.1818181818181818
 40
0.2727272727272727
 40
0.2727272727272727
 40
0.2727272727272727
 40
0.3636363636363636
 40
0.3636363636363636
 40
0.3636363636363636
 40
0.4545454545454546
 40
0.4545454545454546
 40
0.4545454545454546
 40
0.5454545454545455
 40
0.5454545454545455
 40
0.5454545454545455
 40
0.6363636363636364
 40
0.6363636363636364
 40
0.6363636363636364
 40
0.7272727272727274
 40
0.7272727272727274
 40
0.7272727272727274
 40
0.8181818181818181
 40
0.8181818181818181
 40
0.8181818181818181
 40
0.9090909090909091
 40
0.9090909090909091
 40
0.9090909090909091
 40
1.0
 40
1.0
 40
1.0
 40
1.0
 10
-62.6298
 20
-0.3391
 30
0.0
 10
-62.6298
 20
-0.3391
 30
0.0
 10
-54.2059
 20
-3.083499999999999
 30
0.0
 10
-54.2059
 20
-3.083499999999999
 30
0.0
 10
-54.1052
 20
-2.923
 30
0.0
 10
-53.92669999999999
 20
-2.816399999999999
 30
0.0
 10
-53.7232
 20
-2.816399999999999
 30
0.0
 10
-53.6377
 20
-2.816399999999999
 30
0.0
 10
-53.55669999999999
 20
-2.8353
 30
0.0
 10
-53.48399999999999
 20
-2.868999999999999
 30
0.0
 10
-53.48399999999999
 20
-2.868999999999999
 30
0.0
 10
-52.118
 20
-0.6737
 30
0.0
 10
-52.118
 20
-0.6737
 30
0.0
 10
-52.2381
 20
-0.5766
 30
0.0
 10
-52.3179
 20
-0.4314
 30
0.0
 10
-52.32829999999999
 20
-0.2674
 30
0.0
 10
-52.32829999999999
 20
-0.2674
 30
0.0
 10
-59.47359999999999
 20
0.1565
 30
0.0
 10
-59.47359999999999
 20
0.1565
 30
0.0
 10
-59.5223
 20
-0.1088
 30
0.0
 10
-59.7545
 20
-0.3096
 30
0.0
 10
-60.03379999999999
 20
-0.3096
 30
0.0
 10
-60.2943
 20
-0.3096
 30
0.0
 10
-60.5138
 20
-0.1349
 30
0.0
 10
-60.5817
 20
0.1038
 30
0.0
 10
-60.5817
 20
0.1038
 30
0.0
 10
-62.6197
 20
-0.2132
 30
0.0
 10
-62.6197
 20
-0.2132
 30
0.0
 10
-62.6197
 20
-0.2132
 30
0.0
 10
-62.6195
 20
-0.2307
 30
0.0
 10
-62.6195
 20
-0.2307
 30
0.0
 10
-62.6195
 20
-0.2678
 30
0.0
 10
-62.6231
 20
-0.304
 30
0.0
 10
-62.6298
 20
-0.3391
 30
0.0
  0
SPLINE
  5
AE
330
1F
100
AcDbEntity
  8
Layer 1
 62
     3
370
    20
100
AcDbSpline
210
0.0
220
0.0
230
1.0
 70
     9
 71
     3
 72
    38
 73
    34
 74
     0
 42
0.000000001
 43
0.0000000001
 40
0.0
 40
0.0
 40
0.0
 40
0.0
 40
0.0909090909090909
 40
0.0909090909090909
 40
0.0909090909090909
 40
0.1818181818181818
 40
0.1818181818181818
 40
0.1818181818181818
 40
0.2727272727272727
 40
0.2727272727272727
 40
0.2727272727272727
 40
0.3636363636363636
 40
0.3636363636363636
 40
0.3636363636363636
 40
0.4545454545454546
 40
0.4545454545454546
 40
0.4545454545454546
 40
0.5454545454545455
 40
0.5454545454545455
 40
0.5454545454545455
 40
0.6363636363636364
 40
0.6363636363636364
 40
0.6363636363636364
 40
0.7272727272727274
 40
0.7272727272727274
 40
0.7272727272727274
 40
0.8181818181818181
 40
0.8181818181818181
 40
0.8181818181818181
 40
0.9090909090909091
 40
0.9090909090909091
 40
0.9090909090909091
 40
1.0
 40
1.0
 40
1.0
 40
1.0
 10
-59.4653
 20
0.2967
 30
0.0
 10
-59.4653
 20
0.2967
 30
0.0
 10
-52.32009999999999
 20
-0.1272
 30
0.0
 10
-52.32009999999999
 20
-0.1272
 30
0.0
 10
-52.2715
 20
0.138
 30
0.0
 10
-52.0392
 20
0.3388
 30
0.0
 10
-51.7599
 20
0.3388
 30
0.0
 10
-51.71949999999999
 20
0.3388
 30
0.0
 10
-51.6802
 20
0.3345
 30
0.0
 10
-51.6422
 20
0.3266
 30
0.0
 10
-51.6422
 20
0.3266
 30
0.0
 10
-50.3853
 20
3.3898
 30
0.0
 10
-50.3853
 20
3.3898
 30
0.0
 10
-50.4181
 20
3.461699999999999
 30
0.0
 10
-50.43639999999999
 20
3.5415
 30
0.0
 10
-50.43639999999999
 20
3.6257
 30
0.0
 10
-50.43639999999999
 20
3.6894
 30
0.0
 10
-50.426
 20
3.750599999999999
 30
0.0
 10
-50.4067
 20
3.807799999999999
 30
0.0
 10
-50.4067
 20
3.807799999999999
 30
0.0
 10
-54.9268
 20
5.982
 30
0.0
 10
-54.9268
 20
5.982
 30
0.0
 10
-55.02819999999999
 20
5.824699999999999
 30
0.0
 10
-55.2049
 20
5.7205
 30
0.0
 10
-55.4061
 20
5.7205
 30
0.0
 10
-55.5114
 20
5.7205
 30
0.0
 10
-55.6101
 20
5.7491
 30
0.0
 10
-55.69469999999999
 20
5.798999999999999
 30
0.0
 10
-55.69469999999999
 20
5.798999999999999
 30
0.0
 10
-59.634
 20
0.6659000000000001
 30
0.0
 10
-59.634
 20
0.6659000000000001
 30
0.0
 10
-59.5373
 20
0.5707
 30
0.0
 10
-59.47449999999999
 20
0.4409
 30
0.0
 10
-59.4653
 20
0.2967
 30
0.0
  0
SPLINE
  5
B0
330
1F
100
AcDbEntity
  8
Layer 1
 62
     3
370
    20
100
AcDbSpline
210
0.0
220
0.0
230
1.0
 70
     9
 71
     3
 72
    38
 73
    34
 74
     0
 42
0.000000001
 43
0.0000000001
 40
0.0
 40
0.0
 40
0.0
 40
0.0
 40
0.0909090909090909
 40
0.0909090909090909
 40
0.0909090909090909
 40
0.1818181818181818
 40
0.1818181818181818
 40
0.1818181818181818
 40
0.2727272727272727
 40
0.2727272727272727
 40
0.2727272727272727
 40
0.3636363636363636
 40
0.3636363636363636
 40
0.3636363636363636
 40
0.4545454545454546
 40
0.4545454545454546
 40
0.4545454545454546
 40
0.5454545454545455
 40
0.5454545454545455
 40
0.5454545454545455
 40
0.6363636363636364
 40
0.6363636363636364
 40
0.6363636363636364
 40
0.7272727272727274
 40
0.7272727272727274
 40
0.7272727272727274
 40
0.8181818181818181
 40
0.8181818181818181
 40
0.8181818181818181
 40
0.9090909090909091
 40
0.9090909090909091
 40
0.9090909090909091
 40
1.0
 40
1.0
 40
1.0
 40
1.0
 10
-44.35319999999999
 20
0.0983
 30
0.0
 10
-44.35319999999999
 20
0.0983
 30
0.0
 10
-36.6913
 20
0.3795
 30
0.0
 10
-36.6913
 20
0.3795
 30
0.0
 10
-36.682
 20
0.4871
 30
0.0
 10
-36.6428
 20
0.5863000000000001
 30
0.0
 10
-36.5821
 20
0.6684000000000001
 30
0.0
 10
-36.5821
 20
0.6684000000000001
 30
0.0
 10
-40.5351
 20
5.8677
 30
0.0
 10
-40.5351
 20
5.8677
 30
0.0
 10
-40.61919999999999
 20
5.818699999999999
 30
0.0
 10
-40.7171
 20
5.7906
 30
0.0
 10
-40.8215
 20
5.7906
 30
0.0
 10
-41.03329999999999
 20
5.7906
 30
0.0
 10
-41.21789999999999
 20
5.9061
 30
0.0
 10
-41.3161
 20
6.077399999999999
 30
0.0
 10
-41.3161
 20
6.077399999999999
 30
0.0
 10
-46.1005
 20
3.804899999999999
 30
0.0
 10
-46.1005
 20
3.804899999999999
 30
0.0
 10
-46.08179999999999
 20
3.748499999999999
 30
0.0
 10
-46.07169999999999
 20
3.688299999999999
 30
0.0
 10
-46.07169999999999
 20
3.6257
 30
0.0
 10
-46.07169999999999
 20
3.423299999999999
 30
0.0
 10
-46.1772
 20
3.245499999999999
 30
0.0
 10
-46.3363
 20
3.144499999999999
 30
0.0
 10
-46.3363
 20
3.144499999999999
 30
0.0
 10
-44.99649999999999
 20
0.3104
 30
0.0
 10
-44.99649999999999
 20
0.3104
 30
0.0
 10
-44.9404
 20
0.3288
 30
0.0
 10
-44.8805
 20
0.3388
 30
0.0
 10
-44.8183
 20
0.3388
 30
0.0
 10
-44.6262
 20
0.3388
 30
0.0
 10
-44.4564
 20
0.2438
 30
0.0
 10
-44.35319999999999
 20
0.0983
 30
0.0
  0
SPLINE
  5
B2
330
1F
100
AcDbEntity
  8
Layer 1
 62
     3
370
    20
100
AcDbSpline
210
0.0
220
0.0
230
1.0
 70
     9
 71
     3
 72
    38
 73
    34
 74
     0
 42
0.000000001
 43
0.0000000001
 40
0.0
 40
0.0
 40
0.0
 40
0.0
 40
0.0909090909090909
 40
0.0909090909090909
 40
0.0909090909090909
 40
0.1818181818181818
 40
0.1818181818181818
 40
0.1818181818181818
 40
0.2727272727272727
 40
0.2727272727272727
 40
0.2727272727272727
 40
0.3636363636363636
 40
0.3636363636363636
 40
0.3636363636363636
 40
0.4545454545454546
 40
0.4545454545454546
 40
0.4545454545454546
 40
0.5454545454545455
 40
0.5454545454545455
 40
0.5454545454545455
 40
0.6363636363636364
 40
0.6363636363636364
 40
0.6363636363636364
 40
0.7272727272727274
 40
0.7272727272727274
 40
0.7272727272727274
 40
0.8181818181818181
 40
0.8181818181818181
 40
0.8181818181818181
 40
0.9090909090909091
 40
0.9090909090909091
 40
0.9090909090909091
 40
1.0
 40
1.0
 40
1.0
 40
1.0
 10
-36.68610000000001
 20
0.2393
 30
0.0
 10
-36.68610000000001
 20
0.2393
 30
0.0
 10
-44.2815
 20
-0.0395
 30
0.0
 10
-44.2815
 20
-0.0395
 30
0.0
 10
-44.2602
 20
-0.0993
 30
0.0
 10
-44.2486
 20
-0.1636
 30
0.0
 10
-44.2486
 20
-0.2307
 30
0.0
 10
-44.2486
 20
-0.3425
 30
0.0
 10
-44.2807
 20
-0.4467
 30
0.0
 10
-44.33629999999999
 20
-0.5346
 30
0.0
 10
-44.33629999999999
 20
-0.5346
 30
0.0
 10
-42.89229999999999
 20
-2.9668
 30
0.0
 10
-42.89229999999999
 20
-2.9668
 30
0.0
 10
-42.8575
 20
-2.9602
 30
0.0
 10
-42.8216
 20
-2.9567
 30
0.0
 10
-42.7849
 20
-2.9567
 30
0.0
 10
-42.5635
 20
-2.9567
 30
0.0
 10
-42.3716
 20
-3.0828
 30
0.0
 10
-42.2773
 20
-3.267199999999999
 30
0.0
 10
-42.2773
 20
-3.267199999999999
 30
0.0
 10
-33.7057
 20
-0.1503
 30
0.0
 10
-33.7057
 20
-0.1503
 30
0.0
 10
-33.7608
 20
-0.0766
 30
0.0
 10
-33.7982
 20
0.0107
 30
0.0
 10
-33.8123
 20
0.1058
 30
0.0
 10
-33.8123
 20
0.1058
 30
0.0
 10
-35.6216
 20
0.0609
 30
0.0
 10
-35.6216
 20
0.0609
 30
0.0
 10
-35.7177
 20
-0.118
 30
0.0
 10
-35.9064
 20
-0.2395
 30
0.0
 10
-36.1237
 20
-0.2395
 30
0.0
 10
-36.4074
 20
-0.2395
 30
0.0
 10
-36.6426
 20
-0.0322
 30
0.0
 10
-36.68610000000001
 20
0.2393
 30
0.0
  0
SPLINE
  5
B4
330
1F
100
AcDbEntity
  8
Layer 1
 62
     3
370
    20
100
AcDbSpline
210
0.0
220
0.0
230
1.0
 70
     9
 71
     3
 72
    38
 73
    34
 74
     0
 42
0.000000001
 43
0.0000000001
 40
0.0
 40
0.0
 40
0.0
 40
0.0
 40
0.0909090909090909
 40
0.0909090909090909
 40
0.0909090909090909
 40
0.1818181818181818
 40
0.1818181818181818
 40
0.1818181818181818
 40
0.2727272727272727
 40
0.2727272727272727
 40
0.2727272727272727
 40
0.3636363636363636
 40
0.3636363636363636
 40
0.3636363636363636
 40
0.4545454545454546
 40
0.4545454545454546
 40
0.4545454545454546
 40
0.5454545454545455
 40
0.5454545454545455
 40
0.5454545454545455
 40
0.6363636363636364
 40
0.6363636363636364
 40
0.6363636363636364
 40
0.7272727272727274
 40
0.7272727272727274
 40
0.7272727272727274
 40
0.8181818181818181
 40
0.8181818181818181
 40
0.8181818181818181
 40
0.9090909090909091
 40
0.9090909090909091
 40
0.9090909090909091
 40
1.0
 40
1.0
 40
1.0
 40
1.0
 10
-33.59770000000001
 20
-0.2603
 30
0.0
 10
-33.59770000000001
 20
-0.2603
 30
0.0
 10
-42.22949999999999
 20
-3.398899999999999
 30
0.0
 10
-42.22949999999999
 20
-3.398899999999999
 30
0.0
 10
-42.22019999999999
 20
-3.439999999999999
 30
0.0
 10
-42.2152
 20
-3.482499999999999
 30
0.0
 10
-42.2152
 20
-3.526299999999999
 30
0.0
 10
-42.2152
 20
-3.7715
 30
0.0
 10
-42.37
 20
-3.9803
 30
0.0
 10
-42.5872
 20
-4.060599999999999
 30
0.0
 10
-42.5872
 20
-4.060599999999999
 30
0.0
 10
-42.2853
 20
-5.343899999999999
 30
0.0
 10
-42.2853
 20
-5.343899999999999
 30
0.0
 10
-42.26519999999999
 20
-5.3417
 30
0.0
 10
-42.2447
 20
-5.3407
 30
0.0
 10
-42.22389999999999
 20
-5.3407
 30
0.0
 10
-41.9409
 20
-5.3407
 30
0.0
 10
-41.7063
 20
-5.546899999999999
 30
0.0
 10
-41.6619
 20
-5.8173
 30
0.0
 10
-41.6619
 20
-5.8173
 30
0.0
 10
-32.4142
 20
-5.4423
 30
0.0
 10
-32.4142
 20
-5.4423
 30
0.0
 10
-32.3959
 20
-5.219999999999999
 30
0.0
 10
-32.2502
 20
-5.033999999999999
 30
0.0
 10
-32.0502
 20
-4.957399999999999
 30
0.0
 10
-32.0502
 20
-4.957399999999999
 30
0.0
 10
-33.1814
 20
-0.3757
 30
0.0
 10
-33.1814
 20
-0.3757
 30
0.0
 10
-33.2035
 20
-0.3784
 30
0.0
 10
-33.226
 20
-0.3797
 30
0.0
 10
-33.2488
 20
-0.3797
 30
0.0
 10
-33.3803
 20
-0.3797
 30
0.0
 10
-33.5013
 20
-0.3351
 30
0.0
 10
-33.59770000000001
 20
-0.2603
 30
0.0
  0
SPLINE
  5
B6
330
1F
100
AcDbEntity
  8
Layer 1
 62
     3
370
    20
100
AcDbSpline
210
0.0
220
0.0
230
1.0
 70
    11
 71
     3
 72
    35
 73
    31
 74
     0
 42
0.000000001
 43
0.0000000001
 40
0.0
 40
0.0
 40
0.0
 40
0.0
 40
0.1
 40
0.1
 40
0.1
 40
0.2
 40
0.2
 40
0.2
 40
0.3
 40
0.3
 40
0.3
 40
0.4
 40
0.4
 40
0.4
 40
0.5
 40
0.5
 40
0.5
 40
0.6000000000000001
 40
0.6000000000000001
 40
0.6000000000000001
 40
0.7000000000000001
 40
0.7000000000000001
 40
0.7000000000000001
 40
0.8
 40
0.8
 40
0.8
 40
0.9
 40
0.9
 40
0.9
 40
1.0
 40
1.0
 40
1.0
 40
1.0
 10
-32.4301
 20
-5.583499999999999
 30
0.0
 10
-32.4301
 20
-5.583499999999999
 30
0.0
 10
-41.65619999999999
 20
-5.957499999999999
 30
0.0
 10
-41.65619999999999
 20
-5.957499999999999
 30
0.0
 10
-41.6803
 20
-6.250099999999999
 30
0.0
 10
-41.9251
 20
-6.479899999999999
 30
0.0
 10
-42.22389999999999
 20
-6.479899999999999
 30
0.0
 10
-42.3616
 20
-6.479899999999999
 30
0.0
 10
-42.4879
 20
-6.431
 30
0.0
 10
-42.58639999999999
 20
-6.3498
 30
0.0
 10
-42.58639999999999
 20
-6.3498
 30
0.0
 10
-44.35929999999999
 20
-8.026899999999999
 30
0.0
 10
-44.35929999999999
 20
-8.026899999999999
 30
0.0
 10
-44.2898
 20
-8.121399999999999
 30
0.0
 10
-44.2486
 20
-8.238099999999999
 30
0.0
 10
-44.2486
 20
-8.364399999999999
 30
0.0
 10
-44.2486
 20
-8.425399999999999
 30
0.0
 10
-44.2582
 20
-8.484099999999999
 30
0.0
 10
-44.276
 20
-8.539199999999999
 30
0.0
 10
-44.276
 20
-8.539199999999999
 30
0.0
 10
-42.4836
 20
-9.3724
 30
0.0
 10
-42.4836
 20
-9.3724
 30
0.0
 10
-42.3905
 20
-9.3061
 30
0.0
 10
-42.2768
 20
-9.2673
 30
0.0
 10
-42.15379999999999
 20
-9.2673
 30
0.0
 10
-41.9683
 20
-9.2673
 30
0.0
 10
-41.8036
 20
-9.3559
 30
0.0
 10
-41.69959999999999
 20
-9.4931
 30
0.0
 10
-41.69959999999999
 20
-9.4931
 30
0.0
 10
-32.4301
 20
-5.583499999999999
 30
0.0
 10
-32.4301
 20
-5.583499999999999
 30
0.0
  0
SPLINE
  5
B8
330
1F
100
AcDbEntity
  8
Layer 1
 62
     3
370
    20
100
AcDbSpline
210
0.0
220
0.0
230
1.0
 70
     9
 71
     3
 72
    26
 73
    22
 74
     0
 42
0.000000001
 43
0.0000000001
 40
0.0
 40
0.0
 40
0.0
 40
0.0
 40
0.1428571428571428
 40
0.1428571428571428
 40
0.1428571428571428
 40
0.2857142857142857
 40
0.2857142857142857
 40
0.2857142857142857
 40
0.4285714285714285
 40
0.4285714285714285
 40
0.4285714285714285
 40
0.5714285714285714
 40
0.5714285714285714
 40
0.5714285714285714
 40
0.7142857142857143
 40
0.7142857142857143
 40
0.7142857142857143
 40
0.8571428571428571
 40
0.8571428571428571
 40
0.8571428571428571
 40
1.0
 40
1.0
 40
1.0
 40
1.0
 10
-51.1932
 20
-0.1727
 30
0.0
 10
-51.1932
 20
-0.1727
 30
0.0
 10
-49.0281
 20
-0.2187
 30
0.0
 10
-49.0281
 20
-0.2187
 30
0.0
 10
-49.0011
 20
-0.0316
 30
0.0
 10
-48.8831
 20
0.1261
 30
0.0
 10
-48.7204
 20
0.2081
 30
0.0
 10
-48.7204
 20
0.2081
 30
0.0
 10
-49.7425
 20
3.0697
 30
0.0
 10
-49.7425
 20
3.0697
 30
0.0
 10
-49.7825
 20
3.060799999999999
 30
0.0
 10
-49.824
 20
3.056099999999999
 30
0.0
 10
-49.8667
 20
3.056099999999999
 30
0.0
 10
-50.0361
 20
3.056099999999999
 30
0.0
 10
-50.1881
 20
3.129999999999999
 30
0.0
 10
-50.2925
 20
3.247199999999999
 30
0.0
 10
-50.2925
 20
3.247199999999999
 30
0.0
 10
-51.5093
 20
0.2809
 30
0.0
 10
-51.5093
 20
0.2809
 30
0.0
 10
-51.3368
 20
0.1964
 30
0.0
 10
-51.2134
 20
0.0271
 30
0.0
 10
-51.1932
 20
-0.1727
 30
0.0
  0
SPLINE
  5
BA
330
1F
100
AcDbEntity
  8
Layer 1
 62
     3
370
    20
100
AcDbSpline
210
0.0
220
0.0
230
1.0
 70
     9
 71
     3
 72
    26
 73
    22
 74
     0
 42
0.000000001
 43
0.0000000001
 40
0.0
 40
0.0
 40
0.0
 40
0.0
 40
0.1428571428571428
 40
0.1428571428571428
 40
0.1428571428571428
 40
0.2857142857142857
 40
0.2857142857142857
 40
0.2857142857142857
 40
0.4285714285714285
 40
0.4285714285714285
 40
0.4285714285714285
 40
0.5714285714285714
 40
0.5714285714285714
 40
0.5714285714285714
 40
0.7142857142857143
 40
0.7142857142857143
 40
0.7142857142857143
 40
0.8571428571428571
 40
0.8571428571428571
 40
0.8571428571428571
 40
1.0
 40
1.0
 40
1.0
 40
1.0
 10
-47.90049999999999
 20
-0.2198
 30
0.0
 10
-47.90049999999999
 20
-0.2198
 30
0.0
 10
-45.38479999999999
 20
-0.1716
 30
0.0
 10
-45.38479999999999
 20
-0.1716
 30
0.0
 10
-45.3664
 20
0.006
 30
0.0
 10
-45.2667
 20
0.1593
 30
0.0
 10
-45.1233
 20
0.2504
 30
0.0
 10
-45.1233
 20
0.2504
 30
0.0
 10
-46.46309999999999
 20
3.0846
 30
0.0
 10
-46.46309999999999
 20
3.0846
 30
0.0
 10
-46.51919999999999
 20
3.0661
 30
0.0
 10
-46.5791
 20
3.056099999999999
 30
0.0
 10
-46.64139999999999
 20
3.056099999999999
 30
0.0
 10
-46.7023
 20
3.056099999999999
 30
0.0
 10
-46.7608
 20
3.065599999999999
 30
0.0
 10
-46.8158
 20
3.083299999999999
 30
0.0
 10
-46.8158
 20
3.083299999999999
 30
0.0
 10
-48.1627
 20
0.1823
 30
0.0
 10
-48.1627
 20
0.1823
 30
0.0
 10
-48.0235
 20
0.0952
 30
0.0
 10
-47.9247
 20
-0.0502
 30
0.0
 10
-47.90049999999999
 20
-0.2198
 30
0.0
  0
SPLINE
  5
BC
330
1F
100
AcDbEntity
  8
Layer 1
 62
     3
370
    20
100
AcDbSpline
210
0.0
220
0.0
230
1.0
 70
     9
 71
     3
 72
    26
 73
    22
 74
     0
 42
0.000000001
 43
0.0000000001
 40
0.0
 40
0.0
 40
0.0
 40
0.0
 40
0.1428571428571428
 40
0.1428571428571428
 40
0.1428571428571428
 40
0.2857142857142857
 40
0.2857142857142857
 40
0.2857142857142857
 40
0.4285714285714285
 40
0.4285714285714285
 40
0.4285714285714285
 40
0.5714285714285714
 40
0.5714285714285714
 40
0.5714285714285714
 40
0.7142857142857143
 40
0.7142857142857143
 40
0.7142857142857143
 40
0.8571428571428571
 40
0.8571428571428571
 40
0.8571428571428571
 40
1.0
 40
1.0
 40
1.0
 40
1.0
 10
-46.94300000000001
 20
3.142399999999999
 30
0.0
 10
-47.0751
 20
3.225099999999999
 30
0.0
 10
-47.1708
 20
3.360399999999999
 30
0.0
 10
-47.20089999999999
 20
3.518999999999999
 30
0.0
 10
-47.20089999999999
 20
3.518999999999999
 30
0.0
 10
-49.3024
 20
3.5478
 30
0.0
 10
-49.3024
 20
3.5478
 30
0.0
 10
-49.3282
 20
3.3588
 30
0.0
 10
-49.4467
 20
3.199399999999999
 30
0.0
 10
-49.61059999999999
 20
3.1168
 30
0.0
 10
-49.61059999999999
 20
3.1168
 30
0.0
 10
-48.58859999999999
 20
0.2551
 30
0.0
 10
-48.58859999999999
 20
0.2551
 30
0.0
 10
-48.5486
 20
0.264
 30
0.0
 10
-48.5071
 20
0.2687
 30
0.0
 10
-48.4644
 20
0.2687
 30
0.0
 10
-48.4035
 20
0.2687
 30
0.0
 10
-48.3448
 20
0.2592
 30
0.0
 10
-48.28990000000001
 20
0.2415
 30
0.0
 10
-48.28990000000001
 20
0.2415
 30
0.0
 10
-46.94300000000001
 20
3.142399999999999
 30
0.0
 10
-46.94300000000001
 20
3.142399999999999
 30
0.0
  0
SPLINE
  5
BE
330
1F
100
AcDbEntity
  8
Layer 1
 62
     3
370
    20
100
AcDbSpline
210
0.0
220
0.0
230
1.0
 70
     9
 71
     3
 72
    59
 73
    55
 74
     0
 42
0.000000001
 43
0.0000000001
 40
0.0
 40
0.0
 40
0.0
 40
0.0
 40
0.0555555555555556
 40
0.0555555555555556
 40
0.0555555555555556
 40
0.1111111111111111
 40
0.1111111111111111
 40
0.1111111111111111
 40
0.1666666666666667
 40
0.1666666666666667
 40
0.1666666666666667
 40
0.2222222222222222
 40
0.2222222222222222
 40
0.2222222222222222
 40
0.2777777777777778
 40
0.2777777777777778
 40
0.2777777777777778
 40
0.3333333333333333
 40
0.3333333333333333
 40
0.3333333333333333
 40
0.3888888888888888
 40
0.3888888888888888
 40
0.3888888888888888
 40
0.4444444444444445
 40
0.4444444444444445
 40
0.4444444444444445
 40
0.5
 40
0.5
 40
0.5
 40
0.5555555555555556
 40
0.5555555555555556
 40
0.5555555555555556
 40
0.6111111111111109
 40
0.6111111111111109
 40
0.6111111111111109
 40
0.6666666666666666
 40
0.6666666666666666
 40
0.6666666666666666
 40
0.7222222222222223
 40
0.7222222222222223
 40
0.7222222222222223
 40
0.7777777777777777
 40
0.7777777777777777
 40
0.7777777777777777
 40
0.8333333333333332
 40
0.8333333333333332
 40
0.8333333333333332
 40
0.8888888888888889
 40
0.8888888888888889
 40
0.8888888888888889
 40
0.9444444444444444
 40
0.9444444444444444
 40
0.9444444444444444
 40
1.0
 40
1.0
 40
1.0
 40
1.0
 10
-46.16069999999999
 20
3.9317
 30
0.0
 10
-46.16069999999999
 20
3.9317
 30
0.0
 10
-41.3703
 20
6.2068
 30
0.0
 10
-41.3703
 20
6.2068
 30
0.0
 10
-41.3839
 20
6.2556
 30
0.0
 10
-41.3912
 20
6.3071
 30
0.0
 10
-41.3912
 20
6.360299999999999
 30
0.0
 10
-41.3912
 20
6.4195
 30
0.0
 10
-41.38209999999999
 20
6.4766
 30
0.0
 10
-41.3654
 20
6.5303
 30
0.0
 10
-41.3654
 20
6.5303
 30
0.0
 10
-44.1924
 20
7.815299999999999
 30
0.0
 10
-44.1924
 20
7.815299999999999
 30
0.0
 10
-44.2927
 20
7.6523
 30
0.0
 10
-44.47259999999999
 20
7.543599999999999
 30
0.0
 10
-44.678
 20
7.543599999999999
 30
0.0
 10
-44.96889999999999
 20
7.543599999999999
 30
0.0
 10
-45.2089
 20
7.761499999999999
 30
0.0
 10
-45.2434
 20
8.0431
 30
0.0
 10
-45.2434
 20
8.0431
 30
0.0
 10
-50.5635
 20
8.0431
 30
0.0
 10
-50.5635
 20
8.0431
 30
0.0
 10
-50.598
 20
7.761499999999999
 30
0.0
 10
-50.8379
 20
7.543599999999999
 30
0.0
 10
-51.1288
 20
7.543599999999999
 30
0.0
 10
-51.2774
 20
7.543599999999999
 30
0.0
 10
-51.4128
 20
7.600399999999999
 30
0.0
 10
-51.5141
 20
7.693599999999999
 30
0.0
 10
-51.5141
 20
7.693599999999999
 30
0.0
 10
-54.8526
 20
6.425399999999999
 30
0.0
 10
-54.8526
 20
6.425399999999999
 30
0.0
 10
-54.842
 20
6.3821
 30
0.0
 10
-54.8364
 20
6.3367
 30
0.0
 10
-54.8364
 20
6.290099999999999
 30
0.0
 10
-54.8364
 20
6.226499999999999
 30
0.0
 10
-54.8467
 20
6.165199999999999
 30
0.0
 10
-54.8661
 20
6.1081
 30
0.0
 10
-54.8661
 20
6.1081
 30
0.0
 10
-50.3459
 20
3.9338
 30
0.0
 10
-50.3459
 20
3.9338
 30
0.0
 10
-50.2445
 20
4.091199999999999
 30
0.0
 10
-50.0679
 20
4.195299999999999
 30
0.0
 10
-49.8667
 20
4.195299999999999
 30
0.0
 10
-49.57309999999999
 20
4.195299999999999
 30
0.0
 10
-49.3316
 20
3.973399999999999
 30
0.0
 10
-49.3005
 20
3.688
 30
0.0
 10
-49.3005
 20
3.688
 30
0.0
 10
-47.20989999999999
 20
3.6594
 30
0.0
 10
-47.20989999999999
 20
3.6594
 30
0.0
 10
-47.1925
 20
3.9584
 30
0.0
 10
-46.94469999999999
 20
4.195299999999999
 30
0.0
 10
-46.64139999999999
 20
4.195299999999999
 30
0.0
 10
-46.4393
 20
4.195299999999999
 30
0.0
 10
-46.2618
 20
4.0903
 30
0.0
 10
-46.16069999999999
 20
3.9317
 30
0.0
  0
SPLINE
  5
C0
330
1F
100
AcDbEntity
  8
Layer 1
 62
     3
370
    20
100
AcDbSpline
210
0.0
220
0.0
230
1.0
 70
     9
 71
     3
 72
    29
 73
    25
 74
     0
 42
0.000000001
 43
0.0000000001
 40
0.0
 40
0.0
 40
0.0
 40
0.0
 40
0.125
 40
0.125
 40
0.125
 40
0.25
 40
0.25
 40
0.25
 40
0.375
 40
0.375
 40
0.375
 40
0.5
 40
0.5
 40
0.5
 40
0.625
 40
0.625
 40
0.625
 40
0.75
 40
0.75
 40
0.75
 40
0.875
 40
0.875
 40
0.875
 40
1.0
 40
1.0
 40
1.0
 40
1.0
 10
-24.9414
 20
28.0859
 30
0.0
 10
-24.9414
 20
28.0859
 30
0.0
 10
-29.3976
 20
33.1278
 30
0.0
 10
-29.3976
 20
33.1278
 30
0.0
 10
-29.4893
 20
33.065
 30
0.0
 10
-29.6001
 20
33.0283
 30
0.0
 10
-29.7197
 20
33.0283
 30
0.0
 10
-29.7636
 20
33.0283
 30
0.0
 10
-29.8063
 20
33.0331
 30
0.0
 10
-29.8474
 20
33.0426
 30
0.0
 10
-29.8474
 20
33.0426
 30
0.0
 10
-30.6308
 20
30.5094
 30
0.0
 10
-30.6308
 20
30.5094
 30
0.0
 10
-30.433
 20
30.4202
 30
0.0
 10
-30.2952
 20
30.2213
 30
0.0
 10
-30.2952
 20
29.99
 30
0.0
 10
-30.2952
 20
29.9483
 30
0.0
 10
-30.2996
 20
29.9077
 30
0.0
 10
-30.3082
 20
29.8686
 30
0.0
 10
-30.3082
 20
29.8686
 30
0.0
 10
-24.9942
 20
27.9999
 30
0.0
 10
-24.9942
 20
27.9999
 30
0.0
 10
-24.9791
 20
28.0302
 30
0.0
 10
-24.9614
 20
28.059
 30
0.0
 10
-24.9414
 20
28.0859
 30
0.0
  0
SPLINE
  5
C2
330
1F
100
AcDbEntity
  8
Layer 1
 62
     3
370
    20
100
AcDbSpline
210
0.0
220
0.0
230
1.0
 70
     9
 71
     3
 72
    47
 73
    43
 74
     0
 42
0.000000001
 43
0.0000000001
 40
0.0
 40
0.0
 40
0.0
 40
0.0
 40
0.0714285714285714
 40
0.0714285714285714
 40
0.0714285714285714
 40
0.1428571428571428
 40
0.1428571428571428
 40
0.1428571428571428
 40
0.2142857142857143
 40
0.2142857142857143
 40
0.2142857142857143
 40
0.2857142857142857
 40
0.2857142857142857
 40
0.2857142857142857
 40
0.3571428571428571
 40
0.3571428571428571
 40
0.3571428571428571
 40
0.4285714285714285
 40
0.4285714285714285
 40
0.4285714285714285
 40
0.5
 40
0.5
 40
0.5
 40
0.5714285714285714
 40
0.5714285714285714
 40
0.5714285714285714
 40
0.6428571428571428
 40
0.6428571428571428
 40
0.6428571428571428
 40
0.7142857142857143
 40
0.7142857142857143
 40
0.7142857142857143
 40
0.7857142857142857
 40
0.7857142857142857
 40
0.7857142857142857
 40
0.8571428571428571
 40
0.8571428571428571
 40
0.8571428571428571
 40
0.9285714285714284
 40
0.9285714285714284
 40
0.9285714285714284
 40
1.0
 40
1.0
 40
1.0
 40
1.0
 10
-29.2925
 20
33.2208
 30
0.0
 10
-29.2925
 20
33.2208
 30
0.0
 10
-24.844
 20
28.1878
 30
0.0
 10
-24.844
 20
28.1878
 30
0.0
 10
-24.7464
 20
28.2675
 30
0.0
 10
-24.6217
 20
28.3153
 30
0.0
 10
-24.486
 20
28.3158
 30
0.0
 10
-24.486
 20
28.3158
 30
0.0
 10
-20.075
 20
35.3904
 30
0.0
 10
-20.075
 20
35.3904
 30
0.0
 10
-20.2037
 20
35.4948
 30
0.0
 10
-20.286
 20
35.6543
 30
0.0
 10
-20.286
 20
35.833
 30
0.0
 10
-20.286
 20
36.1016
 30
0.0
 10
-20.1006
 20
36.3266
 30
0.0
 10
-19.8507
 20
36.3869
 30
0.0
 10
-19.8507
 20
36.3869
 30
0.0
 10
-20.3761
 20
40.9665
 30
0.0
 10
-20.3761
 20
40.9665
 30
0.0
 10
-20.6251
 20
40.9689
 30
0.0
 10
-20.836
 20
41.1308
 30
0.0
 10
-20.9111
 20
41.3551
 30
0.0
 10
-20.9111
 20
41.3551
 30
0.0
 10
-27.1884
 20
40.08359999999999
 30
0.0
 10
-27.1884
 20
40.08359999999999
 30
0.0
 10
-27.1873
 20
40.0692
 30
0.0
 10
-27.1868
 20
40.0546
 30
0.0
 10
-27.1868
 20
40.04
 30
0.0
 10
-27.1868
 20
39.7253
 30
0.0
 10
-27.4417
 20
39.4704
 30
0.0
 10
-27.7564
 20
39.4704
 30
0.0
 10
-27.7907
 20
39.4704
 30
0.0
 10
-27.8241
 20
39.4735
 30
0.0
 10
-27.8567
 20
39.4793
 30
0.0
 10
-27.8567
 20
39.4793
 30
0.0
 10
-29.5115
 20
34.1286
 30
0.0
 10
-29.5115
 20
34.1286
 30
0.0
 10
-29.2996
 20
34.0455
 30
0.0
 10
-29.1498
 20
33.8392
 30
0.0
 10
-29.1498
 20
33.5979
 30
0.0
 10
-29.1498
 20
33.4533
 30
0.0
 10
-29.2037
 20
33.3213
 30
0.0
 10
-29.2925
 20
33.2208
 30
0.0
  0
SPLINE
  5
C4
330
1F
100
AcDbEntity
  8
Layer 1
 62
     3
370
    20
100
AcDbSpline
210
0.0
220
0.0
230
1.0
 70
    11
 71
     3
 72
    53
 73
    49
 74
     0
 42
0.000000001
 43
0.0000000001
 40
0.0
 40
0.0
 40
0.0
 40
0.0
 40
0.0625
 40
0.0625
 40
0.0625
 40
0.125
 40
0.125
 40
0.125
 40
0.1875
 40
0.1875
 40
0.1875
 40
0.25
 40
0.25
 40
0.25
 40
0.3125
 40
0.3125
 40
0.3125
 40
0.375
 40
0.375
 40
0.375
 40
0.4375
 40
0.4375
 40
0.4375
 40
0.5
 40
0.5
 40
0.5
 40
0.5625
 40
0.5625
 40
0.5625
 40
0.625
 40
0.625
 40
0.625
 40
0.6875
 40
0.6875
 40
0.6875
 40
0.75
 40
0.75
 40
0.75
 40
0.8125
 40
0.8125
 40
0.8125
 40
0.875
 40
0.875
 40
0.875
 40
0.9375
 40
0.9375
 40
0.9375
 40
1.0
 40
1.0
 40
1.0
 40
1.0
 10
-71.24760000000001
 20
27.8249
 30
0.0
 10
-71.24760000000001
 20
27.8249
 30
0.0
 10
-66.6897
 20
33.3019
 30
0.0
 10
-66.6897
 20
33.3019
 30
0.0
 10
-66.78530000000001
 20
33.4038
 30
0.0
 10
-66.8439
 20
33.5408
 30
0.0
 10
-66.8439
 20
33.6916
 30
0.0
 10
-66.8439
 20
33.95580000000001
 30
0.0
 10
-66.6641
 20
34.1778
 30
0.0
 10
-66.4201
 20
34.2423
 30
0.0
 10
-66.4201
 20
34.2423
 30
0.0
 10
-67.5262
 20
39.0994
 30
0.0
 10
-67.5262
 20
39.0994
 30
0.0
 10
-67.545
 20
39.0976
 30
0.0
 10
-67.56399999999999
 20
39.0965
 30
0.0
 10
-67.58320000000001
 20
39.0965
 30
0.0
 10
-67.8982
 20
39.0965
 30
0.0
 10
-68.15319999999999
 20
39.3515
 30
0.0
 10
-68.15319999999999
 20
39.66620000000001
 30
0.0
 10
-68.15319999999999
 20
39.6942
 30
0.0
 10
-68.1511
 20
39.7217
 30
0.0
 10
-68.1472
 20
39.74860000000001
 30
0.0
 10
-68.1472
 20
39.74860000000001
 30
0.0
 10
-74.5359
 20
41.50529999999999
 30
0.0
 10
-74.5359
 20
41.50529999999999
 30
0.0
 10
-74.62130000000001
 20
41.29859999999999
 30
0.0
 10
-74.8249
 20
41.15319999999999
 30
0.0
 10
-75.0625
 20
41.15319999999999
 30
0.0
 10
-75.08110000000001
 20
41.15319999999999
 30
0.0
 10
-75.0995
 20
41.1542
 30
0.0
 10
-75.1177
 20
41.1559
 30
0.0
 10
-75.1177
 20
41.1559
 30
0.0
 10
-76.27290000000001
 20
35.9956
 30
0.0
 10
-76.27290000000001
 20
35.9956
 30
0.0
 10
-76.0527
 20
35.9169
 30
0.0
 10
-75.8952
 20
35.7064
 30
0.0
 10
-75.8952
 20
35.4591
 30
0.0
 10
-75.8952
 20
35.2801
 30
0.0
 10
-75.9777
 20
35.1205
 30
0.0
 10
-76.1067
 20
35.0161
 30
0.0
 10
-76.1067
 20
35.0161
 30
0.0
 10
-71.5715
 20
27.7275
 30
0.0
 10
-71.5715
 20
27.7275
 30
0.0
 10
-71.48050000000001
 20
27.7892
 30
0.0
 10
-71.3708
 20
27.825
 30
0.0
 10
-71.2526
 20
27.825
 30
0.0
 10
-71.2526
 20
27.825
 30
0.0
 10
-71.24760000000001
 20
27.8249
 30
0.0
 10
-71.24760000000001
 20
27.8249
 30
0.0
  0
SPLINE
  5
C6
330
1F
100
AcDbEntity
  8
Layer 1
 62
     3
370
    20
100
AcDbSpline
210
0.0
220
0.0
230
1.0
 70
     9
 71
     3
 72
    32
 73
    28
 74
     0
 42
0.000000001
 43
0.0000000001
 40
0.0
 40
0.0
 40
0.0
 40
0.0
 40
0.1111111111111111
 40
0.1111111111111111
 40
0.1111111111111111
 40
0.2222222222222222
 40
0.2222222222222222
 40
0.2222222222222222
 40
0.3333333333333333
 40
0.3333333333333333
 40
0.3333333333333333
 40
0.4444444444444445
 40
0.4444444444444445
 40
0.4444444444444445
 40
0.5555555555555556
 40
0.5555555555555556
 40
0.5555555555555556
 40
0.6666666666666666
 40
0.6666666666666666
 40
0.6666666666666666
 40
0.7777777777777777
 40
0.7777777777777777
 40
0.7777777777777777
 40
0.8888888888888889
 40
0.8888888888888889
 40
0.8888888888888889
 40
1.0
 40
1.0
 40
1.0
 40
1.0
 10
-66.58199999999999
 20
33.2122
 30
0.0
 10
-66.58199999999999
 20
33.2122
 30
0.0
 10
-71.08540000000001
 20
27.8001
 30
0.0
 10
-71.08540000000001
 20
27.8001
 30
0.0
 10
-70.96
 20
27.7617
 30
0.0
 10
-70.8529
 20
27.681
 30
0.0
 10
-70.78079999999999
 20
27.5748
 30
0.0
 10
-70.78079999999999
 20
27.5748
 30
0.0
 10
-66.1487
 20
29.9374
 30
0.0
 10
-66.1487
 20
29.9374
 30
0.0
 10
-66.1897
 20
30.0161
 30
0.0
 10
-66.2128
 20
30.1054
 30
0.0
 10
-66.2128
 20
30.2003
 30
0.0
 10
-66.2128
 20
30.515
 30
0.0
 10
-65.9579
 20
30.7699
 30
0.0
 10
-65.64319999999999
 20
30.7699
 30
0.0
 10
-65.64319999999999
 20
30.7699
 30
0.0
 10
-65.62949999999999
 20
30.7697
 30
0.0
 10
-65.62949999999999
 20
30.7697
 30
0.0
 10
-65.62949999999999
 20
30.7697
 30
0.0
 10
-66.1673
 20
33.132
 30
0.0
 10
-66.1673
 20
33.132
 30
0.0
 10
-66.202
 20
33.1254
 30
0.0
 10
-66.2377
 20
33.1219
 30
0.0
 10
-66.2743
 20
33.1219
 30
0.0
 10
-66.3877
 20
33.1219
 30
0.0
 10
-66.4933
 20
33.1551
 30
0.0
 10
-66.58199999999999
 20
33.2122
 30
0.0
  0
SPLINE
  5
C8
330
1F
100
AcDbEntity
  8
Layer 1
 62
     3
370
    20
100
AcDbSpline
210
0.0
220
0.0
230
1.0
 70
     9
 71
     3
 72
    38
 73
    34
 74
     0
 42
0.000000001
 43
0.0000000001
 40
0.0
 40
0.0
 40
0.0
 40
0.0
 40
0.0909090909090909
 40
0.0909090909090909
 40
0.0909090909090909
 40
0.1818181818181818
 40
0.1818181818181818
 40
0.1818181818181818
 40
0.2727272727272727
 40
0.2727272727272727
 40
0.2727272727272727
 40
0.3636363636363636
 40
0.3636363636363636
 40
0.3636363636363636
 40
0.4545454545454546
 40
0.4545454545454546
 40
0.4545454545454546
 40
0.5454545454545455
 40
0.5454545454545455
 40
0.5454545454545455
 40
0.6363636363636364
 40
0.6363636363636364
 40
0.6363636363636364
 40
0.7272727272727274
 40
0.7272727272727274
 40
0.7272727272727274
 40
0.8181818181818181
 40
0.8181818181818181
 40
0.8181818181818181
 40
0.9090909090909091
 40
0.9090909090909091
 40
0.9090909090909091
 40
1.0
 40
1.0
 40
1.0
 40
1.0
 10
-63.1987
 20
35.8643
 30
0.0
 10
-63.1987
 20
35.8643
 30
0.0
 10
-67.1971
 20
39.2474
 30
0.0
 10
-67.1971
 20
39.2474
 30
0.0
 10
-67.2522
 20
39.1965
 30
0.0
 10
-67.31740000000001
 20
39.1563
 30
0.0
 10
-67.38949999999999
 20
39.1303
 30
0.0
 10
-67.38949999999999
 20
39.1303
 30
0.0
 10
-66.28060000000001
 20
34.2611
 30
0.0
 10
-66.28060000000001
 20
34.2611
 30
0.0
 10
-66.28060000000001
 20
34.2611
 30
0.0
 10
-66.2743
 20
34.2612
 30
0.0
 10
-66.2743
 20
34.2612
 30
0.0
 10
-65.95959999999999
 20
34.2612
 30
0.0
 10
-65.7046
 20
34.0063
 30
0.0
 10
-65.7046
 20
33.6916
 30
0.0
 10
-65.7046
 20
33.4631
 30
0.0
 10
-65.8391
 20
33.266
 30
0.0
 10
-66.03329999999999
 20
33.1753
 30
0.0
 10
-66.03329999999999
 20
33.1753
 30
0.0
 10
-65.48009999999999
 20
30.7461
 30
0.0
 10
-65.48009999999999
 20
30.7461
 30
0.0
 10
-65.4644
 20
30.7414
 30
0.0
 10
-65.44889999999999
 20
30.736
 30
0.0
 10
-65.4338
 20
30.7301
 30
0.0
 10
-65.4338
 20
30.7301
 30
0.0
 10
-63.0541
 20
35.0898
 30
0.0
 10
-63.0541
 20
35.0898
 30
0.0
 10
-63.1978
 20
35.1932
 30
0.0
 10
-63.2914
 20
35.3619
 30
0.0
 10
-63.2914
 20
35.5525
 30
0.0
 10
-63.2914
 20
35.6676
 30
0.0
 10
-63.2573
 20
35.7747
 30
0.0
 10
-63.1987
 20
35.8643
 30
0.0
  0
SPLINE
  5
CA
330
1F
100
AcDbEntity
  8
Layer 1
 62
     3
370
    20
100
AcDbSpline
210
0.0
220
0.0
230
1.0
 70
     9
 71
     3
 72
    26
 73
    22
 74
     0
 42
0.000000001
 43
0.0000000001
 40
0.0
 40
0.0
 40
0.0
 40
0.0
 40
0.1428571428571428
 40
0.1428571428571428
 40
0.1428571428571428
 40
0.2857142857142857
 40
0.2857142857142857
 40
0.2857142857142857
 40
0.4285714285714285
 40
0.4285714285714285
 40
0.4285714285714285
 40
0.5714285714285714
 40
0.5714285714285714
 40
0.5714285714285714
 40
0.7142857142857143
 40
0.7142857142857143
 40
0.7142857142857143
 40
0.8571428571428571
 40
0.8571428571428571
 40
0.8571428571428571
 40
1.0
 40
1.0
 40
1.0
 40
1.0
 10
-67.1063
 20
39.3545
 30
0.0
 10
-67.1063
 20
39.3545
 30
0.0
 10
-63.1081
 20
35.9714
 30
0.0
 10
-63.1081
 20
35.9714
 30
0.0
 10
-63.0374
 20
36.0366
 30
0.0
 10
-62.9503
 20
36.08420000000001
 30
0.0
 10
-62.8536
 20
36.1071
 30
0.0
 10
-62.8536
 20
36.1071
 30
0.0
 10
-63.3372
 20
40.499
 30
0.0
 10
-63.3372
 20
40.499
 30
0.0
 10
-63.5712
 20
40.5022
 30
0.0
 10
-63.7711
 20
40.6465
 30
0.0
 10
-63.8558
 20
40.8506
 30
0.0
 10
-63.8558
 20
40.8506
 30
0.0
 10
-67.0935
 20
39.9573
 30
0.0
 10
-67.0935
 20
39.9573
 30
0.0
 10
-67.0427
 20
39.8722
 30
0.0
 10
-67.0136
 20
39.7726
 30
0.0
 10
-67.0136
 20
39.66620000000001
 30
0.0
 10
-67.0136
 20
39.5511
 30
0.0
 10
-67.0477
 20
39.444
 30
0.0
 10
-67.1063
 20
39.3545
 30
0.0
  0
SPLINE
  5
CC
330
1F
100
AcDbEntity
  8
Layer 1
 62
     3
370
    20
100
AcDbSpline
210
0.0
220
0.0
230
1.0
 70
     9
 71
     3
 72
    26
 73
    22
 74
     0
 42
0.000000001
 43
0.0000000001
 40
0.0
 40
0.0
 40
0.0
 40
0.0
 40
0.1428571428571428
 40
0.1428571428571428
 40
0.1428571428571428
 40
0.2857142857142857
 40
0.2857142857142857
 40
0.2857142857142857
 40
0.4285714285714285
 40
0.4285714285714285
 40
0.4285714285714285
 40
0.5714285714285714
 40
0.5714285714285714
 40
0.5714285714285714
 40
0.7142857142857143
 40
0.7142857142857143
 40
0.7142857142857143
 40
0.8571428571428571
 40
0.8571428571428571
 40
0.8571428571428571
 40
1.0
 40
1.0
 40
1.0
 40
1.0
 10
-67.1882
 20
40.0767
 30
0.0
 10
-67.1882
 20
40.0767
 30
0.0
 10
-63.893
 20
40.9858
 30
0.0
 10
-63.893
 20
40.9858
 30
0.0
 10
-63.8969
 20
41.0128
 30
0.0
 10
-63.8989
 20
41.0404
 30
0.0
 10
-63.8989
 20
41.0685
 30
0.0
 10
-63.8989
 20
41.0685
 30
0.0
 10
-63.8985
 20
41.09119999999999
 30
0.0
 10
-63.8985
 20
41.09119999999999
 30
0.0
 10
-63.8985
 20
41.09119999999999
 30
0.0
 10
-74.836
 20
44.3348
 30
0.0
 10
-74.836
 20
44.3348
 30
0.0
 10
-74.836
 20
44.3348
 30
0.0
 10
-67.72499999999999
 20
40.2181
 30
0.0
 10
-67.72499999999999
 20
40.2181
 30
0.0
 10
-67.6797
 20
40.22969999999999
 30
0.0
 10
-67.6322
 20
40.23579999999999
 30
0.0
 10
-67.58320000000001
 20
40.23579999999999
 30
0.0
 10
-67.4298
 20
40.23579999999999
 30
0.0
 10
-67.2906
 20
40.1752
 30
0.0
 10
-67.1882
 20
40.0767
 30
0.0
  0
SPLINE
  5
CE
330
1F
100
AcDbEntity
  8
Layer 1
 62
     3
370
    20
100
AcDbSpline
210
0.0
220
0.0
230
1.0
 70
     9
 71
     3
 72
    26
 73
    22
 74
     0
 42
0.000000001
 43
0.0000000001
 40
0.0
 40
0.0
 40
0.0
 40
0.0
 40
0.1428571428571428
 40
0.1428571428571428
 40
0.1428571428571428
 40
0.2857142857142857
 40
0.2857142857142857
 40
0.2857142857142857
 40
0.4285714285714285
 40
0.4285714285714285
 40
0.4285714285714285
 40
0.5714285714285714
 40
0.5714285714285714
 40
0.5714285714285714
 40
0.7142857142857143
 40
0.7142857142857143
 40
0.7142857142857143
 40
0.8571428571428571
 40
0.8571428571428571
 40
0.8571428571428571
 40
1.0
 40
1.0
 40
1.0
 40
1.0
 10
-67.8856
 20
40.1492
 30
0.0
 10
-67.8856
 20
40.1492
 30
0.0
 10
-74.9354
 20
44.2306
 30
0.0
 10
-74.9354
 20
44.2306
 30
0.0
 10
-75.01349999999999
 20
44.1277
 30
0.0
 10
-75.1257
 20
44.0521
 30
0.0
 10
-75.2553
 20
44.0208
 30
0.0
 10
-75.2553
 20
44.0208
 30
0.0
 10
-75.0571
 20
42.2927
 30
0.0
 10
-75.0571
 20
42.2927
 30
0.0
 10
-74.7449
 20
42.28979999999999
 30
0.0
 10
-74.49290000000001
 20
42.036
 30
0.0
 10
-74.49290000000001
 20
41.7229
 30
0.0
 10
-74.49290000000001
 20
41.695
 30
0.0
 10
-74.4949
 20
41.6677
 30
0.0
 10
-74.4988
 20
41.6408
 30
0.0
 10
-74.4988
 20
41.6408
 30
0.0
 10
-68.1101
 20
39.8838
 30
0.0
 10
-68.1101
 20
39.8838
 30
0.0
 10
-68.06449999999999
 20
39.9939
 30
0.0
 10
-67.9855
 20
40.08659999999999
 30
0.0
 10
-67.8856
 20
40.1492
 30
0.0
  0
SPLINE
  5
D0
330
1F
100
AcDbEntity
  8
Layer 1
 62
     3
370
    20
100
AcDbSpline
210
0.0
220
0.0
230
1.0
 70
     9
 71
     3
 72
    23
 73
    19
 74
     0
 42
0.000000001
 43
0.0000000001
 40
0.0
 40
0.0
 40
0.0
 40
0.0
 40
0.1666666666666667
 40
0.1666666666666667
 40
0.1666666666666667
 40
0.3333333333333333
 40
0.3333333333333333
 40
0.3333333333333333
 40
0.5
 40
0.5
 40
0.5
 40
0.6666666666666666
 40
0.6666666666666666
 40
0.6666666666666666
 40
0.8333333333333332
 40
0.8333333333333332
 40
0.8333333333333332
 40
1.0
 40
1.0
 40
1.0
 40
1.0
 10
-75.1968
 20
42.2768
 30
0.0
 10
-75.1968
 20
42.2768
 30
0.0
 10
-75.395
 20
44.0049
 30
0.0
 10
-75.395
 20
44.0049
 30
0.0
 10
-75.61499999999999
 20
44.00689999999999
 30
0.0
 10
-75.8051
 20
44.1335
 30
0.0
 10
-75.8982
 20
44.31759999999999
 30
0.0
 10
-75.8982
 20
44.31759999999999
 30
0.0
 10
-79.411
 20
41.53649999999999
 30
0.0
 10
-79.411
 20
41.53649999999999
 30
0.0
 10
-79.36969999999999
 20
41.4778
 30
0.0
 10
-79.3391
 20
41.4108
 30
0.0
 10
-79.3222
 20
41.3386
 30
0.0
 10
-79.3222
 20
41.3386
 30
0.0
 10
-75.63209999999999
 20
41.7327
 30
0.0
 10
-75.63209999999999
 20
41.7327
 30
0.0
 10
-75.6276
 20
41.9971
 30
0.0
 10
-75.44360000000001
 20
42.2172
 30
0.0
 10
-75.1968
 20
42.2768
 30
0.0
  0
SPLINE
  5
D2
330
1F
100
AcDbEntity
  8
Layer 1
 62
     3
370
    20
100
AcDbSpline
210
0.0
220
0.0
230
1.0
 70
     9
 71
     3
 72
    26
 73
    22
 74
     0
 42
0.000000001
 43
0.0000000001
 40
0.0
 40
0.0
 40
0.0
 40
0.0
 40
0.1428571428571428
 40
0.1428571428571428
 40
0.1428571428571428
 40
0.2857142857142857
 40
0.2857142857142857
 40
0.2857142857142857
 40
0.4285714285714285
 40
0.4285714285714285
 40
0.4285714285714285
 40
0.5714285714285714
 40
0.5714285714285714
 40
0.5714285714285714
 40
0.7142857142857143
 40
0.7142857142857143
 40
0.7142857142857143
 40
0.8571428571428571
 40
0.8571428571428571
 40
0.8571428571428571
 40
1.0
 40
1.0
 40
1.0
 40
1.0
 10
-75.6173
 20
41.59329999999999
 30
0.0
 10
-75.6173
 20
41.59329999999999
 30
0.0
 10
-79.3074
 20
41.1989
 30
0.0
 10
-79.3074
 20
41.1989
 30
0.0
 10
-79.30889999999999
 20
41.1097
 30
0.0
 10
-79.331
 20
41.0254
 30
0.0
 10
-79.369
 20
40.9506
 30
0.0
 10
-79.369
 20
40.9506
 30
0.0
 10
-76.866
 20
35.8635
 30
0.0
 10
-76.866
 20
35.8635
 30
0.0
 10
-76.76309999999999
 20
35.9657
 30
0.0
 10
-76.62139999999999
 20
36.0287
 30
0.0
 10
-76.4649
 20
36.0287
 30
0.0
 10
-76.44629999999999
 20
36.0287
 30
0.0
 10
-76.428
 20
36.02790000000001
 30
0.0
 10
-76.4098
 20
36.0261
 30
0.0
 10
-76.4098
 20
36.0261
 30
0.0
 10
-75.25449999999999
 20
41.1865
 30
0.0
 10
-75.25449999999999
 20
41.1865
 30
0.0
 10
-75.435
 20
41.251
 30
0.0
 10
-75.5733
 20
41.40399999999999
 30
0.0
 10
-75.6173
 20
41.59329999999999
 30
0.0
  0
SPLINE
  5
D4
330
1F
100
AcDbEntity
  8
Layer 1
 62
     3
370
    20
100
AcDbSpline
210
0.0
220
0.0
230
1.0
 70
     9
 71
     3
 72
    26
 73
    22
 74
     0
 42
0.000000001
 43
0.0000000001
 40
0.0
 40
0.0
 40
0.0
 40
0.0
 40
0.1428571428571428
 40
0.1428571428571428
 40
0.1428571428571428
 40
0.2857142857142857
 40
0.2857142857142857
 40
0.2857142857142857
 40
0.4285714285714285
 40
0.4285714285714285
 40
0.4285714285714285
 40
0.5714285714285714
 40
0.5714285714285714
 40
0.5714285714285714
 40
0.7142857142857143
 40
0.7142857142857143
 40
0.7142857142857143
 40
0.8571428571428571
 40
0.8571428571428571
 40
0.8571428571428571
 40
1.0
 40
1.0
 40
1.0
 40
1.0
 10
-76.961
 20
35.7393
 30
0.0
 10
-76.961
 20
35.7393
 30
0.0
 10
-79.46080000000001
 20
40.8198
 30
0.0
 10
-79.46080000000001
 20
40.8198
 30
0.0
 10
-79.5245
 20
40.7516
 30
0.0
 10
-79.60460000000001
 20
40.6993
 30
0.0
 10
-79.6949
 20
40.6688
 30
0.0
 10
-79.6949
 20
40.6688
 30
0.0
 10
-79.28879999999999
 20
35.3894
 30
0.0
 10
-79.28879999999999
 20
35.3894
 30
0.0
 10
-79.1596
 20
35.3671
 30
0.0
 10
-79.0454
 20
35.3013
 30
0.0
 10
-78.9616
 20
35.20770000000001
 30
0.0
 10
-78.9616
 20
35.20770000000001
 30
0.0
 10
-77.0345
 20
35.4563
 30
0.0
 10
-77.0345
 20
35.4563
 30
0.0
 10
-77.0345
 20
35.4563
 30
0.0
 10
-77.0345
 20
35.4591
 30
0.0
 10
-77.0345
 20
35.4591
 30
0.0
 10
-77.0345
 20
35.5609
 30
0.0
 10
-77.0078
 20
35.6566
 30
0.0
 10
-76.961
 20
35.7393
 30
0.0
  0
SPLINE
  5
D6
330
1F
100
AcDbEntity
  8
Layer 1
 62
     3
370
    20
100
AcDbSpline
210
0.0
220
0.0
230
1.0
 70
     9
 71
     3
 72
    29
 73
    25
 74
     0
 42
0.000000001
 43
0.0000000001
 40
0.0
 40
0.0
 40
0.0
 40
0.0
 40
0.125
 40
0.125
 40
0.125
 40
0.25
 40
0.25
 40
0.25
 40
0.375
 40
0.375
 40
0.375
 40
0.5
 40
0.5
 40
0.5
 40
0.625
 40
0.625
 40
0.625
 40
0.75
 40
0.75
 40
0.75
 40
0.875
 40
0.875
 40
0.875
 40
1.0
 40
1.0
 40
1.0
 40
1.0
 10
-77.0167
 20
35.3172
 30
0.0
 10
-77.0167
 20
35.3172
 30
0.0
 10
-78.87399999999999
 20
35.0776
 30
0.0
 10
-78.87399999999999
 20
35.0776
 30
0.0
 10
-78.8372
 20
35.0023
 30
0.0
 10
-78.8166
 20
34.9176
 30
0.0
 10
-78.8166
 20
34.8281
 30
0.0
 10
-78.8166
 20
34.6786
 30
0.0
 10
-78.8741
 20
34.54270000000001
 30
0.0
 10
-78.9683
 20
34.4411
 30
0.0
 10
-78.9683
 20
34.4411
 30
0.0
 10
-75.4323
 20
28.987
 30
0.0
 10
-75.4323
 20
28.987
 30
0.0
 10
-75.39010000000001
 20
29.0013
 30
0.0
 10
-75.3459
 20
29.0107
 30
0.0
 10
-75.3001
 20
29.0148
 30
0.0
 10
-75.3001
 20
29.0148
 30
0.0
 10
-76.4273
 20
34.8907
 30
0.0
 10
-76.4273
 20
34.8907
 30
0.0
 10
-76.4397
 20
34.8899
 30
0.0
 10
-76.45229999999999
 20
34.8895
 30
0.0
 10
-76.4649
 20
34.8895
 30
0.0
 10
-76.7305
 20
34.8895
 30
0.0
 10
-76.95359999999999
 20
35.0712
 30
0.0
 10
-77.0167
 20
35.3172
 30
0.0
  0
SPLINE
  5
D8
330
1F
100
AcDbEntity
  8
Layer 1
 62
     3
370
    20
100
AcDbSpline
210
0.0
220
0.0
230
1.0
 70
     9
 71
     3
 72
    23
 73
    19
 74
     0
 42
0.000000001
 43
0.0000000001
 40
0.0
 40
0.0
 40
0.0
 40
0.0
 40
0.1666666666666667
 40
0.1666666666666667
 40
0.1666666666666667
 40
0.3333333333333333
 40
0.3333333333333333
 40
0.3333333333333333
 40
0.5
 40
0.5
 40
0.5
 40
0.6666666666666666
 40
0.6666666666666666
 40
0.6666666666666666
 40
0.8333333333333332
 40
0.8333333333333332
 40
0.8333333333333332
 40
1.0
 40
1.0
 40
1.0
 40
1.0
 10
-76.2893
 20
34.917
 30
0.0
 10
-76.2893
 20
34.917
 30
0.0
 10
-75.15609999999999
 20
29.0094
 30
0.0
 10
-75.15609999999999
 20
29.0094
 30
0.0
 10
-74.92319999999999
 20
28.9711
 30
0.0
 10
-74.738
 20
28.7915
 30
0.0
 10
-74.6912
 20
28.5616
 30
0.0
 10
-74.6912
 20
28.5616
 30
0.0
 10
-71.7746
 20
27.4837
 30
0.0
 10
-71.7746
 20
27.4837
 30
0.0
 10
-71.7505
 20
27.5389
 30
0.0
 10
-71.7179
 20
27.5894
 30
0.0
 10
-71.67839999999999
 20
27.6337
 30
0.0
 10
-71.67839999999999
 20
27.6337
 30
0.0
 10
-76.2256
 20
34.942
 30
0.0
 10
-76.2256
 20
34.942
 30
0.0
 10
-76.2462
 20
34.9325
 30
0.0
 10
-76.26739999999999
 20
34.9241
 30
0.0
 10
-76.2893
 20
34.917
 30
0.0
  0
SPLINE
  5
DA
330
1F
100
AcDbEntity
  8
Layer 1
 62
     3
370
    20
100
AcDbSpline
210
0.0
220
0.0
230
1.0
 70
     9
 71
     3
 72
    26
 73
    22
 74
     0
 42
0.000000001
 43
0.0000000001
 40
0.0
 40
0.0
 40
0.0
 40
0.0
 40
0.1428571428571428
 40
0.1428571428571428
 40
0.1428571428571428
 40
0.2857142857142857
 40
0.2857142857142857
 40
0.2857142857142857
 40
0.4285714285714285
 40
0.4285714285714285
 40
0.4285714285714285
 40
0.5714285714285714
 40
0.5714285714285714
 40
0.5714285714285714
 40
0.7142857142857143
 40
0.7142857142857143
 40
0.7142857142857143
 40
0.8571428571428571
 40
0.8571428571428571
 40
0.8571428571428571
 40
1.0
 40
1.0
 40
1.0
 40
1.0
 10
-32.4124
 20
35.6636
 30
0.0
 10
-32.4124
 20
35.6636
 30
0.0
 10
-28.213
 20
39.699
 30
0.0
 10
-28.213
 20
39.699
 30
0.0
 10
-28.2842
 20
39.794
 30
0.0
 10
-28.3263
 20
39.9121
 30
0.0
 10
-28.3263
 20
40.04
 30
0.0
 10
-28.3263
 20
40.05539999999999
 30
0.0
 10
-28.3257
 20
40.0706
 30
0.0
 10
-28.3245
 20
40.0857
 30
0.0
 10
-28.3245
 20
40.0857
 30
0.0
 10
-31.8678
 20
40.8156
 30
0.0
 10
-31.8678
 20
40.8156
 30
0.0
 10
-31.9397
 20
40.6029
 30
0.0
 10
-32.1339
 20
40.44659999999999
 30
0.0
 10
-32.3668
 20
40.4302
 30
0.0
 10
-32.3668
 20
40.4302
 30
0.0
 10
-32.6118
 20
35.7396
 30
0.0
 10
-32.6118
 20
35.7396
 30
0.0
 10
-32.53970000000001
 20
35.7269
 30
0.0
 10
-32.4724
 20
35.7006
 30
0.0
 10
-32.4124
 20
35.6636
 30
0.0
  0
SPLINE
  5
DC
330
1F
100
AcDbEntity
  8
Layer 1
 62
     3
370
    20
100
AcDbSpline
210
0.0
220
0.0
230
1.0
 70
     9
 71
     3
 72
    41
 73
    37
 74
     0
 42
0.000000001
 43
0.0000000001
 40
0.0
 40
0.0
 40
0.0
 40
0.0
 40
0.0833333333333333
 40
0.0833333333333333
 40
0.0833333333333333
 40
0.1666666666666667
 40
0.1666666666666667
 40
0.1666666666666667
 40
0.25
 40
0.25
 40
0.25
 40
0.3333333333333333
 40
0.3333333333333333
 40
0.3333333333333333
 40
0.4166666666666666
 40
0.4166666666666666
 40
0.4166666666666666
 40
0.5
 40
0.5
 40
0.5
 40
0.5833333333333333
 40
0.5833333333333333
 40
0.5833333333333333
 40
0.6666666666666666
 40
0.6666666666666666
 40
0.6666666666666666
 40
0.75
 40
0.75
 40
0.75
 40
0.8333333333333332
 40
0.8333333333333332
 40
0.8333333333333332
 40
0.9166666666666666
 40
0.9166666666666666
 40
0.9166666666666666
 40
1.0
 40
1.0
 40
1.0
 40
1.0
 10
-28.1156
 20
39.59770000000001
 30
0.0
 10
-28.1156
 20
39.59770000000001
 30
0.0
 10
-32.30230000000001
 20
35.5751
 30
0.0
 10
-32.30230000000001
 20
35.5751
 30
0.0
 10
-32.203
 20
35.4725
 30
0.0
 10
-32.14180000000001
 20
35.3328
 30
0.0
 10
-32.14180000000001
 20
35.17860000000001
 30
0.0
 10
-32.14180000000001
 20
34.9463
 30
0.0
 10
-32.2809
 20
34.7467
 30
0.0
 10
-32.4802
 20
34.658
 30
0.0
 10
-32.4802
 20
34.658
 30
0.0
 10
-31.2023
 20
30.4489
 30
0.0
 10
-31.2023
 20
30.4489
 30
0.0
 10
-31.1079
 20
30.5184
 30
0.0
 10
-30.9912
 20
30.5595
 30
0.0
 10
-30.8648
 20
30.5595
 30
0.0
 10
-30.8307
 20
30.5595
 30
0.0
 10
-30.7973
 20
30.5565
 30
0.0
 10
-30.7648
 20
30.5508
 30
0.0
 10
-30.7648
 20
30.5508
 30
0.0
 10
-29.9793
 20
33.0907
 30
0.0
 10
-29.9793
 20
33.0907
 30
0.0
 10
-30.1634
 20
33.1851
 30
0.0
 10
-30.2893
 20
33.3767
 30
0.0
 10
-30.2893
 20
33.5979
 30
0.0
 10
-30.2893
 20
33.9126
 30
0.0
 10
-30.0343
 20
34.1678
 30
0.0
 10
-29.7197
 20
34.1678
 30
0.0
 10
-29.6953
 20
34.1678
 30
0.0
 10
-29.6711
 20
34.1663
 30
0.0
 10
-29.6475
 20
34.1633
 30
0.0
 10
-29.6475
 20
34.1633
 30
0.0
 10
-27.9906
 20
39.5205
 30
0.0
 10
-27.9906
 20
39.5205
 30
0.0
 10
-28.0357
 20
39.5408
 30
0.0
 10
-28.0777
 20
39.5669
 30
0.0
 10
-28.1156
 20
39.59770000000001
 30
0.0
  0
SPLINE
  5
DE
330
1F
100
AcDbEntity
  8
Layer 1
 62
     3
370
    20
100
AcDbSpline
210
0.0
220
0.0
230
1.0
 70
     9
 71
     3
 72
    29
 73
    25
 74
     0
 42
0.000000001
 43
0.0000000001
 40
0.0
 40
0.0
 40
0.0
 40
0.0
 40
0.125
 40
0.125
 40
0.125
 40
0.25
 40
0.25
 40
0.25
 40
0.375
 40
0.375
 40
0.375
 40
0.5
 40
0.5
 40
0.5
 40
0.625
 40
0.625
 40
0.625
 40
0.75
 40
0.75
 40
0.75
 40
0.875
 40
0.875
 40
0.875
 40
1.0
 40
1.0
 40
1.0
 40
1.0
 10
-31.8396
 20
40.953
 30
0.0
 10
-31.8396
 20
40.953
 30
0.0
 10
-28.2964
 20
40.223
 30
0.0
 10
-28.2964
 20
40.223
 30
0.0
 10
-28.2203
 20
40.4481
 30
0.0
 10
-28.0074
 20
40.60999999999999
 30
0.0
 10
-27.7564
 20
40.60999999999999
 30
0.0
 10
-27.7358
 20
40.60999999999999
 30
0.0
 10
-27.7155
 20
40.60889999999999
 30
0.0
 10
-27.6954
 20
40.6067
 30
0.0
 10
-27.6954
 20
40.6067
 30
0.0
 10
-27.1357
 20
42.9882
 30
0.0
 10
-27.1357
 20
42.9882
 30
0.0
 10
-27.2326
 20
43.02389999999999
 30
0.0
 10
-27.317
 20
43.0853
 30
0.0
 10
-27.3808
 20
43.16399999999999
 30
0.0
 10
-27.3808
 20
43.16399999999999
 30
0.0
 10
-31.8473
 20
41.10249999999999
 30
0.0
 10
-31.8473
 20
41.10249999999999
 30
0.0
 10
-31.8411
 20
41.0688
 30
0.0
 10
-31.8378
 20
41.03399999999999
 30
0.0
 10
-31.8378
 20
40.99839999999999
 30
0.0
 10
-31.8378
 20
40.9832
 30
0.0
 10
-31.8385
 20
40.968
 30
0.0
 10
-31.8396
 20
40.953
 30
0.0
  0
SPLINE
  5
E0
330
1F
100
AcDbEntity
  8
Layer 1
 62
     3
370
    20
100
AcDbSpline
210
0.0
220
0.0
230
1.0
 70
     9
 71
     3
 72
    26
 73
    22
 74
     0
 42
0.000000001
 43
0.0000000001
 40
0.0
 40
0.0
 40
0.0
 40
0.0
 40
0.1428571428571428
 40
0.1428571428571428
 40
0.1428571428571428
 40
0.2857142857142857
 40
0.2857142857142857
 40
0.2857142857142857
 40
0.4285714285714285
 40
0.4285714285714285
 40
0.4285714285714285
 40
0.5714285714285714
 40
0.5714285714285714
 40
0.5714285714285714
 40
0.7142857142857143
 40
0.7142857142857143
 40
0.7142857142857143
 40
0.8571428571428571
 40
0.8571428571428571
 40
0.8571428571428571
 40
1.0
 40
1.0
 40
1.0
 40
1.0
 10
-26.9994
 20
42.9563
 30
0.0
 10
-26.9994
 20
42.9563
 30
0.0
 10
-27.5588
 20
40.5748
 30
0.0
 10
-27.5588
 20
40.5748
 30
0.0
 10
-27.4657
 20
40.5403
 30
0.0
 10
-27.3841
 20
40.4823
 30
0.0
 10
-27.3212
 20
40.4079
 30
0.0
 10
-27.3212
 20
40.4079
 30
0.0
 10
-21.2097
 20
44.3943
 30
0.0
 10
-21.2097
 20
44.3943
 30
0.0
 10
-21.2097
 20
44.3943
 30
0.0
 10
-21.2165
 20
44.40879999999999
 30
0.0
 10
-21.2165
 20
44.40879999999999
 30
0.0
 10
-21.2165
 20
44.40879999999999
 30
0.0
 10
-26.37
 20
43.48239999999999
 30
0.0
 10
-26.37
 20
43.48239999999999
 30
0.0
 10
-26.3907
 20
43.1865
 30
0.0
 10
-26.6372
 20
42.953
 30
0.0
 10
-26.9382
 20
42.953
 30
0.0
 10
-26.9589
 20
42.953
 30
0.0
 10
-26.9793
 20
42.95409999999999
 30
0.0
 10
-26.9994
 20
42.9563
 30
0.0
  0
SPLINE
  5
E2
330
1F
100
AcDbEntity
  8
Layer 1
 62
     3
370
    20
100
AcDbSpline
210
0.0
220
0.0
230
1.0
 70
     9
 71
     3
 72
    26
 73
    22
 74
     0
 42
0.000000001
 43
0.0000000001
 40
0.0
 40
0.0
 40
0.0
 40
0.0
 40
0.1428571428571428
 40
0.1428571428571428
 40
0.1428571428571428
 40
0.2857142857142857
 40
0.2857142857142857
 40
0.2857142857142857
 40
0.4285714285714285
 40
0.4285714285714285
 40
0.4285714285714285
 40
0.5714285714285714
 40
0.5714285714285714
 40
0.5714285714285714
 40
0.7142857142857143
 40
0.7142857142857143
 40
0.7142857142857143
 40
0.8571428571428571
 40
0.8571428571428571
 40
0.8571428571428571
 40
1.0
 40
1.0
 40
1.0
 40
1.0
 10
-21.1331
 20
44.277
 30
0.0
 10
-21.1331
 20
44.277
 30
0.0
 10
-27.2446
 20
40.2904
 30
0.0
 10
-27.2446
 20
40.2904
 30
0.0
 10
-27.2337
 20
40.26819999999999
 30
0.0
 10
-27.2241
 20
40.2451
 30
0.0
 10
-27.2162
 20
40.22129999999999
 30
0.0
 10
-27.2162
 20
40.22129999999999
 30
0.0
 10
-20.9388
 20
41.4926
 30
0.0
 10
-20.9388
 20
41.4926
 30
0.0
 10
-20.9399
 20
41.50699999999999
 30
0.0
 10
-20.9404
 20
41.5215
 30
0.0
 10
-20.9404
 20
41.53609999999999
 30
0.0
 10
-20.9404
 20
41.80639999999999
 30
0.0
 10
-20.7522
 20
42.03269999999999
 30
0.0
 10
-20.4997
 20
42.09109999999999
 30
0.0
 10
-20.4997
 20
42.09109999999999
 30
0.0
 10
-20.7085
 20
44.075
 30
0.0
 10
-20.7085
 20
44.075
 30
0.0
 10
-20.8788
 20
44.0782
 30
0.0
 10
-21.0307
 20
44.156
 30
0.0
 10
-21.1331
 20
44.277
 30
0.0
  0
SPLINE
  5
E4
330
1F
100
AcDbEntity
  8
Layer 1
 62
     3
370
    20
100
AcDbSpline
210
0.0
220
0.0
230
1.0
 70
     9
 71
     3
 72
    26
 73
    22
 74
     0
 42
0.000000001
 43
0.0000000001
 40
0.0
 40
0.0
 40
0.0
 40
0.0
 40
0.1428571428571428
 40
0.1428571428571428
 40
0.1428571428571428
 40
0.2857142857142857
 40
0.2857142857142857
 40
0.2857142857142857
 40
0.4285714285714285
 40
0.4285714285714285
 40
0.4285714285714285
 40
0.5714285714285714
 40
0.5714285714285714
 40
0.5714285714285714
 40
0.7142857142857143
 40
0.7142857142857143
 40
0.7142857142857143
 40
0.8571428571428571
 40
0.8571428571428571
 40
0.8571428571428571
 40
1.0
 40
1.0
 40
1.0
 40
1.0
 10
-20.5688
 20
44.08959999999999
 30
0.0
 10
-20.5688
 20
44.08959999999999
 30
0.0
 10
-20.36
 20
42.10569999999999
 30
0.0
 10
-20.36
 20
42.10569999999999
 30
0.0
 10
-20.0503
 20
42.0999
 30
0.0
 10
-19.8011
 20
41.8472
 30
0.0
 10
-19.8011
 20
41.53609999999999
 30
0.0
 10
-19.8011
 20
41.53609999999999
 30
0.0
 10
-19.8013
 20
41.5256
 30
0.0
 10
-19.8013
 20
41.5256
 30
0.0
 10
-19.8013
 20
41.5256
 30
0.0
 10
-16.7321
 20
41.08699999999999
 30
0.0
 10
-16.7321
 20
41.08699999999999
 30
0.0
 10
-16.7175
 20
41.1201
 30
0.0
 10
-16.6999
 20
41.15169999999999
 30
0.0
 10
-16.6795
 20
41.1812
 30
0.0
 10
-16.6795
 20
41.1812
 30
0.0
 10
-20.3588
 20
44.1867
 30
0.0
 10
-20.3588
 20
44.1867
 30
0.0
 10
-20.4204
 20
44.141
 30
0.0
 10
-20.4916
 20
44.1075
 30
0.0
 10
-20.5688
 20
44.08959999999999
 30
0.0
  0
SPLINE
  5
E6
330
1F
100
AcDbEntity
  8
Layer 1
 62
     3
370
    20
100
AcDbSpline
210
0.0
220
0.0
230
1.0
 70
     9
 71
     3
 72
    26
 73
    22
 74
     0
 42
0.000000001
 43
0.0000000001
 40
0.0
 40
0.0
 40
0.0
 40
0.0
 40
0.1428571428571428
 40
0.1428571428571428
 40
0.1428571428571428
 40
0.2857142857142857
 40
0.2857142857142857
 40
0.2857142857142857
 40
0.4285714285714285
 40
0.4285714285714285
 40
0.4285714285714285
 40
0.5714285714285714
 40
0.5714285714285714
 40
0.5714285714285714
 40
0.7142857142857143
 40
0.7142857142857143
 40
0.7142857142857143
 40
0.8571428571428571
 40
0.8571428571428571
 40
0.8571428571428571
 40
1.0
 40
1.0
 40
1.0
 40
1.0
 10
-16.7724
 20
40.9511
 30
0.0
 10
-16.7724
 20
40.9511
 30
0.0
 10
-19.8209
 20
41.3866
 30
0.0
 10
-19.8209
 20
41.3866
 30
0.0
 10
-19.8751
 20
41.18699999999999
 30
0.0
 10
-20.0349
 20
41.0311
 30
0.0
 10
-20.2365
 20
40.98239999999999
 30
0.0
 10
-20.2365
 20
40.98239999999999
 30
0.0
 10
-19.7111
 20
36.4028
 30
0.0
 10
-19.7111
 20
36.4028
 30
0.0
 10
-19.5568
 20
36.40140000000001
 30
0.0
 10
-19.4172
 20
36.3386
 30
0.0
 10
-19.3154
 20
36.2378
 30
0.0
 10
-19.3154
 20
36.2378
 30
0.0
 10
-16.5783
 20
40.4234
 30
0.0
 10
-16.5783
 20
40.4234
 30
0.0
 10
-16.7016
 20
40.5278
 30
0.0
 10
-16.7799
 20
40.6838
 30
0.0
 10
-16.7799
 20
40.8582
 30
0.0
 10
-16.7799
 20
40.8898
 30
0.0
 10
-16.7774
 20
40.9209
 30
0.0
 10
-16.7724
 20
40.9511
 30
0.0
  0
SPLINE
  5
E8
330
1F
100
AcDbEntity
  8
Layer 1
 62
     3
370
    20
100
AcDbSpline
210
0.0
220
0.0
230
1.0
 70
     9
 71
     3
 72
    29
 73
    25
 74
     0
 42
0.000000001
 43
0.0000000001
 40
0.0
 40
0.0
 40
0.0
 40
0.0
 40
0.125
 40
0.125
 40
0.125
 40
0.25
 40
0.25
 40
0.25
 40
0.375
 40
0.375
 40
0.375
 40
0.5
 40
0.5
 40
0.5
 40
0.625
 40
0.625
 40
0.625
 40
0.75
 40
0.75
 40
0.75
 40
0.875
 40
0.875
 40
0.875
 40
1.0
 40
1.0
 40
1.0
 40
1.0
 10
-16.4611
 20
40.3466
 30
0.0
 10
-16.4611
 20
40.3466
 30
0.0
 10
-19.2247
 20
36.12080000000001
 30
0.0
 10
-19.2247
 20
36.12080000000001
 30
0.0
 10
-19.1752
 20
36.0364
 30
0.0
 10
-19.1467
 20
35.938
 30
0.0
 10
-19.1467
 20
35.833
 30
0.0
 10
-19.1467
 20
35.7425
 30
0.0
 10
-19.1679
 20
35.6568
 30
0.0
 10
-19.2055
 20
35.5807
 30
0.0
 10
-19.2055
 20
35.5807
 30
0.0
 10
-17.345
 20
34.3561
 30
0.0
 10
-17.345
 20
34.3561
 30
0.0
 10
-17.2534
 20
34.4634
 30
0.0
 10
-17.1228
 20
34.5362
 30
0.0
 10
-16.975
 20
34.5527
 30
0.0
 10
-16.975
 20
34.5527
 30
0.0
 10
-16.1864
 20
40.289
 30
0.0
 10
-16.1864
 20
40.289
 30
0.0
 10
-16.1864
 20
40.289
 30
0.0
 10
-16.2103
 20
40.2885
 30
0.0
 10
-16.2103
 20
40.2885
 30
0.0
 10
-16.3003
 20
40.2885
 30
0.0
 10
-16.3854
 20
40.3094
 30
0.0
 10
-16.4611
 20
40.3466
 30
0.0
  0
SPLINE
  5
EA
330
1F
100
AcDbEntity
  8
Layer 1
 62
     3
370
    20
100
AcDbSpline
210
0.0
220
0.0
230
1.0
 70
     9
 71
     3
 72
    29
 73
    25
 74
     0
 42
0.000000001
 43
0.0000000001
 40
0.0
 40
0.0
 40
0.0
 40
0.0
 40
0.125
 40
0.125
 40
0.125
 40
0.25
 40
0.25
 40
0.25
 40
0.375
 40
0.375
 40
0.375
 40
0.5
 40
0.5
 40
0.5
 40
0.625
 40
0.625
 40
0.625
 40
0.75
 40
0.75
 40
0.75
 40
0.875
 40
0.875
 40
0.875
 40
1.0
 40
1.0
 40
1.0
 40
1.0
 10
-17.4223
 20
34.2389
 30
0.0
 10
-17.4223
 20
34.2389
 30
0.0
 10
-19.2827
 20
35.4636
 30
0.0
 10
-19.2827
 20
35.4636
 30
0.0
 10
-19.3805
 20
35.3489
 30
0.0
 10
-19.523
 20
35.2735
 30
0.0
 10
-19.6832
 20
35.2643
 30
0.0
 10
-19.6832
 20
35.2643
 30
0.0
 10
-19.9785
 20
30.7568
 30
0.0
 10
-19.9785
 20
30.7568
 30
0.0
 10
-19.9392
 20
30.7654
 30
0.0
 10
-19.8984
 20
30.7699
 30
0.0
 10
-19.8564
 20
30.7699
 30
0.0
 10
-19.7752
 20
30.7699
 30
0.0
 10
-19.698
 20
30.7529
 30
0.0
 10
-19.6281
 20
30.7223
 30
0.0
 10
-19.6281
 20
30.7223
 30
0.0
 10
-17.3612
 20
33.637
 30
0.0
 10
-17.3612
 20
33.637
 30
0.0
 10
-17.4363
 20
33.7335
 30
0.0
 10
-17.4811
 20
33.8548
 30
0.0
 10
-17.4811
 20
33.9866
 30
0.0
 10
-17.4811
 20
34.0773
 30
0.0
 10
-17.4599
 20
34.1629
 30
0.0
 10
-17.4223
 20
34.2389
 30
0.0
  0
SPLINE
  5
EC
330
1F
100
AcDbEntity
  8
Layer 1
 62
     3
370
    20
100
AcDbSpline
210
0.0
220
0.0
230
1.0
 70
     9
 71
     3
 72
    26
 73
    22
 74
     0
 42
0.000000001
 43
0.0000000001
 40
0.0
 40
0.0
 40
0.0
 40
0.0
 40
0.1428571428571428
 40
0.1428571428571428
 40
0.1428571428571428
 40
0.2857142857142857
 40
0.2857142857142857
 40
0.2857142857142857
 40
0.4285714285714285
 40
0.4285714285714285
 40
0.4285714285714285
 40
0.5714285714285714
 40
0.5714285714285714
 40
0.5714285714285714
 40
0.7142857142857143
 40
0.7142857142857143
 40
0.7142857142857143
 40
0.8571428571428571
 40
0.8571428571428571
 40
0.8571428571428571
 40
1.0
 40
1.0
 40
1.0
 40
1.0
 10
-20.1228
 20
30.7039
 30
0.0
 10
-20.1228
 20
30.7039
 30
0.0
 10
-19.8232
 20
35.27340000000001
 30
0.0
 10
-19.8232
 20
35.27340000000001
 30
0.0
 10
-19.8697
 20
35.28220000000001
 30
0.0
 10
-19.9143
 20
35.2968
 30
0.0
 10
-19.9562
 20
35.3162
 30
0.0
 10
-19.9562
 20
35.3162
 30
0.0
 10
-24.3338
 20
28.2957
 30
0.0
 10
-24.3338
 20
28.2957
 30
0.0
 10
-24.1761
 20
28.2527
 30
0.0
 10
-24.0457
 20
28.1436
 30
0.0
 10
-23.9741
 20
28.0001
 30
0.0
 10
-23.9741
 20
28.0001
 30
0.0
 10
-20.3851
 20
29.9878
 30
0.0
 10
-20.3851
 20
29.9878
 30
0.0
 10
-20.4115
 20
30.0534
 30
0.0
 10
-20.426
 20
30.1251
 30
0.0
 10
-20.426
 20
30.2003
 30
0.0
 10
-20.426
 20
30.4187
 30
0.0
 10
-20.3032
 20
30.6084
 30
0.0
 10
-20.1228
 20
30.7039
 30
0.0
  0
SPLINE
  5
EE
330
1F
100
AcDbEntity
  8
Layer 1
 62
     3
370
    20
100
AcDbSpline
210
0.0
220
0.0
230
1.0
 70
     9
 71
     3
 72
    29
 73
    25
 74
     0
 42
0.000000001
 43
0.0000000001
 40
0.0
 40
0.0
 40
0.0
 40
0.0
 40
0.125
 40
0.125
 40
0.125
 40
0.25
 40
0.25
 40
0.25
 40
0.375
 40
0.375
 40
0.375
 40
0.5
 40
0.5
 40
0.5
 40
0.625
 40
0.625
 40
0.625
 40
0.75
 40
0.75
 40
0.75
 40
0.875
 40
0.875
 40
0.875
 40
1.0
 40
1.0
 40
1.0
 40
1.0
 10
-20.317
 20
29.865
 30
0.0
 10
-20.317
 20
29.865
 30
0.0
 10
-23.927
 20
27.8658
 30
0.0
 10
-23.927
 20
27.8658
 30
0.0
 10
-23.9189
 20
27.8272
 30
0.0
 10
-23.9145
 20
27.7872
 30
0.0
 10
-23.9145
 20
27.7462
 30
0.0
 10
-23.9145
 20
27.6775
 30
0.0
 10
-23.9267
 20
27.6116
 30
0.0
 10
-23.9489
 20
27.5507
 30
0.0
 10
-23.9489
 20
27.5507
 30
0.0
 10
-22.2206
 20
26.6643
 30
0.0
 10
-22.2206
 20
26.6643
 30
0.0
 10
-22.1181
 20
26.8148
 30
0.0
 10
-21.9453
 20
26.9134
 30
0.0
 10
-21.7495
 20
26.9134
 30
0.0
 10
-21.6843
 20
26.9134
 30
0.0
 10
-21.6218
 20
26.9025
 30
0.0
 10
-21.5635
 20
26.8823
 30
0.0
 10
-21.5635
 20
26.8823
 30
0.0
 10
-20.1686
 20
29.7237
 30
0.0
 10
-20.1686
 20
29.7237
 30
0.0
 10
-20.2262
 20
29.7615
 30
0.0
 10
-20.2766
 20
29.8094
 30
0.0
 10
-20.317
 20
29.865
 30
0.0
  0
SPLINE
  5
F0
330
1F
100
AcDbEntity
  8
Layer 1
 62
     3
370
    20
100
AcDbSpline
210
0.0
220
0.0
230
1.0
 70
     9
 71
     3
 72
    29
 73
    25
 74
     0
 42
0.000000001
 43
0.0000000001
 40
0.0
 40
0.0
 40
0.0
 40
0.0
 40
0.125
 40
0.125
 40
0.125
 40
0.25
 40
0.25
 40
0.25
 40
0.375
 40
0.375
 40
0.375
 40
0.5
 40
0.5
 40
0.5
 40
0.625
 40
0.625
 40
0.625
 40
0.75
 40
0.75
 40
0.75
 40
0.875
 40
0.875
 40
0.875
 40
1.0
 40
1.0
 40
1.0
 40
1.0
 10
-71.81449999999999
 20
27.3493
 30
0.0
 10
-71.81449999999999
 20
27.3493
 30
0.0
 10
-74.68099999999999
 20
28.4087
 30
0.0
 10
-74.68099999999999
 20
28.4087
 30
0.0
 10
-74.693
 20
28.2288
 30
0.0
 10
-74.7886
 20
28.0719
 30
0.0
 10
-74.92910000000001
 20
27.9762
 30
0.0
 10
-74.92910000000001
 20
27.9762
 30
0.0
 10
-73.9721
 20
26.1078
 30
0.0
 10
-73.9721
 20
26.1078
 30
0.0
 10
-73.91119999999999
 20
26.1301
 30
0.0
 10
-73.8455
 20
26.1422
 30
0.0
 10
-73.77679999999999
 20
26.1422
 30
0.0
 10
-73.6044
 20
26.1422
 30
0.0
 10
-73.44979999999999
 20
26.0656
 30
0.0
 10
-73.3454
 20
25.9445
 30
0.0
 10
-73.3454
 20
25.9445
 30
0.0
 10
-71.762
 20
27.0001
 30
0.0
 10
-71.762
 20
27.0001
 30
0.0
 10
-71.8005
 20
27.0769
 30
0.0
 10
-71.8223
 20
27.1635
 30
0.0
 10
-71.8223
 20
27.2554
 30
0.0
 10
-71.8223
 20
27.2873
 30
0.0
 10
-71.8196
 20
27.3187
 30
0.0
 10
-71.81449999999999
 20
27.3493
 30
0.0
  0
SPLINE
  5
F2
330
1F
100
AcDbEntity
  8
Layer 1
 62
     3
370
    20
100
AcDbSpline
210
0.0
220
0.0
230
1.0
 70
     9
 71
     3
 72
    26
 73
    22
 74
     0
 42
0.000000001
 43
0.0000000001
 40
0.0
 40
0.0
 40
0.0
 40
0.0
 40
0.1428571428571428
 40
0.1428571428571428
 40
0.1428571428571428
 40
0.2857142857142857
 40
0.2857142857142857
 40
0.2857142857142857
 40
0.4285714285714285
 40
0.4285714285714285
 40
0.4285714285714285
 40
0.5714285714285714
 40
0.5714285714285714
 40
0.5714285714285714
 40
0.7142857142857143
 40
0.7142857142857143
 40
0.7142857142857143
 40
0.8571428571428571
 40
0.8571428571428571
 40
0.8571428571428571
 40
1.0
 40
1.0
 40
1.0
 40
1.0
 10
-38.3165
 20
34.1633
 30
0.0
 10
-38.3165
 20
34.1633
 30
0.0
 10
-33.2798
 20
35.14
 30
0.0
 10
-33.2798
 20
35.14
 30
0.0
 10
-33.2806
 20
35.15270000000001
 30
0.0
 10
-33.28110000000001
 20
35.1657
 30
0.0
 10
-33.28110000000001
 20
35.17860000000001
 30
0.0
 10
-33.28110000000001
 20
35.2215
 30
0.0
 10
-33.2763
 20
35.2634
 30
0.0
 10
-33.2674
 20
35.3036
 30
0.0
 10
-33.2674
 20
35.3036
 30
0.0
 10
-38.3444
 20
39.8672
 30
0.0
 10
-38.3444
 20
39.8672
 30
0.0
 10
-38.4232
 20
39.7986
 30
0.0
 10
-38.5212
 20
39.7513
 30
0.0
 10
-38.6291
 20
39.7345
 30
0.0
 10
-38.6291
 20
39.7345
 30
0.0
 10
-38.4518
 20
34.3857
 30
0.0
 10
-38.4518
 20
34.3857
 30
0.0
 10
-38.3909
 20
34.32370000000001
 30
0.0
 10
-38.344
 20
34.2479
 30
0.0
 10
-38.3165
 20
34.1633
 30
0.0
  0
SPLINE
  5
F4
330
1F
100
AcDbEntity
  8
Layer 1
 62
     3
370
    20
100
AcDbSpline
210
0.0
220
0.0
230
1.0
 70
     9
 71
     3
 72
    29
 73
    25
 74
     0
 42
0.000000001
 43
0.0000000001
 40
0.0
 40
0.0
 40
0.0
 40
0.0
 40
0.125
 40
0.125
 40
0.125
 40
0.25
 40
0.25
 40
0.25
 40
0.375
 40
0.375
 40
0.375
 40
0.5
 40
0.5
 40
0.5
 40
0.625
 40
0.625
 40
0.625
 40
0.75
 40
0.75
 40
0.75
 40
0.875
 40
0.875
 40
0.875
 40
1.0
 40
1.0
 40
1.0
 40
1.0
 10
-33.2532
 20
35.00199999999999
 30
0.0
 10
-33.2532
 20
35.00199999999999
 30
0.0
 10
-38.28990000000001
 20
34.0253
 30
0.0
 10
-38.28990000000001
 20
34.0253
 30
0.0
 10
-38.289
 20
34.0125
 30
0.0
 10
-38.2886
 20
33.9997
 30
0.0
 10
-38.2886
 20
33.9866
 30
0.0
 10
-38.2886
 20
33.9166
 30
0.0
 10
-38.3013
 20
33.8495
 30
0.0
 10
-38.3244
 20
33.7875
 30
0.0
 10
-38.3244
 20
33.7875
 30
0.0
 10
-31.4031
 20
30.1771
 30
0.0
 10
-31.4031
 20
30.1771
 30
0.0
 10
-31.3826
 20
30.2359
 30
0.0
 10
-31.3529
 20
30.2903
 30
0.0
 10
-31.3155
 20
30.3384
 30
0.0
 10
-31.3155
 20
30.3384
 30
0.0
 10
-32.6143
 20
34.6173
 30
0.0
 10
-32.6143
 20
34.6173
 30
0.0
 10
-32.6459
 20
34.6119
 30
0.0
 10
-32.6783
 20
34.6091
 30
0.0
 10
-32.7115
 20
34.6091
 30
0.0
 10
-32.9645
 20
34.6091
 30
0.0
 10
-33.1789
 20
34.7739
 30
0.0
 10
-33.2532
 20
35.00199999999999
 30
0.0
  0
SPLINE
  5
F6
330
1F
100
AcDbEntity
  8
Layer 1
 62
     3
370
    20
100
AcDbSpline
210
0.0
220
0.0
230
1.0
 70
     9
 71
     3
 72
    29
 73
    25
 74
     0
 42
0.000000001
 43
0.0000000001
 40
0.0
 40
0.0
 40
0.0
 40
0.0
 40
0.125
 40
0.125
 40
0.125
 40
0.25
 40
0.25
 40
0.25
 40
0.375
 40
0.375
 40
0.375
 40
0.5
 40
0.5
 40
0.5
 40
0.625
 40
0.625
 40
0.625
 40
0.75
 40
0.75
 40
0.75
 40
0.875
 40
0.875
 40
0.875
 40
1.0
 40
1.0
 40
1.0
 40
1.0
 10
-57.9999
 20
34.08850000000001
 30
0.0
 10
-57.9999
 20
34.08850000000001
 30
0.0
 10
-62.1741
 20
35.3955
 30
0.0
 10
-62.1741
 20
35.3955
 30
0.0
 10
-62.24219999999999
 20
35.1572
 30
0.0
 10
-62.46159999999999
 20
34.9829
 30
0.0
 10
-62.7218
 20
34.9829
 30
0.0
 10
-62.7958
 20
34.9829
 30
0.0
 10
-62.8665
 20
34.9969
 30
0.0
 10
-62.9314
 20
35.0226
 30
0.0
 10
-62.9314
 20
35.0226
 30
0.0
 10
-65.3109
 20
30.663
 30
0.0
 10
-65.3109
 20
30.663
 30
0.0
 10
-65.2504
 20
30.6195
 30
0.0
 10
-65.1988
 20
30.5643
 30
0.0
 10
-65.1593
 20
30.5009
 30
0.0
 10
-65.1593
 20
30.5009
 30
0.0
 10
-57.9822
 20
33.8134
 30
0.0
 10
-57.9822
 20
33.8134
 30
0.0
 10
-57.9996
 20
33.8681
 30
0.0
 10
-58.0091
 20
33.9262
 30
0.0
 10
-58.0091
 20
33.9866
 30
0.0
 10
-58.0091
 20
34.0214
 30
0.0
 10
-58.00589999999999
 20
34.0555
 30
0.0
 10
-57.9999
 20
34.08850000000001
 30
0.0
  0
SPLINE
  5
F8
330
1F
100
AcDbEntity
  8
Layer 1
 62
     3
370
    20
100
AcDbSpline
210
0.0
220
0.0
230
1.0
 70
    11
 71
     3
 72
    26
 73
    22
 74
     0
 42
0.000000001
 43
0.0000000001
 40
0.0
 40
0.0
 40
0.0
 40
0.0
 40
0.1428571428571428
 40
0.1428571428571428
 40
0.1428571428571428
 40
0.2857142857142857
 40
0.2857142857142857
 40
0.2857142857142857
 40
0.4285714285714285
 40
0.4285714285714285
 40
0.4285714285714285
 40
0.5714285714285714
 40
0.5714285714285714
 40
0.5714285714285714
 40
0.7142857142857143
 40
0.7142857142857143
 40
0.7142857142857143
 40
0.8571428571428571
 40
0.8571428571428571
 40
0.8571428571428571
 40
1.0
 40
1.0
 40
1.0
 40
1.0
 10
-62.1524
 20
35.5357
 30
0.0
 10
-62.1524
 20
35.5357
 30
0.0
 10
-57.95799999999999
 20
34.22270000000001
 30
0.0
 10
-57.95799999999999
 20
34.22270000000001
 30
0.0
 10
-57.8767
 20
34.4011
 30
0.0
 10
-57.706
 20
34.53
 30
0.0
 10
-57.5032
 20
34.5527
 30
0.0
 10
-57.5032
 20
34.5527
 30
0.0
 10
-57.4458
 20
39.6626
 30
0.0
 10
-57.4458
 20
39.6626
 30
0.0
 10
-57.5615
 20
39.6781
 30
0.0
 10
-57.6661
 20
39.7284
 30
0.0
 10
-57.7489
 20
39.8025
 30
0.0
 10
-57.7489
 20
39.8025
 30
0.0
 10
-62.2498
 20
35.8716
 30
0.0
 10
-62.2498
 20
35.8716
 30
0.0
 10
-62.1882
 20
35.7807
 30
0.0
 10
-62.1522
 20
35.6708
 30
0.0
 10
-62.1522
 20
35.5525
 30
0.0
 10
-62.1522
 20
35.5525
 30
0.0
 10
-62.1524
 20
35.5357
 30
0.0
 10
-62.1524
 20
35.5357
 30
0.0
  0
SPLINE
  5
FA
330
1F
100
AcDbEntity
  8
Layer 1
 62
     3
370
    20
100
AcDbSpline
210
0.0
220
0.0
230
1.0
 70
     9
 71
     3
 72
    23
 73
    19
 74
     0
 42
0.000000001
 43
0.0000000001
 40
0.0
 40
0.0
 40
0.0
 40
0.0
 40
0.1666666666666667
 40
0.1666666666666667
 40
0.1666666666666667
 40
0.3333333333333333
 40
0.3333333333333333
 40
0.3333333333333333
 40
0.5
 40
0.5
 40
0.5
 40
0.6666666666666666
 40
0.6666666666666666
 40
0.6666666666666666
 40
0.8333333333333332
 40
0.8333333333333332
 40
0.8333333333333332
 40
1.0
 40
1.0
 40
1.0
 40
1.0
 10
-47.9576
 20
38.2589
 30
0.0
 10
-47.9576
 20
38.2589
 30
0.0
 10
-48.2694
 20
41.4808
 30
0.0
 10
-48.2694
 20
41.4808
 30
0.0
 10
-48.4896
 20
41.4866
 30
0.0
 10
-48.67840000000001
 20
41.61719999999999
 30
0.0
 10
-48.76809999999999
 20
41.80439999999999
 30
0.0
 10
-48.76809999999999
 20
41.80439999999999
 30
0.0
 10
-56.8004
 20
40.198
 30
0.0
 10
-56.8004
 20
40.198
 30
0.0
 10
-56.8012
 20
40.18189999999999
 30
0.0
 10
-56.80279999999999
 20
40.16599999999999
 30
0.0
 10
-56.8048
 20
40.1503
 30
0.0
 10
-56.8048
 20
40.1503
 30
0.0
 10
-48.36199999999999
 20
37.9154
 30
0.0
 10
-48.36199999999999
 20
37.9154
 30
0.0
 10
-48.2928
 20
38.0875
 30
0.0
 10
-48.1421
 20
38.2179
 30
0.0
 10
-47.9576
 20
38.2589
 30
0.0
  0
SPLINE
  5
FC
330
1F
100
AcDbEntity
  8
Layer 1
 62
     3
370
    20
100
AcDbSpline
210
0.0
220
0.0
230
1.0
 70
     9
 71
     3
 72
    23
 73
    19
 74
     0
 42
0.000000001
 43
0.0000000001
 40
0.0
 40
0.0
 40
0.0
 40
0.0
 40
0.1666666666666667
 40
0.1666666666666667
 40
0.1666666666666667
 40
0.3333333333333333
 40
0.3333333333333333
 40
0.3333333333333333
 40
0.5
 40
0.5
 40
0.5
 40
0.6666666666666666
 40
0.6666666666666666
 40
0.6666666666666666
 40
0.8333333333333332
 40
0.8333333333333332
 40
0.8333333333333332
 40
1.0
 40
1.0
 40
1.0
 40
1.0
 10
-48.12969999999999
 20
41.4941
 30
0.0
 10
-48.12969999999999
 20
41.4941
 30
0.0
 10
-47.81789999999999
 20
38.2723
 30
0.0
 10
-47.81789999999999
 20
38.2723
 30
0.0
 10
-47.5886
 20
38.2662
 30
0.0
 10
-47.3932
 20
38.1249
 30
0.0
 10
-47.30859999999999
 20
37.925
 30
0.0
 10
-47.30859999999999
 20
37.925
 30
0.0
 10
-39.281
 20
40.2098
 30
0.0
 10
-39.281
 20
40.2098
 30
0.0
 10
-39.2835
 20
40.22599999999999
 30
0.0
 10
-39.2853
 20
40.2424
 30
0.0
 10
-39.2864
 20
40.25909999999999
 30
0.0
 10
-39.2864
 20
40.25909999999999
 30
0.0
 10
-47.73629999999999
 20
41.8123
 30
0.0
 10
-47.73629999999999
 20
41.8123
 30
0.0
 10
-47.80969999999999
 20
41.6529
 30
0.0
 10
-47.9544
 20
41.5331
 30
0.0
 10
-48.12969999999999
 20
41.4941
 30
0.0
  0
SPLINE
  5
FE
330
1F
100
AcDbEntity
  8
Layer 1
 62
     3
370
    20
100
AcDbSpline
210
0.0
220
0.0
230
1.0
 70
     9
 71
     3
 72
    35
 73
    31
 74
     0
 42
0.000000001
 43
0.0000000001
 40
0.0
 40
0.0
 40
0.0
 40
0.0
 40
0.1
 40
0.1
 40
0.1
 40
0.2
 40
0.2
 40
0.2
 40
0.3
 40
0.3
 40
0.3
 40
0.4
 40
0.4
 40
0.4
 40
0.5
 40
0.5
 40
0.5
 40
0.6000000000000001
 40
0.6000000000000001
 40
0.6000000000000001
 40
0.7000000000000001
 40
0.7000000000000001
 40
0.7000000000000001
 40
0.8
 40
0.8
 40
0.8
 40
0.9
 40
0.9
 40
0.9
 40
1.0
 40
1.0
 40
1.0
 40
1.0
 10
-57.3056
 20
39.6611
 30
0.0
 10
-57.3056
 20
39.6611
 30
0.0
 10
-57.36299999999999
 20
34.5511
 30
0.0
 10
-57.36299999999999
 20
34.5511
 30
0.0
 10
-57.0845
 20
34.5137
 30
0.0
 10
-56.8698
 20
34.2755
 30
0.0
 10
-56.8698
 20
33.9866
 30
0.0
 10
-56.8698
 20
33.9496
 30
0.0
 10
-56.87339999999999
 20
33.9134
 30
0.0
 10
-56.8801
 20
33.87830000000001
 30
0.0
 10
-56.8801
 20
33.87830000000001
 30
0.0
 10
-48.6997
 20
31.2135
 30
0.0
 10
-48.6997
 20
31.2135
 30
0.0
 10
-48.61419999999999
 20
31.3955
 30
0.0
 10
-48.4352
 20
31.5249
 30
0.0
 10
-48.2246
 20
31.5398
 30
0.0
 10
-48.2246
 20
31.5398
 30
0.0
 10
-47.93289999999999
 20
37.142
 30
0.0
 10
-47.93289999999999
 20
37.142
 30
0.0
 10
-48.2002
 20
37.1889
 30
0.0
 10
-48.403
 20
37.4221
 30
0.0
 10
-48.403
 20
37.7028
 30
0.0
 10
-48.403
 20
37.7289
 30
0.0
 10
-48.4012
 20
37.75460000000001
 30
0.0
 10
-48.3977
 20
37.7797
 30
0.0
 10
-48.3977
 20
37.7797
 30
0.0
 10
-56.8406
 20
40.0146
 30
0.0
 10
-56.8406
 20
40.0146
 30
0.0
 10
-56.91729999999999
 20
39.8241
 30
0.0
 10
-57.0938
 20
39.6847
 30
0.0
 10
-57.3056
 20
39.6611
 30
0.0
  0
SPLINE
  5
100
330
1F
100
AcDbEntity
  8
Layer 1
 62
     3
370
    20
100
AcDbSpline
210
0.0
220
0.0
230
1.0
 70
     9
 71
     3
 72
    38
 73
    34
 74
     0
 42
0.000000001
 43
0.0000000001
 40
0.0
 40
0.0
 40
0.0
 40
0.0
 40
0.0909090909090909
 40
0.0909090909090909
 40
0.0909090909090909
 40
0.1818181818181818
 40
0.1818181818181818
 40
0.1818181818181818
 40
0.2727272727272727
 40
0.2727272727272727
 40
0.2727272727272727
 40
0.3636363636363636
 40
0.3636363636363636
 40
0.3636363636363636
 40
0.4545454545454546
 40
0.4545454545454546
 40
0.4545454545454546
 40
0.5454545454545455
 40
0.5454545454545455
 40
0.5454545454545455
 40
0.6363636363636364
 40
0.6363636363636364
 40
0.6363636363636364
 40
0.7272727272727274
 40
0.7272727272727274
 40
0.7272727272727274
 40
0.8181818181818181
 40
0.8181818181818181
 40
0.8181818181818181
 40
0.9090909090909091
 40
0.9090909090909091
 40
0.9090909090909091
 40
1.0
 40
1.0
 40
1.0
 40
1.0
 10
-38.5957
 20
34.4923
 30
0.0
 10
-38.5957
 20
34.4923
 30
0.0
 10
-38.7694
 20
39.7299
 30
0.0
 10
-38.7694
 20
39.7299
 30
0.0
 10
-38.98300000000001
 20
39.749
 30
0.0
 10
-39.1626
 20
39.8859
 30
0.0
 10
-39.2428
 20
40.0752
 30
0.0
 10
-39.2428
 20
40.0752
 30
0.0
 10
-47.2704
 20
37.7904
 30
0.0
 10
-47.2704
 20
37.7904
 30
0.0
 10
-47.266
 20
37.7618
 30
0.0
 10
-47.2637
 20
37.7326
 30
0.0
 10
-47.2637
 20
37.7028
 30
0.0
 10
-47.2637
 20
37.4018
 30
0.0
 10
-47.4969
 20
37.1555
 30
0.0
 10
-47.79259999999999
 20
37.1347
 30
0.0
 10
-47.79259999999999
 20
37.1347
 30
0.0
 10
-48.0843
 20
31.5326
 30
0.0
 10
-48.0843
 20
31.5326
 30
0.0
 10
-47.8966
 20
31.4995
 30
0.0
 10
-47.74049999999999
 20
31.3745
 30
0.0
 10
-47.66429999999999
 20
31.2057
 30
0.0
 10
-47.66429999999999
 20
31.2057
 30
0.0
 10
-39.3836
 20
33.7661
 30
0.0
 10
-39.3836
 20
33.7661
 30
0.0
 10
-39.4122
 20
33.8339
 30
0.0
 10
-39.4279
 20
33.9084
 30
0.0
 10
-39.4279
 20
33.9866
 30
0.0
 10
-39.4279
 20
34.3014
 30
0.0
 10
-39.173
 20
34.5563
 30
0.0
 10
-38.8583
 20
34.5563
 30
0.0
 10
-38.7635
 20
34.5563
 30
0.0
 10
-38.6743
 20
34.5331
 30
0.0
 10
-38.5957
 20
34.4923
 30
0.0
  0
SPLINE
  5
102
330
1F
100
AcDbEntity
  8
Layer 1
 62
     3
370
    20
100
AcDbSpline
210
0.0
220
0.0
230
1.0
 70
     9
 71
     3
 72
    26
 73
    22
 74
     0
 42
0.000000001
 43
0.0000000001
 40
0.0
 40
0.0
 40
0.0
 40
0.0
 40
0.1428571428571428
 40
0.1428571428571428
 40
0.1428571428571428
 40
0.2857142857142857
 40
0.2857142857142857
 40
0.2857142857142857
 40
0.4285714285714285
 40
0.4285714285714285
 40
0.4285714285714285
 40
0.5714285714285714
 40
0.5714285714285714
 40
0.5714285714285714
 40
0.7142857142857143
 40
0.7142857142857143
 40
0.7142857142857143
 40
0.8571428571428571
 40
0.8571428571428571
 40
0.8571428571428571
 40
1.0
 40
1.0
 40
1.0
 40
1.0
 10
-38.2507
 20
39.9715
 30
0.0
 10
-38.2507
 20
39.9715
 30
0.0
 10
-33.215
 20
35.4451
 30
0.0
 10
-33.215
 20
35.4451
 30
0.0
 10
-33.1254
 20
35.6143
 30
0.0
 10
-32.95300000000001
 20
35.7328
 30
0.0
 10
-32.75180000000001
 20
35.7468
 30
0.0
 10
-32.75180000000001
 20
35.7468
 30
0.0
 10
-32.5071
 20
40.4375
 30
0.0
 10
-32.5071
 20
40.4375
 30
0.0
 10
-32.70020000000001
 20
40.4715
 30
0.0
 10
-32.8597
 20
40.6028
 30
0.0
 10
-32.9333
 20
40.779
 30
0.0
 10
-32.9333
 20
40.779
 30
0.0
 10
-38.1598
 20
40.41089999999999
 30
0.0
 10
-38.1598
 20
40.41089999999999
 30
0.0
 10
-38.1524
 20
40.3742
 30
0.0
 10
-38.1484
 20
40.3361
 30
0.0
 10
-38.1484
 20
40.2972
 30
0.0
 10
-38.1484
 20
40.176
 30
0.0
 10
-38.1863
 20
40.0638
 30
0.0
 10
-38.2507
 20
39.9715
 30
0.0
  0
SPLINE
  5
104
330
1F
100
AcDbEntity
  8
Layer 1
 62
     3
370
    20
100
AcDbSpline
210
0.0
220
0.0
230
1.0
 70
     9
 71
     3
 72
    23
 73
    19
 74
     0
 42
0.000000001
 43
0.0000000001
 40
0.0
 40
0.0
 40
0.0
 40
0.0
 40
0.1666666666666667
 40
0.1666666666666667
 40
0.1666666666666667
 40
0.3333333333333333
 40
0.3333333333333333
 40
0.3333333333333333
 40
0.5
 40
0.5
 40
0.5
 40
0.6666666666666666
 40
0.6666666666666666
 40
0.6666666666666666
 40
0.8333333333333332
 40
0.8333333333333332
 40
0.8333333333333332
 40
1.0
 40
1.0
 40
1.0
 40
1.0
 10
-62.3422
 20
35.9775
 30
0.0
 10
-62.3422
 20
35.9775
 30
0.0
 10
-57.8413
 20
39.9081
 30
0.0
 10
-57.8413
 20
39.9081
 30
0.0
 10
-57.892
 20
39.9831
 30
0.0
 10
-57.9254
 20
40.0708
 30
0.0
 10
-57.9356
 20
40.1655
 30
0.0
 10
-57.9356
 20
40.1655
 30
0.0
 10
-62.8021
 20
40.8525
 30
0.0
 10
-62.8021
 20
40.8525
 30
0.0
 10
-62.871
 20
40.6845
 30
0.0
 10
-63.0178
 20
40.5569
 30
0.0
 10
-63.1976
 20
40.51429999999999
 30
0.0
 10
-63.1976
 20
40.51429999999999
 30
0.0
 10
-62.7139
 20
36.1223
 30
0.0
 10
-62.7139
 20
36.1223
 30
0.0
 10
-62.5711
 20
36.1204
 30
0.0
 10
-62.4411
 20
36.066
 30
0.0
 10
-62.3422
 20
35.9775
 30
0.0
  0
SPLINE
  5
106
330
1F
100
AcDbEntity
  8
Layer 1
 62
     3
370
    20
100
AcDbSpline
210
0.0
220
0.0
230
1.0
 70
     9
 71
     3
 72
    26
 73
    22
 74
     0
 42
0.000000001
 43
0.0000000001
 40
0.0
 40
0.0
 40
0.0
 40
0.0
 40
0.1428571428571428
 40
0.1428571428571428
 40
0.1428571428571428
 40
0.2857142857142857
 40
0.2857142857142857
 40
0.2857142857142857
 40
0.4285714285714285
 40
0.4285714285714285
 40
0.4285714285714285
 40
0.5714285714285714
 40
0.5714285714285714
 40
0.5714285714285714
 40
0.7142857142857143
 40
0.7142857142857143
 40
0.7142857142857143
 40
0.8571428571428571
 40
0.8571428571428571
 40
0.8571428571428571
 40
1.0
 40
1.0
 40
1.0
 40
1.0
 10
-20.0425
 20
29.6617
 30
0.0
 10
-20.0425
 20
29.6617
 30
0.0
 10
-21.4374
 20
26.8204
 30
0.0
 10
-21.4374
 20
26.8204
 30
0.0
 10
-21.2823
 20
26.7186
 30
0.0
 10
-21.1799
 20
26.5433
 30
0.0
 10
-21.1799
 20
26.3438
 30
0.0
 10
-21.1799
 20
26.2212
 30
0.0
 10
-21.2185
 20
26.1077
 30
0.0
 10
-21.2844
 20
26.0149
 30
0.0
 10
-21.2844
 20
26.0149
 30
0.0
 10
-15.0059
 20
20.2959
 30
0.0
 10
-15.0059
 20
20.2959
 30
0.0
 10
-15.0059
 20
20.2959
 30
0.0
 10
-19.7324
 20
29.6442
 30
0.0
 10
-19.7324
 20
29.6442
 30
0.0
 10
-19.7724
 20
29.6354
 30
0.0
 10
-19.8138
 20
29.6306
 30
0.0
 10
-19.8564
 20
29.6306
 30
0.0
 10
-19.9216
 20
29.6306
 30
0.0
 10
-19.9842
 20
29.6416
 30
0.0
 10
-20.0425
 20
29.6617
 30
0.0
  0
SPLINE
  5
108
330
1F
100
AcDbEntity
  8
Layer 1
 62
     3
370
    20
100
AcDbSpline
210
0.0
220
0.0
230
1.0
 70
     9
 71
     3
 72
    26
 73
    22
 74
     0
 42
0.000000001
 43
0.0000000001
 40
0.0
 40
0.0
 40
0.0
 40
0.0
 40
0.1428571428571428
 40
0.1428571428571428
 40
0.1428571428571428
 40
0.2857142857142857
 40
0.2857142857142857
 40
0.2857142857142857
 40
0.4285714285714285
 40
0.4285714285714285
 40
0.4285714285714285
 40
0.5714285714285714
 40
0.5714285714285714
 40
0.5714285714285714
 40
0.7142857142857143
 40
0.7142857142857143
 40
0.7142857142857143
 40
0.8571428571428571
 40
0.8571428571428571
 40
0.8571428571428571
 40
1.0
 40
1.0
 40
1.0
 40
1.0
 10
-74.0971
 20
26.0437
 30
0.0
 10
-74.0971
 20
26.0437
 30
0.0
 10
-75.05410000000001
 20
27.9121
 30
0.0
 10
-75.05410000000001
 20
27.9121
 30
0.0
 10
-75.11499999999999
 20
27.8898
 30
0.0
 10
-75.1807
 20
27.8777
 30
0.0
 10
-75.24930000000001
 20
27.8777
 30
0.0
 10
-75.32769999999999
 20
27.8777
 30
0.0
 10
-75.4025
 20
27.8936
 30
0.0
 10
-75.47039999999999
 20
27.9223
 30
0.0
 10
-75.47039999999999
 20
27.9223
 30
0.0
 10
-81.63249999999999
 20
19.7685
 30
0.0
 10
-81.63249999999999
 20
19.7685
 30
0.0
 10
-81.63249999999999
 20
19.7685
 30
0.0
 10
-74.2713
 20
25.2893
 30
0.0
 10
-74.2713
 20
25.2893
 30
0.0
 10
-74.31910000000001
 20
25.3727
 30
0.0
 10
-74.34650000000001
 20
25.4695
 30
0.0
 10
-74.34650000000001
 20
25.5725
 30
0.0
 10
-74.34650000000001
 20
25.7684
 30
0.0
 10
-74.2476
 20
25.9412
 30
0.0
 10
-74.0971
 20
26.0437
 30
0.0
  0
SPLINE
  5
10A
330
1F
100
AcDbEntity
  8
Layer 1
 62
     3
370
    20
100
AcDbSpline
210
0.0
220
0.0
230
1.0
 70
     9
 71
     3
 72
   404
 73
   400
 74
     0
 42
0.000000001
 43
0.0000000001
 40
0.0
 40
0.0
 40
0.0
 40
0.0
 40
0.0075187969924812
 40
0.0075187969924812
 40
0.0075187969924812
 40
0.0150375939849624
 40
0.0150375939849624
 40
0.0150375939849624
 40
0.0225563909774436
 40
0.0225563909774436
 40
0.0225563909774436
 40
0.0300751879699248
 40
0.0300751879699248
 40
0.0300751879699248
 40
0.037593984962406
 40
0.037593984962406
 40
0.037593984962406
 40
0.0451127819548872
 40
0.0451127819548872
 40
0.0451127819548872
 40
0.0526315789473684
 40
0.0526315789473684
 40
0.0526315789473684
 40
0.0601503759398496
 40
0.0601503759398496
 40
0.0601503759398496
 40
0.0676691729323308
 40
0.0676691729323308
 40
0.0676691729323308
 40
0.075187969924812
 40
0.075187969924812
 40
0.075187969924812
 40
0.0827067669172932
 40
0.0827067669172932
 40
0.0827067669172932
 40
0.0902255639097744
 40
0.0902255639097744
 40
0.0902255639097744
 40
0.0977443609022556
 40
0.0977443609022556
 40
0.0977443609022556
 40
0.1052631578947368
 40
0.1052631578947368
 40
0.1052631578947368
 40
0.112781954887218
 40
0.112781954887218
 40
0.112781954887218
 40
0.1203007518796992
 40
0.1203007518796992
 40
0.1203007518796992
 40
0.1278195488721804
 40
0.1278195488721804
 40
0.1278195488721804
 40
0.1353383458646616
 40
0.1353383458646616
 40
0.1353383458646616
 40
0.1428571428571428
 40
0.1428571428571428
 40
0.1428571428571428
 40
0.1503759398496241
 40
0.1503759398496241
 40
0.1503759398496241
 40
0.1578947368421053
 40
0.1578947368421053
 40
0.1578947368421053
 40
0.1654135338345865
 40
0.1654135338345865
 40
0.1654135338345865
 40
0.1729323308270677
 40
0.1729323308270677
 40
0.1729323308270677
 40
0.1804511278195489
 40
0.1804511278195489
 40
0.1804511278195489
 40
0.1879699248120301
 40
0.1879699248120301
 40
0.1879699248120301
 40
0.1954887218045113
 40
0.1954887218045113
 40
0.1954887218045113
 40
0.2030075187969925
 40
0.2030075187969925
 40
0.2030075187969925
 40
0.2105263157894737
 40
0.2105263157894737
 40
0.2105263157894737
 40
0.2180451127819549
 40
0.2180451127819549
 40
0.2180451127819549
 40
0.2255639097744361
 40
0.2255639097744361
 40
0.2255639097744361
 40
0.2330827067669173
 40
0.2330827067669173
 40
0.2330827067669173
 40
0.2406015037593985
 40
0.2406015037593985
 40
0.2406015037593985
 40
0.2481203007518797
 40
0.2481203007518797
 40
0.2481203007518797
 40
0.2556390977443609
 40
0.2556390977443609
 40
0.2556390977443609
 40
0.2631578947368421
 40
0.2631578947368421
 40
0.2631578947368421
 40
0.2706766917293233
 40
0.2706766917293233
 40
0.2706766917293233
 40
0.2781954887218045
 40
0.2781954887218045
 40
0.2781954887218045
 40
0.2857142857142857
 40
0.2857142857142857
 40
0.2857142857142857
 40
0.2932330827067669
 40
0.2932330827067669
 40
0.2932330827067669
 40
0.3007518796992481
 40
0.3007518796992481
 40
0.3007518796992481
 40
0.3082706766917293
 40
0.3082706766917293
 40
0.3082706766917293
 40
0.3157894736842105
 40
0.3157894736842105
 40
0.3157894736842105
 40
0.3233082706766917
 40
0.3233082706766917
 40
0.3233082706766917
 40
0.3308270676691729
 40
0.3308270676691729
 40
0.3308270676691729
 40
0.3383458646616541
 40
0.3383458646616541
 40
0.3383458646616541
 40
0.3458646616541353
 40
0.3458646616541353
 40
0.3458646616541353
 40
0.3533834586466165
 40
0.3533834586466165
 40
0.3533834586466165
 40
0.3609022556390977
 40
0.3609022556390977
 40
0.3609022556390977
 40
0.3684210526315789
 40
0.3684210526315789
 40
0.3684210526315789
 40
0.3759398496240601
 40
0.3759398496240601
 40
0.3759398496240601
 40
0.3834586466165413
 40
0.3834586466165413
 40
0.3834586466165413
 40
0.3909774436090225
 40
0.3909774436090225
 40
0.3909774436090225
 40
0.3984962406015037
 40
0.3984962406015037
 40
0.3984962406015037
 40
0.406015037593985
 40
0.406015037593985
 40
0.406015037593985
 40
0.4135338345864661
 40
0.4135338345864661
 40
0.4135338345864661
 40
0.4210526315789473
 40
0.4210526315789473
 40
0.4210526315789473
 40
0.4285714285714285
 40
0.4285714285714285
 40
0.4285714285714285
 40
0.4360902255639098
 40
0.4360902255639098
 40
0.4360902255639098
 40
0.443609022556391
 40
0.443609022556391
 40
0.443609022556391
 40
0.4511278195488722
 40
0.4511278195488722
 40
0.4511278195488722
 40
0.4586466165413535
 40
0.4586466165413535
 40
0.4586466165413535
 40
0.4661654135338347
 40
0.4661654135338347
 40
0.4661654135338347
 40
0.4736842105263159
 40
0.4736842105263159
 40
0.4736842105263159
 40
0.4812030075187971
 40
0.4812030075187971
 40
0.4812030075187971
 40
0.4887218045112782
 40
0.4887218045112782
 40
0.4887218045112782
 40
0.4962406015037594
 40
0.4962406015037594
 40
0.4962406015037594
 40
0.5037593984962406
 40
0.5037593984962406
 40
0.5037593984962406
 40
0.5112781954887219
 40
0.5112781954887219
 40
0.5112781954887219
 40
0.518796992481203
 40
0.518796992481203
 40
0.518796992481203
 40
0.5263157894736842
 40
0.5263157894736842
 40
0.5263157894736842
 40
0.5338345864661653
 40
0.5338345864661653
 40
0.5338345864661653
 40
0.5413533834586466
 40
0.5413533834586466
 40
0.5413533834586466
 40
0.5488721804511279
 40
0.5488721804511279
 40
0.5488721804511279
 40
0.5563909774436091
 40
0.5563909774436091
 40
0.5563909774436091
 40
0.5639097744360902
 40
0.5639097744360902
 40
0.5639097744360902
 40
0.5714285714285714
 40
0.5714285714285714
 40
0.5714285714285714
 40
0.5789473684210527
 40
0.5789473684210527
 40
0.5789473684210527
 40
0.5864661654135338
 40
0.5864661654135338
 40
0.5864661654135338
 40
0.5939849624060151
 40
0.5939849624060151
 40
0.5939849624060151
 40
0.6015037593984962
 40
0.6015037593984962
 40
0.6015037593984962
 40
0.6090225563909775
 40
0.6090225563909775
 40
0.6090225563909775
 40
0.6165413533834587
 40
0.6165413533834587
 40
0.6165413533834587
 40
0.6240601503759398
 40
0.6240601503759398
 40
0.6240601503759398
 40
0.6315789473684211
 40
0.6315789473684211
 40
0.6315789473684211
 40
0.6390977443609023
 40
0.6390977443609023
 40
0.6390977443609023
 40
0.6466165413533834
 40
0.6466165413533834
 40
0.6466165413533834
 40
0.6541353383458646
 40
0.6541353383458646
 40
0.6541353383458646
 40
0.6616541353383459
 40
0.6616541353383459
 40
0.6616541353383459
 40
0.6691729323308272
 40
0.6691729323308272
 40
0.6691729323308272
 40
0.6766917293233083
 40
0.6766917293233083
 40
0.6766917293233083
 40
0.6842105263157894
 40
0.6842105263157894
 40
0.6842105263157894
 40
0.6917293233082706
 40
0.6917293233082706
 40
0.6917293233082706
 40
0.6992481203007519
 40
0.6992481203007519
 40
0.6992481203007519
 40
0.706766917293233
 40
0.706766917293233
 40
0.706766917293233
 40
0.7142857142857143
 40
0.7142857142857143
 40
0.7142857142857143
 40
0.7218045112781955
 40
0.7218045112781955
 40
0.7218045112781955
 40
0.7293233082706767
 40
0.7293233082706767
 40
0.7293233082706767
 40
0.7368421052631579
 40
0.7368421052631579
 40
0.7368421052631579
 40
0.744360902255639
 40
0.744360902255639
 40
0.744360902255639
 40
0.7518796992481203
 40
0.7518796992481203
 40
0.7518796992481203
 40
0.7593984962406016
 40
0.7593984962406016
 40
0.7593984962406016
 40
0.7669172932330827
 40
0.7669172932330827
 40
0.7669172932330827
 40
0.7744360902255638
 40
0.7744360902255638
 40
0.7744360902255638
 40
0.7819548872180451
 40
0.7819548872180451
 40
0.7819548872180451
 40
0.7894736842105264
 40
0.7894736842105264
 40
0.7894736842105264
 40
0.7969924812030075
 40
0.7969924812030075
 40
0.7969924812030075
 40
0.8045112781954886
 40
0.8045112781954886
 40
0.8045112781954886
 40
0.8120300751879698
 40
0.8120300751879698
 40
0.8120300751879698
 40
0.8195488721804512
 40
0.8195488721804512
 40
0.8195488721804512
 40
0.8270676691729322
 40
0.8270676691729322
 40
0.8270676691729322
 40
0.8345864661654134
 40
0.8345864661654134
 40
0.8345864661654134
 40
0.8421052631578946
 40
0.8421052631578946
 40
0.8421052631578946
 40
0.8496240601503759
 40
0.8496240601503759
 40
0.8496240601503759
 40
0.8571428571428571
 40
0.8571428571428571
 40
0.8571428571428571
 40
0.8646616541353381
 40
0.8646616541353381
 40
0.8646616541353381
 40
0.8721804511278195
 40
0.8721804511278195
 40
0.8721804511278195
 40
0.8796992481203007
 40
0.8796992481203007
 40
0.8796992481203007
 40
0.8872180451127819
 40
0.8872180451127819
 40
0.8872180451127819
 40
0.8947368421052628
 40
0.8947368421052628
 40
0.8947368421052628
 40
0.9022556390977443
 40
0.9022556390977443
 40
0.9022556390977443
 40
0.9097744360902256
 40
0.9097744360902256
 40
0.9097744360902256
 40
0.9172932330827068
 40
0.9172932330827068
 40
0.9172932330827068
 40
0.924812030075188
 40
0.924812030075188
 40
0.924812030075188
 40
0.9323308270676692
 40
0.9323308270676692
 40
0.9323308270676692
 40
0.9398496240601502
 40
0.9398496240601502
 40
0.9398496240601502
 40
0.9473684210526316
 40
0.9473684210526316
 40
0.9473684210526316
 40
0.9548872180451127
 40
0.9548872180451127
 40
0.9548872180451127
 40
0.9624060150375941
 40
0.9624060150375941
 40
0.9624060150375941
 40
0.9699248120300751
 40
0.9699248120300751
 40
0.9699248120300751
 40
0.9774436090225563
 40
0.9774436090225563
 40
0.9774436090225563
 40
0.9849624060150375
 40
0.9849624060150375
 40
0.9849624060150375
 40
0.9924812030075187
 40
0.9924812030075187
 40
0.9924812030075187
 40
1.0
 40
1.0
 40
1.0
 40
1.0
 10
-86.0153
 20
14.659
 30
0.0
 10
-86.0153
 20
14.659
 30
0.0
 10
-82.57609999999999
 20
18.8422
 30
0.0
 10
-82.57609999999999
 20
18.8422
 30
0.0
 10
-82.6895
 20
18.9463
 30
0.0
 10
-82.7607
 20
19.0958
 30
0.0
 10
-82.7607
 20
19.2619
 30
0.0
 10
-82.7607
 20
19.5766
 30
0.0
 10
-82.50579999999999
 20
19.8316
 30
0.0
 10
-82.19089999999999
 20
19.8316
 30
0.0
 10
-82.11249999999999
 20
19.8316
 30
0.0
 10
-82.0377
 20
19.8158
 30
0.0
 10
-81.96980000000001
 20
19.7871
 30
0.0
 10
-81.96980000000001
 20
19.7871
 30
0.0
 10
-75.69410000000001
 20
28.0914
 30
0.0
 10
-75.69410000000001
 20
28.0914
 30
0.0
 10
-75.7722
 20
28.1888
 30
0.0
 10
-75.819
 20
28.3126
 30
0.0
 10
-75.819
 20
28.4474
 30
0.0
 10
-75.819
 20
28.5968
 30
0.0
 10
-75.76139999999999
 20
28.7329
 30
0.0
 10
-75.66729999999999
 20
28.8345
 30
0.0
 10
-75.66729999999999
 20
28.8345
 30
0.0
 10
-79.2035
 20
34.2883
 30
0.0
 10
-79.2035
 20
34.2883
 30
0.0
 10
-79.26090000000001
 20
34.2689
 30
0.0
 10
-79.3224
 20
34.2584
 30
0.0
 10
-79.3863
 20
34.2584
 30
0.0
 10
-79.70100000000001
 20
34.2584
 30
0.0
 10
-79.95589999999999
 20
34.5134
 30
0.0
 10
-79.95589999999999
 20
34.8281
 30
0.0
 10
-79.95589999999999
 20
35.0791
 30
0.0
 10
-79.7937
 20
35.2921
 30
0.0
 10
-79.56839999999999
 20
35.3681
 30
0.0
 10
-79.56839999999999
 20
35.3681
 30
0.0
 10
-79.9745
 20
40.6475
 30
0.0
 10
-79.9745
 20
40.6475
 30
0.0
 10
-80.2428
 20
40.6937
 30
0.0
 10
-80.44679999999999
 20
40.9274
 30
0.0
 10
-80.44679999999999
 20
41.20879999999999
 30
0.0
 10
-80.44679999999999
 20
41.5235
 30
0.0
 10
-80.1918
 20
41.77839999999999
 30
0.0
 10
-79.87709999999999
 20
41.77839999999999
 30
0.0
 10
-79.7882
 20
41.77839999999999
 30
0.0
 10
-79.7041
 20
41.7581
 30
0.0
 10
-79.6292
 20
41.72179999999999
 30
0.0
 10
-79.6292
 20
41.72179999999999
 30
0.0
 10
-75.95659999999999
 20
44.62919999999999
 30
0.0
 10
-75.95659999999999
 20
44.62919999999999
 30
0.0
 10
-75.9291
 20
44.91819999999999
 30
0.0
 10
-75.6858
 20
45.1441
 30
0.0
 10
-75.3896
 20
45.1441
 30
0.0
 10
-75.09139999999999
 20
45.1441
 30
0.0
 10
-74.8469
 20
44.9151
 30
0.0
 10
-74.82210000000001
 20
44.6233
 30
0.0
 10
-74.82210000000001
 20
44.6233
 30
0.0
 10
-63.8189
 20
41.3599
 30
0.0
 10
-63.8189
 20
41.3599
 30
0.0
 10
-63.7196
 20
41.5266
 30
0.0
 10
-63.5375
 20
41.6382
 30
0.0
 10
-63.32930000000001
 20
41.6382
 30
0.0
 10
-63.0354
 20
41.6382
 30
0.0
 10
-62.79379999999999
 20
41.4158
 30
0.0
 10
-62.763
 20
41.1302
 30
0.0
 10
-62.763
 20
41.1302
 30
0.0
 10
-57.8965
 20
40.44319999999999
 30
0.0
 10
-57.8965
 20
40.44319999999999
 30
0.0
 10
-57.8114
 20
40.6507
 30
0.0
 10
-57.6075
 20
40.7967
 30
0.0
 10
-57.3693
 20
40.7967
 30
0.0
 10
-57.1426
 20
40.7967
 30
0.0
 10
-56.947
 20
40.6644
 30
0.0
 10
-56.8552
 20
40.47279999999999
 30
0.0
 10
-56.8552
 20
40.47279999999999
 30
0.0
 10
-48.8229
 20
42.07939999999999
 30
0.0
 10
-48.8229
 20
42.07939999999999
 30
0.0
 10
-48.8077
 20
42.3804
 30
0.0
 10
-48.5589
 20
42.6198
 30
0.0
 10
-48.254
 20
42.6198
 30
0.0
 10
-47.95209999999999
 20
42.6198
 30
0.0
 10
-47.70529999999999
 20
42.3852
 30
0.0
 10
-47.68559999999999
 20
42.08829999999999
 30
0.0
 10
-47.68559999999999
 20
42.08829999999999
 30
0.0
 10
-39.2358
 20
40.5351
 30
0.0
 10
-39.2358
 20
40.5351
 30
0.0
 10
-39.1457
 20
40.731
 30
0.0
 10
-38.9478
 20
40.8668
 30
0.0
 10
-38.718
 20
40.8668
 30
0.0
 10
-38.552
 20
40.8668
 30
0.0
 10
-38.40250000000001
 20
40.79579999999999
 30
0.0
 10
-38.2983
 20
40.6824
 30
0.0
 10
-38.2983
 20
40.6824
 30
0.0
 10
-32.9741
 20
41.05749999999999
 30
0.0
 10
-32.9741
 20
41.05749999999999
 30
0.0
 10
-32.9446
 20
41.3443
 30
0.0
 10
-32.7022
 20
41.5681
 30
0.0
 10
-32.40740000000001
 20
41.5681
 30
0.0
 10
-32.2287
 20
41.5681
 30
0.0
 10
-32.0693
 20
41.48579999999999
 30
0.0
 10
-31.9648
 20
41.3571
 30
0.0
 10
-31.9648
 20
41.3571
 30
0.0
 10
-27.4983
 20
43.41849999999999
 30
0.0
 10
-27.4983
 20
43.41849999999999
 30
0.0
 10
-27.5045
 20
43.45229999999999
 30
0.0
 10
-27.5079
 20
43.487
 30
0.0
 10
-27.5079
 20
43.52269999999999
 30
0.0
 10
-27.5079
 20
43.83729999999999
 30
0.0
 10
-27.2529
 20
44.09229999999999
 30
0.0
 10
-26.9382
 20
44.09229999999999
 30
0.0
 10
-26.7077
 20
44.09229999999999
 30
0.0
 10
-26.5091
 20
43.95539999999999
 30
0.0
 10
-26.4195
 20
43.7584
 30
0.0
 10
-26.4195
 20
43.7584
 30
0.0
 10
-21.266
 20
44.6848
 30
0.0
 10
-21.266
 20
44.6848
 30
0.0
 10
-21.2453
 20
44.9808
 30
0.0
 10
-20.9989
 20
45.21419999999999
 30
0.0
 10
-20.6978
 20
45.21419999999999
 30
0.0
 10
-20.3831
 20
45.21419999999999
 30
0.0
 10
-20.1281
 20
44.9592
 30
0.0
 10
-20.1281
 20
44.6445
 30
0.0
 10
-20.1281
 20
44.5584
 30
0.0
 10
-20.1472
 20
44.4769
 30
0.0
 10
-20.1814
 20
44.4036
 30
0.0
 10
-20.1814
 20
44.4036
 30
0.0
 10
-16.4649
 20
41.3679
 30
0.0
 10
-16.4649
 20
41.3679
 30
0.0
 10
-16.3883
 20
41.4063
 30
0.0
 10
-16.3019
 20
41.4278
 30
0.0
 10
-16.2103
 20
41.4278
 30
0.0
 10
-15.8956
 20
41.4278
 30
0.0
 10
-15.6406
 20
41.17289999999999
 30
0.0
 10
-15.6406
 20
40.8582
 30
0.0
 10
-15.6406
 20
40.6623
 30
0.0
 10
-15.7395
 20
40.4896
 30
0.0
 10
-15.89
 20
40.387
 30
0.0
 10
-15.89
 20
40.387
 30
0.0
 10
-16.6974
 20
34.5147
 30
0.0
 10
-16.6974
 20
34.5147
 30
0.0
 10
-16.4888
 20
34.4302
 30
0.0
 10
-16.3418
 20
34.2256
 30
0.0
 10
-16.3418
 20
33.9866
 30
0.0
 10
-16.3418
 20
33.6719
 30
0.0
 10
-16.5967
 20
33.417
 30
0.0
 10
-16.9114
 20
33.417
 30
0.0
 10
-16.9926
 20
33.417
 30
0.0
 10
-17.0698
 20
33.434
 30
0.0
 10
-17.1397
 20
33.4646
 30
0.0
 10
-17.1397
 20
33.4646
 30
0.0
 10
-19.4066
 20
30.5499
 30
0.0
 10
-19.4066
 20
30.5499
 30
0.0
 10
-19.3315
 20
30.4534
 30
0.0
 10
-19.2867
 20
30.3321
 30
0.0
 10
-19.2867
 20
30.2003
 30
0.0
 10
-19.2867
 20
30.0289
 30
0.0
 10
-19.3624
 20
29.8753
 30
0.0
 10
-19.4821
 20
29.7709
 30
0.0
 10
-19.4821
 20
29.7709
 30
0.0
 10
-14.7655
 20
20.4422
 30
0.0
 10
-14.7655
 20
20.4422
 30
0.0
 10
-14.6767
 20
20.4996
 30
0.0
 10
-14.5709
 20
20.5327
 30
0.0
 10
-14.4573
 20
20.5327
 30
0.0
 10
-14.1426
 20
20.5327
 30
0.0
 10
-13.8877
 20
20.2778
 30
0.0
 10
-13.8877
 20
19.9632
 30
0.0
 10
-13.8877
 20
19.8237
 30
0.0
 10
-13.9378
 20
19.6959
 30
0.0
 10
-14.0209
 20
19.597
 30
0.0
 10
-14.0209
 20
19.597
 30
0.0
 10
-9.3138
 20
16.8964
 30
0.0
 10
-9.3138
 20
16.8964
 30
0.0
 10
-9.237
 20
16.935
 30
0.0
 10
-9.1501
 20
16.9567
 30
0.0
 10
-9.058199999999999
 20
16.9567
 30
0.0
 10
-8.7436
 20
16.9567
 30
0.0
 10
-8.488599999999999
 20
16.7018
 30
0.0
 10
-8.488599999999999
 20
16.3871
 30
0.0
 10
-8.488599999999999
 20
16.0724
 30
0.0
 10
-8.7436
 20
15.8174
 30
0.0
 10
-9.058199999999999
 20
15.8174
 30
0.0
 10
-9.142899999999999
 20
15.8174
 30
0.0
 10
-9.2233
 20
15.836
 30
0.0
 10
-9.2955
 20
15.869
 30
0.0
 10
-9.2955
 20
15.869
 30
0.0
 10
-12.6071
 20
12.6278
 30
0.0
 10
-12.6071
 20
12.6278
 30
0.0
 10
-12.574
 20
12.5557
 30
0.0
 10
-12.5554
 20
12.4752
 30
0.0
 10
-12.5554
 20
12.3905
 30
0.0
 10
-12.5554
 20
12.1744
 30
0.0
 10
-12.6756
 20
11.9865
 30
0.0
 10
-12.8527
 20
11.89
 30
0.0
 10
-12.8527
 20
11.89
 30
0.0
 10
-8.5829
 20
6.572899999999999
 30
0.0
 10
-8.5829
 20
6.572899999999999
 30
0.0
 10
-8.554999999999999
 20
6.577099999999999
 30
0.0
 10
-8.5264
 20
6.579299999999999
 30
0.0
 10
-8.497299999999999
 20
6.579299999999999
 30
0.0
 10
-8.1827
 20
6.579299999999999
 30
0.0
 10
-7.927699999999999
 20
6.324399999999999
 30
0.0
 10
-7.927699999999999
 20
6.009699999999999
 30
0.0
 10
-7.927699999999999
 20
5.695
 30
0.0
 10
-8.1827
 20
5.4401
 30
0.0
 10
-8.497299999999999
 20
5.4401
 30
0.0
 10
-8.721799999999999
 20
5.4401
 30
0.0
 10
-8.9158
 20
5.569799999999999
 30
0.0
 10
-9.008599999999999
 20
5.7583
 30
0.0
 10
-9.008599999999999
 20
5.7583
 30
0.0
 10
-14.4215
 20
4.614499999999999
 30
0.0
 10
-14.4215
 20
4.614499999999999
 30
0.0
 10
-14.3938
 20
4.5475
 30
0.0
 10
-14.3785
 20
4.474099999999999
 30
0.0
 10
-14.3785
 20
4.397
 30
0.0
 10
-14.3785
 20
4.305299999999999
 30
0.0
 10
-14.4002
 20
4.2187
 30
0.0
 10
-14.4387
 20
4.141999999999999
 30
0.0
 10
-14.4387
 20
4.141999999999999
 30
0.0
 10
-12.0278
 20
1.8631
 30
0.0
 10
-12.0278
 20
1.8631
 30
0.0
 10
-11.9396
 20
1.9191
 30
0.0
 10
-11.835
 20
1.9516
 30
0.0
 10
-11.7227
 20
1.9516
 30
0.0
 10
-11.408
 20
1.9516
 30
0.0
 10
-11.1531
 20
1.6966
 30
0.0
 10
-11.1531
 20
1.381899999999999
 30
0.0
 10
-11.1531
 20
1.067199999999999
 30
0.0
 10
-11.408
 20
0.8123000000000001
 30
0.0
 10
-11.7227
 20
0.8123000000000001
 30
0.0
 10
-12.0017
 20
0.8123000000000001
 30
0.0
 10
-12.2336
 20
1.012599999999999
 30
0.0
 10
-12.2827
 20
1.2774
 30
0.0
 10
-12.2827
 20
1.2774
 30
0.0
 10
-16.0101
 20
1.516599999999999
 30
0.0
 10
-16.0101
 20
1.516599999999999
 30
0.0
 10
-16.0696
 20
1.291099999999999
 30
0.0
 10
-16.2637
 20
1.1205
 30
0.0
 10
-16.5013
 20
1.0959
 30
0.0
 10
-16.5013
 20
1.0959
 30
0.0
 10
-15.3122
 20
-3.167199999999999
 30
0.0
 10
-15.3122
 20
-3.167199999999999
 30
0.0
 10
-15.3122
 20
-3.167199999999999
 30
0.0
 10
-15.2987
 20
-3.166999999999999
 30
0.0
 10
-15.2987
 20
-3.166999999999999
 30
0.0
 10
-14.984
 20
-3.166999999999999
 30
0.0
 10
-14.7291
 20
-3.421999999999999
 30
0.0
 10
-14.7291
 20
-3.736699999999999
 30
0.0
 10
-14.7291
 20
-4.0513
 30
0.0
 10
-14.984
 20
-4.3063
 30
0.0
 10
-15.2987
 20
-4.3063
 30
0.0
 10
-15.6134
 20
-4.3063
 30
0.0
 10
-15.8683
 20
-4.0513
 30
0.0
 10
-15.8683
 20
-3.736699999999999
 30
0.0
 10
-15.8683
 20
-3.712899999999999
 30
0.0
 10
-15.8669
 20
-3.689499999999999
 30
0.0
 10
-15.864
 20
-3.6665
 30
0.0
 10
-15.864
 20
-3.6665
 30
0.0
 10
-20.7065
 20
-3.6665
 30
0.0
 10
-20.7065
 20
-3.6665
 30
0.0
 10
-20.7379
 20
-3.7909
 30
0.0
 10
-20.8103
 20
-3.898899999999999
 30
0.0
 10
-20.9084
 20
-3.9756
 30
0.0
 10
-20.9084
 20
-3.9756
 30
0.0
 10
-19.4479
 20
-7.304199999999999
 30
0.0
 10
-19.4479
 20
-7.304199999999999
 30
0.0
 10
-19.4479
 20
-7.304199999999999
 30
0.0
 10
-19.4357
 20
-7.303999999999999
 30
0.0
 10
-19.4357
 20
-7.303999999999999
 30
0.0
 10
-19.121
 20
-7.303999999999999
 30
0.0
 10
-18.866
 20
-7.5589
 30
0.0
 10
-18.866
 20
-7.873599999999999
 30
0.0
 10
-18.866
 20
-8.188299999999999
 30
0.0
 10
-19.121
 20
-8.443199999999999
 30
0.0
 10
-19.4357
 20
-8.443199999999999
 30
0.0
 10
-19.739
 20
-8.443199999999999
 30
0.0
 10
-19.9869
 20
-8.2063
 30
0.0
 10
-20.0043
 20
-7.907199999999999
 30
0.0
 10
-20.0043
 20
-7.907199999999999
 30
0.0
 10
-31.3306
 20
-5.731399999999999
 30
0.0
 10
-31.3306
 20
-5.731399999999999
 30
0.0
 10
-31.4215
 20
-5.9252
 30
0.0
 10
-31.6183
 20
-6.059199999999999
 30
0.0
 10
-31.8465
 20
-6.059199999999999
 30
0.0
 10
-32.032
 20
-6.059199999999999
 30
0.0
 10
-32.1967
 20
-5.9706
 30
0.0
 10
-32.3007
 20
-5.8334
 30
0.0
 10
-32.3007
 20
-5.8334
 30
0.0
 10
-41.5906
 20
-9.751599999999999
 30
0.0
 10
-41.5906
 20
-9.751599999999999
 30
0.0
 10
-41.5864
 20
-9.7794
 30
0.0
 10
-41.58409999999999
 20
-9.8079
 30
0.0
 10
-41.58409999999999
 20
-9.836899999999999
 30
0.0
 10
-41.58409999999999
 20
-10.1516
 30
0.0
 10
-41.8391
 20
-10.4065
 30
0.0
 10
-42.15379999999999
 20
-10.4065
 30
0.0
 10
-42.4161
 20
-10.4065
 30
0.0
 10
-42.63689999999999
 20
-10.2292
 30
0.0
 10
-42.7031
 20
-9.987999999999999
 30
0.0
 10
-42.7031
 20
-9.987999999999999
 30
0.0
 10
-53.79129999999999
 20
-10.2044
 30
0.0
 10
-53.79129999999999
 20
-10.2044
 30
0.0
 10
-53.8331
 20
-10.4778
 30
0.0
 10
-54.06909999999999
 20
-10.687
 30
0.0
 10
-54.3542
 20
-10.687
 30
0.0
 10
-54.66899999999999
 20
-10.687
 30
0.0
 10
-54.9239
 20
-10.4321
 30
0.0
 10
-54.9239
 20
-10.1174
 30
0.0
 10
-54.9239
 20
-10.0795
 30
0.0
 10
-54.9202
 20
-10.0425
 30
0.0
 10
-54.9131
 20
-10.0067
 30
0.0
 10
-54.9131
 20
-10.0067
 30
0.0
 10
-64.2234
 20
-5.573299999999999
 30
0.0
 10
-64.2234
 20
-5.573299999999999
 30
0.0
 10
-64.3279
 20
-5.6989
 30
0.0
 10
-64.4854
 20
-5.778699999999999
 30
0.0
 10
-64.6615
 20
-5.778699999999999
 30
0.0
 10
-64.8939
 20
-5.778699999999999
 30
0.0
 10
-65.0936
 20
-5.6397
 30
0.0
 10
-65.18229999999999
 20
-5.440299999999999
 30
0.0
 10
-65.18229999999999
 20
-5.440299999999999
 30
0.0
 10
-76.0138
 20
-7.287899999999999
 30
0.0
 10
-76.0138
 20
-7.287899999999999
 30
0.0
 10
-76.03699999999999
 20
-7.581299999999999
 30
0.0
 10
-76.2822
 20
-7.812199999999999
 30
0.0
 10
-76.58159999999999
 20
-7.812199999999999
 30
0.0
 10
-76.89619999999999
 20
-7.812199999999999
 30
0.0
 10
-77.1512
 20
-7.557199999999999
 30
0.0
 10
-77.1512
 20
-7.242499999999999
 30
0.0
 10
-77.1512
 20
-6.9279
 30
0.0
 10
-76.89619999999999
 20
-6.6729
 30
0.0
 10
-76.58159999999999
 20
-6.6729
 30
0.0
 10
-76.58159999999999
 20
-6.6729
 30
0.0
 10
-76.566
 20
-6.673099999999999
 30
0.0
 10
-76.566
 20
-6.673099999999999
 30
0.0
 10
-76.566
 20
-6.673099999999999
 30
0.0
 10
-75.67499999999999
 20
-3.5285
 30
0.0
 10
-75.67499999999999
 20
-3.5285
 30
0.0
 10
-75.80960000000001
 20
-3.450499999999999
 30
0.0
 10
-75.9093
 20
-3.3189
 30
0.0
 10
-75.9449
 20
-3.1629
 30
0.0
 10
-75.9449
 20
-3.1629
 30
0.0
 10
-80.8708
 20
-3.048299999999999
 30
0.0
 10
-80.8708
 20
-3.048299999999999
 30
0.0
 10
-80.93760000000001
 20
-3.288699999999999
 30
0.0
 10
-81.1579
 20
-3.464799999999999
 30
0.0
 10
-81.4197
 20
-3.464799999999999
 30
0.0
 10
-81.73439999999999
 20
-3.464799999999999
 30
0.0
 10
-81.9894
 20
-3.209999999999999
 30
0.0
 10
-81.9894
 20
-2.895199999999999
 30
0.0
 10
-81.9894
 20
-2.580499999999999
 30
0.0
 10
-81.73439999999999
 20
-2.3256
 30
0.0
 10
-81.4197
 20
-2.3256
 30
0.0
 10
-81.3732
 20
-2.3256
 30
0.0
 10
-81.3281
 20
-2.3311
 30
0.0
 10
-81.28480000000001
 20
-2.3416
 30
0.0
 10
-81.28480000000001
 20
-2.3416
 30
0.0
 10
-79.3481
 20
1.3104
 30
0.0
 10
-79.3481
 20
1.3104
 30
0.0
 10
-79.45319999999999
 20
1.405499999999999
 30
0.0
 10
-79.5224
 20
1.539299999999999
 30
0.0
 10
-79.53369999999999
 20
1.6894
 30
0.0
 10
-79.53369999999999
 20
1.6894
 30
0.0
 10
-85.66779999999999
 20
2.761299999999999
 30
0.0
 10
-85.66779999999999
 20
2.761299999999999
 30
0.0
 10
-85.75689999999999
 20
2.563
 30
0.0
 10
-85.9561
 20
2.424999999999999
 30
0.0
 10
-86.18770000000001
 20
2.424999999999999
 30
0.0
 10
-86.5024
 20
2.424999999999999
 30
0.0
 10
-86.75740000000001
 20
2.68
 30
0.0
 10
-86.75740000000001
 20
2.9946
 30
0.0
 10
-86.75740000000001
 20
3.309299999999999
 30
0.0
 10
-86.5024
 20
3.564299999999999
 30
0.0
 10
-86.18770000000001
 20
3.564299999999999
 30
0.0
 10
-86.15680000000001
 20
3.564299999999999
 30
0.0
 10
-86.12659999999999
 20
3.561799999999999
 30
0.0
 10
-86.09709999999999
 20
3.5571
 30
0.0
 10
-86.09709999999999
 20
3.5571
 30
0.0
 10
-83.55079999999999
 20
9.4402
 30
0.0
 10
-83.55079999999999
 20
9.4402
 30
0.0
 10
-83.6683
 20
9.544499999999999
 30
0.0
 10
-83.7423
 20
9.6966
 30
0.0
 10
-83.7423
 20
9.866199999999999
 30
0.0
 10
-83.7423
 20
10.0747
 30
0.0
 10
-83.63039999999999
 20
10.2568
 30
0.0
 10
-83.46339999999999
 20
10.3561
 30
0.0
 10
-83.46339999999999
 20
10.3561
 30
0.0
 10
-86.0271
 20
13.6224
 30
0.0
 10
-86.0271
 20
13.6224
 30
0.0
 10
-86.09770000000001
 20
13.5911
 30
0.0
 10
-86.1757
 20
13.5737
 30
0.0
 10
-86.2578
 20
13.5737
 30
0.0
 10
-86.57250000000001
 20
13.5737
 30
0.0
 10
-86.8275
 20
13.8287
 30
0.0
 10
-86.8275
 20
14.1433
 30
0.0
 10
-86.8275
 20
14.458
 30
0.0
 10
-86.57250000000001
 20
14.713
 30
0.0
 10
-86.2578
 20
14.713
 30
0.0
 10
-86.171
 20
14.713
 30
0.0
 10
-86.0888
 20
14.6936
 30
0.0
 10
-86.0153
 20
14.659
 30
0.0
  0
ENDSEC
  0
SECTION
  2
OBJECTS
  0
DICTIONARY
  5
C
330
0
100
AcDbDictionary
281
     1
  3
ACAD_CIP_PREVIOUS_PRODUCT_INFO
350
150
  3
ACAD_COLOR
350
14B
  3
ACAD_DETAILVIEWSTYLE
350
147
  3
ACAD_GROUP
350
D
  3
ACAD_LAYOUT
350
1A
  3
ACAD_MATERIAL
350
43
  3
ACAD_MLEADERSTYLE
350
6B
  3
ACAD_MLINESTYLE
350
17
  3
ACAD_PLOTSETTINGS
350
19
  3
ACAD_PLOTSTYLENAME
350
E
  3
ACAD_SCALELIST
350
47
  3
ACAD_SECTIONVIEWSTYLE
350
148
  3
ACAD_TABLESTYLE
350
69
  3
ACAD_VISUALSTYLE
350
2A
  3
ACDB_RECOMPOSE_DATA
350
15B
  3
AcDbVariableDictionary
350
10C
  0
SUN
  5
6D
330
29
100
AcDbSun
 90
        1
290
     1
 63
     7
421
 16777215
 40
1.0
291
     1
 91
  2455826
 92
 54000000
292
     0
 70
     0
 71
   256
280
     1
1001
ACAD
1000
AcDbSavedByObjectVersion
1070
     0
  0
DICTIONARY
  5
151
330
10
100
AcDbDictionary
280
     1
281
     1
  3
ADSK_XREC_LAYER_RECONCILED
360
152
  0
DICTIONARY
  5
153
330
6F
100
AcDbDictionary
280
     1
281
     1
  3
ADSK_XREC_LAYER_RECONCILED
360
154
  0
XRECORD
  5
150
102
{ACAD_REACTORS
330
C
102
}
330
C
100
AcDbXrecord
280
     1
300
ACD
300
2016
300
ACD_F_S
  0
DICTIONARY
  5
14B
102
{ACAD_REACTORS
330
C
102
}
330
C
100
AcDbDictionary
281
     1
  0
DICTIONARY
  5
147
102
{ACAD_REACTORS
330
C
102
}
330
C
100
AcDbDictionary
281
     1
  3
Imperial24
350
14D
  0
DICTIONARY
  5
D
102
{ACAD_REACTORS
330
C
102
}
330
C
100
AcDbDictionary
281
     1
  0
DICTIONARY
  5
1A
102
{ACAD_REACTORS
330
C
102
}
330
C
100
AcDbDictionary
281
     1
  3
Layout1
350
1E
  3
Layout2
350
26
  3
Model
350
22
  0
DICTIONARY
  5
43
102
{ACAD_REACTORS
330
C
102
}
330
C
100
AcDbDictionary
281
     1
  3
ByBlock
350
45
  3
ByLayer
350
44
  3
Global
350
46
  0
DICTIONARY
  5
6B
102
{ACAD_REACTORS
330
C
102
}
330
C
100
AcDbDictionary
281
     1
  3
Standard
350
6C
  0
DICTIONARY
  5
17
102
{ACAD_REACTORS
330
C
102
}
330
C
100
AcDbDictionary
281
     1
  3
Standard
350
18
  0
DICTIONARY
  5
19
102
{ACAD_REACTORS
330
C
102
}
330
C
100
AcDbDictionary
281
     1
  0
ACDBDICTIONARYWDFLT
  5
E
102
{ACAD_REACTORS
330
C
102
}
330
C
100
AcDbDictionary
281
     1
  3
Normal
350
F
100
AcDbDictionaryWithDefault
340
F
  0
DICTIONARY
  5
47
102
{ACAD_REACTORS
330
C
102
}
330
C
100
AcDbDictionary
281
     1
  3
A0
350
48
  3
A1
350
49
  3
A2
350
4A
  3
A3
350
4B
  3
A4
350
4C
  3
A5
350
4D
  3
A6
350
4E
  3
A7
350
4F
  3
A8
350
50
  3
A9
350
51
  3
B0
350
52
  3
B1
350
53
  3
B2
350
54
  3
B3
350
55
  3
B4
350
56
  3
B5
350
57
  3
B6
350
58
  3
B7
350
59
  3
B8
350
5A
  3
B9
350
5B
  3
C0
350
5C
  3
C1
350
5D
  3
C2
350
5E
  3
C3
350
5F
  3
C4
350
60
  3
C5
350
61
  3
C6
350
62
  3
C7
350
63
  3
C8
350
64
  3
C9
350
65
  3
D0
350
66
  3
D1
350
67
  3
D2
350
68
  0
DICTIONARY
  5
148
102
{ACAD_REACTORS
330
C
102
}
330
C
100
AcDbDictionary
281
     1
  3
Imperial24
350
14C
  0
DICTIONARY
  5
69
102
{ACAD_REACTORS
330
C
102
}
330
C
100
AcDbDictionary
281
     1
  3
Standard
350
6A
  0
DICTIONARY
  5
2A
102
{ACAD_REACTORS
330
C
102
}
330
C
100
AcDbDictionary
281
     1
  3
2dWireframe
350
2F
  3
Basic
350
32
  3
Brighten
350
36
  3
ColorChange
350
3A
  3
Conceptual
350
34
  3
Dim
350
35
  3
EdgeColorOff
350
3D
  3
Facepattern
350
39
  3
Flat
350
2B
  3
FlatWithEdges
350
2C
  3
Gouraud
350
2D
  3
GouraudWithEdges
350
2E
  3
Hidden
350
31
  3
JitterOff
350
3B
  3
Linepattern
350
38
  3
OverhangOff
350
3C
  3
Realistic
350
33
  3
Shaded
350
42
  3
Shaded with edges
350
41
  3
Shades of Gray
350
3E
  3
Sketchy
350
3F
  3
Thicken
350
37
  3
Wireframe
350
30
  3
X-Ray
350
40
  0
XRECORD
  5
15B
102
{ACAD_REACTORS
330
C
102
}
330
C
100
AcDbXrecord
280
     1
 90
        1
330
6A
  0
DICTIONARY
  5
10C
102
{ACAD_REACTORS
330
C
102
}
330
C
100
AcDbDictionary
281
     1
  3
CANNOSCALE
350
10D
  3
CMLEADERSTYLE
350
146
  3
CTABLESTYLE
350
145
  3
CVIEWDETAILSTYLE
350
155
  3
CVIEWSECTIONSTYLE
350
156
  3
LAYEREVAL
350
157
  3
LAYERNOTIFY
350
158
  0
XRECORD
  5
152
102
{ACAD_REACTORS
330
151
102
}
330
151
100
AcDbXrecord
280
     1
290
     1
  0
XRECORD
  5
154
102
{ACAD_REACTORS
330
153
102
}
330
153
100
AcDbXrecord
280
     1
290
     1
  0
ACDBDETAILVIEWSTYLE
  5
14D
102
{ACAD_XDICTIONARY
360
18E
102
}
102
{ACAD_REACTORS
330
147
102
}
330
147
100
AcDbModelDocViewStyle
 70
     0
  3
Imperial24
290
     0
100
AcDbDetailViewStyle
 70
     0
 71
     0
 90
        3
 71
     1
340
11
 62
   256
 40
0.24
340
0
 62
   256
 40
0.24
300

 40
0.36
280
     3
 71
     2
340
16
 90
       25
 62
   256
 71
     3
340
11
 62
   256
 40
0.24
 90
        1
 40
0.75
 90
        1
300
%<\AcVar ViewType \f "%tc1">% %<\AcVar ViewDetailId>%\PSCALE %<\AcVar ViewScale \f "%sn">%
 71
     4
340
16
 90
       25
 62
   256
340
16
 90
       25
 62
   256
280
     0
  0
LAYOUT
  5
1E
102
{ACAD_REACTORS
330
1A
102
}
330
1A
100
AcDbPlotSettings
  1

  2
none_device
  4

  6

 40
0.0
 41
0.0
 42
0.0
 43
0.0
 44
0.0
 45
0.0
 46
0.0
 47
0.0
 48
0.0
 49
0.0
140
0.0
141
0.0
142
1.0
143
1.0
 70
   688
 72
     0
 73
     0
 74
     5
  7

 75
    16
147
1.0
 76
     0
 77
     2
 78
   300
148
0.0
149
0.0
100
AcDbLayout
  1
Layout1
 70
     1
 71
     1
 10
0.0
 20
0.0
 11
12.0
 21
9.0
 12
0.0
 22
0.0
 32
0.0
 14
1.000000000000000E+20
 24
1.000000000000000E+20
 34
1.000000000000000E+20
 15
-1.000000000000000E+20
 25
-1.000000000000000E+20
 35
-1.000000000000000E+20
146
0.0
 13
0.0
 23
0.0
 33
0.0
 16
1.0
 26
0.0
 36
0.0
 17
0.0
 27
1.0
 37
0.0
 76
     0
330
1B
  0
LAYOUT
  5
26
102
{ACAD_REACTORS
330
1A
102
}
330
1A
100
AcDbPlotSettings
  1

  2
none_device
  4

  6

 40
0.0
 41
0.0
 42
0.0
 43
0.0
 44
0.0
 45
0.0
 46
0.0
 47
0.0
 48
0.0
 49
0.0
140
0.0
141
0.0
142
1.0
143
1.0
 70
   688
 72
     0
 73
     0
 74
     5
  7

 75
    16
147
1.0
 76
     0
 77
     2
 78
   300
148
0.0
149
0.0
100
AcDbLayout
  1
Layout2
 70
     1
 71
     2
 10
0.0
 20
0.0
 11
0.0
 21
0.0
 12
0.0
 22
0.0
 32
0.0
 14
0.0
 24
0.0
 34
0.0
 15
0.0
 25
0.0
 35
0.0
146
0.0
 13
0.0
 23
0.0
 33
0.0
 16
1.0
 26
0.0
 36
0.0
 17
0.0
 27
1.0
 37
0.0
 76
     0
330
23
  0
LAYOUT
  5
22
102
{ACAD_REACTORS
330
1A
102
}
330
1A
100
AcDbPlotSettings
  1

  2
none_device
  4
Letter_(8.50_x_11.00_Inches)
  6

 40
6.349999999999999
 41
6.349999999999999
 42
6.350005079999999
 43
6.350005079999999
 44
215.9
 45
279.4
 46
0.0
 47
0.0
 48
0.0
 49
0.0
140
0.0
141
0.0
142
1.0
143
1.0
 70
  1712
 72
     0
 73
     0
 74
     0
  7

 75
     0
147
1.0
 76
     0
 77
     2
 78
   300
148
0.0
149
0.0
100
AcDbLayout
  1
Model
 70
     1
 71
     0
 10
0.0
 20
0.0
 11
12.0
 21
9.0
 12
0.0
 22
0.0
 32
0.0
 14
-86.9275
 24
-10.787
 34
0.0
 15
-7.8277
 25
45.31419999999999
 35
0.0
146
0.0
 13
0.0
 23
0.0
 33
0.0
 16
1.0
 26
0.0
 36
0.0
 17
0.0
 27
1.0
 37
0.0
 76
     0
330
1F
331
29
  0
MATERIAL
  5
45
102
{ACAD_REACTORS
330
43
102
}
330
43
100
AcDbMaterial
  1
ByBlock
  0
MATERIAL
  5
44
102
{ACAD_REACTORS
330
43
102
}
330
43
100
AcDbMaterial
  1
ByLayer
  0
MATERIAL
  5
46
102
{ACAD_REACTORS
330
43
102
}
330
43
100
AcDbMaterial
  1
Global
  0
MLEADERSTYLE
  5
6C
102
{ACAD_REACTORS
330
6B
102
}
330
6B
100
AcDbMLeaderStyle
179
     2
170
     2
171
     1
172
     0
 90
        2
 40
0.0
 41
0.0
173
     1
 91
-1056964608
340
14
 92
       -2
290
     1
 42
0.09
291
     1
 43
0.36
  3
Standard
 44
0.18
300

342
11
174
     1
178
     6
175
     1
176
     0
 93
-1056964608
 45
0.18
292
     0
297
     0
 46
0.18
 94
-1056964608
 47
1.0
 49
1.0
140
1.0
293
     1
141
0.0
294
     1
177
     0
142
1.0
295
     0
296
     0
143
0.125
271
     0
272
     9
273
     9
1001
ACAD_MLEADERVER
1070
     2
  0
MLINESTYLE
  5
18
102
{ACAD_REACTORS
330
17
102
}
330
17
100
AcDbMlineStyle
  2
STANDARD
 70
     0
  3

 62
   256
 51
90.0
 52
90.0
 71
     2
 49
0.5
 62
   256
  6
BYLAYER
 49
-0.5
 62
   256
  6
BYLAYER
  0
ACDBPLACEHOLDER
  5
F
102
{ACAD_REACTORS
330
E
102
}
330
E
  0
SCALE
  5
48
102
{ACAD_REACTORS
330
47
102
}
330
47
100
AcDbScale
 70
     0
300
1:1
140
1.0
141
1.0
290
     1
  0
SCALE
  5
49
102
{ACAD_REACTORS
330
47
102
}
330
47
100
AcDbScale
 70
     0
300
1:2
140
1.0
141
2.0
290
     0
  0
SCALE
  5
4A
102
{ACAD_REACTORS
330
47
102
}
330
47
100
AcDbScale
 70
     0
300
1:4
140
1.0
141
4.0
290
     0
  0
SCALE
  5
4B
102
{ACAD_REACTORS
330
47
102
}
330
47
100
AcDbScale
 70
     0
300
1:5
140
1.0
141
5.0
290
     0
  0
SCALE
  5
4C
102
{ACAD_REACTORS
330
47
102
}
330
47
100
AcDbScale
 70
     0
300
1:8
140
1.0
141
8.0
290
     0
  0
SCALE
  5
4D
102
{ACAD_REACTORS
330
47
102
}
330
47
100
AcDbScale
 70
     0
300
1:10
140
1.0
141
10.0
290
     0
  0
SCALE
  5
4E
102
{ACAD_REACTORS
330
47
102
}
330
47
100
AcDbScale
 70
     0
300
1:16
140
1.0
141
16.0
290
     0
  0
SCALE
  5
4F
102
{ACAD_REACTORS
330
47
102
}
330
47
100
AcDbScale
 70
     0
300
1:20
140
1.0
141
20.0
290
     0
  0
SCALE
  5
50
102
{ACAD_REACTORS
330
47
102
}
330
47
100
AcDbScale
 70
     0
300
1:30
140
1.0
141
30.0
290
     0
  0
SCALE
  5
51
102
{ACAD_REACTORS
330
47
102
}
330
47
100
AcDbScale
 70
     0
300
1:40
140
1.0
141
40.0
290
     0
  0
SCALE
  5
52
102
{ACAD_REACTORS
330
47
102
}
330
47
100
AcDbScale
 70
     0
300
1:50
140
1.0
141
50.0
290
     0
  0
SCALE
  5
53
102
{ACAD_REACTORS
330
47
102
}
330
47
100
AcDbScale
 70
     0
300
1:100
140
1.0
141
100.0
290
     0
  0
SCALE
  5
54
102
{ACAD_REACTORS
330
47
102
}
330
47
100
AcDbScale
 70
     0
300
2:1
140
2.0
141
1.0
290
     0
  0
SCALE
  5
55
102
{ACAD_REACTORS
330
47
102
}
330
47
100
AcDbScale
 70
     0
300
4:1
140
4.0
141
1.0
290
     0
  0
SCALE
  5
56
102
{ACAD_REACTORS
330
47
102
}
330
47
100
AcDbScale
 70
     0
300
8:1
140
8.0
141
1.0
290
     0
  0
SCALE
  5
57
102
{ACAD_REACTORS
330
47
102
}
330
47
100
AcDbScale
 70
     0
300
10:1
140
10.0
141
1.0
290
     0
  0
SCALE
  5
58
102
{ACAD_REACTORS
330
47
102
}
330
47
100
AcDbScale
 70
     0
300
100:1
140
100.0
141
1.0
290
     0
  0
SCALE
  5
59
102
{ACAD_REACTORS
330
47
102
}
330
47
100
AcDbScale
 70
     0
300
1/128" = 1'-0"
140
0.0078125
141
12.0
290
     0
  0
SCALE
  5
5A
102
{ACAD_REACTORS
330
47
102
}
330
47
100
AcDbScale
 70
     0
300
1/64" = 1'-0"
140
0.015625
141
12.0
290
     0
  0
SCALE
  5
5B
102
{ACAD_REACTORS
330
47
102
}
330
47
100
AcDbScale
 70
     0
300
1/32" = 1'-0"
140
0.03125
141
12.0
290
     0
  0
SCALE
  5
5C
102
{ACAD_REACTORS
330
47
102
}
330
47
100
AcDbScale
 70
     0
300
1/16" = 1'-0"
140
0.0625
141
12.0
290
     0
  0
SCALE
  5
5D
102
{ACAD_REACTORS
330
47
102
}
330
47
100
AcDbScale
 70
     0
300
3/32" = 1'-0"
140
0.09375
141
12.0
290
     0
  0
SCALE
  5
5E
102
{ACAD_REACTORS
330
47
102
}
330
47
100
AcDbScale
 70
     0
300
1/8" = 1'-0"
140
0.125
141
12.0
290
     0
  0
SCALE
  5
5F
102
{ACAD_REACTORS
330
47
102
}
330
47
100
AcDbScale
 70
     0
300
3/16" = 1'-0"
140
0.1875
141
12.0
290
     0
  0
SCALE
  5
60
102
{ACAD_REACTORS
330
47
102
}
330
47
100
AcDbScale
 70
     0
300
1/4" = 1'-0"
140
0.25
141
12.0
290
     0
  0
SCALE
  5
61
102
{ACAD_REACTORS
330
47
102
}
330
47
100
AcDbScale
 70
     0
300
3/8" = 1'-0"
140
0.375
141
12.0
290
     0
  0
SCALE
  5
62
102
{ACAD_REACTORS
330
47
102
}
330
47
100
AcDbScale
 70
     0
300
1/2" = 1'-0"
140
0.5
141
12.0
290
     0
  0
SCALE
  5
63
102
{ACAD_REACTORS
330
47
102
}
330
47
100
AcDbScale
 70
     0
300
3/4" = 1'-0"
140
0.75
141
12.0
290
     0
  0
SCALE
  5
64
102
{ACAD_REACTORS
330
47
102
}
330
47
100
AcDbScale
 70
     0
300
1" = 1'-0"
140
1.0
141
12.0
290
     0
  0
SCALE
  5
65
102
{ACAD_REACTORS
330
47
102
}
330
47
100
AcDbScale
 70
     0
300
1-1/2" = 1'-0"
140
1.5
141
12.0
290
     0
  0
SCALE
  5
66
102
{ACAD_REACTORS
330
47
102
}
330
47
100
AcDbScale
 70
     0
300
3" = 1'-0"
140
3.0
141
12.0
290
     0
  0
SCALE
  5
67
102
{ACAD_REACTORS
330
47
102
}
330
47
100
AcDbScale
 70
     0
300
6" = 1'-0"
140
6.0
141
12.0
290
     0
  0
SCALE
  5
68
102
{ACAD_REACTORS
330
47
102
}
330
47
100
AcDbScale
 70
     0
300
1'-0" = 1'-0"
140
12.0
141
12.0
290
     0
  0
ACDBSECTIONVIEWSTYLE
  5
14C
102
{ACAD_XDICTIONARY
360
18C
102
}
102
{ACAD_REACTORS
330
148
102
}
330
148
100
AcDbModelDocViewStyle
 70
     0
  3
Imperial24
290
     0
100
AcDbSectionViewStyle
 70
     0
 71
     0
 90
       78
 71
     1
340
11
 62
   256
 40
0.24
340
0
340
0
 62
   256
 40
0.24
300
I, O, Q, S, X, Z
 40
0.48
 90
        3
 40
0.18
 90
        1
 71
     2
340
16
 90
       25
 62
   256
340
16
 90
       50
 62
   256
 40
0.24
 40
0.0
 40
0.24
 71
     3
340
11
 62
   256
 40
0.24
 90
        1
 40
0.75
 90
        1
300
%<\AcVar ViewType \f "%tc1">% %<\AcVar ViewSectionStartId>%-%<\AcVar ViewSectionEndId>%\PSCALE %<\AcVar ViewScale \f "%sn">%
 71
     4
 62
   256
 62
   257
300
ANSI31
 40
1.0
 90
        0
290
     0
290
     0
 90
        6
 40
0.0
 40
1.570796326794896
 40
0.2617993877991494
 40
1.308996938995747
 40
-0.2617993877991494
 40
1.832595714594046
  0
TABLESTYLE
  5
6A
102
{ACAD_XDICTIONARY
360
13F
102
}
102
{ACAD_REACTORS
330
69
102
}
330
69
100
AcDbTableStyle
280
     0
  3
Standard
 70
     0
 71
     0
 40
0.06
 41
0.06
280
     0
281
     0
  7
Standard
140
0.18
170
     2
 62
     0
 63
     7
283
     0
 90
        4
 91
        0
  1

274
    -2
284
     1
 64
     0
275
    -2
285
     1
 65
     0
276
    -2
286
     1
 66
     0
277
    -2
287
     1
 67
     0
278
    -2
288
     1
 68
     0
279
    -2
289
     1
 69
     0
  7
Standard
140
0.25
170
     5
 62
     0
 63
     7
283
     0
 90
        4
 91
        0
  1

274
    -2
284
     1
 64
     0
275
    -2
285
     1
 65
     0
276
    -2
286
     1
 66
     0
277
    -2
287
     1
 67
     0
278
    -2
288
     1
 68
     0
279
    -2
289
     1
 69
     0
  7
Standard
140
0.18
170
     5
 62
     0
 63
     7
283
     0
 90
        4
 91
        0
  1

274
    -2
284
     1
 64
     0
275
    -2
285
     1
 65
     0
276
    -2
286
     1
 66
     0
277
    -2
287
     1
 67
     0
278
    -2
288
     1
 68
     0
279
    -2
289
     1
 69
     0
  0
VISUALSTYLE
  5
2F
102
{ACAD_XDICTIONARY
360
164
102
}
102
{ACAD_REACTORS
330
2A
102
}
330
2A
100
AcDbVisualStyle
  2

 70
     4
177
     2
291
     0
 71
     0
176
     1
 72
     2
176
     1
 73
     0
176
     1
 90
        0
176
     1
 40
0.6
176
     1
 41
30.0
176
     1
 63
     7
421
 16777215
176
     1
 74
     1
176
     1
 91
        4
176
     1
 64
     7
176
     1
 65
   257
176
     1
 75
     1
176
     1
175
     1
176
     1
 42
1.0
176
     1
 92
        0
176
     1
 66
   257
176
     1
 43
1.0
176
     1
 76
     1
176
     1
 77
     6
176
     1
 78
     2
176
     1
 67
     7
176
     1
 79
     5
176
     1
170
     0
176
     1
171
     0
176
     1
290
     0
176
     1
 93
        1
176
     1
 44
0.0
176
     1
173
     0
176
     1
1001
ACAD
1000
AcDbSavedByObjectVersion
1070
     0
  0
VISUALSTYLE
  5
32
102
{ACAD_XDICTIONARY
360
16A
102
}
102
{ACAD_REACTORS
330
2A
102
}
330
2A
100
AcDbVisualStyle
  2

 70
     7
177
     2
291
     1
 71
     1
176
     1
 72
     0
176
     1
 73
     1
176
     1
 90
        0
176
     1
 40
0.6
176
     1
 41
30.0
176
     1
 63
     7
421
 16777215
176
     1
 74
     0
176
     1
 91
        4
176
     1
 64
     7
176
     1
 65
   257
176
     1
 75
     1
176
     1
175
     1
176
     1
 42
1.0
176
     1
 92
        8
176
     1
 66
     7
176
     1
 43
1.0
176
     1
 76
     1
176
     1
 77
     6
176
     1
 78
     2
176
     1
 67
     7
176
     1
 79
     5
176
     1
170
     0
176
     1
171
     0
176
     1
290
     0
176
     1
 93
        1
176
     1
 44
0.0
176
     1
173
     0
176
     1
1001
ACAD
1000
AcDbSavedByObjectVersion
1070
     0
  0
VISUALSTYLE
  5
36
102
{ACAD_XDICTIONARY
360
172
102
}
102
{ACAD_REACTORS
330
2A
102
}
330
2A
100
AcDbVisualStyle
  2

 70
    12
177
     2
291
     1
 71
     2
176
     1
 72
     2
176
     1
 73
     0
176
     1
 90
        0
176
     1
 40
0.6
176
     1
 41
30.0
176
     1
 63
     7
421
 16777215
176
     1
 74
     1
176
     1
 91
        4
176
     1
 64
     7
176
     1
 65
   257
176
     1
 75
     1
176
     1
175
     1
176
     1
 42
1.0
176
     1
 92
        8
176
     1
 66
     7
176
     1
 43
1.0
176
     1
 76
     1
176
     1
 77
     6
176
     1
 78
     2
176
     1
 67
     7
176
     1
 79
     5
176
     1
170
     0
176
     1
171
     0
176
     1
290
     0
176
     1
 93
        1
176
     1
 44
50.0
176
     1
173
     0
176
     1
1001
ACAD
1000
AcDbSavedByObjectVersion
1070
     0
  0
VISUALSTYLE
  5
3A
102
{ACAD_XDICTIONARY
360
17A
102
}
102
{ACAD_REACTORS
330
2A
102
}
330
2A
100
AcDbVisualStyle
  2

 70
    16
177
     2
291
     1
 71
     2
176
     1
 72
     2
176
     1
 73
     3
176
     1
 90
        0
176
     1
 40
0.6
176
     1
 41
30.0
176
     1
 63
     8
421
  8421504
176
     1
 74
     1
176
     1
 91
        4
176
     1
 64
     7
176
     1
 65
   257
176
     1
 75
     1
176
     1
175
     1
176
     1
 42
1.0
176
     1
 92
        8
176
     1
 66
     8
424
  8421504
176
     1
 43
1.0
176
     1
 76
     1
176
     1
 77
     6
176
     1
 78
     2
176
     1
 67
     7
176
     1
 79
     5
176
     1
170
     0
176
     1
171
     0
176
     1
290
     0
176
     1
 93
        1
176
     1
 44
0.0
176
     1
173
     0
176
     1
1001
ACAD
1000
AcDbSavedByObjectVersion
1070
     0
  0
VISUALSTYLE
  5
34
102
{ACAD_XDICTIONARY
360
16E
102
}
102
{ACAD_REACTORS
330
2A
102
}
330
2A
100
AcDbVisualStyle
  2

 70
     9
177
     2
291
     0
 71
     3
176
     1
 72
     2
176
     1
 73
     0
176
     1
 90
        0
176
     1
 40
0.6
176
     1
 41
30.0
176
     1
 63
     7
421
 16777215
176
     1
 74
     2
176
     1
 91
        2
176
     1
 64
     7
176
     1
 65
   257
176
     1
 75
     1
176
     1
175
     1
176
     1
 42
179.0
176
     1
 92
        8
176
     1
 66
     7
176
     1
 43
1.0
176
     1
 76
     1
176
     1
 77
     6
176
     1
 78
     2
176
     1
 67
     7
176
     1
 79
     3
176
     1
170
     0
176
     1
171
     0
176
     1
290
     0
176
     1
 93
        1
176
     1
 44
0.0
176
     1
173
     0
176
     1
1001
ACAD
1000
AcDbSavedByObjectVersion
1070
     0
  0
VISUALSTYLE
  5
35
102
{ACAD_XDICTIONARY
360
170
102
}
102
{ACAD_REACTORS
330
2A
102
}
330
2A
100
AcDbVisualStyle
  2

 70
    11
177
     2
291
     1
 71
     2
176
     1
 72
     2
176
     1
 73
     0
176
     1
 90
        0
176
     1
 40
0.6
176
     1
 41
30.0
176
     1
 63
     7
421
 16777215
176
     1
 74
     1
176
     1
 91
        4
176
     1
 64
     7
176
     1
 65
   257
176
     1
 75
     1
176
     1
175
     1
176
     1
 42
1.0
176
     1
 92
        8
176
     1
 66
     7
176
     1
 43
1.0
176
     1
 76
     1
176
     1
 77
     6
176
     1
 78
     2
176
     1
 67
     7
176
     1
 79
     5
176
     1
170
     0
176
     1
171
     0
176
     1
290
     0
176
     1
 93
        1
176
     1
 44
-50.0
176
     1
173
     0
176
     1
1001
ACAD
1000
AcDbSavedByObjectVersion
1070
     0
  0
VISUALSTYLE
  5
3D
102
{ACAD_XDICTIONARY
360
180
102
}
102
{ACAD_REACTORS
330
2A
102
}
330
2A
100
AcDbVisualStyle
  2

 70
    22
177
     2
291
     1
 71
     2
176
     0
 72
     2
176
     0
 73
     0
176
     0
 90
        0
176
     0
 40
0.6
176
     0
 41
30.0
176
     0
 63
     7
421
 16777215
176
     0
 74
     1
176
     0
 91
        4
176
     0
 64
     7
176
     0
 65
   257
176
     0
 75
     1
176
     0
175
     1
176
     0
 42
1.0
176
     0
 92
        8
176
     2
 66
     7
176
     0
 43
1.0
176
     0
 76
     1
176
     0
 77
     6
176
     0
 78
     2
176
     0
 67
     7
176
     0
 79
     5
176
     0
170
     0
176
     0
171
     0
176
     0
290
     0
176
     0
 93
        1
176
     0
 44
0.0
176
     0
173
     0
176
     0
1001
ACAD
1000
AcDbSavedByObjectVersion
1070
     0
  0
VISUALSTYLE
  5
39
102
{ACAD_XDICTIONARY
360
178
102
}
102
{ACAD_REACTORS
330
2A
102
}
330
2A
100
AcDbVisualStyle
  2

 70
    15
177
     2
291
     1
 71
     2
176
     1
 72
     2
176
     1
 73
     0
176
     1
 90
        0
176
     1
 40
0.6
176
     1
 41
30.0
176
     1
 63
     7
421
 16777215
176
     1
 74
     1
176
     1
 91
        4
176
     1
 64
     7
176
     1
 65
   257
176
     1
 75
     1
176
     1
175
     1
176
     1
 42
1.0
176
     1
 92
        8
176
     1
 66
     7
176
     1
 43
1.0
176
     1
 76
     1
176
     1
 77
     6
176
     1
 78
     2
176
     1
 67
     7
176
     1
 79
     5
176
     1
170
     0
176
     1
171
     0
176
     1
290
     0
176
     1
 93
        1
176
     1
 44
0.0
176
     1
173
     0
176
     1
1001
ACAD
1000
AcDbSavedByObjectVersion
1070
     0
  0
VISUALSTYLE
  5
2B
102
{ACAD_XDICTIONARY
360
15C
102
}
102
{ACAD_REACTORS
330
2A
102
}
330
2A
100
AcDbVisualStyle
  2

 70
     0
177
     2
291
     1
 71
     2
176
     1
 72
     1
176
     1
 73
     1
176
     1
 90
        2
176
     1
 40
0.6
176
     1
 41
30.0
176
     1
 63
     7
421
 16777215
176
     1
 74
     0
176
     1
 91
        0
176
     1
 64
     7
176
     1
 65
   257
176
     1
 75
     1
176
     1
175
     1
176
     1
 42
1.0
176
     1
 92
        8
176
     1
 66
     7
176
     1
 43
1.0
176
     1
 76
     1
176
     1
 77
     6
176
     1
 78
     2
176
     1
 67
     7
176
     1
 79
     5
176
     1
170
     0
176
     1
171
     0
176
     1
290
     0
176
     1
 93
       13
176
     1
 44
0.0
176
     1
173
     0
176
     1
1001
ACAD
1000
AcDbSavedByObjectVersion
1070
     0
  0
VISUALSTYLE
  5
2C
102
{ACAD_XDICTIONARY
360
15E
102
}
102
{ACAD_REACTORS
330
2A
102
}
330
2A
100
AcDbVisualStyle
  2

 70
     1
177
     2
291
     1
 71
     2
176
     1
 72
     1
176
     1
 73
     1
176
     1
 90
        2
176
     1
 40
0.6
176
     1
 41
30.0
176
     1
 63
     7
421
 16777215
176
     1
 74
     1
176
     1
 91
        0
176
     1
 64
     7
176
     1
 65
   257
176
     1
 75
     1
176
     1
175
     1
176
     1
 42
1.0
176
     1
 92
        0
176
     1
 66
   257
176
     1
 43
1.0
176
     1
 76
     1
176
     1
 77
     6
176
     1
 78
     2
176
     1
 67
     7
176
     1
 79
     5
176
     1
170
     0
176
     1
171
     0
176
     1
290
     0
176
     1
 93
       13
176
     1
 44
0.0
176
     1
173
     0
176
     1
1001
ACAD
1000
AcDbSavedByObjectVersion
1070
     0
  0
VISUALSTYLE
  5
2D
102
{ACAD_XDICTIONARY
360
160
102
}
102
{ACAD_REACTORS
330
2A
102
}
330
2A
100
AcDbVisualStyle
  2

 70
     2
177
     2
291
     1
 71
     2
176
     1
 72
     2
176
     1
 73
     1
176
     1
 90
        2
176
     1
 40
0.6
176
     1
 41
30.0
176
     1
 63
     7
421
 16777215
176
     1
 74
     0
176
     1
 91
        0
176
     1
 64
     7
176
     1
 65
   257
176
     1
 75
     1
176
     1
175
     1
176
     1
 42
1.0
176
     1
 92
        0
176
     1
 66
     7
176
     1
 43
1.0
176
     1
 76
     1
176
     1
 77
     6
176
     1
 78
     2
176
     1
 67
     7
176
     1
 79
     5
176
     1
170
     0
176
     1
171
     0
176
     1
290
     0
176
     1
 93
       13
176
     1
 44
0.0
176
     1
173
     0
176
     1
1001
ACAD
1000
AcDbSavedByObjectVersion
1070
     0
  0
VISUALSTYLE
  5
2E
102
{ACAD_XDICTIONARY
360
162
102
}
102
{ACAD_REACTORS
330
2A
102
}
330
2A
100
AcDbVisualStyle
  2

 70
     3
177
     2
291
     1
 71
     2
176
     1
 72
     2
176
     1
 73
     1
176
     1
 90
        2
176
     1
 40
0.6
176
     1
 41
30.0
176
     1
 63
     7
421
 16777215
176
     1
 74
     1
176
     1
 91
        0
176
     1
 64
     7
176
     1
 65
   257
176
     1
 75
     1
176
     1
175
     1
176
     1
 42
1.0
176
     1
 92
        0
176
     1
 66
   257
176
     1
 43
1.0
176
     1
 76
     1
176
     1
 77
     6
176
     1
 78
     2
176
     1
 67
     7
176
     1
 79
     5
176
     1
170
     0
176
     1
171
     0
176
     1
290
     0
176
     1
 93
       13
176
     1
 44
0.0
176
     1
173
     0
176
     1
1001
ACAD
1000
AcDbSavedByObjectVersion
1070
     0
  0
VISUALSTYLE
  5
31
102
{ACAD_XDICTIONARY
360
168
102
}
102
{ACAD_REACTORS
330
2A
102
}
330
2A
100
AcDbVisualStyle
  2

 70
     6
177
     2
291
     0
 71
     1
176
     1
 72
     2
176
     1
 73
     2
176
     1
 90
        0
176
     1
 40
0.6
176
     1
 41
30.0
176
     1
 63
     7
421
 16777215
176
     1
 74
     2
176
     1
 91
        2
176
     1
 64
     7
176
     1
 65
   257
176
     1
 75
     2
176
     1
175
     1
176
     1
 42
40.0
176
     1
 92
        0
176
     1
 66
   257
176
     1
 43
1.0
176
     1
 76
     1
176
     1
 77
     6
176
     1
 78
     2
176
     1
 67
     7
176
     1
 79
     3
176
     1
170
     0
176
     1
171
     0
176
     1
290
     0
176
     1
 93
        1
176
     1
 44
0.0
176
     1
173
     0
176
     1
1001
ACAD
1000
AcDbSavedByObjectVersion
1070
     0
  0
VISUALSTYLE
  5
3B
102
{ACAD_XDICTIONARY
360
17C
102
}
102
{ACAD_REACTORS
330
2A
102
}
330
2A
100
AcDbVisualStyle
  2

 70
    20
177
     2
291
     1
 71
     2
176
     0
 72
     2
176
     0
 73
     0
176
     0
 90
        0
176
     0
 40
0.6
176
     0
 41
30.0
176
     0
 63
     7
421
 16777215
176
     0
 74
     1
176
     0
 91
        4
176
     0
 64
     7
176
     0
 65
   257
176
     0
 75
     1
176
     0
175
     1
176
     0
 42
1.0
176
     0
 92
       10
176
     2
 66
     7
176
     0
 43
1.0
176
     0
 76
     1
176
     0
 77
     6
176
     0
 78
     2
176
     0
 67
     7
176
     0
 79
     5
176
     0
170
     0
176
     0
171
     0
176
     0
290
     0
176
     0
 93
        1
176
     0
 44
0.0
176
     0
173
     0
176
     0
1001
ACAD
1000
AcDbSavedByObjectVersion
1070
     0
  0
VISUALSTYLE
  5
38
102
{ACAD_XDICTIONARY
360
176
102
}
102
{ACAD_REACTORS
330
2A
102
}
330
2A
100
AcDbVisualStyle
  2

 70
    14
177
     2
291
     1
 71
     2
176
     1
 72
     2
176
     1
 73
     0
176
     1
 90
        0
176
     1
 40
0.6
176
     1
 41
30.0
176
     1
 63
     7
421
 16777215
176
     1
 74
     1
176
     1
 91
        4
176
     1
 64
     7
176
     1
 65
   257
176
     1
 75
     7
176
     1
175
     7
176
     1
 42
1.0
176
     1
 92
        8
176
     1
 66
     7
176
     1
 43
1.0
176
     1
 76
     1
176
     1
 77
     6
176
     1
 78
     2
176
     1
 67
     7
176
     1
 79
     5
176
     1
170
     0
176
     1
171
     0
176
     1
290
     0
176
     1
 93
        1
176
     1
 44
0.0
176
     1
173
     0
176
     1
1001
ACAD
1000
AcDbSavedByObjectVersion
1070
     0
  0
VISUALSTYLE
  5
3C
102
{ACAD_XDICTIONARY
360
17E
102
}
102
{ACAD_REACTORS
330
2A
102
}
330
2A
100
AcDbVisualStyle
  2

 70
    21
177
     2
291
     1
 71
     2
176
     0
 72
     2
176
     0
 73
     0
176
     0
 90
        0
176
     0
 40
0.6
176
     0
 41
30.0
176
     0
 63
     7
421
 16777215
176
     0
 74
     1
176
     0
 91
        4
176
     0
 64
     7
176
     0
 65
   257
176
     0
 75
     1
176
     0
175
     1
176
     0
 42
1.0
176
     0
 92
        9
176
     2
 66
     7
176
     0
 43
1.0
176
     0
 76
     1
176
     0
 77
     6
176
     0
 78
     2
176
     0
 67
     7
176
     0
 79
     5
176
     0
170
     0
176
     0
171
     0
176
     0
290
     0
176
     0
 93
        1
176
     0
 44
0.0
176
     0
173
     0
176
     0
1001
ACAD
1000
AcDbSavedByObjectVersion
1070
     0
  0
VISUALSTYLE
  5
33
102
{ACAD_XDICTIONARY
360
16C
102
}
102
{ACAD_REACTORS
330
2A
102
}
330
2A
100
AcDbVisualStyle
  2

 70
     8
177
     2
291
     0
 71
     2
176
     1
 72
     3
176
     1
 73
     0
176
     1
 90
        2
176
     1
 40
0.6
176
     1
 41
30.0
176
     1
 63
     7
421
 16777215
176
     1
 74
     0
176
     1
 91
        0
176
     1
 64
     7
176
     1
 65
   257
176
     1
 75
     1
176
     1
175
     1
176
     1
 42
1.0
176
     1
 92
        8
176
     1
 66
   257
176
     1
 43
1.0
176
     1
 76
     1
176
     1
 77
     6
176
     1
 78
     2
176
     1
 67
     7
176
     1
 79
     3
176
     1
170
     0
176
     1
171
     0
176
     1
290
     0
176
     1
 93
       13
176
     1
 44
0.0
176
     1
173
     0
176
     1
1001
ACAD
1000
AcDbSavedByObjectVersion
1070
     0
  0
VISUALSTYLE
  5
42
102
{ACAD_XDICTIONARY
360
18A
102
}
102
{ACAD_REACTORS
330
2A
102
}
330
2A
100
AcDbVisualStyle
  2

 70
    27
177
     2
291
     0
 71
     2
176
     1
 72
     2
176
     1
 73
     1
176
     1
 90
        2
176
     1
 40
0.6
176
     1
 41
30.0
176
     1
 63
     7
421
 16777215
176
     1
 74
     0
176
     1
 91
        4
176
     1
 64
     7
176
     1
 65
   257
176
     1
 75
     1
176
     1
175
     1
176
     1
 42
1.0
176
     1
 92
        8
176
     1
 66
   257
176
     1
 43
1.0
176
     1
 76
     1
176
     1
 77
     6
176
     1
 78
     2
176
     1
 67
     8
425
  7895160
176
     1
 79
     3
176
     1
170
     0
176
     1
171
     0
176
     1
290
     0
176
     1
 93
        5
176
     1
 44
0.0
176
     1
173
     0
176
     1
1001
ACAD
1000
AcDbSavedByObjectVersion
1070
     0
  0
VISUALSTYLE
  5
41
102
{ACAD_XDICTIONARY
360
188
102
}
102
{ACAD_REACTORS
330
2A
102
}
330
2A
100
AcDbVisualStyle
  2

 70
    26
177
     2
291
     0
 71
     2
176
     1
 72
     2
176
     1
 73
     1
176
     1
 90
        2
176
     1
 40
0.6
176
     1
 41
30.0
176
     1
 63
     7
421
 16777215
176
     1
 74
     1
176
     1
 91
       10
176
     1
 64
     7
176
     1
 65
   257
176
     1
 75
     2
176
     1
175
     1
176
     1
 42
1.0
176
     1
 92
        8
176
     1
 66
   257
176
     1
 43
1.0
176
     1
 76
     1
176
     1
 77
     6
176
     1
 78
     2
176
     1
 67
     7
176
     1
 79
     3
176
     1
170
     0
176
     1
171
     0
176
     1
290
     0
176
     1
 93
        5
176
     1
 44
0.0
176
     1
173
     0
176
     1
1001
ACAD
1000
AcDbSavedByObjectVersion
1070
     0
  0
VISUALSTYLE
  5
3E
102
{ACAD_XDICTIONARY
360
182
102
}
102
{ACAD_REACTORS
330
2A
102
}
330
2A
100
AcDbVisualStyle
  2

 70
    23
177
     2
291
     0
 71
     2
176
     1
 72
     2
176
     1
 73
     3
176
     1
 90
        0
176
     1
 40
0.6
176
     1
 41
30.0
176
     1
 63
     7
421
 16777215
176
     1
 74
     2
176
     1
 91
        2
176
     1
 64
     7
176
     1
 65
     7
176
     1
 75
     1
176
     1
175
     1
176
     1
 42
40.0
176
     1
 92
        8
176
     1
 66
     7
176
     1
 43
1.0
176
     1
 76
     1
176
     1
 77
     6
176
     1
 78
     2
176
     1
 67
     7
176
     1
 79
     3
176
     1
170
     0
176
     1
171
     0
176
     1
290
     0
176
     1
 93
        1
176
     1
 44
0.0
176
     1
173
     0
176
     1
1001
ACAD
1000
AcDbSavedByObjectVersion
1070
     0
  0
VISUALSTYLE
  5
3F
102
{ACAD_XDICTIONARY
360
184
102
}
102
{ACAD_REACTORS
330
2A
102
}
330
2A
100
AcDbVisualStyle
  2

 70
    24
177
     2
291
     0
 71
     1
176
     1
 72
     2
176
     1
 73
     2
176
     1
 90
        0
176
     1
 40
0.6
176
     1
 41
30.0
176
     1
 63
     7
421
 16777215
176
     1
 74
     2
176
     1
 91
        2
176
     1
 64
     7
176
     1
 65
     7
176
     1
 75
     1
176
     1
175
     1
176
     1
 42
40.0
176
     1
 92
       11
176
     1
 66
     7
176
     1
 43
1.0
176
     1
 76
     1
176
     1
 77
     6
176
     1
 78
     2
176
     1
 67
     7
176
     1
 79
     6
176
     1
170
     0
176
     1
171
     0
176
     1
290
     0
176
     1
 93
        1
176
     1
 44
0.0
176
     1
173
     0
176
     1
1001
ACAD
1000
AcDbSavedByObjectVersion
1070
     0
  0
VISUALSTYLE
  5
37
102
{ACAD_XDICTIONARY
360
174
102
}
102
{ACAD_REACTORS
330
2A
102
}
330
2A
100
AcDbVisualStyle
  2

 70
    13
177
     2
291
     1
 71
     2
176
     1
 72
     2
176
     1
 73
     0
176
     1
 90
        0
176
     1
 40
0.6
176
     1
 41
30.0
176
     1
 63
     7
421
 16777215
176
     1
 74
     1
176
     1
 91
        4
176
     1
 64
     7
176
     1
 65
   257
176
     1
 75
     1
176
     1
175
     1
176
     1
 42
1.0
176
     1
 92
       12
176
     1
 66
     7
176
     1
 43
1.0
176
     1
 76
     1
176
     1
 77
     6
176
     1
 78
     2
176
     1
 67
     7
176
     1
 79
     5
176
     1
170
     0
176
     1
171
     0
176
     1
290
     0
176
     1
 93
        1
176
     1
 44
0.0
176
     1
173
     0
176
     1
1001
ACAD
1000
AcDbSavedByObjectVersion
1070
     0
  0
VISUALSTYLE
  5
30
102
{ACAD_XDICTIONARY
360
166
102
}
102
{ACAD_REACTORS
330
2A
102
}
330
2A
100
AcDbVisualStyle
  2

 70
     5
177
     2
291
     0
 71
     0
176
     1
 72
     2
176
     1
 73
     0
176
     1
 90
        0
176
     1
 40
0.6
176
     1
 41
30.0
176
     1
 63
     7
421
 16777215
176
     1
 74
     1
176
     1
 91
        4
176
     1
 64
     7
176
     1
 65
   257
176
     1
 75
     1
176
     1
175
     1
176
     1
 42
1.0
176
     1
 92
        0
176
     1
 66
   257
176
     1
 43
1.0
176
     1
 76
     1
176
     1
 77
     6
176
     1
 78
     2
176
     1
 67
     7
176
     1
 79
     3
176
     1
170
     0
176
     1
171
     0
176
     1
290
     0
176
     1
 93
        1
176
     1
 44
0.0
176
     1
173
     0
176
     1
1001
ACAD
1000
AcDbSavedByObjectVersion
1070
     0
  0
VISUALSTYLE
  5
40
102
{ACAD_XDICTIONARY
360
186
102
}
102
{ACAD_REACTORS
330
2A
102
}
330
2A
100
AcDbVisualStyle
  2

 70
    25
177
     2
291
     0
 71
     2
176
     1
 72
     2
176
     1
 73
     1
176
     1
 90
        1
176
     1
 40
0.5
176
     1
 41
30.0
176
     1
 63
     7
421
 16777215
176
     1
 74
     1
176
     1
 91
        0
176
     1
 64
     7
176
     1
 65
   257
176
     1
 75
     1
176
     1
175
     1
176
     1
 42
1.0
176
     1
 92
        8
176
     1
 66
     7
176
     1
 43
1.0
176
     1
 76
     1
176
     1
 77
     6
176
     1
 78
     2
176
     1
 67
     7
176
     1
 79
     3
176
     1
170
     0
176
     1
171
     0
176
     1
290
     0
176
     1
 93
       13
176
     1
 44
0.0
176
     1
173
     0
176
     1
1001
ACAD
1000
AcDbSavedByObjectVersion
1070
     0
  0
DICTIONARYVAR
  5
10D
102
{ACAD_REACTORS
330
10C
102
}
330
10C
100
DictionaryVariables
280
     0
  1
1:1
  0
DICTIONARYVAR
  5
146
102
{ACAD_REACTORS
330
10C
102
}
330
10C
100
DictionaryVariables
280
     0
  1
STANDARD
  0
DICTIONARYVAR
  5
145
102
{ACAD_REACTORS
330
10C
102
}
330
10C
100
DictionaryVariables
280
     0
  1
STANDARD
  0
DICTIONARYVAR
  5
155
102
{ACAD_REACTORS
330
10C
102
}
330
10C
100
DictionaryVariables
280
     0
  1
Imperial24
  0
DICTIONARYVAR
  5
156
102
{ACAD_REACTORS
330
10C
102
}
330
10C
100
DictionaryVariables
280
     0
  1
Imperial24
  0
DICTIONARYVAR
  5
157
102
{ACAD_REACTORS
330
10C
102
}
330
10C
100
DictionaryVariables
280
     0
  1
1
  0
DICTIONARYVAR
  5
158
102
{ACAD_REACTORS
330
10C
102
}
330
10C
100
DictionaryVariables
280
     0
  1
15
  0
DICTIONARY
  5
18E
330
14D
100
AcDbDictionary
280
     1
281
     1
  3
ACAD_XREC_ROUNDTRIP
360
18F
  0
DICTIONARY
  5
18C
330
14C
100
AcDbDictionary
280
     1
281
     1
  3
ACAD_XREC_ROUNDTRIP
360
18D
  0
DICTIONARY
  5
13F
330
6A
100
AcDbDictionary
280
     1
281
     1
  3
ACAD_ROUNDTRIP_2008_TABLESTYLE_CELLSTYLEMAP
360
15A
  0
DICTIONARY
  5
164
330
2F
100
AcDbDictionary
280
     1
281
     1
  3
ACAD_XREC_ROUNDTRIP
360
165
  0
DICTIONARY
  5
16A
330
32
100
AcDbDictionary
280
     1
281
     1
  3
ACAD_XREC_ROUNDTRIP
360
16B
  0
DICTIONARY
  5
172
330
36
100
AcDbDictionary
280
     1
281
     1
  3
ACAD_XREC_ROUNDTRIP
360
173
  0
DICTIONARY
  5
17A
330
3A
100
AcDbDictionary
280
     1
281
     1
  3
ACAD_XREC_ROUNDTRIP
360
17B
  0
DICTIONARY
  5
16E
330
34
100
AcDbDictionary
280
     1
281
     1
  3
ACAD_XREC_ROUNDTRIP
360
16F
  0
DICTIONARY
  5
170
330
35
100
AcDbDictionary
280
     1
281
     1
  3
ACAD_XREC_ROUNDTRIP
360
171
  0
DICTIONARY
  5
180
330
3D
100
AcDbDictionary
280
     1
281
     1
  3
ACAD_XREC_ROUNDTRIP
360
181
  0
DICTIONARY
  5
178
330
39
100
AcDbDictionary
280
     1
281
     1
  3
ACAD_XREC_ROUNDTRIP
360
179
  0
DICTIONARY
  5
15C
330
2B
100
AcDbDictionary
280
     1
281
     1
  3
ACAD_XREC_ROUNDTRIP
360
15D
  0
DICTIONARY
  5
15E
330
2C
100
AcDbDictionary
280
     1
281
     1
  3
ACAD_XREC_ROUNDTRIP
360
15F
  0
DICTIONARY
  5
160
330
2D
100
AcDbDictionary
280
     1
281
     1
  3
ACAD_XREC_ROUNDTRIP
360
161
  0
DICTIONARY
  5
162
330
2E
100
AcDbDictionary
280
     1
281
     1
  3
ACAD_XREC_ROUNDTRIP
360
163
  0
DICTIONARY
  5
168
330
31
100
AcDbDictionary
280
     1
281
     1
  3
ACAD_XREC_ROUNDTRIP
360
169
  0
DICTIONARY
  5
17C
330
3B
100
AcDbDictionary
280
     1
281
     1
  3
ACAD_XREC_ROUNDTRIP
360
17D
  0
DICTIONARY
  5
176
330
38
100
AcDbDictionary
280
     1
281
     1
  3
ACAD_XREC_ROUNDTRIP
360
177
  0
DICTIONARY
  5
17E
330
3C
100
AcDbDictionary
280
     1
281
     1
  3
ACAD_XREC_ROUNDTRIP
360
17F
  0
DICTIONARY
  5
16C
330
33
100
AcDbDictionary
280
     1
281
     1
  3
ACAD_XREC_ROUNDTRIP
360
16D
  0
DICTIONARY
  5
18A
330
42
100
AcDbDictionary
280
     1
281
     1
  3
ACAD_XREC_ROUNDTRIP
360
18B
  0
DICTIONARY
  5
188
330
41
100
AcDbDictionary
280
     1
281
     1
  3
ACAD_XREC_ROUNDTRIP
360
189
  0
DICTIONARY
  5
182
330
3E
100
AcDbDictionary
280
     1
281
     1
  3
ACAD_XREC_ROUNDTRIP
360
183
  0
DICTIONARY
  5
184
330
3F
100
AcDbDictionary
280
     1
281
     1
  3
ACAD_XREC_ROUNDTRIP
360
185
  0
DICTIONARY
  5
174
330
37
100
AcDbDictionary
280
     1
281
     1
  3
ACAD_XREC_ROUNDTRIP
360
175
  0
DICTIONARY
  5
166
330
30
100
AcDbDictionary
280
     1
281
     1
  3
ACAD_XREC_ROUNDTRIP
360
167
  0
DICTIONARY
  5
186
330
40
100
AcDbDictionary
280
     1
281
     1
  3
ACAD_XREC_ROUNDTRIP
360
187
  0
XRECORD
  5
18F
102
{ACAD_REACTORS
330
18E
102
}
330
18E
100
AcDbXrecord
280
     1
102
DISPLAYNAME
  1
Imperial24
102
FLAGS
 90
        0
  0
XRECORD
  5
18D
102
{ACAD_REACTORS
330
18C
102
}
330
18C
100
AcDbXrecord
280
     1
102
DISPLAYNAME
  1
Imperial24
102
FLAGS
 90
        0
  0
CELLSTYLEMAP
  5
15A
102
{ACAD_REACTORS
330
13F
102
}
330
13F
100
AcDbCellStyleMap
 90
        3
300
CELLSTYLE
  1
TABLEFORMAT_BEGIN
 90
        5
170
     1
 91
        0
 92
    32768
 62
   257
 93
        1
300
CONTENTFORMAT
  1
CONTENTFORMAT_BEGIN
 90
        0
 91
        0
 92
        4
 93
        0
300

 40
0.0
140
1.0
 94
        5
 62
     0
340
11
144
0.25
309
CONTENTFORMAT_END
171
     1
301
MARGIN
  1
CELLMARGIN_BEGIN
 40
0.06
 40
0.06
 40
0.06
 40
0.06
 40
0.18
 40
0.18
309
CELLMARGIN_END
 94
        6
 95
        1
302
GRIDFORMAT
  1
GRIDFORMAT_BEGIN
 90
        0
 91
        1
 62
     0
 92
       -2
340
14
 93
        0
 40
0.045
309
GRIDFORMAT_END
 95
        2
302
GRIDFORMAT
  1
GRIDFORMAT_BEGIN
 90
        0
 91
        1
 62
     0
 92
       -2
340
14
 93
        0
 40
0.045
309
GRIDFORMAT_END
 95
        4
302
GRIDFORMAT
  1
GRIDFORMAT_BEGIN
 90
        0
 91
        1
 62
     0
 92
       -2
340
14
 93
        0
 40
0.045
309
GRIDFORMAT_END
 95
        8
302
GRIDFORMAT
  1
GRIDFORMAT_BEGIN
 90
        0
 91
        1
 62
     0
 92
       -2
340
14
 93
        0
 40
0.045
309
GRIDFORMAT_END
 95
       16
302
GRIDFORMAT
  1
GRIDFORMAT_BEGIN
 90
        0
 91
        1
 62
     0
 92
       -2
340
14
 93
        0
 40
0.045
309
GRIDFORMAT_END
 95
       32
302
GRIDFORMAT
  1
GRIDFORMAT_BEGIN
 90
        0
 91
        1
 62
     0
 92
       -2
340
14
 93
        0
 40
0.045
309
GRIDFORMAT_END
309
TABLEFORMAT_END
  1
CELLSTYLE_BEGIN
 90
        1
 91
        1
300
_TITLE
309
CELLSTYLE_END
300
CELLSTYLE
  1
TABLEFORMAT_BEGIN
 90
        5
170
     1
 91
        0
 92
        0
 62
   257
 93
        1
300
CONTENTFORMAT
  1
CONTENTFORMAT_BEGIN
 90
        0
 91
        0
 92
        4
 93
        0
300

 40
0.0
140
1.0
 94
        5
 62
     0
340
11
144
0.18
309
CONTENTFORMAT_END
171
     1
301
MARGIN
  1
CELLMARGIN_BEGIN
 40
0.06
 40
0.06
 40
0.06
 40
0.06
 40
0.18
 40
0.18
309
CELLMARGIN_END
 94
        6
 95
        1
302
GRIDFORMAT
  1
GRIDFORMAT_BEGIN
 90
        0
 91
        1
 62
     0
 92
       -2
340
14
 93
        0
 40
0.045
309
GRIDFORMAT_END
 95
        2
302
GRIDFORMAT
  1
GRIDFORMAT_BEGIN
 90
        0
 91
        1
 62
     0
 92
       -2
340
14
 93
        0
 40
0.045
309
GRIDFORMAT_END
 95
        4
302
GRIDFORMAT
  1
GRIDFORMAT_BEGIN
 90
        0
 91
        1
 62
     0
 92
       -2
340
14
 93
        0
 40
0.045
309
GRIDFORMAT_END
 95
        8
302
GRIDFORMAT
  1
GRIDFORMAT_BEGIN
 90
        0
 91
        1
 62
     0
 92
       -2
340
14
 93
        0
 40
0.045
309
GRIDFORMAT_END
 95
       16
302
GRIDFORMAT
  1
GRIDFORMAT_BEGIN
 90
        0
 91
        1
 62
     0
 92
       -2
340
14
 93
        0
 40
0.045
309
GRIDFORMAT_END
 95
       32
302
GRIDFORMAT
  1
GRIDFORMAT_BEGIN
 90
        0
 91
        1
 62
     0
 92
       -2
340
14
 93
        0
 40
0.045
309
GRIDFORMAT_END
309
TABLEFORMAT_END
  1
CELLSTYLE_BEGIN
 90
        2
 91
        1
300
_HEADER
309
CELLSTYLE_END
300
CELLSTYLE
  1
TABLEFORMAT_BEGIN
 90
        5
170
     1
 91
        0
 92
        0
 62
   257
 93
        1
300
CONTENTFORMAT
  1
CONTENTFORMAT_BEGIN
 90
        0
 91
        0
 92
        4
 93
        0
300

 40
0.0
140
1.0
 94
        2
 62
     0
340
11
144
0.18
309
CONTENTFORMAT_END
171
     1
301
MARGIN
  1
CELLMARGIN_BEGIN
 40
0.06
 40
0.06
 40
0.06
 40
0.06
 40
0.18
 40
0.18
309
CELLMARGIN_END
 94
        6
 95
        1
302
GRIDFORMAT
  1
GRIDFORMAT_BEGIN
 90
        0
 91
        1
 62
     0
 92
       -2
340
14
 93
        0
 40
0.045
309
GRIDFORMAT_END
 95
        2
302
GRIDFORMAT
  1
GRIDFORMAT_BEGIN
 90
        0
 91
        1
 62
     0
 92
       -2
340
14
 93
        0
 40
0.045
309
GRIDFORMAT_END
 95
        4
302
GRIDFORMAT
  1
GRIDFORMAT_BEGIN
 90
        0
 91
        1
 62
     0
 92
       -2
340
14
 93
        0
 40
0.045
309
GRIDFORMAT_END
 95
        8
302
GRIDFORMAT
  1
GRIDFORMAT_BEGIN
 90
        0
 91
        1
 62
     0
 92
       -2
340
14
 93
        0
 40
0.045
309
GRIDFORMAT_END
 95
       16
302
GRIDFORMAT
  1
GRIDFORMAT_BEGIN
 90
        0
 91
        1
 62
     0
 92
       -2
340
14
 93
        0
 40
0.045
309
GRIDFORMAT_END
 95
       32
302
GRIDFORMAT
  1
GRIDFORMAT_BEGIN
 90
        0
 91
        1
 62
     0
 92
       -2
340
14
 93
        0
 40
0.045
309
GRIDFORMAT_END
309
TABLEFORMAT_END
  1
CELLSTYLE_BEGIN
 90
        3
 91
        2
300
_DATA
309
CELLSTYLE_END
  0
XRECORD
  5
165
102
{ACAD_REACTORS
330
164
102
}
330
164
100
AcDbXrecord
280
     1
102
RTVSPost2010Prop28
280
     1
102
RTVSPost2010PropOp28
 70
     1
102
RTVSPost2010Prop29
280
     1
102
RTVSPost2010PropOp29
 70
     1
102
RTVSPost2010Prop30
280
     0
102
RTVSPost2010PropOp30
 70
     1
102
RTVSPost2010Prop31
280
     0
102
RTVSPost2010PropOp31
 70
     1
102
RTVSPost2010Prop32
280
     0
102
RTVSPost2010PropOp32
 70
     1
102
RTVSPost2010Prop33
280
     0
102
RTVSPost2010PropOp33
 70
     1
102
RTVSPost2010Prop34
280
     0
102
RTVSPost2010PropOp34
 70
     1
102
RTVSPost2010Prop35
280
     0
102
RTVSPost2010PropOp35
 70
     1
102
RTVSPost2010Prop36
280
     0
102
RTVSPost2010PropOp36
 70
     1
102
RTVSPost2010Prop37
 90
       50
102
RTVSPost2010PropOp37
 70
     1
102
RTVSPost2010Prop38
140
0.0
102
RTVSPost2010PropOp38
 70
     1
102
RTVSPost2010Prop39
140
1.0
102
RTVSPost2010PropOp39
 70
     1
102
RTVSPost2010Prop40
 90
        0
102
RTVSPost2010PropOp40
 70
     1
102
RTVSPost2010Prop41ColorIndex
 90
       18
102
RTVSPost2010Prop41ColorRGB
 90
        0
102
RTVSPost2010PropOp41
 70
     1
102
RTVSPost2010Prop42
 90
       50
102
RTVSPost2010PropOp42
 70
     1
102
RTVSPost2010Prop43
 90
        3
102
RTVSPost2010PropOp43
 70
     1
102
RTVSPost2010Prop44ColorIndex
 90
        5
102
RTVSPost2010Prop44ColorRGB
 90
      255
102
RTVSPost2010PropOp44
 70
     1
102
RTVSPost2010Prop45
280
     0
102
RTVSPost2010PropOp45
 70
     1
102
RTVSPost2010Prop46
 90
       50
102
RTVSPost2010PropOp46
 70
     1
102
RTVSPost2010Prop47
 90
       50
102
RTVSPost2010PropOp47
 70
     1
102
RTVSPost2010Prop48
 90
       50
102
RTVSPost2010PropOp48
 70
     1
102
RTVSPost2010Prop49
280
     0
102
RTVSPost2010PropOp49
 70
     1
102
RTVSPost2010Prop50
 90
       50
102
RTVSPost2010PropOp50
 70
     1
102
RTVSPost2010Prop51ColorIndex
 90
      256
102
RTVSPost2010Prop51ColorRGB
 90
-16777216
102
RTVSPost2010PropOp51
 70
     0
102
RTVSPost2010Prop52
140
1.0
102
RTVSPost2010PropOp52
 70
     0
102
RTVSPost2010Prop53
 90
        2
102
RTVSPost2010PropOp53
 70
     1
102
RTVSPost2010Prop54
  1
strokes_ogs.tif
102
RTVSPost2010PropOp54
 70
     1
102
RTVSPost2010Prop55
280
     0
102
RTVSPost2010PropOp55
 70
     1
102
RTVSPost2010Prop56
140
1.0
102
RTVSPost2010PropOp56
 70
     1
102
RTVSPost2010Prop57
140
1.0
102
RTVSPost2010PropOp57
 70
     1
  0
XRECORD
  5
16B
102
{ACAD_REACTORS
330
16A
102
}
330
16A
100
AcDbXrecord
280
     1
102
RTVSPost2010Prop28
280
     0
102
RTVSPost2010PropOp28
 70
     1
102
RTVSPost2010Prop29
280
     1
102
RTVSPost2010PropOp29
 70
     1
102
RTVSPost2010Prop30
280
     1
102
RTVSPost2010PropOp30
 70
     1
102
RTVSPost2010Prop31
280
     0
102
RTVSPost2010PropOp31
 70
     1
102
RTVSPost2010Prop32
280
     0
102
RTVSPost2010PropOp32
 70
     1
102
RTVSPost2010Prop33
280
     0
102
RTVSPost2010PropOp33
 70
     1
102
RTVSPost2010Prop34
280
     0
102
RTVSPost2010PropOp34
 70
     1
102
RTVSPost2010Prop35
280
     0
102
RTVSPost2010PropOp35
 70
     1
102
RTVSPost2010Prop36
280
     0
102
RTVSPost2010PropOp36
 70
     1
102
RTVSPost2010Prop37
 90
       50
102
RTVSPost2010PropOp37
 70
     1
102
RTVSPost2010Prop38
140
0.0
102
RTVSPost2010PropOp38
 70
     1
102
RTVSPost2010Prop39
140
1.0
102
RTVSPost2010PropOp39
 70
     1
102
RTVSPost2010Prop40
 90
        0
102
RTVSPost2010PropOp40
 70
     1
102
RTVSPost2010Prop41ColorIndex
 90
       18
102
RTVSPost2010Prop41ColorRGB
 90
        0
102
RTVSPost2010PropOp41
 70
     1
102
RTVSPost2010Prop42
 90
       50
102
RTVSPost2010PropOp42
 70
     1
102
RTVSPost2010Prop43
 90
        3
102
RTVSPost2010PropOp43
 70
     1
102
RTVSPost2010Prop44ColorIndex
 90
        5
102
RTVSPost2010Prop44ColorRGB
 90
      255
102
RTVSPost2010PropOp44
 70
     1
102
RTVSPost2010Prop45
280
     0
102
RTVSPost2010PropOp45
 70
     1
102
RTVSPost2010Prop46
 90
       50
102
RTVSPost2010PropOp46
 70
     1
102
RTVSPost2010Prop47
 90
       50
102
RTVSPost2010PropOp47
 70
     1
102
RTVSPost2010Prop48
 90
       50
102
RTVSPost2010PropOp48
 70
     1
102
RTVSPost2010Prop49
280
     0
102
RTVSPost2010PropOp49
 70
     1
102
RTVSPost2010Prop50
 90
       50
102
RTVSPost2010PropOp50
 70
     1
102
RTVSPost2010Prop51ColorIndex
 90
      256
102
RTVSPost2010Prop51ColorRGB
 90
-16777216
102
RTVSPost2010PropOp51
 70
     0
102
RTVSPost2010Prop52
140
1.0
102
RTVSPost2010PropOp52
 70
     0
102
RTVSPost2010Prop53
 90
        2
102
RTVSPost2010PropOp53
 70
     1
102
RTVSPost2010Prop54
  1
strokes_ogs.tif
102
RTVSPost2010PropOp54
 70
     1
102
RTVSPost2010Prop55
280
     0
102
RTVSPost2010PropOp55
 70
     1
102
RTVSPost2010Prop56
140
1.0
102
RTVSPost2010PropOp56
 70
     1
102
RTVSPost2010Prop57
140
1.0
102
RTVSPost2010PropOp57
 70
     1
  0
XRECORD
  5
173
102
{ACAD_REACTORS
330
172
102
}
330
172
100
AcDbXrecord
280
     1
102
RTVSPost2010Prop28
280
     0
102
RTVSPost2010PropOp28
 70
     1
102
RTVSPost2010Prop29
280
     1
102
RTVSPost2010PropOp29
 70
     1
102
RTVSPost2010Prop30
280
     1
102
RTVSPost2010PropOp30
 70
     1
102
RTVSPost2010Prop31
280
     0
102
RTVSPost2010PropOp31
 70
     1
102
RTVSPost2010Prop32
280
     0
102
RTVSPost2010PropOp32
 70
     1
102
RTVSPost2010Prop33
280
     0
102
RTVSPost2010PropOp33
 70
     1
102
RTVSPost2010Prop34
280
     0
102
RTVSPost2010PropOp34
 70
     1
102
RTVSPost2010Prop35
280
     0
102
RTVSPost2010PropOp35
 70
     1
102
RTVSPost2010Prop36
280
     0
102
RTVSPost2010PropOp36
 70
     1
102
RTVSPost2010Prop37
 90
       50
102
RTVSPost2010PropOp37
 70
     1
102
RTVSPost2010Prop38
140
0.0
102
RTVSPost2010PropOp38
 70
     1
102
RTVSPost2010Prop39
140
1.0
102
RTVSPost2010PropOp39
 70
     1
102
RTVSPost2010Prop40
 90
        0
102
RTVSPost2010PropOp40
 70
     1
102
RTVSPost2010Prop41ColorIndex
 90
       18
102
RTVSPost2010Prop41ColorRGB
 90
        0
102
RTVSPost2010PropOp41
 70
     1
102
RTVSPost2010Prop42
 90
       50
102
RTVSPost2010PropOp42
 70
     1
102
RTVSPost2010Prop43
 90
        3
102
RTVSPost2010PropOp43
 70
     1
102
RTVSPost2010Prop44ColorIndex
 90
        5
102
RTVSPost2010Prop44ColorRGB
 90
      255
102
RTVSPost2010PropOp44
 70
     1
102
RTVSPost2010Prop45
280
     0
102
RTVSPost2010PropOp45
 70
     1
102
RTVSPost2010Prop46
 90
       50
102
RTVSPost2010PropOp46
 70
     1
102
RTVSPost2010Prop47
 90
       50
102
RTVSPost2010PropOp47
 70
     1
102
RTVSPost2010Prop48
 90
       50
102
RTVSPost2010PropOp48
 70
     1
102
RTVSPost2010Prop49
280
     0
102
RTVSPost2010PropOp49
 70
     1
102
RTVSPost2010Prop50
 90
       50
102
RTVSPost2010PropOp50
 70
     1
102
RTVSPost2010Prop51ColorIndex
 90
      256
102
RTVSPost2010Prop51ColorRGB
 90
-16777216
102
RTVSPost2010PropOp51
 70
     0
102
RTVSPost2010Prop52
140
1.0
102
RTVSPost2010PropOp52
 70
     0
102
RTVSPost2010Prop53
 90
        2
102
RTVSPost2010PropOp53
 70
     1
102
RTVSPost2010Prop54
  1
strokes_ogs.tif
102
RTVSPost2010PropOp54
 70
     1
102
RTVSPost2010Prop55
280
     0
102
RTVSPost2010PropOp55
 70
     1
102
RTVSPost2010Prop56
140
1.0
102
RTVSPost2010PropOp56
 70
     1
102
RTVSPost2010Prop57
140
1.0
102
RTVSPost2010PropOp57
 70
     1
  0
XRECORD
  5
17B
102
{ACAD_REACTORS
330
17A
102
}
330
17A
100
AcDbXrecord
280
     1
102
RTVSPost2010Prop28
280
     0
102
RTVSPost2010PropOp28
 70
     1
102
RTVSPost2010Prop29
280
     1
102
RTVSPost2010PropOp29
 70
     1
102
RTVSPost2010Prop30
280
     1
102
RTVSPost2010PropOp30
 70
     1
102
RTVSPost2010Prop31
280
     0
102
RTVSPost2010PropOp31
 70
     1
102
RTVSPost2010Prop32
280
     0
102
RTVSPost2010PropOp32
 70
     1
102
RTVSPost2010Prop33
280
     0
102
RTVSPost2010PropOp33
 70
     1
102
RTVSPost2010Prop34
280
     0
102
RTVSPost2010PropOp34
 70
     1
102
RTVSPost2010Prop35
280
     0
102
RTVSPost2010PropOp35
 70
     1
102
RTVSPost2010Prop36
280
     0
102
RTVSPost2010PropOp36
 70
     1
102
RTVSPost2010Prop37
 90
       50
102
RTVSPost2010PropOp37
 70
     1
102
RTVSPost2010Prop38
140
0.0
102
RTVSPost2010PropOp38
 70
     1
102
RTVSPost2010Prop39
140
1.0
102
RTVSPost2010PropOp39
 70
     1
102
RTVSPost2010Prop40
 90
        0
102
RTVSPost2010PropOp40
 70
     1
102
RTVSPost2010Prop41ColorIndex
 90
       18
102
RTVSPost2010Prop41ColorRGB
 90
        0
102
RTVSPost2010PropOp41
 70
     1
102
RTVSPost2010Prop42
 90
       50
102
RTVSPost2010PropOp42
 70
     1
102
RTVSPost2010Prop43
 90
        3
102
RTVSPost2010PropOp43
 70
     1
102
RTVSPost2010Prop44ColorIndex
 90
        5
102
RTVSPost2010Prop44ColorRGB
 90
      255
102
RTVSPost2010PropOp44
 70
     1
102
RTVSPost2010Prop45
280
     0
102
RTVSPost2010PropOp45
 70
     1
102
RTVSPost2010Prop46
 90
       50
102
RTVSPost2010PropOp46
 70
     1
102
RTVSPost2010Prop47
 90
       50
102
RTVSPost2010PropOp47
 70
     1
102
RTVSPost2010Prop48
 90
       50
102
RTVSPost2010PropOp48
 70
     1
102
RTVSPost2010Prop49
280
     0
102
RTVSPost2010PropOp49
 70
     1
102
RTVSPost2010Prop50
 90
       50
102
RTVSPost2010PropOp50
 70
     1
102
RTVSPost2010Prop51ColorIndex
 90
      256
102
RTVSPost2010Prop51ColorRGB
 90
-16777216
102
RTVSPost2010PropOp51
 70
     0
102
RTVSPost2010Prop52
140
1.0
102
RTVSPost2010PropOp52
 70
     0
102
RTVSPost2010Prop53
 90
        2
102
RTVSPost2010PropOp53
 70
     1
102
RTVSPost2010Prop54
  1
strokes_ogs.tif
102
RTVSPost2010PropOp54
 70
     1
102
RTVSPost2010Prop55
280
     0
102
RTVSPost2010PropOp55
 70
     1
102
RTVSPost2010Prop56
140
1.0
102
RTVSPost2010PropOp56
 70
     1
102
RTVSPost2010Prop57
140
1.0
102
RTVSPost2010PropOp57
 70
     1
  0
XRECORD
  5
16F
102
{ACAD_REACTORS
330
16E
102
}
330
16E
100
AcDbXrecord
280
     1
102
RTVSPost2010Prop28
280
     0
102
RTVSPost2010PropOp28
 70
     1
102
RTVSPost2010Prop29
280
     1
102
RTVSPost2010PropOp29
 70
     1
102
RTVSPost2010Prop30
280
     1
102
RTVSPost2010PropOp30
 70
     1
102
RTVSPost2010Prop31
280
     0
102
RTVSPost2010PropOp31
 70
     1
102
RTVSPost2010Prop32
280
     0
102
RTVSPost2010PropOp32
 70
     1
102
RTVSPost2010Prop33
280
     0
102
RTVSPost2010PropOp33
 70
     1
102
RTVSPost2010Prop34
280
     0
102
RTVSPost2010PropOp34
 70
     1
102
RTVSPost2010Prop35
280
     0
102
RTVSPost2010PropOp35
 70
     1
102
RTVSPost2010Prop36
280
     0
102
RTVSPost2010PropOp36
 70
     1
102
RTVSPost2010Prop37
 90
       50
102
RTVSPost2010PropOp37
 70
     1
102
RTVSPost2010Prop38
140
0.0
102
RTVSPost2010PropOp38
 70
     1
102
RTVSPost2010Prop39
140
1.0
102
RTVSPost2010PropOp39
 70
     1
102
RTVSPost2010Prop40
 90
        0
102
RTVSPost2010PropOp40
 70
     1
102
RTVSPost2010Prop41ColorIndex
 90
       18
102
RTVSPost2010Prop41ColorRGB
 90
        0
102
RTVSPost2010PropOp41
 70
     1
102
RTVSPost2010Prop42
 90
       50
102
RTVSPost2010PropOp42
 70
     1
102
RTVSPost2010Prop43
 90
        3
102
RTVSPost2010PropOp43
 70
     1
102
RTVSPost2010Prop44ColorIndex
 90
        5
102
RTVSPost2010Prop44ColorRGB
 90
      255
102
RTVSPost2010PropOp44
 70
     1
102
RTVSPost2010Prop45
280
     0
102
RTVSPost2010PropOp45
 70
     1
102
RTVSPost2010Prop46
 90
       50
102
RTVSPost2010PropOp46
 70
     1
102
RTVSPost2010Prop47
 90
       50
102
RTVSPost2010PropOp47
 70
     1
102
RTVSPost2010Prop48
 90
       50
102
RTVSPost2010PropOp48
 70
     1
102
RTVSPost2010Prop49
280
     0
102
RTVSPost2010PropOp49
 70
     1
102
RTVSPost2010Prop50
 90
       50
102
RTVSPost2010PropOp50
 70
     1
102
RTVSPost2010Prop51ColorIndex
 90
      256
102
RTVSPost2010Prop51ColorRGB
 90
-16777216
102
RTVSPost2010PropOp51
 70
     0
102
RTVSPost2010Prop52
140
1.0
102
RTVSPost2010PropOp52
 70
     0
102
RTVSPost2010Prop53
 90
        2
102
RTVSPost2010PropOp53
 70
     1
102
RTVSPost2010Prop54
  1
strokes_ogs.tif
102
RTVSPost2010PropOp54
 70
     1
102
RTVSPost2010Prop55
280
     0
102
RTVSPost2010PropOp55
 70
     1
102
RTVSPost2010Prop56
140
1.0
102
RTVSPost2010PropOp56
 70
     1
102
RTVSPost2010Prop57
140
1.0
102
RTVSPost2010PropOp57
 70
     1
  0
XRECORD
  5
171
102
{ACAD_REACTORS
330
170
102
}
330
170
100
AcDbXrecord
280
     1
102
RTVSPost2010Prop28
280
     0
102
RTVSPost2010PropOp28
 70
     1
102
RTVSPost2010Prop29
280
     1
102
RTVSPost2010PropOp29
 70
     1
102
RTVSPost2010Prop30
280
     1
102
RTVSPost2010PropOp30
 70
     1
102
RTVSPost2010Prop31
280
     0
102
RTVSPost2010PropOp31
 70
     1
102
RTVSPost2010Prop32
280
     0
102
RTVSPost2010PropOp32
 70
     1
102
RTVSPost2010Prop33
280
     0
102
RTVSPost2010PropOp33
 70
     1
102
RTVSPost2010Prop34
280
     0
102
RTVSPost2010PropOp34
 70
     1
102
RTVSPost2010Prop35
280
     0
102
RTVSPost2010PropOp35
 70
     1
102
RTVSPost2010Prop36
280
     0
102
RTVSPost2010PropOp36
 70
     1
102
RTVSPost2010Prop37
 90
       50
102
RTVSPost2010PropOp37
 70
     1
102
RTVSPost2010Prop38
140
0.0
102
RTVSPost2010PropOp38
 70
     1
102
RTVSPost2010Prop39
140
1.0
102
RTVSPost2010PropOp39
 70
     1
102
RTVSPost2010Prop40
 90
        0
102
RTVSPost2010PropOp40
 70
     1
102
RTVSPost2010Prop41ColorIndex
 90
       18
102
RTVSPost2010Prop41ColorRGB
 90
        0
102
RTVSPost2010PropOp41
 70
     1
102
RTVSPost2010Prop42
 90
       50
102
RTVSPost2010PropOp42
 70
     1
102
RTVSPost2010Prop43
 90
        3
102
RTVSPost2010PropOp43
 70
     1
102
RTVSPost2010Prop44ColorIndex
 90
        5
102
RTVSPost2010Prop44ColorRGB
 90
      255
102
RTVSPost2010PropOp44
 70
     1
102
RTVSPost2010Prop45
280
     0
102
RTVSPost2010PropOp45
 70
     1
102
RTVSPost2010Prop46
 90
       50
102
RTVSPost2010PropOp46
 70
     1
102
RTVSPost2010Prop47
 90
       50
102
RTVSPost2010PropOp47
 70
     1
102
RTVSPost2010Prop48
 90
       50
102
RTVSPost2010PropOp48
 70
     1
102
RTVSPost2010Prop49
280
     0
102
RTVSPost2010PropOp49
 70
     1
102
RTVSPost2010Prop50
 90
       50
102
RTVSPost2010PropOp50
 70
     1
102
RTVSPost2010Prop51ColorIndex
 90
      256
102
RTVSPost2010Prop51ColorRGB
 90
-16777216
102
RTVSPost2010PropOp51
 70
     0
102
RTVSPost2010Prop52
140
1.0
102
RTVSPost2010PropOp52
 70
     0
102
RTVSPost2010Prop53
 90
        2
102
RTVSPost2010PropOp53
 70
     1
102
RTVSPost2010Prop54
  1
strokes_ogs.tif
102
RTVSPost2010PropOp54
 70
     1
102
RTVSPost2010Prop55
280
     0
102
RTVSPost2010PropOp55
 70
     1
102
RTVSPost2010Prop56
140
1.0
102
RTVSPost2010PropOp56
 70
     1
102
RTVSPost2010Prop57
140
1.0
102
RTVSPost2010PropOp57
 70
     1
  0
XRECORD
  5
181
102
{ACAD_REACTORS
330
180
102
}
330
180
100
AcDbXrecord
280
     1
102
RTVSPost2010Prop28
280
     0
102
RTVSPost2010PropOp28
 70
     0
102
RTVSPost2010Prop29
280
     1
102
RTVSPost2010PropOp29
 70
     0
102
RTVSPost2010Prop30
280
     1
102
RTVSPost2010PropOp30
 70
     0
102
RTVSPost2010Prop31
280
     0
102
RTVSPost2010PropOp31
 70
     0
102
RTVSPost2010Prop32
280
     0
102
RTVSPost2010PropOp32
 70
     0
102
RTVSPost2010Prop33
280
     0
102
RTVSPost2010PropOp33
 70
     0
102
RTVSPost2010Prop34
280
     0
102
RTVSPost2010PropOp34
 70
     0
102
RTVSPost2010Prop35
280
     0
102
RTVSPost2010PropOp35
 70
     0
102
RTVSPost2010Prop36
280
     0
102
RTVSPost2010PropOp36
 70
     0
102
RTVSPost2010Prop37
 90
       50
102
RTVSPost2010PropOp37
 70
     0
102
RTVSPost2010Prop38
140
0.0
102
RTVSPost2010PropOp38
 70
     0
102
RTVSPost2010Prop39
140
1.0
102
RTVSPost2010PropOp39
 70
     0
102
RTVSPost2010Prop40
 90
        0
102
RTVSPost2010PropOp40
 70
     0
102
RTVSPost2010Prop41ColorIndex
 90
       18
102
RTVSPost2010Prop41ColorRGB
 90
        0
102
RTVSPost2010PropOp41
 70
     0
102
RTVSPost2010Prop42
 90
       50
102
RTVSPost2010PropOp42
 70
     0
102
RTVSPost2010Prop43
 90
        3
102
RTVSPost2010PropOp43
 70
     0
102
RTVSPost2010Prop44ColorIndex
 90
        5
102
RTVSPost2010Prop44ColorRGB
 90
      255
102
RTVSPost2010PropOp44
 70
     0
102
RTVSPost2010Prop45
280
     0
102
RTVSPost2010PropOp45
 70
     0
102
RTVSPost2010Prop46
 90
       50
102
RTVSPost2010PropOp46
 70
     0
102
RTVSPost2010Prop47
 90
       50
102
RTVSPost2010PropOp47
 70
     0
102
RTVSPost2010Prop48
 90
       50
102
RTVSPost2010PropOp48
 70
     0
102
RTVSPost2010Prop49
280
     0
102
RTVSPost2010PropOp49
 70
     0
102
RTVSPost2010Prop50
 90
       50
102
RTVSPost2010PropOp50
 70
     0
102
RTVSPost2010Prop51ColorIndex
 90
      256
102
RTVSPost2010Prop51ColorRGB
 90
-16777216
102
RTVSPost2010PropOp51
 70
     0
102
RTVSPost2010Prop52
140
1.0
102
RTVSPost2010PropOp52
 70
     0
102
RTVSPost2010Prop53
 90
        2
102
RTVSPost2010PropOp53
 70
     0
102
RTVSPost2010Prop54
  1
strokes_ogs.tif
102
RTVSPost2010PropOp54
 70
     0
102
RTVSPost2010Prop55
280
     0
102
RTVSPost2010PropOp55
 70
     0
102
RTVSPost2010Prop56
140
1.0
102
RTVSPost2010PropOp56
 70
     0
102
RTVSPost2010Prop57
140
1.0
102
RTVSPost2010PropOp57
 70
     0
  0
XRECORD
  5
179
102
{ACAD_REACTORS
330
178
102
}
330
178
100
AcDbXrecord
280
     1
102
RTVSPost2010Prop28
280
     0
102
RTVSPost2010PropOp28
 70
     1
102
RTVSPost2010Prop29
280
     1
102
RTVSPost2010PropOp29
 70
     1
102
RTVSPost2010Prop30
280
     1
102
RTVSPost2010PropOp30
 70
     1
102
RTVSPost2010Prop31
280
     0
102
RTVSPost2010PropOp31
 70
     1
102
RTVSPost2010Prop32
280
     0
102
RTVSPost2010PropOp32
 70
     1
102
RTVSPost2010Prop33
280
     0
102
RTVSPost2010PropOp33
 70
     1
102
RTVSPost2010Prop34
280
     0
102
RTVSPost2010PropOp34
 70
     1
102
RTVSPost2010Prop35
280
     0
102
RTVSPost2010PropOp35
 70
     1
102
RTVSPost2010Prop36
280
     0
102
RTVSPost2010PropOp36
 70
     1
102
RTVSPost2010Prop37
 90
       50
102
RTVSPost2010PropOp37
 70
     1
102
RTVSPost2010Prop38
140
0.0
102
RTVSPost2010PropOp38
 70
     1
102
RTVSPost2010Prop39
140
1.0
102
RTVSPost2010PropOp39
 70
     1
102
RTVSPost2010Prop40
 90
        0
102
RTVSPost2010PropOp40
 70
     1
102
RTVSPost2010Prop41ColorIndex
 90
       18
102
RTVSPost2010Prop41ColorRGB
 90
        0
102
RTVSPost2010PropOp41
 70
     1
102
RTVSPost2010Prop42
 90
       50
102
RTVSPost2010PropOp42
 70
     1
102
RTVSPost2010Prop43
 90
        3
102
RTVSPost2010PropOp43
 70
     1
102
RTVSPost2010Prop44ColorIndex
 90
        5
102
RTVSPost2010Prop44ColorRGB
 90
      255
102
RTVSPost2010PropOp44
 70
     1
102
RTVSPost2010Prop45
280
     0
102
RTVSPost2010PropOp45
 70
     1
102
RTVSPost2010Prop46
 90
       50
102
RTVSPost2010PropOp46
 70
     1
102
RTVSPost2010Prop47
 90
       50
102
RTVSPost2010PropOp47
 70
     1
102
RTVSPost2010Prop48
 90
       50
102
RTVSPost2010PropOp48
 70
     1
102
RTVSPost2010Prop49
280
     0
102
RTVSPost2010PropOp49
 70
     1
102
RTVSPost2010Prop50
 90
       50
102
RTVSPost2010PropOp50
 70
     1
102
RTVSPost2010Prop51ColorIndex
 90
      256
102
RTVSPost2010Prop51ColorRGB
 90
-16777216
102
RTVSPost2010PropOp51
 70
     0
102
RTVSPost2010Prop52
140
1.0
102
RTVSPost2010PropOp52
 70
     0
102
RTVSPost2010Prop53
 90
        2
102
RTVSPost2010PropOp53
 70
     1
102
RTVSPost2010Prop54
  1
strokes_ogs.tif
102
RTVSPost2010PropOp54
 70
     1
102
RTVSPost2010Prop55
280
     0
102
RTVSPost2010PropOp55
 70
     1
102
RTVSPost2010Prop56
140
1.0
102
RTVSPost2010PropOp56
 70
     1
102
RTVSPost2010Prop57
140
1.0
102
RTVSPost2010PropOp57
 70
     1
  0
XRECORD
  5
15D
102
{ACAD_REACTORS
330
15C
102
}
330
15C
100
AcDbXrecord
280
     1
102
RTVSPost2010Prop28
280
     0
102
RTVSPost2010PropOp28
 70
     1
102
RTVSPost2010Prop29
280
     1
102
RTVSPost2010PropOp29
 70
     1
102
RTVSPost2010Prop30
280
     1
102
RTVSPost2010PropOp30
 70
     1
102
RTVSPost2010Prop31
280
     0
102
RTVSPost2010PropOp31
 70
     1
102
RTVSPost2010Prop32
280
     0
102
RTVSPost2010PropOp32
 70
     1
102
RTVSPost2010Prop33
280
     0
102
RTVSPost2010PropOp33
 70
     1
102
RTVSPost2010Prop34
280
     0
102
RTVSPost2010PropOp34
 70
     1
102
RTVSPost2010Prop35
280
     0
102
RTVSPost2010PropOp35
 70
     1
102
RTVSPost2010Prop36
280
     0
102
RTVSPost2010PropOp36
 70
     1
102
RTVSPost2010Prop37
 90
       50
102
RTVSPost2010PropOp37
 70
     1
102
RTVSPost2010Prop38
140
0.0
102
RTVSPost2010PropOp38
 70
     1
102
RTVSPost2010Prop39
140
1.0
102
RTVSPost2010PropOp39
 70
     1
102
RTVSPost2010Prop40
 90
        0
102
RTVSPost2010PropOp40
 70
     1
102
RTVSPost2010Prop41ColorIndex
 90
       18
102
RTVSPost2010Prop41ColorRGB
 90
        0
102
RTVSPost2010PropOp41
 70
     1
102
RTVSPost2010Prop42
 90
       50
102
RTVSPost2010PropOp42
 70
     1
102
RTVSPost2010Prop43
 90
        3
102
RTVSPost2010PropOp43
 70
     1
102
RTVSPost2010Prop44ColorIndex
 90
        5
102
RTVSPost2010Prop44ColorRGB
 90
      255
102
RTVSPost2010PropOp44
 70
     1
102
RTVSPost2010Prop45
280
     0
102
RTVSPost2010PropOp45
 70
     1
102
RTVSPost2010Prop46
 90
       50
102
RTVSPost2010PropOp46
 70
     1
102
RTVSPost2010Prop47
 90
       50
102
RTVSPost2010PropOp47
 70
     1
102
RTVSPost2010Prop48
 90
       50
102
RTVSPost2010PropOp48
 70
     1
102
RTVSPost2010Prop49
280
     0
102
RTVSPost2010PropOp49
 70
     1
102
RTVSPost2010Prop50
 90
       50
102
RTVSPost2010PropOp50
 70
     1
102
RTVSPost2010Prop51ColorIndex
 90
      256
102
RTVSPost2010Prop51ColorRGB
 90
-16777216
102
RTVSPost2010PropOp51
 70
     0
102
RTVSPost2010Prop52
140
1.0
102
RTVSPost2010PropOp52
 70
     0
102
RTVSPost2010Prop53
 90
        2
102
RTVSPost2010PropOp53
 70
     1
102
RTVSPost2010Prop54
  1
strokes_ogs.tif
102
RTVSPost2010PropOp54
 70
     1
102
RTVSPost2010Prop55
280
     0
102
RTVSPost2010PropOp55
 70
     1
102
RTVSPost2010Prop56
140
1.0
102
RTVSPost2010PropOp56
 70
     1
102
RTVSPost2010Prop57
140
1.0
102
RTVSPost2010PropOp57
 70
     1
  0
XRECORD
  5
15F
102
{ACAD_REACTORS
330
15E
102
}
330
15E
100
AcDbXrecord
280
     1
102
RTVSPost2010Prop28
280
     0
102
RTVSPost2010PropOp28
 70
     1
102
RTVSPost2010Prop29
280
     1
102
RTVSPost2010PropOp29
 70
     1
102
RTVSPost2010Prop30
280
     1
102
RTVSPost2010PropOp30
 70
     1
102
RTVSPost2010Prop31
280
     0
102
RTVSPost2010PropOp31
 70
     1
102
RTVSPost2010Prop32
280
     0
102
RTVSPost2010PropOp32
 70
     1
102
RTVSPost2010Prop33
280
     0
102
RTVSPost2010PropOp33
 70
     1
102
RTVSPost2010Prop34
280
     0
102
RTVSPost2010PropOp34
 70
     1
102
RTVSPost2010Prop35
280
     0
102
RTVSPost2010PropOp35
 70
     1
102
RTVSPost2010Prop36
280
     0
102
RTVSPost2010PropOp36
 70
     1
102
RTVSPost2010Prop37
 90
       50
102
RTVSPost2010PropOp37
 70
     1
102
RTVSPost2010Prop38
140
0.0
102
RTVSPost2010PropOp38
 70
     1
102
RTVSPost2010Prop39
140
1.0
102
RTVSPost2010PropOp39
 70
     1
102
RTVSPost2010Prop40
 90
        0
102
RTVSPost2010PropOp40
 70
     1
102
RTVSPost2010Prop41ColorIndex
 90
       18
102
RTVSPost2010Prop41ColorRGB
 90
        0
102
RTVSPost2010PropOp41
 70
     1
102
RTVSPost2010Prop42
 90
       50
102
RTVSPost2010PropOp42
 70
     1
102
RTVSPost2010Prop43
 90
        3
102
RTVSPost2010PropOp43
 70
     1
102
RTVSPost2010Prop44ColorIndex
 90
        5
102
RTVSPost2010Prop44ColorRGB
 90
      255
102
RTVSPost2010PropOp44
 70
     1
102
RTVSPost2010Prop45
280
     0
102
RTVSPost2010PropOp45
 70
     1
102
RTVSPost2010Prop46
 90
       50
102
RTVSPost2010PropOp46
 70
     1
102
RTVSPost2010Prop47
 90
       50
102
RTVSPost2010PropOp47
 70
     1
102
RTVSPost2010Prop48
 90
       50
102
RTVSPost2010PropOp48
 70
     1
102
RTVSPost2010Prop49
280
     0
102
RTVSPost2010PropOp49
 70
     1
102
RTVSPost2010Prop50
 90
       50
102
RTVSPost2010PropOp50
 70
     1
102
RTVSPost2010Prop51ColorIndex
 90
      256
102
RTVSPost2010Prop51ColorRGB
 90
-16777216
102
RTVSPost2010PropOp51
 70
     0
102
RTVSPost2010Prop52
140
1.0
102
RTVSPost2010PropOp52
 70
     0
102
RTVSPost2010Prop53
 90
        2
102
RTVSPost2010PropOp53
 70
     1
102
RTVSPost2010Prop54
  1
strokes_ogs.tif
102
RTVSPost2010PropOp54
 70
     1
102
RTVSPost2010Prop55
280
     0
102
RTVSPost2010PropOp55
 70
     1
102
RTVSPost2010Prop56
140
1.0
102
RTVSPost2010PropOp56
 70
     1
102
RTVSPost2010Prop57
140
1.0
102
RTVSPost2010PropOp57
 70
     1
  0
XRECORD
  5
161
102
{ACAD_REACTORS
330
160
102
}
330
160
100
AcDbXrecord
280
     1
102
RTVSPost2010Prop28
280
     0
102
RTVSPost2010PropOp28
 70
     1
102
RTVSPost2010Prop29
280
     1
102
RTVSPost2010PropOp29
 70
     1
102
RTVSPost2010Prop30
280
     1
102
RTVSPost2010PropOp30
 70
     1
102
RTVSPost2010Prop31
280
     0
102
RTVSPost2010PropOp31
 70
     1
102
RTVSPost2010Prop32
280
     0
102
RTVSPost2010PropOp32
 70
     1
102
RTVSPost2010Prop33
280
     0
102
RTVSPost2010PropOp33
 70
     1
102
RTVSPost2010Prop34
280
     0
102
RTVSPost2010PropOp34
 70
     1
102
RTVSPost2010Prop35
280
     0
102
RTVSPost2010PropOp35
 70
     1
102
RTVSPost2010Prop36
280
     0
102
RTVSPost2010PropOp36
 70
     1
102
RTVSPost2010Prop37
 90
       50
102
RTVSPost2010PropOp37
 70
     1
102
RTVSPost2010Prop38
140
0.0
102
RTVSPost2010PropOp38
 70
     1
102
RTVSPost2010Prop39
140
1.0
102
RTVSPost2010PropOp39
 70
     1
102
RTVSPost2010Prop40
 90
        0
102
RTVSPost2010PropOp40
 70
     1
102
RTVSPost2010Prop41ColorIndex
 90
       18
102
RTVSPost2010Prop41ColorRGB
 90
        0
102
RTVSPost2010PropOp41
 70
     1
102
RTVSPost2010Prop42
 90
       50
102
RTVSPost2010PropOp42
 70
     1
102
RTVSPost2010Prop43
 90
        3
102
RTVSPost2010PropOp43
 70
     1
102
RTVSPost2010Prop44ColorIndex
 90
        5
102
RTVSPost2010Prop44ColorRGB
 90
      255
102
RTVSPost2010PropOp44
 70
     1
102
RTVSPost2010Prop45
280
     0
102
RTVSPost2010PropOp45
 70
     1
102
RTVSPost2010Prop46
 90
       50
102
RTVSPost2010PropOp46
 70
     1
102
RTVSPost2010Prop47
 90
       50
102
RTVSPost2010PropOp47
 70
     1
102
RTVSPost2010Prop48
 90
       50
102
RTVSPost2010PropOp48
 70
     1
102
RTVSPost2010Prop49
280
     0
102
RTVSPost2010PropOp49
 70
     1
102
RTVSPost2010Prop50
 90
       50
102
RTVSPost2010PropOp50
 70
     1
102
RTVSPost2010Prop51ColorIndex
 90
      256
102
RTVSPost2010Prop51ColorRGB
 90
-16777216
102
RTVSPost2010PropOp51
 70
     0
102
RTVSPost2010Prop52
140
1.0
102
RTVSPost2010PropOp52
 70
     0
102
RTVSPost2010Prop53
 90
        2
102
RTVSPost2010PropOp53
 70
     1
102
RTVSPost2010Prop54
  1
strokes_ogs.tif
102
RTVSPost2010PropOp54
 70
     1
102
RTVSPost2010Prop55
280
     0
102
RTVSPost2010PropOp55
 70
     1
102
RTVSPost2010Prop56
140
1.0
102
RTVSPost2010PropOp56
 70
     1
102
RTVSPost2010Prop57
140
1.0
102
RTVSPost2010PropOp57
 70
     1
  0
XRECORD
  5
163
102
{ACAD_REACTORS
330
162
102
}
330
162
100
AcDbXrecord
280
     1
102
RTVSPost2010Prop28
280
     0
102
RTVSPost2010PropOp28
 70
     1
102
RTVSPost2010Prop29
280
     1
102
RTVSPost2010PropOp29
 70
     1
102
RTVSPost2010Prop30
280
     1
102
RTVSPost2010PropOp30
 70
     1
102
RTVSPost2010Prop31
280
     0
102
RTVSPost2010PropOp31
 70
     1
102
RTVSPost2010Prop32
280
     0
102
RTVSPost2010PropOp32
 70
     1
102
RTVSPost2010Prop33
280
     0
102
RTVSPost2010PropOp33
 70
     1
102
RTVSPost2010Prop34
280
     0
102
RTVSPost2010PropOp34
 70
     1
102
RTVSPost2010Prop35
280
     0
102
RTVSPost2010PropOp35
 70
     1
102
RTVSPost2010Prop36
280
     0
102
RTVSPost2010PropOp36
 70
     1
102
RTVSPost2010Prop37
 90
       50
102
RTVSPost2010PropOp37
 70
     1
102
RTVSPost2010Prop38
140
0.0
102
RTVSPost2010PropOp38
 70
     1
102
RTVSPost2010Prop39
140
1.0
102
RTVSPost2010PropOp39
 70
     1
102
RTVSPost2010Prop40
 90
        0
102
RTVSPost2010PropOp40
 70
     1
102
RTVSPost2010Prop41ColorIndex
 90
       18
102
RTVSPost2010Prop41ColorRGB
 90
        0
102
RTVSPost2010PropOp41
 70
     1
102
RTVSPost2010Prop42
 90
       50
102
RTVSPost2010PropOp42
 70
     1
102
RTVSPost2010Prop43
 90
        3
102
RTVSPost2010PropOp43
 70
     1
102
RTVSPost2010Prop44ColorIndex
 90
        5
102
RTVSPost2010Prop44ColorRGB
 90
      255
102
RTVSPost2010PropOp44
 70
     1
102
RTVSPost2010Prop45
280
     0
102
RTVSPost2010PropOp45
 70
     1
102
RTVSPost2010Prop46
 90
       50
102
RTVSPost2010PropOp46
 70
     1
102
RTVSPost2010Prop47
 90
       50
102
RTVSPost2010PropOp47
 70
     1
102
RTVSPost2010Prop48
 90
       50
102
RTVSPost2010PropOp48
 70
     1
102
RTVSPost2010Prop49
280
     0
102
RTVSPost2010PropOp49
 70
     1
102
RTVSPost2010Prop50
 90
       50
102
RTVSPost2010PropOp50
 70
     1
102
RTVSPost2010Prop51ColorIndex
 90
      256
102
RTVSPost2010Prop51ColorRGB
 90
-16777216
102
RTVSPost2010PropOp51
 70
     0
102
RTVSPost2010Prop52
140
1.0
102
RTVSPost2010PropOp52
 70
     0
102
RTVSPost2010Prop53
 90
        2
102
RTVSPost2010PropOp53
 70
     1
102
RTVSPost2010Prop54
  1
strokes_ogs.tif
102
RTVSPost2010PropOp54
 70
     1
102
RTVSPost2010Prop55
280
     0
102
RTVSPost2010PropOp55
 70
     1
102
RTVSPost2010Prop56
140
1.0
102
RTVSPost2010PropOp56
 70
     1
102
RTVSPost2010Prop57
140
1.0
102
RTVSPost2010PropOp57
 70
     1
  0
XRECORD
  5
169
102
{ACAD_REACTORS
330
168
102
}
330
168
100
AcDbXrecord
280
     1
102
RTVSPost2010Prop28
280
     0
102
RTVSPost2010PropOp28
 70
     1
102
RTVSPost2010Prop29
280
     1
102
RTVSPost2010PropOp29
 70
     1
102
RTVSPost2010Prop30
280
     1
102
RTVSPost2010PropOp30
 70
     1
102
RTVSPost2010Prop31
280
     0
102
RTVSPost2010PropOp31
 70
     1
102
RTVSPost2010Prop32
280
     0
102
RTVSPost2010PropOp32
 70
     1
102
RTVSPost2010Prop33
280
     0
102
RTVSPost2010PropOp33
 70
     1
102
RTVSPost2010Prop34
280
     0
102
RTVSPost2010PropOp34
 70
     1
102
RTVSPost2010Prop35
280
     0
102
RTVSPost2010PropOp35
 70
     1
102
RTVSPost2010Prop36
280
     0
102
RTVSPost2010PropOp36
 70
     1
102
RTVSPost2010Prop37
 90
       50
102
RTVSPost2010PropOp37
 70
     1
102
RTVSPost2010Prop38
140
0.0
102
RTVSPost2010PropOp38
 70
     1
102
RTVSPost2010Prop39
140
1.0
102
RTVSPost2010PropOp39
 70
     1
102
RTVSPost2010Prop40
 90
        0
102
RTVSPost2010PropOp40
 70
     1
102
RTVSPost2010Prop41ColorIndex
 90
       18
102
RTVSPost2010Prop41ColorRGB
 90
        0
102
RTVSPost2010PropOp41
 70
     1
102
RTVSPost2010Prop42
 90
       50
102
RTVSPost2010PropOp42
 70
     1
102
RTVSPost2010Prop43
 90
        3
102
RTVSPost2010PropOp43
 70
     1
102
RTVSPost2010Prop44ColorIndex
 90
        5
102
RTVSPost2010Prop44ColorRGB
 90
      255
102
RTVSPost2010PropOp44
 70
     1
102
RTVSPost2010Prop45
280
     0
102
RTVSPost2010PropOp45
 70
     1
102
RTVSPost2010Prop46
 90
       50
102
RTVSPost2010PropOp46
 70
     1
102
RTVSPost2010Prop47
 90
       50
102
RTVSPost2010PropOp47
 70
     1
102
RTVSPost2010Prop48
 90
       50
102
RTVSPost2010PropOp48
 70
     1
102
RTVSPost2010Prop49
280
     0
102
RTVSPost2010PropOp49
 70
     1
102
RTVSPost2010Prop50
 90
       50
102
RTVSPost2010PropOp50
 70
     1
102
RTVSPost2010Prop51ColorIndex
 90
      256
102
RTVSPost2010Prop51ColorRGB
 90
-16777216
102
RTVSPost2010PropOp51
 70
     0
102
RTVSPost2010Prop52
140
1.0
102
RTVSPost2010PropOp52
 70
     0
102
RTVSPost2010Prop53
 90
        2
102
RTVSPost2010PropOp53
 70
     1
102
RTVSPost2010Prop54
  1
strokes_ogs.tif
102
RTVSPost2010PropOp54
 70
     1
102
RTVSPost2010Prop55
280
     0
102
RTVSPost2010PropOp55
 70
     1
102
RTVSPost2010Prop56
140
1.0
102
RTVSPost2010PropOp56
 70
     1
102
RTVSPost2010Prop57
140
1.0
102
RTVSPost2010PropOp57
 70
     1
  0
XRECORD
  5
17D
102
{ACAD_REACTORS
330
17C
102
}
330
17C
100
AcDbXrecord
280
     1
102
RTVSPost2010Prop28
280
     0
102
RTVSPost2010PropOp28
 70
     0
102
RTVSPost2010Prop29
280
     1
102
RTVSPost2010PropOp29
 70
     0
102
RTVSPost2010Prop30
280
     1
102
RTVSPost2010PropOp30
 70
     0
102
RTVSPost2010Prop31
280
     0
102
RTVSPost2010PropOp31
 70
     0
102
RTVSPost2010Prop32
280
     0
102
RTVSPost2010PropOp32
 70
     0
102
RTVSPost2010Prop33
280
     0
102
RTVSPost2010PropOp33
 70
     0
102
RTVSPost2010Prop34
280
     0
102
RTVSPost2010PropOp34
 70
     0
102
RTVSPost2010Prop35
280
     0
102
RTVSPost2010PropOp35
 70
     0
102
RTVSPost2010Prop36
280
     0
102
RTVSPost2010PropOp36
 70
     0
102
RTVSPost2010Prop37
 90
       50
102
RTVSPost2010PropOp37
 70
     0
102
RTVSPost2010Prop38
140
0.0
102
RTVSPost2010PropOp38
 70
     0
102
RTVSPost2010Prop39
140
1.0
102
RTVSPost2010PropOp39
 70
     0
102
RTVSPost2010Prop40
 90
        0
102
RTVSPost2010PropOp40
 70
     0
102
RTVSPost2010Prop41ColorIndex
 90
       18
102
RTVSPost2010Prop41ColorRGB
 90
        0
102
RTVSPost2010PropOp41
 70
     0
102
RTVSPost2010Prop42
 90
       50
102
RTVSPost2010PropOp42
 70
     0
102
RTVSPost2010Prop43
 90
        3
102
RTVSPost2010PropOp43
 70
     0
102
RTVSPost2010Prop44ColorIndex
 90
        5
102
RTVSPost2010Prop44ColorRGB
 90
      255
102
RTVSPost2010PropOp44
 70
     0
102
RTVSPost2010Prop45
280
     0
102
RTVSPost2010PropOp45
 70
     0
102
RTVSPost2010Prop46
 90
       50
102
RTVSPost2010PropOp46
 70
     0
102
RTVSPost2010Prop47
 90
       50
102
RTVSPost2010PropOp47
 70
     0
102
RTVSPost2010Prop48
 90
       50
102
RTVSPost2010PropOp48
 70
     0
102
RTVSPost2010Prop49
280
     0
102
RTVSPost2010PropOp49
 70
     0
102
RTVSPost2010Prop50
 90
       50
102
RTVSPost2010PropOp50
 70
     0
102
RTVSPost2010Prop51ColorIndex
 90
      256
102
RTVSPost2010Prop51ColorRGB
 90
-16777216
102
RTVSPost2010PropOp51
 70
     0
102
RTVSPost2010Prop52
140
1.0
102
RTVSPost2010PropOp52
 70
     0
102
RTVSPost2010Prop53
 90
        2
102
RTVSPost2010PropOp53
 70
     0
102
RTVSPost2010Prop54
  1
strokes_ogs.tif
102
RTVSPost2010PropOp54
 70
     0
102
RTVSPost2010Prop55
280
     0
102
RTVSPost2010PropOp55
 70
     0
102
RTVSPost2010Prop56
140
1.0
102
RTVSPost2010PropOp56
 70
     0
102
RTVSPost2010Prop57
140
1.0
102
RTVSPost2010PropOp57
 70
     0
  0
XRECORD
  5
177
102
{ACAD_REACTORS
330
176
102
}
330
176
100
AcDbXrecord
280
     1
102
RTVSPost2010Prop28
280
     0
102
RTVSPost2010PropOp28
 70
     1
102
RTVSPost2010Prop29
280
     1
102
RTVSPost2010PropOp29
 70
     1
102
RTVSPost2010Prop30
280
     1
102
RTVSPost2010PropOp30
 70
     1
102
RTVSPost2010Prop31
280
     0
102
RTVSPost2010PropOp31
 70
     1
102
RTVSPost2010Prop32
280
     0
102
RTVSPost2010PropOp32
 70
     1
102
RTVSPost2010Prop33
280
     0
102
RTVSPost2010PropOp33
 70
     1
102
RTVSPost2010Prop34
280
     0
102
RTVSPost2010PropOp34
 70
     1
102
RTVSPost2010Prop35
280
     0
102
RTVSPost2010PropOp35
 70
     1
102
RTVSPost2010Prop36
280
     0
102
RTVSPost2010PropOp36
 70
     1
102
RTVSPost2010Prop37
 90
       50
102
RTVSPost2010PropOp37
 70
     1
102
RTVSPost2010Prop38
140
0.0
102
RTVSPost2010PropOp38
 70
     1
102
RTVSPost2010Prop39
140
1.0
102
RTVSPost2010PropOp39
 70
     1
102
RTVSPost2010Prop40
 90
        0
102
RTVSPost2010PropOp40
 70
     1
102
RTVSPost2010Prop41ColorIndex
 90
       18
102
RTVSPost2010Prop41ColorRGB
 90
        0
102
RTVSPost2010PropOp41
 70
     1
102
RTVSPost2010Prop42
 90
       50
102
RTVSPost2010PropOp42
 70
     1
102
RTVSPost2010Prop43
 90
        3
102
RTVSPost2010PropOp43
 70
     1
102
RTVSPost2010Prop44ColorIndex
 90
        5
102
RTVSPost2010Prop44ColorRGB
 90
      255
102
RTVSPost2010PropOp44
 70
     1
102
RTVSPost2010Prop45
280
     0
102
RTVSPost2010PropOp45
 70
     1
102
RTVSPost2010Prop46
 90
       50
102
RTVSPost2010PropOp46
 70
     1
102
RTVSPost2010Prop47
 90
       50
102
RTVSPost2010PropOp47
 70
     1
102
RTVSPost2010Prop48
 90
       50
102
RTVSPost2010PropOp48
 70
     1
102
RTVSPost2010Prop49
280
     0
102
RTVSPost2010PropOp49
 70
     1
102
RTVSPost2010Prop50
 90
       50
102
RTVSPost2010PropOp50
 70
     1
102
RTVSPost2010Prop51ColorIndex
 90
      256
102
RTVSPost2010Prop51ColorRGB
 90
-16777216
102
RTVSPost2010PropOp51
 70
     0
102
RTVSPost2010Prop52
140
1.0
102
RTVSPost2010PropOp52
 70
     0
102
RTVSPost2010Prop53
 90
        2
102
RTVSPost2010PropOp53
 70
     1
102
RTVSPost2010Prop54
  1
strokes_ogs.tif
102
RTVSPost2010PropOp54
 70
     1
102
RTVSPost2010Prop55
280
     0
102
RTVSPost2010PropOp55
 70
     1
102
RTVSPost2010Prop56
140
1.0
102
RTVSPost2010PropOp56
 70
     1
102
RTVSPost2010Prop57
140
1.0
102
RTVSPost2010PropOp57
 70
     1
  0
XRECORD
  5
17F
102
{ACAD_REACTORS
330
17E
102
}
330
17E
100
AcDbXrecord
280
     1
102
RTVSPost2010Prop28
280
     0
102
RTVSPost2010PropOp28
 70
     0
102
RTVSPost2010Prop29
280
     1
102
RTVSPost2010PropOp29
 70
     0
102
RTVSPost2010Prop30
280
     1
102
RTVSPost2010PropOp30
 70
     0
102
RTVSPost2010Prop31
280
     0
102
RTVSPost2010PropOp31
 70
     0
102
RTVSPost2010Prop32
280
     0
102
RTVSPost2010PropOp32
 70
     0
102
RTVSPost2010Prop33
280
     0
102
RTVSPost2010PropOp33
 70
     0
102
RTVSPost2010Prop34
280
     0
102
RTVSPost2010PropOp34
 70
     0
102
RTVSPost2010Prop35
280
     0
102
RTVSPost2010PropOp35
 70
     0
102
RTVSPost2010Prop36
280
     0
102
RTVSPost2010PropOp36
 70
     0
102
RTVSPost2010Prop37
 90
       50
102
RTVSPost2010PropOp37
 70
     0
102
RTVSPost2010Prop38
140
0.0
102
RTVSPost2010PropOp38
 70
     0
102
RTVSPost2010Prop39
140
1.0
102
RTVSPost2010PropOp39
 70
     0
102
RTVSPost2010Prop40
 90
        0
102
RTVSPost2010PropOp40
 70
     0
102
RTVSPost2010Prop41ColorIndex
 90
       18
102
RTVSPost2010Prop41ColorRGB
 90
        0
102
RTVSPost2010PropOp41
 70
     0
102
RTVSPost2010Prop42
 90
       50
102
RTVSPost2010PropOp42
 70
     0
102
RTVSPost2010Prop43
 90
        3
102
RTVSPost2010PropOp43
 70
     0
102
RTVSPost2010Prop44ColorIndex
 90
        5
102
RTVSPost2010Prop44ColorRGB
 90
      255
102
RTVSPost2010PropOp44
 70
     0
102
RTVSPost2010Prop45
280
     0
102
RTVSPost2010PropOp45
 70
     0
102
RTVSPost2010Prop46
 90
       50
102
RTVSPost2010PropOp46
 70
     0
102
RTVSPost2010Prop47
 90
       50
102
RTVSPost2010PropOp47
 70
     0
102
RTVSPost2010Prop48
 90
       50
102
RTVSPost2010PropOp48
 70
     0
102
RTVSPost2010Prop49
280
     0
102
RTVSPost2010PropOp49
 70
     0
102
RTVSPost2010Prop50
 90
       50
102
RTVSPost2010PropOp50
 70
     0
102
RTVSPost2010Prop51ColorIndex
 90
      256
102
RTVSPost2010Prop51ColorRGB
 90
-16777216
102
RTVSPost2010PropOp51
 70
     0
102
RTVSPost2010Prop52
140
1.0
102
RTVSPost2010PropOp52
 70
     0
102
RTVSPost2010Prop53
 90
        2
102
RTVSPost2010PropOp53
 70
     0
102
RTVSPost2010Prop54
  1
strokes_ogs.tif
102
RTVSPost2010PropOp54
 70
     0
102
RTVSPost2010Prop55
280
     0
102
RTVSPost2010PropOp55
 70
     0
102
RTVSPost2010Prop56
140
1.0
102
RTVSPost2010PropOp56
 70
     0
102
RTVSPost2010Prop57
140
1.0
102
RTVSPost2010PropOp57
 70
     0
  0
XRECORD
  5
16D
102
{ACAD_REACTORS
330
16C
102
}
330
16C
100
AcDbXrecord
280
     1
102
RTVSPost2010Prop28
280
     0
102
RTVSPost2010PropOp28
 70
     1
102
RTVSPost2010Prop29
280
     1
102
RTVSPost2010PropOp29
 70
     1
102
RTVSPost2010Prop30
280
     1
102
RTVSPost2010PropOp30
 70
     1
102
RTVSPost2010Prop31
280
     0
102
RTVSPost2010PropOp31
 70
     1
102
RTVSPost2010Prop32
280
     0
102
RTVSPost2010PropOp32
 70
     1
102
RTVSPost2010Prop33
280
     0
102
RTVSPost2010PropOp33
 70
     1
102
RTVSPost2010Prop34
280
     0
102
RTVSPost2010PropOp34
 70
     1
102
RTVSPost2010Prop35
280
     0
102
RTVSPost2010PropOp35
 70
     1
102
RTVSPost2010Prop36
280
     0
102
RTVSPost2010PropOp36
 70
     1
102
RTVSPost2010Prop37
 90
       50
102
RTVSPost2010PropOp37
 70
     1
102
RTVSPost2010Prop38
140
0.0
102
RTVSPost2010PropOp38
 70
     1
102
RTVSPost2010Prop39
140
1.0
102
RTVSPost2010PropOp39
 70
     1
102
RTVSPost2010Prop40
 90
        0
102
RTVSPost2010PropOp40
 70
     1
102
RTVSPost2010Prop41ColorIndex
 90
       18
102
RTVSPost2010Prop41ColorRGB
 90
        0
102
RTVSPost2010PropOp41
 70
     1
102
RTVSPost2010Prop42
 90
       50
102
RTVSPost2010PropOp42
 70
     1
102
RTVSPost2010Prop43
 90
        3
102
RTVSPost2010PropOp43
 70
     1
102
RTVSPost2010Prop44ColorIndex
 90
        5
102
RTVSPost2010Prop44ColorRGB
 90
      255
102
RTVSPost2010PropOp44
 70
     1
102
RTVSPost2010Prop45
280
     0
102
RTVSPost2010PropOp45
 70
     1
102
RTVSPost2010Prop46
 90
       50
102
RTVSPost2010PropOp46
 70
     1
102
RTVSPost2010Prop47
 90
       50
102
RTVSPost2010PropOp47
 70
     1
102
RTVSPost2010Prop48
 90
       50
102
RTVSPost2010PropOp48
 70
     1
102
RTVSPost2010Prop49
280
     0
102
RTVSPost2010PropOp49
 70
     1
102
RTVSPost2010Prop50
 90
       50
102
RTVSPost2010PropOp50
 70
     1
102
RTVSPost2010Prop51ColorIndex
 90
      256
102
RTVSPost2010Prop51ColorRGB
 90
-16777216
102
RTVSPost2010PropOp51
 70
     0
102
RTVSPost2010Prop52
140
1.0
102
RTVSPost2010PropOp52
 70
     0
102
RTVSPost2010Prop53
 90
        2
102
RTVSPost2010PropOp53
 70
     1
102
RTVSPost2010Prop54
  1
strokes_ogs.tif
102
RTVSPost2010PropOp54
 70
     1
102
RTVSPost2010Prop55
280
     0
102
RTVSPost2010PropOp55
 70
     1
102
RTVSPost2010Prop56
140
1.0
102
RTVSPost2010PropOp56
 70
     1
102
RTVSPost2010Prop57
140
1.0
102
RTVSPost2010PropOp57
 70
     1
  0
XRECORD
  5
18B
102
{ACAD_REACTORS
330
18A
102
}
330
18A
100
AcDbXrecord
280
     1
102
RTVSPost2010Prop28
280
     0
102
RTVSPost2010PropOp28
 70
     1
102
RTVSPost2010Prop29
280
     1
102
RTVSPost2010PropOp29
 70
     1
102
RTVSPost2010Prop30
280
     1
102
RTVSPost2010PropOp30
 70
     1
102
RTVSPost2010Prop31
280
     0
102
RTVSPost2010PropOp31
 70
     1
102
RTVSPost2010Prop32
280
     0
102
RTVSPost2010PropOp32
 70
     1
102
RTVSPost2010Prop33
280
     0
102
RTVSPost2010PropOp33
 70
     1
102
RTVSPost2010Prop34
280
     0
102
RTVSPost2010PropOp34
 70
     1
102
RTVSPost2010Prop35
280
     0
102
RTVSPost2010PropOp35
 70
     1
102
RTVSPost2010Prop36
280
     0
102
RTVSPost2010PropOp36
 70
     1
102
RTVSPost2010Prop37
 90
       50
102
RTVSPost2010PropOp37
 70
     1
102
RTVSPost2010Prop38
140
0.0
102
RTVSPost2010PropOp38
 70
     1
102
RTVSPost2010Prop39
140
1.0
102
RTVSPost2010PropOp39
 70
     1
102
RTVSPost2010Prop40
 90
        0
102
RTVSPost2010PropOp40
 70
     1
102
RTVSPost2010Prop41ColorIndex
 90
       18
102
RTVSPost2010Prop41ColorRGB
 90
        0
102
RTVSPost2010PropOp41
 70
     1
102
RTVSPost2010Prop42
 90
       50
102
RTVSPost2010PropOp42
 70
     1
102
RTVSPost2010Prop43
 90
        3
102
RTVSPost2010PropOp43
 70
     1
102
RTVSPost2010Prop44ColorIndex
 90
        5
102
RTVSPost2010Prop44ColorRGB
 90
      255
102
RTVSPost2010PropOp44
 70
     1
102
RTVSPost2010Prop45
280
     0
102
RTVSPost2010PropOp45
 70
     1
102
RTVSPost2010Prop46
 90
       50
102
RTVSPost2010PropOp46
 70
     1
102
RTVSPost2010Prop47
 90
       50
102
RTVSPost2010PropOp47
 70
     1
102
RTVSPost2010Prop48
 90
       50
102
RTVSPost2010PropOp48
 70
     1
102
RTVSPost2010Prop49
280
     0
102
RTVSPost2010PropOp49
 70
     1
102
RTVSPost2010Prop50
 90
       50
102
RTVSPost2010PropOp50
 70
     1
102
RTVSPost2010Prop51ColorIndex
 90
      256
102
RTVSPost2010Prop51ColorRGB
 90
-16777216
102
RTVSPost2010PropOp51
 70
     0
102
RTVSPost2010Prop52
140
1.0
102
RTVSPost2010PropOp52
 70
     0
102
RTVSPost2010Prop53
 90
        2
102
RTVSPost2010PropOp53
 70
     1
102
RTVSPost2010Prop54
  1
strokes_ogs.tif
102
RTVSPost2010PropOp54
 70
     1
102
RTVSPost2010Prop55
280
     0
102
RTVSPost2010PropOp55
 70
     1
102
RTVSPost2010Prop56
140
1.0
102
RTVSPost2010PropOp56
 70
     1
102
RTVSPost2010Prop57
140
1.0
102
RTVSPost2010PropOp57
 70
     1
  0
XRECORD
  5
189
102
{ACAD_REACTORS
330
188
102
}
330
188
100
AcDbXrecord
280
     1
102
RTVSPost2010Prop28
280
     0
102
RTVSPost2010PropOp28
 70
     1
102
RTVSPost2010Prop29
280
     1
102
RTVSPost2010PropOp29
 70
     1
102
RTVSPost2010Prop30
280
     1
102
RTVSPost2010PropOp30
 70
     1
102
RTVSPost2010Prop31
280
     0
102
RTVSPost2010PropOp31
 70
     1
102
RTVSPost2010Prop32
280
     0
102
RTVSPost2010PropOp32
 70
     1
102
RTVSPost2010Prop33
280
     0
102
RTVSPost2010PropOp33
 70
     1
102
RTVSPost2010Prop34
280
     0
102
RTVSPost2010PropOp34
 70
     1
102
RTVSPost2010Prop35
280
     0
102
RTVSPost2010PropOp35
 70
     1
102
RTVSPost2010Prop36
280
     0
102
RTVSPost2010PropOp36
 70
     1
102
RTVSPost2010Prop37
 90
       50
102
RTVSPost2010PropOp37
 70
     1
102
RTVSPost2010Prop38
140
0.0
102
RTVSPost2010PropOp38
 70
     1
102
RTVSPost2010Prop39
140
1.0
102
RTVSPost2010PropOp39
 70
     1
102
RTVSPost2010Prop40
 90
        0
102
RTVSPost2010PropOp40
 70
     1
102
RTVSPost2010Prop41ColorIndex
 90
       18
102
RTVSPost2010Prop41ColorRGB
 90
        0
102
RTVSPost2010PropOp41
 70
     1
102
RTVSPost2010Prop42
 90
       50
102
RTVSPost2010PropOp42
 70
     1
102
RTVSPost2010Prop43
 90
        3
102
RTVSPost2010PropOp43
 70
     1
102
RTVSPost2010Prop44ColorIndex
 90
        5
102
RTVSPost2010Prop44ColorRGB
 90
      255
102
RTVSPost2010PropOp44
 70
     1
102
RTVSPost2010Prop45
280
     0
102
RTVSPost2010PropOp45
 70
     1
102
RTVSPost2010Prop46
 90
       50
102
RTVSPost2010PropOp46
 70
     1
102
RTVSPost2010Prop47
 90
       50
102
RTVSPost2010PropOp47
 70
     1
102
RTVSPost2010Prop48
 90
       50
102
RTVSPost2010PropOp48
 70
     1
102
RTVSPost2010Prop49
280
     0
102
RTVSPost2010PropOp49
 70
     1
102
RTVSPost2010Prop50
 90
       50
102
RTVSPost2010PropOp50
 70
     1
102
RTVSPost2010Prop51ColorIndex
 90
      256
102
RTVSPost2010Prop51ColorRGB
 90
-16777216
102
RTVSPost2010PropOp51
 70
     0
102
RTVSPost2010Prop52
140
1.0
102
RTVSPost2010PropOp52
 70
     0
102
RTVSPost2010Prop53
 90
        2
102
RTVSPost2010PropOp53
 70
     1
102
RTVSPost2010Prop54
  1
strokes_ogs.tif
102
RTVSPost2010PropOp54
 70
     1
102
RTVSPost2010Prop55
280
     0
102
RTVSPost2010PropOp55
 70
     1
102
RTVSPost2010Prop56
140
1.0
102
RTVSPost2010PropOp56
 70
     1
102
RTVSPost2010Prop57
140
1.0
102
RTVSPost2010PropOp57
 70
     1
  0
XRECORD
  5
183
102
{ACAD_REACTORS
330
182
102
}
330
182
100
AcDbXrecord
280
     1
102
RTVSPost2010Prop28
280
     0
102
RTVSPost2010PropOp28
 70
     1
102
RTVSPost2010Prop29
280
     1
102
RTVSPost2010PropOp29
 70
     1
102
RTVSPost2010Prop30
280
     1
102
RTVSPost2010PropOp30
 70
     1
102
RTVSPost2010Prop31
280
     0
102
RTVSPost2010PropOp31
 70
     1
102
RTVSPost2010Prop32
280
     0
102
RTVSPost2010PropOp32
 70
     1
102
RTVSPost2010Prop33
280
     0
102
RTVSPost2010PropOp33
 70
     1
102
RTVSPost2010Prop34
280
     0
102
RTVSPost2010PropOp34
 70
     1
102
RTVSPost2010Prop35
280
     0
102
RTVSPost2010PropOp35
 70
     1
102
RTVSPost2010Prop36
280
     0
102
RTVSPost2010PropOp36
 70
     1
102
RTVSPost2010Prop37
 90
       50
102
RTVSPost2010PropOp37
 70
     1
102
RTVSPost2010Prop38
140
0.0
102
RTVSPost2010PropOp38
 70
     1
102
RTVSPost2010Prop39
140
1.0
102
RTVSPost2010PropOp39
 70
     1
102
RTVSPost2010Prop40
 90
        0
102
RTVSPost2010PropOp40
 70
     1
102
RTVSPost2010Prop41ColorIndex
 90
       18
102
RTVSPost2010Prop41ColorRGB
 90
        0
102
RTVSPost2010PropOp41
 70
     1
102
RTVSPost2010Prop42
 90
       50
102
RTVSPost2010PropOp42
 70
     1
102
RTVSPost2010Prop43
 90
        3
102
RTVSPost2010PropOp43
 70
     1
102
RTVSPost2010Prop44ColorIndex
 90
        5
102
RTVSPost2010Prop44ColorRGB
 90
      255
102
RTVSPost2010PropOp44
 70
     1
102
RTVSPost2010Prop45
280
     0
102
RTVSPost2010PropOp45
 70
     1
102
RTVSPost2010Prop46
 90
       50
102
RTVSPost2010PropOp46
 70
     1
102
RTVSPost2010Prop47
 90
       50
102
RTVSPost2010PropOp47
 70
     1
102
RTVSPost2010Prop48
 90
       50
102
RTVSPost2010PropOp48
 70
     1
102
RTVSPost2010Prop49
280
     0
102
RTVSPost2010PropOp49
 70
     1
102
RTVSPost2010Prop50
 90
       50
102
RTVSPost2010PropOp50
 70
     1
102
RTVSPost2010Prop51ColorIndex
 90
      256
102
RTVSPost2010Prop51ColorRGB
 90
-16777216
102
RTVSPost2010PropOp51
 70
     0
102
RTVSPost2010Prop52
140
1.0
102
RTVSPost2010PropOp52
 70
     0
102
RTVSPost2010Prop53
 90
        2
102
RTVSPost2010PropOp53
 70
     1
102
RTVSPost2010Prop54
  1
strokes_ogs.tif
102
RTVSPost2010PropOp54
 70
     1
102
RTVSPost2010Prop55
280
     0
102
RTVSPost2010PropOp55
 70
     1
102
RTVSPost2010Prop56
140
1.0
102
RTVSPost2010PropOp56
 70
     1
102
RTVSPost2010Prop57
140
1.0
102
RTVSPost2010PropOp57
 70
     1
  0
XRECORD
  5
185
102
{ACAD_REACTORS
330
184
102
}
330
184
100
AcDbXrecord
280
     1
102
RTVSPost2010Prop28
280
     0
102
RTVSPost2010PropOp28
 70
     1
102
RTVSPost2010Prop29
280
     1
102
RTVSPost2010PropOp29
 70
     1
102
RTVSPost2010Prop30
280
     1
102
RTVSPost2010PropOp30
 70
     1
102
RTVSPost2010Prop31
280
     0
102
RTVSPost2010PropOp31
 70
     1
102
RTVSPost2010Prop32
280
     0
102
RTVSPost2010PropOp32
 70
     1
102
RTVSPost2010Prop33
280
     0
102
RTVSPost2010PropOp33
 70
     1
102
RTVSPost2010Prop34
280
     0
102
RTVSPost2010PropOp34
 70
     1
102
RTVSPost2010Prop35
280
     0
102
RTVSPost2010PropOp35
 70
     1
102
RTVSPost2010Prop36
280
     0
102
RTVSPost2010PropOp36
 70
     1
102
RTVSPost2010Prop37
 90
       50
102
RTVSPost2010PropOp37
 70
     1
102
RTVSPost2010Prop38
140
0.0
102
RTVSPost2010PropOp38
 70
     1
102
RTVSPost2010Prop39
140
1.0
102
RTVSPost2010PropOp39
 70
     1
102
RTVSPost2010Prop40
 90
        0
102
RTVSPost2010PropOp40
 70
     1
102
RTVSPost2010Prop41ColorIndex
 90
       18
102
RTVSPost2010Prop41ColorRGB
 90
        0
102
RTVSPost2010PropOp41
 70
     1
102
RTVSPost2010Prop42
 90
       50
102
RTVSPost2010PropOp42
 70
     1
102
RTVSPost2010Prop43
 90
        3
102
RTVSPost2010PropOp43
 70
     1
102
RTVSPost2010Prop44ColorIndex
 90
        5
102
RTVSPost2010Prop44ColorRGB
 90
      255
102
RTVSPost2010PropOp44
 70
     1
102
RTVSPost2010Prop45
280
     0
102
RTVSPost2010PropOp45
 70
     1
102
RTVSPost2010Prop46
 90
       50
102
RTVSPost2010PropOp46
 70
     1
102
RTVSPost2010Prop47
 90
       50
102
RTVSPost2010PropOp47
 70
     1
102
RTVSPost2010Prop48
 90
       50
102
RTVSPost2010PropOp48
 70
     1
102
RTVSPost2010Prop49
280
     0
102
RTVSPost2010PropOp49
 70
     1
102
RTVSPost2010Prop50
 90
       50
102
RTVSPost2010PropOp50
 70
     1
102
RTVSPost2010Prop51ColorIndex
 90
      256
102
RTVSPost2010Prop51ColorRGB
 90
-16777216
102
RTVSPost2010PropOp51
 70
     0
102
RTVSPost2010Prop52
140
1.0
102
RTVSPost2010PropOp52
 70
     0
102
RTVSPost2010Prop53
 90
        2
102
RTVSPost2010PropOp53
 70
     1
102
RTVSPost2010Prop54
  1
strokes_ogs.tif
102
RTVSPost2010PropOp54
 70
     1
102
RTVSPost2010Prop55
280
     0
102
RTVSPost2010PropOp55
 70
     1
102
RTVSPost2010Prop56
140
1.0
102
RTVSPost2010PropOp56
 70
     1
102
RTVSPost2010Prop57
140
1.0
102
RTVSPost2010PropOp57
 70
     1
  0
XRECORD
  5
175
102
{ACAD_REACTORS
330
174
102
}
330
174
100
AcDbXrecord
280
     1
102
RTVSPost2010Prop28
280
     0
102
RTVSPost2010PropOp28
 70
     1
102
RTVSPost2010Prop29
280
     1
102
RTVSPost2010PropOp29
 70
     1
102
RTVSPost2010Prop30
280
     1
102
RTVSPost2010PropOp30
 70
     1
102
RTVSPost2010Prop31
280
     0
102
RTVSPost2010PropOp31
 70
     1
102
RTVSPost2010Prop32
280
     0
102
RTVSPost2010PropOp32
 70
     1
102
RTVSPost2010Prop33
280
     0
102
RTVSPost2010PropOp33
 70
     1
102
RTVSPost2010Prop34
280
     0
102
RTVSPost2010PropOp34
 70
     1
102
RTVSPost2010Prop35
280
     0
102
RTVSPost2010PropOp35
 70
     1
102
RTVSPost2010Prop36
280
     0
102
RTVSPost2010PropOp36
 70
     1
102
RTVSPost2010Prop37
 90
       50
102
RTVSPost2010PropOp37
 70
     1
102
RTVSPost2010Prop38
140
0.0
102
RTVSPost2010PropOp38
 70
     1
102
RTVSPost2010Prop39
140
1.0
102
RTVSPost2010PropOp39
 70
     1
102
RTVSPost2010Prop40
 90
        0
102
RTVSPost2010PropOp40
 70
     1
102
RTVSPost2010Prop41ColorIndex
 90
       18
102
RTVSPost2010Prop41ColorRGB
 90
        0
102
RTVSPost2010PropOp41
 70
     1
102
RTVSPost2010Prop42
 90
       50
102
RTVSPost2010PropOp42
 70
     1
102
RTVSPost2010Prop43
 90
        3
102
RTVSPost2010PropOp43
 70
     1
102
RTVSPost2010Prop44ColorIndex
 90
        5
102
RTVSPost2010Prop44ColorRGB
 90
      255
102
RTVSPost2010PropOp44
 70
     1
102
RTVSPost2010Prop45
280
     0
102
RTVSPost2010PropOp45
 70
     1
102
RTVSPost2010Prop46
 90
       50
102
RTVSPost2010PropOp46
 70
     1
102
RTVSPost2010Prop47
 90
       50
102
RTVSPost2010PropOp47
 70
     1
102
RTVSPost2010Prop48
 90
       50
102
RTVSPost2010PropOp48
 70
     1
102
RTVSPost2010Prop49
280
     0
102
RTVSPost2010PropOp49
 70
     1
102
RTVSPost2010Prop50
 90
       50
102
RTVSPost2010PropOp50
 70
     1
102
RTVSPost2010Prop51ColorIndex
 90
      256
102
RTVSPost2010Prop51ColorRGB
 90
-16777216
102
RTVSPost2010PropOp51
 70
     0
102
RTVSPost2010Prop52
140
1.0
102
RTVSPost2010PropOp52
 70
     0
102
RTVSPost2010Prop53
 90
        2
102
RTVSPost2010PropOp53
 70
     1
102
RTVSPost2010Prop54
  1
strokes_ogs.tif
102
RTVSPost2010PropOp54
 70
     1
102
RTVSPost2010Prop55
280
     0
102
RTVSPost2010PropOp55
 70
     1
102
RTVSPost2010Prop56
140
1.0
102
RTVSPost2010PropOp56
 70
     1
102
RTVSPost2010Prop57
140
1.0
102
RTVSPost2010PropOp57
 70
     1
  0
XRECORD
  5
167
102
{ACAD_REACTORS
330
166
102
}
330
166
100
AcDbXrecord
280
     1
102
RTVSPost2010Prop28
280
     0
102
RTVSPost2010PropOp28
 70
     1
102
RTVSPost2010Prop29
280
     1
102
RTVSPost2010PropOp29
 70
     1
102
RTVSPost2010Prop30
280
     1
102
RTVSPost2010PropOp30
 70
     1
102
RTVSPost2010Prop31
280
     0
102
RTVSPost2010PropOp31
 70
     1
102
RTVSPost2010Prop32
280
     0
102
RTVSPost2010PropOp32
 70
     1
102
RTVSPost2010Prop33
280
     0
102
RTVSPost2010PropOp33
 70
     1
102
RTVSPost2010Prop34
280
     0
102
RTVSPost2010PropOp34
 70
     1
102
RTVSPost2010Prop35
280
     0
102
RTVSPost2010PropOp35
 70
     1
102
RTVSPost2010Prop36
280
     0
102
RTVSPost2010PropOp36
 70
     1
102
RTVSPost2010Prop37
 90
       50
102
RTVSPost2010PropOp37
 70
     1
102
RTVSPost2010Prop38
140
0.0
102
RTVSPost2010PropOp38
 70
     1
102
RTVSPost2010Prop39
140
1.0
102
RTVSPost2010PropOp39
 70
     1
102
RTVSPost2010Prop40
 90
        0
102
RTVSPost2010PropOp40
 70
     1
102
RTVSPost2010Prop41ColorIndex
 90
       18
102
RTVSPost2010Prop41ColorRGB
 90
        0
102
RTVSPost2010PropOp41
 70
     1
102
RTVSPost2010Prop42
 90
       50
102
RTVSPost2010PropOp42
 70
     1
102
RTVSPost2010Prop43
 90
        3
102
RTVSPost2010PropOp43
 70
     1
102
RTVSPost2010Prop44ColorIndex
 90
        5
102
RTVSPost2010Prop44ColorRGB
 90
      255
102
RTVSPost2010PropOp44
 70
     1
102
RTVSPost2010Prop45
280
     0
102
RTVSPost2010PropOp45
 70
     1
102
RTVSPost2010Prop46
 90
       50
102
RTVSPost2010PropOp46
 70
     1
102
RTVSPost2010Prop47
 90
       50
102
RTVSPost2010PropOp47
 70
     1
102
RTVSPost2010Prop48
 90
       50
102
RTVSPost2010PropOp48
 70
     1
102
RTVSPost2010Prop49
280
     0
102
RTVSPost2010PropOp49
 70
     1
102
RTVSPost2010Prop50
 90
       50
102
RTVSPost2010PropOp50
 70
     1
102
RTVSPost2010Prop51ColorIndex
 90
      256
102
RTVSPost2010Prop51ColorRGB
 90
-16777216
102
RTVSPost2010PropOp51
 70
     0
102
RTVSPost2010Prop52
140
1.0
102
RTVSPost2010PropOp52
 70
     0
102
RTVSPost2010Prop53
 90
        2
102
RTVSPost2010PropOp53
 70
     1
102
RTVSPost2010Prop54
  1
strokes_ogs.tif
102
RTVSPost2010PropOp54
 70
     1
102
RTVSPost2010Prop55
280
     0
102
RTVSPost2010PropOp55
 70
     1
102
RTVSPost2010Prop56
140
1.0
102
RTVSPost2010PropOp56
 70
     1
102
RTVSPost2010Prop57
140
1.0
102
RTVSPost2010PropOp57
 70
     1
  0
XRECORD
  5
187
102
{ACAD_REACTORS
330
186
102
}
330
186
100
AcDbXrecord
280
     1
102
RTVSPost2010Prop28
280
     0
102
RTVSPost2010PropOp28
 70
     1
102
RTVSPost2010Prop29
280
     1
102
RTVSPost2010PropOp29
 70
     1
102
RTVSPost2010Prop30
280
     1
102
RTVSPost2010PropOp30
 70
     1
102
RTVSPost2010Prop31
280
     0
102
RTVSPost2010PropOp31
 70
     1
102
RTVSPost2010Prop32
280
     0
102
RTVSPost2010PropOp32
 70
     1
102
RTVSPost2010Prop33
280
     0
102
RTVSPost2010PropOp33
 70
     1
102
RTVSPost2010Prop34
280
     0
102
RTVSPost2010PropOp34
 70
     1
102
RTVSPost2010Prop35
280
     0
102
RTVSPost2010PropOp35
 70
     1
102
RTVSPost2010Prop36
280
     0
102
RTVSPost2010PropOp36
 70
     1
102
RTVSPost2010Prop37
 90
       50
102
RTVSPost2010PropOp37
 70
     1
102
RTVSPost2010Prop38
140
0.0
102
RTVSPost2010PropOp38
 70
     1
102
RTVSPost2010Prop39
140
1.0
102
RTVSPost2010PropOp39
 70
     1
102
RTVSPost2010Prop40
 90
        0
102
RTVSPost2010PropOp40
 70
     1
102
RTVSPost2010Prop41ColorIndex
 90
       18
102
RTVSPost2010Prop41ColorRGB
 90
        0
102
RTVSPost2010PropOp41
 70
     1
102
RTVSPost2010Prop42
 90
       50
102
RTVSPost2010PropOp42
 70
     1
102
RTVSPost2010Prop43
 90
        3
102
RTVSPost2010PropOp43
 70
     1
102
RTVSPost2010Prop44ColorIndex
 90
        5
102
RTVSPost2010Prop44ColorRGB
 90
      255
102
RTVSPost2010PropOp44
 70
     1
102
RTVSPost2010Prop45
280
     0
102
RTVSPost2010PropOp45
 70
     1
102
RTVSPost2010Prop46
 90
       50
102
RTVSPost2010PropOp46
 70
     1
102
RTVSPost2010Prop47
 90
       50
102
RTVSPost2010PropOp47
 70
     1
102
RTVSPost2010Prop48
 90
       50
102
RTVSPost2010PropOp48
 70
     1
102
RTVSPost2010Prop49
280
     0
102
RTVSPost2010PropOp49
 70
     1
102
RTVSPost2010Prop50
 90
       50
102
RTVSPost2010PropOp50
 70
     1
102
RTVSPost2010Prop51ColorIndex
 90
      256
102
RTVSPost2010Prop51ColorRGB
 90
-16777216
102
RTVSPost2010PropOp51
 70
     0
102
RTVSPost2010Prop52
140
1.0
102
RTVSPost2010PropOp52
 70
     0
102
RTVSPost2010Prop53
 90
        2
102
RTVSPost2010PropOp53
 70
     1
102
RTVSPost2010Prop54
  1
strokes_ogs.tif
102
RTVSPost2010PropOp54
 70
     1
102
RTVSPost2010Prop55
280
     0
102
RTVSPost2010PropOp55
 70
     1
102
RTVSPost2010Prop56
140
1.0
102
RTVSPost2010PropOp56
 70
     1
102
RTVSPost2010Prop57
140
1.0
102
RTVSPost2010PropOp57
 70
     1
  0
ENDSEC
  0
EOF
