  0
SECTION
  2
HEADER
  9
$ACADVER
  1
AC1006
  9
$EXTMIN
 10
0.000000
 20
0.000000
 30
0.000000
  9
$EXTMAX
 10
300.000000
 20
229.000000
 30
0.000000
  0
ENDSEC
  0
SECTION
  2
ENTITIES
  0
POLYLINE
  8
0
 66
1
 70
1
  0
VERTEX
  8
0
 10
22.356761
 20
222.500000
 42
-0.003380
  0
VERTEX
  8
0
 10
25.959882
 20
210.296075
 42
-0.008103
  0
VERTEX
  8
0
 10
28.422870
 20
201.188704
 42
-0.010773
  0
VERTEX
  8
0
 10
30.050899
 20
194.120130
 42
-0.021977
  0
VERTEX
  8
0
 10
30.962953
 20
188.500000
 42
0.014362
  0
VERTEX
  8
0
 10
31.497119
 20
184.858689
 42
0.008236
  0
VERTEX
  8
0
 10
32.339229
 20
180.500000
 42
0.008223
  0
VERTEX
  8
0
 10
33.330791
 20
176.142988
 42
0.013550
  0
VERTEX
  8
0
 10
34.328475
 20
172.500000
 42
0.004151
  0
VERTEX
  8
0
 10
37.805339
 20
161.367196
 42
0.008087
  0
VERTEX
  8
0
 10
40.795844
 20
152.555610
 42
0.007875
  0
VERTEX
  8
0
 10
43.299716
 20
145.885495
 42
0.062555
  0
VERTEX
  8
0
 10
44.875348
 20
143.000000
 42
-0.032646
  0
VERTEX
  8
0
 10
45.708370
 20
141.669794
 42
-0.010821
  0
VERTEX
  8
0
 10
46.756890
 20
139.618750
 42
-0.010722
  0
VERTEX
  8
0
 10
47.823908
 20
137.289052
 42
-0.011986
  0
VERTEX
  8
0
 10
48.749028
 20
135.000000
 42
0.012496
  0
VERTEX
  8
0
 10
50.002009
 20
131.908804
 42
0.002397
  0
VERTEX
  8
0
 10
52.441173
 20
126.370942
 42
0.002553
  0
VERTEX
  8
0
 10
55.352280
 20
119.935067
 42
0.002349
  0
VERTEX
  8
0
 10
58.409963
 20
113.347889
 42
-0.003789
  0
VERTEX
  8
0
 10
62.983169
 20
103.421047
 42
-0.020986
  0
VERTEX
  8
0
 10
65.174842
 20
97.968101
 42
-0.042697
  0
VERTEX
  8
0
 10
65.983106
 20
94.865610
 42
-0.474368
  0
VERTEX
  8
0
 10
65.250000
 20
94.023574
 42
-0.265273
  0
VERTEX
  8
0
 10
64.823967
 20
94.284791
 42
-0.001927
  0
VERTEX
  8
0
 10
62.757111
 20
98.083327
 42
-0.006543
  0
VERTEX
  8
0
 10
60.432924
 20
102.532690
 42
-0.004064
  0
VERTEX
  8
0
 10
57.816761
 20
107.810904
 42
0.015712
  0
VERTEX
  8
0
 10
52.047067
 20
118.800511
 42
0.012206
  0
VERTEX
  8
0
 10
45.111546
 20
130.389360
 42
0.012394
  0
VERTEX
  8
0
 10
37.810683
 20
141.329188
 42
0.019427
  0
VERTEX
  8
0
 10
30.947972
 20
150.316995
 42
0.016760
  0
VERTEX
  8
0
 10
24.673580
 20
157.406393
 42
0.004748
  0
VERTEX
  8
0
 10
14.442172
 20
168.010791
 42
0.000716
  0
VERTEX
  8
0
 10
3.072291
 20
179.540335
 42
0.415837
  0
VERTEX
  8
0
 10
2.209392
 20
179.542726
 42
0.361521
  0
VERTEX
  8
0
 10
2.071003
 20
178.036086
 42
0.004874
  0
VERTEX
  8
0
 10
7.808787
 20
169.860643
 42
0.010826
  0
VERTEX
  8
0
 10
15.131706
 20
160.093754
 42
0.006028
  0
VERTEX
  8
0
 10
24.450921
 20
148.500000
 42
-0.006686
  0
VERTEX
  8
0
 10
36.646125
 20
133.287377
 42
-0.010298
  0
VERTEX
  8
0
 10
46.742109
 20
119.777661
 42
-0.011880
  0
VERTEX
  8
0
 10
54.976905
 20
107.674125
 42
-0.018134
  0
VERTEX
  8
0
 10
61.478670
 20
96.763344
 42
0.000000
  0
VERTEX
  8
0
 10
65.168869
 20
90.026688
 42
0.000000
  0
VERTEX
  8
0
 10
65.651172
 20
74.763344
 42
-0.005581
  0
VERTEX
  8
0
 10
65.772506
 20
68.824059
 42
-0.008266
  0
VERTEX
  8
0
 10
65.734663
 20
63.616609
 42
-0.004343
  0
VERTEX
  8
0
 10
65.592408
 20
59.238947
 42
-0.143470
  0
VERTEX
  8
0
 10
65.258119
 20
58.250646
 42
-0.238191
  0
VERTEX
  8
0
 10
64.473250
 20
57.830018
 42
-0.075150
  0
VERTEX
  8
0
 10
63.113657
 20
58.001846
 42
-0.038596
  0
VERTEX
  8
0
 10
60.995842
 20
58.781851
 42
-0.009026
  0
VERTEX
  8
0
 10
57.583869
 20
60.422014
 42
0.009720
  0
VERTEX
  8
0
 10
54.646340
 20
61.829095
 42
0.007855
  0
VERTEX
  8
0
 10
51.440989
 20
63.228185
 42
0.007951
  0
VERTEX
  8
0
 10
48.441523
 20
64.426028
 42
0.020218
  0
VERTEX
  8
0
 10
46.219322
 20
65.171368
 42
-0.032556
  0
VERTEX
  8
0
 10
43.781160
 20
66.056604
 42
-0.062578
  0
VERTEX
  8
0
 10
41.998812
 20
67.121020
 42
-0.059130
  0
VERTEX
  8
0
 10
40.472188
 20
68.635706
 42
-0.026216
  0
VERTEX
  8
0
 10
38.823416
 20
70.951172
 42
-0.031729
  0
VERTEX
  8
0
 10
36.004830
 20
76.074908
 42
-0.027549
  0
VERTEX
  8
0
 10
33.705736
 20
81.758339
 42
-0.025716
  0
VERTEX
  8
0
 10
31.911525
 20
88.047653
 42
-0.020430
  0
VERTEX
  8
0
 10
30.607876
 20
94.989911
 42
0.001918
  0
VERTEX
  8
0
 10
29.814756
 20
100.287678
 42
0.059703
  0
VERTEX
  8
0
 10
29.459318
 20
101.563498
 42
0.721234
  0
VERTEX
  8
0
 10
29.132092
 20
101.540606
 42
0.021849
  0
VERTEX
  8
0
 10
28.718039
 20
99.574776
 42
0.037233
  0
VERTEX
  8
0
 10
28.537029
 20
97.557009
 42
0.012276
  0
VERTEX
  8
0
 10
28.565374
 20
94.577496
 42
0.012150
  0
VERTEX
  8
0
 10
28.759052
 20
91.262738
 42
0.013481
  0
VERTEX
  8
0
 10
29.109927
 20
88.074776
 42
0.040482
  0
VERTEX
  8
0
 10
31.181127
 20
78.702694
 42
0.038476
  0
VERTEX
  8
0
 10
34.760108
 20
69.619253
 42
0.035517
  0
VERTEX
  8
0
 10
39.986779
 20
60.559099
 42
0.025732
  0
VERTEX
  8
0
 10
47.000000
 20
51.250971
 42
-0.000490
  0
VERTEX
  8
0
 10
49.280868
 20
48.521937
 42
-0.000471
  0
VERTEX
  8
0
 10
51.585978
 20
45.753099
 42
-0.000466
  0
VERTEX
  8
0
 10
53.613139
 20
43.308823
 42
-0.001714
  0
VERTEX
  8
0
 10
54.888434
 20
41.757406
 42
0.000000
  0
VERTEX
  8
0
 10
57.276868
 20
38.831447
 42
0.000000
  0
VERTEX
  8
0
 10
51.388434
 20
41.785312
 42
0.005251
  0
VERTEX
  8
0
 10
48.969032
 20
42.967337
 42
0.005546
  0
VERTEX
  8
0
 10
46.568790
 20
44.076457
 42
0.005315
  0
VERTEX
  8
0
 10
44.480054
 20
44.987111
 42
0.024950
  0
VERTEX
  8
0
 10
43.250000
 20
45.436976
 42
0.082853
  0
VERTEX
  8
0
 10
41.497753
 20
45.675690
 42
0.613926
  0
VERTEX
  8
0
 10
41.226100
 20
45.098177
 42
0.084596
  0
VERTEX
  8
0
 10
42.834851
 20
43.627795
 42
0.016093
  0
VERTEX
  8
0
 10
46.251017
 20
41.582288
 42
-0.004970
  0
VERTEX
  8
0
 10
48.516737
 20
40.293215
 42
-0.003727
  0
VERTEX
  8
0
 10
50.986236
 20
38.830770
 42
-0.003768
  0
VERTEX
  8
0
 10
53.290121
 20
37.419336
 42
-0.008621
  0
VERTEX
  8
0
 10
55.000000
 20
36.312634
 42
0.000000
  0
VERTEX
  8
0
 10
58.500000
 20
33.960692
 42
0.000000
  0
VERTEX
  8
0
 10
55.000000
 20
34.563549
 42
0.000000
  0
VERTEX
  8
0
 10
51.500000
 20
35.166407
 42
0.000000
  0
VERTEX
  8
0
 10
55.000000
 20
32.926481
 42
0.002159
  0
VERTEX
  8
0
 10
56.692833
 20
31.853380
 42
0.000951
  0
VERTEX
  8
0
 10
58.940625
 20
30.448012
 42
0.000942
  0
VERTEX
  8
0
 10
61.329691
 20
28.966867
 42
0.001265
  0
VERTEX
  8
0
 10
63.500000
 20
27.634568
 42
-0.024345
  0
VERTEX
  8
0
 10
65.932024
 20
25.982453
 42
-0.008735
  0
VERTEX
  8
0
 10
69.234375
 20
23.404320
 42
-0.008642
  0
VERTEX
  8
0
 10
72.761971
 20
20.447436
 42
-0.010128
  0
VERTEX
  8
0
 10
76.000000
 20
17.519492
 42
0.006559
  0
VERTEX
  8
0
 10
82.650365
 20
11.419156
 42
0.010431
  0
VERTEX
  8
0
 10
88.514906
 20
6.395629
 42
0.005515
  0
VERTEX
  8
0
 10
93.419737
 20
2.458239
 42
0.625623
  0
VERTEX
  8
0
 10
94.000000
 20
2.740474
 42
0.100349
  0
VERTEX
  8
0
 10
93.915828
 20
3.155645
 42
0.033429
  0
VERTEX
  8
0
 10
93.635268
 20
3.712246
 42
0.031713
  0
VERTEX
  8
0
 10
93.233529
 20
4.303100
 42
0.031226
  0
VERTEX
  8
0
 10
92.758359
 20
4.841641
 42
-0.038479
  0
VERTEX
  8
0
 10
92.183724
 20
5.512249
 42
-0.171998
  0
VERTEX
  8
0
 10
92.037506
 20
6.000638
 42
-0.193691
  0
VERTEX
  8
0
 10
92.238545
 20
6.436218
 42
-0.050585
  0
VERTEX
  8
0
 10
92.861604
 20
6.914467
 42
0.082326
  0
VERTEX
  8
0
 10
93.476889
 20
7.451784
 42
0.166181
  0
VERTEX
  8
0
 10
93.700545
 20
8.047230
 42
0.105712
  0
VERTEX
  8
0
 10
93.554409
 20
8.847184
 42
0.023094
  0
VERTEX
  8
0
 10
92.957736
 20
10.122826
 42
-0.002093
  0
VERTEX
  8
0
 10
92.107614
 20
11.757736
 42
-0.346237
  0
VERTEX
  8
0
 10
92.143589
 20
11.943470
 42
-0.373341
  0
VERTEX
  8
0
 10
92.325155
 20
11.943144
 42
-0.002209
  0
VERTEX
  8
0
 10
93.683231
 20
10.750000
 42
0.042363
  0
VERTEX
  8
0
 10
95.927195
 20
9.077239
 42
0.298135
  0
VERTEX
  8
0
 10
97.224091
 20
9.107827
 42
0.243057
  0
VERTEX
  8
0
 10
97.903256
 20
10.378504
 42
0.031568
  0
VERTEX
  8
0
 10
97.747389
 20
13.548799
 42
-0.004921
  0
VERTEX
  8
0
 10
97.454818
 20
16.395959
 42
-0.118725
  0
VERTEX
  8
0
 10
97.568629
 20
17.182033
 42
-0.473967
  0
VERTEX
  8
0
 10
97.964564
 20
17.306881
 42
-0.038972
  0
VERTEX
  8
0
 10
98.946078
 20
16.548799
 42
0.036775
  0
VERTEX
  8
0
 10
100.683132
 20
15.194956
 42
0.392065
  0
VERTEX
  8
0
 10
101.492691
 20
15.324575
 42
0.189757
  0
VERTEX
  8
0
 10
101.827873
 20
16.449090
 42
0.013567
  0
VERTEX
  8
0
 10
101.454939
 20
19.750000
 42
0.000000
  0
VERTEX
  8
0
 10
100.787332
 20
24.500000
 42
0.000000
  0
VERTEX
  8
0
 10
103.980176
 20
20.250000
 42
0.012794
  0
VERTEX
  8
0
 10
105.269778
 20
18.621877
 42
0.018184
  0
VERTEX
  8
0
 10
106.503460
 20
17.248438
 42
0.014377
  0
VERTEX
  8
0
 10
107.577557
 20
16.198894
 42
0.188456
  0
VERTEX
  8
0
 10
108.086510
 20
16.000000
 42
0.308960
  0
VERTEX
  8
0
 10
108.447674
 20
16.246721
 42
0.034550
  0
VERTEX
  8
0
 10
108.760943
 20
17.248438
 42
0.032425
  0
VERTEX
  8
0
 10
108.995434
 20
18.621085
 42
0.020233
  0
VERTEX
  8
0
 10
109.099680
 20
20.250000
 42
-0.012531
  0
VERTEX
  8
0
 10
109.187252
 20
22.053826
 42
-0.010526
  0
VERTEX
  8
0
 10
109.368104
 20
23.959459
 42
-0.010664
  0
VERTEX
  8
0
 10
109.607144
 20
25.693383
 42
-0.028618
  0
VERTEX
  8
0
 10
109.873486
 20
26.909861
 42
-0.194163
  0
VERTEX
  8
0
 10
110.350850
 20
27.529637
 42
-0.415163
  0
VERTEX
  8
0
 10
110.880280
 20
27.391010
 42
-0.051121
  0
VERTEX
  8
0
 10
111.618977
 20
25.761133
 42
-0.004869
  0
VERTEX
  8
0
 10
112.969236
 20
21.598096
 42
0.008945
  0
VERTEX
  8
0
 10
114.706140
 20
16.388085
 42
0.057725
  0
VERTEX
  8
0
 10
115.922637
 20
13.901589
 42
0.531802
  0
VERTEX
  8
0
 10
116.638673
 20
13.885160
 42
0.146543
  0
VERTEX
  8
0
 10
117.078947
 20
15.190983
 42
-0.013525
  0
VERTEX
  8
0
 10
117.137966
 20
16.153726
 42
-0.144310
  0
VERTEX
  8
0
 10
117.279998
 20
16.514647
 42
-0.526127
  0
VERTEX
  8
0
 10
117.467264
 20
16.503506
 42
-0.047714
  0
VERTEX
  8
0
 10
117.708849
 20
16.000000
 42
0.009826
  0
VERTEX
  8
0
 10
118.021207
 20
15.198611
 42
0.002504
  0
VERTEX
  8
0
 10
118.559392
 20
13.912500
 42
0.002551
  0
VERTEX
  8
0
 10
119.188840
 20
12.450000
 42
0.002583
  0
VERTEX
  8
0
 10
119.830635
 20
11.000000
 42
0.000000
  0
VERTEX
  8
0
 10
121.401467
 20
7.500000
 42
0.000000
  0
VERTEX
  8
0
 10
121.950733
 20
13.000000
 42
0.000000
  0
VERTEX
  8
0
 10
122.500000
 20
18.500000
 42
0.000000
  0
VERTEX
  8
0
 10
124.982691
 20
12.250000
 42
0.014707
  0
VERTEX
  8
0
 10
126.524605
 20
8.678235
 42
0.051334
  0
VERTEX
  8
0
 10
127.812638
 20
6.527117
 42
0.311484
  0
VERTEX
  8
0
 10
128.548836
 20
6.279235
 42
0.334628
  0
VERTEX
  8
0
 10
129.000000
 20
6.877876
 42
-0.074893
  0
VERTEX
  8
0
 10
129.080890
 20
7.414889
 42
-0.007738
  0
VERTEX
  8
0
 10
129.477874
 20
8.635312
 42
-0.009492
  0
VERTEX
  8
0
 10
130.003823
 20
10.080879
 42
-0.007453
  0
VERTEX
  8
0
 10
130.626805
 20
11.627876
 42
0.000000
  0
VERTEX
  8
0
 10
132.253610
 20
15.500000
 42
0.000000
  0
VERTEX
  8
0
 10
133.295027
 20
13.000000
 42
0.071748
  0
VERTEX
  8
0
 10
133.873702
 20
12.030136
 42
0.568441
  0
VERTEX
  8
0
 10
134.288229
 20
12.090326
 42
0.066932
  0
VERTEX
  8
0
 10
134.621032
 20
13.345620
 42
0.003788
  0
VERTEX
  8
0
 10
135.094597
 20
17.343041
 42
-0.005239
  0
VERTEX
  8
0
 10
135.794737
 20
23.109740
 42
-0.139782
  0
VERTEX
  8
0
 10
136.404423
 20
24.516114
 42
-0.690934
  0
VERTEX
  8
0
 10
136.915085
 20
24.343900
 42
-0.009077
  0
VERTEX
  8
0
 10
137.000000
 20
19.666667
 42
0.013642
  0
VERTEX
  8
0
 10
137.099633
 20
16.015703
 42
0.120348
  0
VERTEX
  8
0
 10
137.564003
 20
14.482592
 42
0.379262
  0
VERTEX
  8
0
 10
138.400912
 20
14.212532
 42
0.093404
  0
VERTEX
  8
0
 10
139.698837
 20
15.098837
 42
-0.144052
  0
VERTEX
  8
0
 10
140.241628
 20
15.394845
 42
-0.269950
  0
VERTEX
  8
0
 10
140.701950
 20
15.245255
 42
-0.108125
  0
VERTEX
  8
0
 10
141.099132
 20
14.541560
 42
-0.020561
  0
VERTEX
  8
0
 10
141.475773
 20
13.110304
 42
0.026070
  0
VERTEX
  8
0
 10
142.251329
 20
10.289732
 42
0.279423
  0
VERTEX
  8
0
 10
143.117396
 20
9.552242
 42
0.416690
  0
VERTEX
  8
0
 10
143.845181
 20
10.081970
 42
0.033621
  0
VERTEX
  8
0
 10
144.066896
 20
12.690983
 42
0.000000
  0
VERTEX
  8
0
 10
144.133791
 20
16.500000
 42
0.000000
  0
VERTEX
  8
0
 10
145.418872
 20
12.394016
 42
0.009650
  0
VERTEX
  8
0
 10
146.774711
 20
8.338253
 42
0.089632
  0
VERTEX
  8
0
 10
147.690192
 20
6.741950
 42
0.464541
  0
VERTEX
  8
0
 10
148.435445
 20
6.740800
 42
0.108199
  0
VERTEX
  8
0
 10
149.107615
 20
8.010081
 42
0.023527
  0
VERTEX
  8
0
 10
149.389053
 20
9.243046
 42
0.009565
  0
VERTEX
  8
0
 10
149.660420
 20
10.943586
 42
0.009439
  0
VERTEX
  8
0
 10
149.883036
 20
12.786148
 42
0.011873
  0
VERTEX
  8
0
 10
150.016321
 20
14.500000
 42
-0.011520
  0
VERTEX
  8
0
 10
150.130313
 20
15.979271
 42
-0.058887
  0
VERTEX
  8
0
 10
150.307956
 20
16.782777
 42
-0.531461
  0
VERTEX
  8
0
 10
150.509653
 20
16.836126
 42
-0.155313
  0
VERTEX
  8
0
 10
150.713066
 20
16.500000
 42
0.030153
  0
VERTEX
  8
0
 10
151.511978
 20
13.883408
 42
0.476540
  0
VERTEX
  8
0
 10
152.282565
 20
13.623961
 42
0.229754
  0
VERTEX
  8
0
 10
152.937055
 20
14.680796
 42
0.018367
  0
VERTEX
  8
0
 10
153.160037
 20
18.050000
 42
-0.004208
  0
VERTEX
  8
0
 10
153.248794
 20
20.398719
 42
-0.051169
  0
VERTEX
  8
0
 10
153.381905
 20
21.288884
 42
-0.785453
  0
VERTEX
  8
0
 10
153.539420
 20
21.287072
 42
-0.026058
  0
VERTEX
  8
0
 10
153.723396
 20
20.250000
 42
0.047763
  0
VERTEX
  8
0
 10
154.189985
 20
18.152850
 42
0.172380
  0
VERTEX
  8
0
 10
155.012062
 20
17.084337
 42
0.462391
  0
VERTEX
  8
0
 10
155.722195
 20
17.298269
 42
0.096851
  0
VERTEX
  8
0
 10
156.045104
 20
18.750000
 42
-0.049068
  0
VERTEX
  8
0
 10
156.154091
 20
19.625655
 42
-0.016706
  0
VERTEX
  8
0
 10
156.478115
 20
20.867188
 42
-0.016426
  0
VERTEX
  8
0
 10
156.929762
 20
22.223034
 42
-0.018197
  0
VERTEX
  8
0
 10
157.455845
 20
23.500000
 42
-0.022306
  0
VERTEX
  8
0
 10
158.230881
 20
25.019039
 42
-0.695184
  0
VERTEX
  8
0
 10
158.524911
 20
24.971417
 42
-0.067313
  0
VERTEX
  8
0
 10
158.589965
 20
23.903328
 42
-0.002075
  0
VERTEX
  8
0
 10
158.246947
 20
19.500000
 42
0.003870
  0
VERTEX
  8
0
 10
157.928055
 20
15.207477
 42
0.064996
  0
VERTEX
  8
0
 10
158.018123
 20
13.788615
 42
0.414350
  0
VERTEX
  8
0
 10
158.486002
 20
13.474012
 42
0.124660
  0
VERTEX
  8
0
 10
159.346302
 20
13.880824
 42
0.087404
  0
VERTEX
  8
0
 10
160.092791
 20
14.755166
 42
0.021360
  0
VERTEX
  8
0
 10
160.986991
 20
16.433227
 42
0.021237
  0
VERTEX
  8
0
 10
161.860516
 20
18.474105
 42
0.019763
  0
VERTEX
  8
0
 10
162.581055
 20
20.630824
 42
-0.008833
  0
VERTEX
  8
0
 10
163.219010
 20
22.688961
 42
-0.014055
  0
VERTEX
  8
0
 10
163.844751
 20
24.422805
 42
-0.007891
  0
VERTEX
  8
0
 10
164.420075
 20
25.821474
 42
-0.299713
  0
VERTEX
  8
0
 10
164.691149
 20
26.000000
 42
-0.399307
  0
VERTEX
  8
0
 10
164.896387
 20
25.805003
 42
-0.007990
  0
VERTEX
  8
0
 10
164.951557
 20
24.237500
 42
-0.014310
  0
VERTEX
  8
0
 10
164.933322
 20
22.300672
 42
-0.008544
  0
VERTEX
  8
0
 10
164.806381
 20
20.000000
 42
0.013343
  0
VERTEX
  8
0
 10
164.701583
 20
17.699505
 42
0.022279
  0
VERTEX
  8
0
 10
164.751398
 20
15.762500
 42
0.018367
  0
VERTEX
  8
0
 10
164.911177
 20
14.274839
 42
0.372718
  0
VERTEX
  8
0
 10
165.228653
 20
14.000000
 42
0.249571
  0
VERTEX
  8
0
 10
165.682536
 20
14.241600
 42
0.010815
  0
VERTEX
  8
0
 10
166.688388
 20
15.807879
 42
0.016241
  0
VERTEX
  8
0
 10
167.818104
 20
17.795893
 42
0.010631
  0
VERTEX
  8
0
 10
168.995536
 20
20.154481
 42
0.000000
  0
VERTEX
  8
0
 10
171.906145
 20
26.308962
 42
0.000000
  0
VERTEX
  8
0
 10
172.203072
 20
19.033515
 42
0.000000
  0
VERTEX
  8
0
 10
172.500000
 20
11.758068
 42
0.000000
  0
VERTEX
  8
0
 10
176.000000
 20
16.559511
 42
0.005291
  0
VERTEX
  8
0
 10
177.470802
 20
18.622736
 42
0.004368
  0
VERTEX
  8
0
 10
178.996030
 20
20.852202
 42
0.004412
  0
VERTEX
  8
0
 10
180.359701
 20
22.922616
 42
0.011760
  0
VERTEX
  8
0
 10
181.284356
 20
24.430477
 42
-0.011431
  0
VERTEX
  8
0
 10
182.006357
 20
25.609604
 42
-0.080857
  0
VERTEX
  8
0
 10
182.454587
 20
26.106800
 42
-0.586947
  0
VERTEX
  8
0
 10
182.644378
 20
26.029726
 42
-0.086456
  0
VERTEX
  8
0
 10
182.618415
 20
25.500000
 42
0.012171
  0
VERTEX
  8
0
 10
182.401660
 20
24.414641
 42
0.003051
  0
VERTEX
  8
0
 10
182.102108
 20
22.634046
 42
0.003114
  0
VERTEX
  8
0
 10
181.784577
 20
20.593074
 42
0.003131
  0
VERTEX
  8
0
 10
181.493105
 20
18.552070
 42
0.006117
  0
VERTEX
  8
0
 10
181.144384
 20
15.739419
 42
0.079741
  0
VERTEX
  8
0
 10
181.194781
 20
14.690812
 42
0.426146
  0
VERTEX
  8
0
 10
181.570544
 20
14.456303
 42
0.111708
  0
VERTEX
  8
0
 10
182.278360
 20
14.816055
 42
-0.137081
  0
VERTEX
  8
0
 10
183.048994
 20
15.160439
 42
-0.311764
  0
VERTEX
  8
0
 10
183.593659
 20
14.892865
 42
-0.085751
  0
VERTEX
  8
0
 10
183.987129
 20
13.775750
 42
-0.008921
  0
VERTEX
  8
0
 10
184.403757
 20
11.013985
 42
0.014300
  0
VERTEX
  8
0
 10
184.714859
 20
9.092119
 42
0.022772
  0
VERTEX
  8
0
 10
185.101894
 20
7.472858
 42
0.018824
  0
VERTEX
  8
0
 10
185.509261
 20
6.234458
 42
0.313548
  0
VERTEX
  8
0
 10
185.846384
 20
6.000000
 42
0.228153
  0
VERTEX
  8
0
 10
186.953275
 20
6.532817
 42
0.015882
  0
VERTEX
  8
0
 10
189.079009
 20
9.377314
 42
0.022078
  0
VERTEX
  8
0
 10
191.253251
 20
12.800464
 42
0.023888
  0
VERTEX
  8
0
 10
193.056030
 20
16.314998
 42
-0.011616
  0
VERTEX
  8
0
 10
193.894525
 20
18.053398
 42
-0.064236
  0
VERTEX
  8
0
 10
194.480578
 20
18.908294
 42
-0.416677
  0
VERTEX
  8
0
 10
194.813429
 20
18.925603
 42
-0.204525
  0
VERTEX
  8
0
 10
195.008447
 20
18.500000
 42
0.005812
  0
VERTEX
  8
0
 10
195.057987
 20
17.190122
 42
0.371000
  0
VERTEX
  8
0
 10
195.204587
 20
17.035863
 42
0.289456
  0
VERTEX
  8
0
 10
195.419426
 20
17.143156
 42
0.004478
  0
VERTEX
  8
0
 10
196.155388
 20
18.384534
 42
-0.040390
  0
VERTEX
  8
0
 10
198.502157
 20
21.764282
 42
-0.011602
  0
VERTEX
  8
0
 10
202.661705
 20
26.595098
 42
-0.005376
  0
VERTEX
  8
0
 10
207.118786
 20
31.429355
 42
-0.206674
  0
VERTEX
  8
0
 10
208.440362
 20
32.000000
 42
-0.568146
  0
VERTEX
  8
0
 10
208.534872
 20
31.841421
 42
-0.008714
  0
VERTEX
  8
0
 10
207.896526
 20
30.709013
 42
-0.013409
  0
VERTEX
  8
0
 10
207.012496
 20
29.291258
 42
-0.007404
  0
VERTEX
  8
0
 10
205.861009
 20
27.605151
 42
0.024279
  0
VERTEX
  8
0
 10
202.879872
 20
22.907104
 42
0.706540
  0
VERTEX
  8
0
 10
203.524695
 20
22.161912
 42
0.110056
  0
VERTEX
  8
0
 10
206.255079
 20
23.997793
 42
0.011116
  0
VERTEX
  8
0
 10
211.553174
 20
29.830785
 42
-0.007101
  0
VERTEX
  8
0
 10
214.687598
 20
33.337828
 42
-0.010694
  0
VERTEX
  8
0
 10
217.526863
 20
36.295697
 42
-0.005804
  0
VERTEX
  8
0
 10
219.977878
 20
38.686004
 42
-0.190601
  0
VERTEX
  8
0
 10
220.729764
 20
38.990306
 42
0.063007
  0
VERTEX
  8
0
 10
221.437511
 20
39.085521
 42
0.009972
  0
VERTEX
  8
0
 10
222.787811
 20
39.473106
 42
0.010926
  0
VERTEX
  8
0
 10
224.368440
 20
39.999223
 42
0.009360
  0
VERTEX
  8
0
 10
226.008979
 20
40.620269
 42
0.020766
  0
VERTEX
  8
0
 10
227.916845
 20
41.477165
 42
0.071448
  0
VERTEX
  8
0
 10
229.029212
 20
42.248537
 42
0.127485
  0
VERTEX
  8
0
 10
229.529744
 20
43.032496
 42
0.156754
  0
VERTEX
  8
0
 10
229.532894
 20
43.896361
 42
-0.247207
  0
VERTEX
  8
0
 10
229.718314
 20
44.930799
 42
-0.064650
  0
VERTEX
  8
0
 10
230.957450
 20
46.155688
 42
-0.034453
  0
VERTEX
  8
0
 10
233.353610
 20
47.731124
 42
-0.008029
  0
VERTEX
  8
0
 10
237.587855
 20
50.026092
 42
0.003310
  0
VERTEX
  8
0
 10
246.983350
 20
55.004318
 42
0.625094
  0
VERTEX
  8
0
 10
246.949054
 20
55.852763
 42
0.205943
  0
VERTEX
  8
0
 10
245.152866
 20
55.865079
 42
0.002679
  0
VERTEX
  8
0
 10
234.589475
 20
51.340212
 42
-0.008220
  0
VERTEX
  8
0
 10
230.750336
 20
49.745815
 42
-0.031315
  0
VERTEX
  8
0
 10
228.284681
 20
48.943533
 42
-0.052805
  0
VERTEX
  8
0
 10
226.690071
 20
48.708307
 42
-0.270891
  0
VERTEX
  8
0
 10
225.931250
 20
49.111240
 42
-0.102776
  0
VERTEX
  8
0
 10
225.719522
 20
49.693545
 42
-0.059346
  0
VERTEX
  8
0
 10
225.700546
 20
50.441815
 42
-0.055638
  0
VERTEX
  8
0
 10
225.864334
 20
51.232091
 42
-0.060756
  0
VERTEX
  8
0
 10
226.195838
 20
51.941979
 42
-0.105558
  0
VERTEX
  8
0
 10
228.696466
 20
54.528146
 42
-0.009546
  0
VERTEX
  8
0
 10
236.296097
 20
59.429170
 42
-0.012238
  0
VERTEX
  8
0
 10
245.591162
 20
64.865523
 42
-0.009918
  0
VERTEX
  8
0
 10
255.811061
 20
70.250000
 42
0.005640
  0
VERTEX
  8
0
 10
261.184261
 20
73.022468
 42
0.015208
  0
VERTEX
  8
0
 10
264.916031
 20
75.149457
 42
0.025689
  0
VERTEX
  8
0
 10
267.001930
 20
76.575962
 42
0.717842
  0
VERTEX
  8
0
 10
266.858769
 20
77.000000
 42
0.081778
  0
VERTEX
  8
0
 10
263.539342
 20
76.453434
 42
0.010421
  0
VERTEX
  8
0
 10
256.709830
 20
73.981917
 42
0.012412
  0
VERTEX
  8
0
 10
248.928667
 20
70.757128
 42
0.012042
  0
VERTEX
  8
0
 10
241.237396
 20
67.119360
 42
0.000000
  0
VERTEX
  8
0
 10
233.247740
 20
63.102240
 42
0.000000
  0
VERTEX
  8
0
 10
236.322286
 20
68.778781
 42
-0.025921
  0
VERTEX
  8
0
 10
239.195552
 20
73.483970
 42
-0.046770
  0
VERTEX
  8
0
 10
242.080887
 20
76.954933
 42
-0.057691
  0
VERTEX
  8
0
 10
245.054467
 20
79.303731
 42
-0.079662
  0
VERTEX
  8
0
 10
248.189633
 20
80.608253
 42
0.000000
  0
VERTEX
  8
0
 10
251.500000
 20
81.401933
 42
0.000000
  0
VERTEX
  8
0
 10
248.383489
 20
81.950967
 42
0.000000
  0
VERTEX
  8
0
 10
245.266978
 20
82.500000
 42
0.000000
  0
VERTEX
  8
0
 10
249.117420
 20
90.500000
 42
0.005998
  0
VERTEX
  8
0
 10
253.817426
 20
100.572574
 42
0.011182
  0
VERTEX
  8
0
 10
257.342495
 20
108.858702
 42
0.012377
  0
VERTEX
  8
0
 10
259.759479
 20
115.376489
 42
0.058650
  0
VERTEX
  8
0
 10
260.600486
 20
119.261416
 42
-0.055210
  0
VERTEX
  8
0
 10
261.280376
 20
122.509651
 42
-0.012177
  0
VERTEX
  8
0
 10
263.187069
 20
127.882814
 42
-0.007587
  0
VERTEX
  8
0
 10
266.506947
 20
136.182147
 42
-0.001550
  0
VERTEX
  8
0
 10
272.645487
 20
150.750000
 42
0.012284
  0
VERTEX
  8
0
 10
273.139592
 20
151.996729
 42
0.022051
  0
VERTEX
  8
0
 10
273.473943
 20
153.045312
 42
0.020011
  0
VERTEX
  8
0
 10
273.656198
 20
153.843240
 42
0.469357
  0
VERTEX
  8
0
 10
273.525992
 20
154.000000
 42
0.284114
  0
VERTEX
  8
0
 10
272.747691
 20
153.518915
 42
0.002049
  0
VERTEX
  8
0
 10
269.204256
 20
146.356553
 42
0.007762
  0
VERTEX
  8
0
 10
265.639049
 20
138.779700
 42
0.008555
  0
VERTEX
  8
0
 10
262.428873
 20
131.336174
 42
-0.013272
  0
VERTEX
  8
0
 10
260.867049
 20
127.806650
 42
-0.014994
  0
VERTEX
  8
0
 10
259.178504
 20
124.508126
 42
-0.014321
  0
VERTEX
  8
0
 10
257.586486
 20
121.801894
 42
-0.075461
  0
VERTEX
  8
0
 10
256.465132
 20
120.500000
 42
0.081763
  0
VERTEX
  8
0
 10
255.301376
 20
119.114142
 42
0.011348
  0
VERTEX
  8
0
 10
253.453518
 20
115.831062
 42
0.012744
  0
VERTEX
  8
0
 10
251.436531
 20
111.805365
 42
0.010492
  0
VERTEX
  8
0
 10
249.486099
 20
107.414253
 42
0.000000
  0
VERTEX
  8
0
 10
244.838029
 20
96.328506
 42
0.000000
  0
VERTEX
  8
0
 10
239.793529
 20
94.197266
 42
0.000000
  0
VERTEX
  8
0
 10
234.749030
 20
92.066027
 42
0.000000
  0
VERTEX
  8
0
 10
235.411976
 20
95.783013
 42
0.016661
  0
VERTEX
  8
0
 10
236.266360
 20
101.709367
 42
0.015115
  0
VERTEX
  8
0
 10
236.758407
 20
107.875191
 42
0.008513
  0
VERTEX
  8
0
 10
236.934823
 20
113.321600
 42
0.592560
  0
VERTEX
  8
0
 10
236.297084
 20
113.683608
 42
0.173982
  0
VERTEX
  8
0
 10
235.865049
 20
113.141305
 42
0.017754
  0
VERTEX
  8
0
 10
235.383480
 20
111.543203
 42
0.020503
  0
VERTEX
  8
0
 10
234.942896
 20
109.537003
 42
0.014955
  0
VERTEX
  8
0
 10
234.612417
 20
107.278117
 42
-0.012275
  0
VERTEX
  8
0
 10
234.243910
 20
104.661479
 42
-0.007254
  0
VERTEX
  8
0
 10
233.682335
 20
101.557203
 42
-0.007255
  0
VERTEX
  8
0
 10
233.031340
 20
98.472444
 42
-0.012343
  0
VERTEX
  8
0
 10
232.386407
 20
95.916618
 42
-0.019628
  0
VERTEX
  8
0
 10
231.296766
 20
92.527974
 42
-0.089426
  0
VERTEX
  8
0
 10
230.256291
 20
90.747037
 42
-0.085221
  0
VERTEX
  8
0
 10
228.635907
 20
89.399719
 42
-0.016911
  0
VERTEX
  8
0
 10
225.295862
 20
87.619064
 42
-0.005797
  0
VERTEX
  8
0
 10
223.155503
 20
86.599947
 42
-0.009407
  0
VERTEX
  8
0
 10
221.311108
 20
85.789587
 42
-0.003619
  0
VERTEX
  8
0
 10
219.736263
 20
85.146061
 42
-0.318619
  0
VERTEX
  8
0
 10
219.502017
 20
85.202447
 42
-0.244209
  0
VERTEX
  8
0
 10
219.438298
 20
85.464369
 42
-0.001700
  0
VERTEX
  8
0
 10
220.009986
 20
87.762594
 42
-0.005997
  0
VERTEX
  8
0
 10
220.712432
 20
90.411708
 42
-0.003739
  0
VERTEX
  8
0
 10
221.596036
 20
93.500000
 42
0.002371
  0
VERTEX
  8
0
 10
223.979386
 20
101.744700
 42
0.536407
  0
VERTEX
  8
0
 10
223.538318
 20
102.259899
 42
0.288172
  0
VERTEX
  8
0
 10
222.731600
 20
101.603433
 42
0.002245
  0
VERTEX
  8
0
 10
219.960450
 20
93.299581
 42
-0.008594
  0
VERTEX
  8
0
 10
217.806400
 20
87.107838
 42
-0.045776
  0
VERTEX
  8
0
 10
216.270960
 20
83.875504
 42
-0.058774
  0
VERTEX
  8
0
 10
214.341181
 20
81.349443
 42
-0.019810
  0
VERTEX
  8
0
 10
210.980985
 20
78.146761
 42
0.000000
  0
VERTEX
  8
0
 10
205.354769
 20
73.194361
 42
0.000000
  0
VERTEX
  8
0
 10
206.744063
 20
83.847181
 42
-0.009449
  0
VERTEX
  8
0
 10
207.417707
 20
88.347588
 42
-0.008083
  0
VERTEX
  8
0
 10
208.293165
 20
93.060966
 42
-0.008166
  0
VERTEX
  8
0
 10
209.228248
 20
97.319594
 42
-0.022922
  0
VERTEX
  8
0
 10
210.066679
 20
100.253982
 42
0.011310
  0
VERTEX
  8
0
 10
210.806751
 20
102.633562
 42
0.011586
  0
VERTEX
  8
0
 10
211.432087
 20
105.025256
 42
0.011399
  0
VERTEX
  8
0
 10
211.878734
 20
107.123172
 42
0.046777
  0
VERTEX
  8
0
 10
212.000000
 20
108.416557
 42
-0.116762
  0
VERTEX
  8
0
 10
212.325008
 20
109.789332
 42
-0.118604
  0
VERTEX
  8
0
 10
213.229990
 20
110.861479
 42
-0.057431
  0
VERTEX
  8
0
 10
215.075262
 20
111.915329
 42
-0.009792
  0
VERTEX
  8
0
 10
218.831232
 20
113.435510
 42
0.034277
  0
VERTEX
  8
0
 10
226.389217
 20
116.934082
 42
0.026984
  0
VERTEX
  8
0
 10
234.053577
 20
121.696757
 42
0.025617
  0
VERTEX
  8
0
 10
241.575172
 20
127.548635
 42
0.023347
  0
VERTEX
  8
0
 10
248.706389
 20
134.314263
 42
0.008585
  0
VERTEX
  8
0
 10
253.268052
 20
139.232080
 42
0.034134
  0
VERTEX
  8
0
 10
255.798791
 20
142.476560
 42
0.046542
  0
VERTEX
  8
0
 10
257.458115
 20
145.505450
 42
0.027154
  0
VERTEX
  8
0
 10
258.894199
 20
149.392881
 42
0.009990
  0
VERTEX
  8
0
 10
259.720393
 20
152.270454
 42
0.007450
  0
VERTEX
  8
0
 10
260.520536
 20
155.474602
 42
0.007536
  0
VERTEX
  8
0
 10
261.184432
 20
158.518492
 42
0.016949
  0
VERTEX
  8
0
 10
261.574349
 20
160.848940
 42
0.000000
  0
VERTEX
  8
0
 10
262.220456
 20
165.719536
 42
0.000000
  0
VERTEX
  8
0
 10
280.150746
 20
166.233619
 42
0.001910
  0
VERTEX
  8
0
 10
287.049697
 20
166.457805
 42
0.003092
  0
VERTEX
  8
0
 10
292.915428
 20
166.707184
 42
0.000536
  0
VERTEX
  8
0
 10
298.087795
 20
166.964700
 42
0.196834
  0
VERTEX
  8
0
 10
298.426277
 20
167.123851
 42
0.124965
  0
VERTEX
  8
0
 10
298.587667
 20
167.423577
 42
0.005707
  0
VERTEX
  8
0
 10
298.859487
 20
168.564506
 42
0.009218
  0
VERTEX
  8
0
 10
299.144135
 20
169.940187
 42
0.006449
  0
VERTEX
  8
0
 10
299.416226
 20
171.500000
 42
0.018193
  0
VERTEX
  8
0
 10
299.706218
 20
173.837682
 42
0.110161
  0
VERTEX
  8
0
 10
299.546010
 20
175.040650
 42
0.153099
  0
VERTEX
  8
0
 10
298.912944
 20
175.863672
 42
0.045719
  0
VERTEX
  8
0
 10
297.521965
 20
176.659927
 42
0.046968
  0
VERTEX
  8
0
 10
296.256282
 20
177.100068
 42
0.047002
  0
VERTEX
  8
0
 10
294.931003
 20
177.296118
 42
0.046565
  0
VERTEX
  8
0
 10
293.580866
 20
177.241907
 42
0.044395
  0
VERTEX
  8
0
 10
292.241499
 20
176.939690
 42
-0.066993
  0
VERTEX
  8
0
 10
290.089679
 20
176.555079
 42
-0.000611
  0
VERTEX
  8
0
 10
273.769369
 20
175.871491
 42
-0.002073
  0
VERTEX
  8
0
 10
254.981565
 20
175.185554
 42
-0.001337
  0
VERTEX
  8
0
 10
233.207416
 20
174.539242
 42
0.000638
  0
VERTEX
  8
0
 10
197.795556
 20
173.537637
 42
0.007662
  0
VERTEX
  8
0
 10
184.145575
 20
172.924648
 42
0.019734
  0
VERTEX
  8
0
 10
176.556901
 20
172.165816
 42
0.064694
  0
VERTEX
  8
0
 10
171.707416
 20
170.832377
 42
0.016471
  0
VERTEX
  8
0
 10
169.574866
 20
169.853107
 42
0.015634
  0
VERTEX
  8
0
 10
167.473286
 20
168.719474
 42
0.015800
  0
VERTEX
  8
0
 10
165.679323
 20
167.600872
 42
0.051829
  0
VERTEX
  8
0
 10
164.605897
 20
166.710035
 42
-0.066950
  0
VERTEX
  8
0
 10
163.340685
 20
165.722869
 42
-0.092663
  0
VERTEX
  8
0
 10
161.988799
 20
165.238454
 42
-0.056364
  0
VERTEX
  8
0
 10
160.089061
 20
165.149739
 42
-0.011679
  0
VERTEX
  8
0
 10
156.752441
 20
165.448498
 42
0.012853
  0
VERTEX
  8
0
 10
153.702077
 20
165.714406
 42
0.042626
  0
VERTEX
  8
0
 10
151.689804
 20
165.666198
 42
0.066287
  0
VERTEX
  8
0
 10
150.253943
 20
165.312485
 42
0.090660
  0
VERTEX
  8
0
 10
149.124369
 20
164.612552
 42
-0.100624
  0
VERTEX
  8
0
 10
148.058308
 20
163.980761
 42
-0.020201
  0
VERTEX
  8
0
 10
145.934863
 20
163.337788
 42
-0.020482
  0
VERTEX
  8
0
 10
143.348595
 20
162.779330
 42
-0.017405
  0
VERTEX
  8
0
 10
140.580981
 20
162.398051
 42
0.000000
  0
VERTEX
  8
0
 10
133.706313
 20
161.693721
 42
0.000000
  0
VERTEX
  8
0
 10
134.396216
 20
164.442514
 42
0.042242
  0
VERTEX
  8
0
 10
134.593966
 20
165.656531
 42
0.048824
  0
VERTEX
  8
0
 10
134.569911
 20
166.827909
 42
0.054158
  0
VERTEX
  8
0
 10
134.334382
 20
167.850802
 42
0.089790
  0
VERTEX
  8
0
 10
133.900559
 20
168.619819
 42
-0.024448
  0
VERTEX
  8
0
 10
133.474521
 20
169.187472
 42
-0.040029
  0
VERTEX
  8
0
 10
133.178554
 20
169.710514
 42
-0.048991
  0
VERTEX
  8
0
 10
133.032758
 20
170.126617
 42
-0.307368
  0
VERTEX
  8
0
 10
133.107499
 20
170.326826
 42
-0.012010
  0
VERTEX
  8
0
 10
133.372940
 20
170.505739
 42
-0.000790
  0
VERTEX
  8
0
 10
134.151727
 20
171.002152
 42
-0.001145
  0
VERTEX
  8
0
 10
135.082398
 20
171.590323
 42
-0.000855
  0
VERTEX
  8
0
 10
136.111146
 20
172.234732
 42
0.046709
  0
VERTEX
  8
0
 10
137.262286
 20
173.112101
 42
0.022326
  0
VERTEX
  8
0
 10
138.573649
 20
174.433583
 42
0.021909
  0
VERTEX
  8
0
 10
139.830317
 20
175.946620
 42
0.029069
  0
VERTEX
  8
0
 10
140.827420
 20
177.432072
 42
0.000000
  0
VERTEX
  8
0
 10
142.932549
 20
181.000000
 42
0.000000
  0
VERTEX
  8
0
 10
135.716275
 20
181.039000
 42
0.000000
  0
VERTEX
  8
0
 10
128.500000
 20
181.078000
 42
0.000000
  0
VERTEX
  8
0
 10
125.223399
 20
185.532247
 42
0.050426
  0
VERTEX
  8
0
 10
121.625760
 20
189.512132
 42
0.070984
  0
VERTEX
  8
0
 10
117.664360
 20
192.183501
 42
0.076244
  0
VERTEX
  8
0
 10
113.343623
 20
193.517120
 42
0.069881
  0
VERTEX
  8
0
 10
108.686127
 20
193.552751
 42
0.023563
  0
VERTEX
  8
0
 10
106.499742
 20
193.157148
 42
0.015742
  0
VERTEX
  8
0
 10
104.039575
 20
192.509005
 42
0.015868
  0
VERTEX
  8
0
 10
101.689157
 20
191.727971
 42
0.029807
  0
VERTEX
  8
0
 10
99.856041
 20
190.926558
 42
0.103052
  0
VERTEX
  8
0
 10
94.779373
 20
186.845355
 42
0.086115
  0
VERTEX
  8
0
 10
91.357827
 20
180.820535
 42
0.085612
  0
VERTEX
  8
0
 10
90.153056
 20
173.961518
 42
0.100043
  0
VERTEX
  8
0
 10
91.440948
 20
167.487089
 42
-0.018326
  0
VERTEX
  8
0
 10
92.084792
 20
165.772053
 42
-0.045692
  0
VERTEX
  8
0
 10
92.391307
 20
164.469790
 42
-0.072972
  0
VERTEX
  8
0
 10
92.386137
 20
163.584824
 42
-0.281479
  0
VERTEX
  8
0
 10
92.046898
 20
163.182299
 42
0.181888
  0
VERTEX
  8
0
 10
91.644092
 20
162.855503
 42
0.052287
  0
VERTEX
  8
0
 10
91.307526
 20
162.111614
 42
0.045200
  0
VERTEX
  8
0
 10
91.076953
 20
161.127151
 42
0.034946
  0
VERTEX
  8
0
 10
91.000000
 20
160.027451
 42
-0.059941
  0
VERTEX
  8
0
 10
90.850057
 20
158.781185
 42
-0.035414
  0
VERTEX
  8
0
 10
90.391919
 20
157.352316
 42
-0.034971
  0
VERTEX
  8
0
 10
89.722576
 20
155.970151
 42
-0.049786
  0
VERTEX
  8
0
 10
88.929937
 20
154.860784
 42
0.000000
  0
VERTEX
  8
0
 10
86.859874
 20
152.500000
 42
0.000000
  0
VERTEX
  8
0
 10
87.460797
 20
158.438241
 42
0.035916
  0
VERTEX
  8
0
 10
87.659170
 20
165.264746
 42
0.008881
  0
VERTEX
  8
0
 10
86.981414
 20
176.451508
 42
0.006762
  0
VERTEX
  8
0
 10
85.952929
 20
187.624006
 42
0.073235
  0
VERTEX
  8
0
 10
84.828423
 20
192.000000
 42
-0.019136
  0
VERTEX
  8
0
 10
84.392948
 20
193.158794
 42
-0.010981
  0
VERTEX
  8
0
 10
83.952820
 20
194.585423
 42
-0.010959
  0
VERTEX
  8
0
 10
83.572876
 20
196.040772
 42
-0.017916
  0
VERTEX
  8
0
 10
83.322575
 20
197.290801
 42
0.019184
  0
VERTEX
  8
0
 10
83.052548
 20
198.621801
 42
0.008572
  0
VERTEX
  8
0
 10
82.600462
 20
200.351381
 42
0.008470
  0
VERTEX
  8
0
 10
82.059287
 20
202.166568
 42
0.011369
  0
VERTEX
  8
0
 10
81.503989
 20
203.790801
 42
0.051791
  0
VERTEX
  8
0
 10
80.582656
 20
205.670891
 42
0.719906
  0
VERTEX
  8
0
 10
80.098397
 20
205.554297
 42
0.076519
  0
VERTEX
  8
0
 10
80.242268
 20
203.382144
 42
0.018056
  0
VERTEX
  8
0
 10
81.162125
 20
199.853211
 42
-0.022223
  0
VERTEX
  8
0
 10
81.685583
 20
197.774228
 42
-0.058294
  0
VERTEX
  8
0
 10
81.817168
 20
196.243713
 42
-0.070136
  0
VERTEX
  8
0
 10
81.584832
 20
194.896174
 42
-0.045185
  0
VERTEX
  8
0
 10
80.965060
 20
193.434714
 42
0.086328
  0
VERTEX
  8
0
 10
80.312417
 20
191.459801
 42
0.034605
  0
VERTEX
  8
0
 10
80.090589
 20
188.612707
 42
0.019032
  0
VERTEX
  8
0
 10
80.221285
 20
184.181520
 42
0.003753
  0
VERTEX
  8
0
 10
80.817719
 20
176.249432
 42
0.006180
  0
VERTEX
  8
0
 10
81.430496
 20
169.812847
 42
0.012717
  0
VERTEX
  8
0
 10
82.100083
 20
164.796965
 42
0.013246
  0
VERTEX
  8
0
 10
82.800170
 20
161.048355
 42
0.092492
  0
VERTEX
  8
0
 10
83.514784
 20
159.337093
 42
-0.058426
  0
VERTEX
  8
0
 10
84.085126
 20
158.195476
 42
-0.027089
  0
VERTEX
  8
0
 10
84.563718
 20
156.605841
 42
-0.026388
  0
VERTEX
  8
0
 10
84.891020
 20
154.861792
 42
-0.033199
  0
VERTEX
  8
0
 10
85.000000
 20
153.222274
 42
-0.038536
  0
VERTEX
  8
0
 10
84.841694
 20
151.171341
 42
-0.069648
  0
VERTEX
  8
0
 10
84.355838
 20
149.561669
 42
-0.065640
  0
VERTEX
  8
0
 10
83.423501
 20
148.085424
 42
-0.030707
  0
VERTEX
  8
0
 10
81.869999
 20
146.437091
 42
0.053606
  0
VERTEX
  8
0
 10
78.765371
 20
142.825616
 42
0.057358
  0
VERTEX
  8
0
 10
76.581182
 20
138.714598
 42
0.059922
  0
VERTEX
  8
0
 10
75.457436
 20
134.387433
 42
0.069586
  0
VERTEX
  8
0
 10
75.476846
 20
130.137306
 42
0.051715
  0
VERTEX
  8
0
 10
76.147262
 20
127.476862
 42
0.008239
  0
VERTEX
  8
0
 10
78.075680
 20
122.455428
 42
0.009015
  0
VERTEX
  8
0
 10
80.569286
 20
116.576790
 42
0.007640
  0
VERTEX
  8
0
 10
83.409906
 20
110.455567
 42
-0.004100
  0
VERTEX
  8
0
 10
88.029212
 20
100.683283
 42
-0.032686
  0
VERTEX
  8
0
 10
89.823446
 20
96.030009
 42
-0.047048
  0
VERTEX
  8
0
 10
90.711342
 20
91.836395
 42
-0.013444
  0
VERTEX
  8
0
 10
91.294581
 20
85.205567
 42
-0.015396
  0
VERTEX
  8
0
 10
91.579417
 20
75.732269
 42
-0.706764
  0
VERTEX
  8
0
 10
90.298310
 20
75.279725
 42
-0.092269
  0
VERTEX
  8
0
 10
88.115619
 20
79.314926
 42
-0.003652
  0
VERTEX
  8
0
 10
83.064690
 20
95.385721
 42
0.007280
  0
VERTEX
  8
0
 10
78.637115
 20
109.123865
 42
0.010733
  0
VERTEX
  8
0
 10
74.317784
 20
121.038109
 42
0.011701
  0
VERTEX
  8
0
 10
69.812652
 20
131.915574
 42
0.011928
  0
VERTEX
  8
0
 10
64.830769
 20
142.500000
 42
0.008125
  0
VERTEX
  8
0
 10
60.287438
 20
151.226425
 42
0.006512
  0
VERTEX
  8
0
 10
55.122640
 20
160.475075
 42
0.001316
  0
VERTEX
  8
0
 10
49.900379
 20
169.492030
 42
0.491906
  0
VERTEX
  8
0
 10
49.243805
 20
169.577138
 42
0.300957
  0
VERTEX
  8
0
 10
48.887138
 20
167.824208
 42
0.000702
  0
VERTEX
  8
0
 10
59.229209
 20
142.327434
 42
0.004657
  0
VERTEX
  8
0
 10
69.846818
 20
116.936139
 42
0.005911
  0
VERTEX
  8
0
 10
80.145146
 20
93.700672
 42
-0.001246
  0
VERTEX
  8
0
 10
82.389589
 20
88.761583
 42
-0.001989
  0
VERTEX
  8
0
 10
84.280137
 20
84.528762
 42
-0.000382
  0
VERTEX
  8
0
 10
85.928506
 20
80.790643
 42
-0.104010
  0
VERTEX
  8
0
 10
86.000000
 20
80.450672
 42
-0.301218
  0
VERTEX
  8
0
 10
85.884263
 20
80.275988
 42
-0.041315
  0
VERTEX
  8
0
 10
85.447886
 20
80.132385
 42
-0.036233
  0
VERTEX
  8
0
 10
84.840800
 20
80.032606
 42
-0.022621
  0
VERTEX
  8
0
 10
84.120462
 20
80.000000
 42
-0.138068
  0
VERTEX
  8
0
 10
83.173061
 20
80.266696
 42
-0.029916
  0
VERTEX
  8
0
 10
81.764260
 20
81.248438
 42
-0.029053
  0
VERTEX
  8
0
 10
80.217428
 20
82.623062
 42
-0.024243
  0
VERTEX
  8
0
 10
78.738700
 20
84.250000
 42
0.003307
  0
VERTEX
  8
0
 10
77.224375
 20
86.063084
 42
0.002645
  0
VERTEX
  8
0
 10
75.569584
 20
87.997076
 42
0.002673
  0
VERTEX
  8
0
 10
74.019210
 20
89.770495
 42
0.006772
  0
VERTEX
  8
0
 10
72.868238
 20
91.037919
 42
-0.070759
  0
VERTEX
  8
0
 10
70.197065
 20
94.863490
 42
-0.002576
  0
VERTEX
  8
0
 10
62.248011
 20
110.782959
 42
-0.004730
  0
VERTEX
  8
0
 10
54.799622
 20
126.261571
 42
-0.023272
  0
VERTEX
  8
0
 10
51.093303
 20
135.214340
 42
-0.014989
  0
VERTEX
  8
0
 10
50.324304
 20
137.566377
 42
-0.010358
  0
VERTEX
  8
0
 10
49.589919
 20
140.269212
 42
-0.010454
  0
VERTEX
  8
0
 10
48.991681
 20
142.898977
 42
-0.021001
  0
VERTEX
  8
0
 10
48.650942
 20
145.000000
 42
0.039387
  0
VERTEX
  8
0
 10
47.060659
 20
152.946479
 42
0.005902
  0
VERTEX
  8
0
 10
42.432611
 20
168.566422
 42
0.003248
  0
VERTEX
  8
0
 10
37.310214
 20
184.760768
 42
0.106183
  0
VERTEX
  8
0
 10
35.264382
 20
188.297543
 42
-0.073270
  0
VERTEX
  8
0
 10
34.358504
 20
189.651335
 42
-0.015588
  0
VERTEX
  8
0
 10
33.219615
 20
192.255568
 42
-0.015990
  0
VERTEX
  8
0
 10
32.080012
 20
195.386166
 42
-0.014602
  0
VERTEX
  8
0
 10
31.104847
 20
198.678858
 42
0.011716
  0
VERTEX
  8
0
 10
29.045245
 20
205.783537
 42
0.006893
  0
VERTEX
  8
0
 10
26.268321
 20
214.180739
 42
0.002769
  0
VERTEX
  8
0
 10
23.374828
 20
222.394497
 42
0.119418
  0
VERTEX
  8
0
 10
22.368559
 20
223.923880
 42
0.370596
  0
VERTEX
  8
0
 10
22.202371
 20
223.930753
 42
0.227306
  0
VERTEX
  8
0
 10
22.110575
 20
223.743265
 42
0.056922
  0
VERTEX
  8
0
 10
22.164618
 20
223.232588
 42
0.018675
  0
SEQEND
  0
POLYLINE
  8
0
 66
1
 70
1
  0
VERTEX
  8
0
 10
257.699412
 20
159.683999
 42
-0.034528
  0
VERTEX
  8
0
 10
256.489243
 20
152.285834
 42
-0.058030
  0
VERTEX
  8
0
 10
254.350591
 20
146.373790
 42
-0.053505
  0
VERTEX
  8
0
 10
250.774869
 20
140.794396
 42
-0.024962
  0
VERTEX
  8
0
 10
245.060759
 20
134.367527
 42
-0.017580
  0
VERTEX
  8
0
 10
238.478207
 20
128.124033
 42
-0.026392
  0
VERTEX
  8
0
 10
232.279248
 20
123.202363
 42
-0.028473
  0
VERTEX
  8
0
 10
225.978523
 20
119.240361
 42
-0.026299
  0
VERTEX
  8
0
 10
219.102412
 20
115.903355
 42
-0.004104
  0
VERTEX
  8
0
 10
216.567162
 20
114.858182
 42
-0.006655
  0
VERTEX
  8
0
 10
214.393646
 20
114.016381
 42
-0.001908
  0
VERTEX
  8
0
 10
212.509313
 20
113.323452
 42
-0.291339
  0
VERTEX
  8
0
 10
212.295832
 20
113.370835
 42
-0.213189
  0
VERTEX
  8
0
 10
212.210018
 20
113.595199
 42
-0.001016
  0
VERTEX
  8
0
 10
212.353519
 20
116.118348
 42
-0.004409
  0
VERTEX
  8
0
 10
212.549211
 20
119.006129
 42
-0.002744
  0
VERTEX
  8
0
 10
212.827130
 20
122.389155
 42
0.008651
  0
VERTEX
  8
0
 10
213.113265
 20
126.461255
 42
0.021907
  0
VERTEX
  8
0
 10
213.140091
 20
129.427894
 42
0.028260
  0
VERTEX
  8
0
 10
212.945986
 20
131.548725
 42
0.121492
  0
VERTEX
  8
0
 10
212.468086
 20
132.712758
 42
-0.118328
  0
VERTEX
  8
0
 10
211.895538
 20
134.082937
 42
-0.057668
  0
VERTEX
  8
0
 10
211.809688
 20
135.987716
 42
-0.022446
  0
VERTEX
  8
0
 10
212.189219
 20
139.271913
 42
-0.002291
  0
VERTEX
  8
0
 10
213.472240
 20
147.000000
 42
0.058725
  0
VERTEX
  8
0
 10
213.512961
 20
147.785637
 42
0.744045
  0
VERTEX
  8
0
 10
213.333240
 20
147.826943
 42
0.042184
  0
VERTEX
  8
0
 10
212.843302
 20
146.767142
 42
0.005984
  0
VERTEX
  8
0
 10
212.049630
 20
144.500000
 42
0.007561
  0
VERTEX
  8
0
 10
211.275079
 20
142.079101
 42
0.008939
  0
VERTEX
  8
0
 10
210.618555
 20
139.766850
 42
0.007978
  0
VERTEX
  8
0
 10
210.131768
 20
137.801667
 42
0.054588
  0
VERTEX
  8
0
 10
210.014728
 20
136.812681
 42
-0.116470
  0
VERTEX
  8
0
 10
209.741294
 20
135.698342
 42
-0.004549
  0
VERTEX
  8
0
 10
207.772094
 20
131.930725
 42
-0.007870
  0
VERTEX
  8
0
 10
205.313477
 20
127.498471
 42
-0.005454
  0
VERTEX
  8
0
 10
202.400912
 20
122.562681
 42
-0.006024
  0
VERTEX
  8
0
 10
198.734190
 20
116.662615
 42
-0.019842
  0
VERTEX
  8
0
 10
196.117927
 20
112.901591
 42
-0.024819
  0
VERTEX
  8
0
 10
194.142855
 20
110.542802
 42
-0.208985
  0
VERTEX
  8
0
 10
192.900912
 20
110.000000
 42
-0.033626
  0
VERTEX
  8
0
 10
191.458736
 20
110.097100
 42
-0.426725
  0
VERTEX
  8
0
 10
191.170794
 20
110.492286
 42
-0.131366
  0
VERTEX
  8
0
 10
191.518989
 20
111.235329
 42
-0.004914
  0
VERTEX
  8
0
 10
193.543796
 20
113.594461
 42
0.055118
  0
VERTEX
  8
0
 10
196.804145
 20
118.269379
 42
0.010213
  0
VERTEX
  8
0
 10
201.639289
 20
127.592372
 42
0.007527
  0
VERTEX
  8
0
 10
206.199011
 20
137.203956
 42
0.107386
  0
VERTEX
  8
0
 10
207.000000
 20
140.890433
 42
-0.045100
  0
VERTEX
  8
0
 10
207.107218
 20
142.076688
 42
-0.031116
  0
VERTEX
  8
0
 10
207.431283
 20
143.386801
 42
-0.031463
  0
VERTEX
  8
0
 10
207.905407
 20
144.617937
 42
-0.054316
  0
VERTEX
  8
0
 10
208.468197
 20
145.558870
 42
0.046701
  0
VERTEX
  8
0
 10
209.032938
 20
146.471312
 42
0.030606
  0
VERTEX
  8
0
 10
209.514453
 20
147.611161
 42
0.030747
  0
VERTEX
  8
0
 10
209.849662
 20
148.790053
 42
0.050505
  0
VERTEX
  8
0
 10
209.968197
 20
149.819551
 42
-0.045923
  0
VERTEX
  8
0
 10
210.089901
 20
150.968943
 42
-0.164932
  0
VERTEX
  8
0
 10
210.454083
 20
151.598856
 42
-0.168427
  0
VERTEX
  8
0
 10
211.120753
 20
151.869748
 42
-0.048366
  0
VERTEX
  8
0
 10
212.250000
 20
151.819551
 42
0.064125
  0
VERTEX
  8
0
 10
213.252152
 20
151.806518
 42
0.040143
  0
VERTEX
  8
0
 10
214.404504
 20
152.034493
 42
0.039767
  0
VERTEX
  8
0
 10
215.522933
 20
152.449161
 42
0.056918
  0
VERTEX
  8
0
 10
216.424908
 20
153.000000
 42
0.014678
  0
VERTEX
  8
0
 10
218.822168
 20
154.983867
 42
0.019046
  0
VERTEX
  8
0
 10
220.891858
 20
156.946129
 42
0.019219
  0
VERTEX
  8
0
 10
222.469669
 20
158.689764
 42
0.094109
  0
VERTEX
  8
0
 10
223.115037
 20
159.845111
 42
-0.232531
  0
VERTEX
  8
0
 10
223.656241
 20
160.393622
 42
-0.025209
  0
VERTEX
  8
0
 10
225.412653
 20
160.907741
 42
-0.024741
  0
VERTEX
  8
0
 10
227.816083
 20
161.357208
 42
-0.012941
  0
VERTEX
  8
0
 10
230.843109
 20
161.690066
 42
0.014965
  0
VERTEX
  8
0
 10
233.740681
 20
162.020559
 42
0.018881
  0
VERTEX
  8
0
 10
236.394772
 20
162.506958
 42
0.017231
  0
VERTEX
  8
0
 10
238.553166
 20
163.066068
 42
0.125013
  0
VERTEX
  8
0
 10
239.466636
 20
163.609493
 42
-0.133644
  0
VERTEX
  8
0
 10
240.463030
 20
164.179573
 42
-0.021377
  0
VERTEX
  8
0
 10
242.677460
 20
164.654392
 42
-0.020417
  0
VERTEX
  8
0
 10
245.589251
 20
165.028105
 42
-0.011586
  0
VERTEX
  8
0
 10
249.136292
 20
165.254175
 42
0.002092
  0
VERTEX
  8
0
 10
252.370498
 20
165.398717
 42
0.003248
  0
VERTEX
  8
0
 10
255.159076
 20
165.553198
 42
0.000993
  0
VERTEX
  8
0
 10
257.574750
 20
165.707582
 42
0.102965
  0
VERTEX
  8
0
 10
257.894605
 20
165.796455
 42
-0.566233
  0
VERTEX
  8
0
 10
258.037210
 20
165.708193
 42
-0.004515
  0
VERTEX
  8
0
 10
258.000041
 20
164.084883
 42
-0.009763
  0
VERTEX
  8
0
 10
257.897431
 20
162.092187
 42
-0.005535
  0
SEQEND
  0
POLYLINE
  8
0
 66
1
 70
1
  0
VERTEX
  8
0
 10
197.250000
 20
159.397493
 42
0.017688
  0
VERTEX
  8
0
 10
195.622508
 20
157.931864
 42
0.023108
  0
VERTEX
  8
0
 10
194.248437
 20
156.474826
 42
0.021666
  0
VERTEX
  8
0
 10
193.237825
 20
155.190179
 42
0.157084
  0
VERTEX
  8
0
 10
193.000000
 20
154.451861
 42
-0.115983
  0
VERTEX
  8
0
 10
192.827302
 20
153.717380
 42
-0.022193
  0
VERTEX
  8
0
 10
192.158283
 20
152.510725
 42
-0.022579
  0
VERTEX
  8
0
 10
191.231548
 20
151.143765
 42
-0.019100
  0
VERTEX
  8
0
 10
190.134579
 20
149.784796
 42
0.020541
  0
VERTEX
  8
0
 10
188.884392
 20
148.226849
 42
0.011551
  0
VERTEX
  8
0
 10
187.490493
 20
146.241210
 42
0.011513
  0
VERTEX
  8
0
 10
186.173566
 20
144.168120
 42
0.018427
  0
VERTEX
  8
0
 10
185.157218
 20
142.334215
 42
-0.029516
  0
VERTEX
  8
0
 10
184.139508
 20
140.590175
 42
-0.022103
  0
VERTEX
  8
0
 10
182.826210
 20
138.794388
 42
-0.022514
  0
VERTEX
  8
0
 10
181.433954
 20
137.209092
 42
-0.046620
  0
VERTEX
  8
0
 10
180.187575
 20
136.133565
 42
-0.016443
  0
VERTEX
  8
0
 10
178.495959
 20
135.010968
 42
-0.109886
  0
VERTEX
  8
0
 10
177.547625
 20
134.681771
 42
-0.171613
  0
VERTEX
  8
0
 10
176.756284
 20
134.862632
 42
-0.055254
  0
VERTEX
  8
0
 10
175.802518
 20
135.626053
 42
0.084573
  0
VERTEX
  8
0
 10
174.919661
 20
136.251885
 42
0.027367
  0
VERTEX
  8
0
 10
173.434973
 20
136.867715
 42
0.026399
  0
VERTEX
  8
0
 10
171.679319
 20
137.383380
 42
0.026786
  0
VERTEX
  8
0
 10
169.887583
 20
137.708195
 42
-0.019824
  0
VERTEX
  8
0
 10
168.097837
 20
138.006985
 42
-0.020183
  0
VERTEX
  8
0
 10
166.348227
 20
138.445214
 42
-0.020441
  0
VERTEX
  8
0
 10
164.863546
 20
138.948221
 42
-0.074392
  0
VERTEX
  8
0
 10
164.000000
 20
139.438131
 42
0.028508
  0
VERTEX
  8
0
 10
163.233922
 20
139.970773
 42
0.011496
  0
VERTEX
  8
0
 10
162.132812
 20
140.612330
 42
0.011332
  0
VERTEX
  8
0
 10
160.912796
 20
141.250444
 42
0.014100
  0
VERTEX
  8
0
 10
159.750000
 20
141.785200
 42
-0.050019
  0
VERTEX
  8
0
 10
157.772610
 20
142.872656
 42
-0.241413
  0
VERTEX
  8
0
 10
157.182660
 20
143.967389
 42
-0.137186
  0
VERTEX
  8
0
 10
157.581482
 20
145.515406
 42
-0.013717
  0
VERTEX
  8
0
 10
159.606021
 20
148.800880
 42
-0.017980
  0
VERTEX
  8
0
 10
161.253307
 20
151.129693
 42
-0.105026
  0
VERTEX
  8
0
 10
162.385222
 20
152.102437
 42
-0.127556
  0
VERTEX
  8
0
 10
163.710219
 20
152.436374
 42
-0.031630
  0
VERTEX
  8
0
 10
165.961865
 20
152.278289
 42
0.054378
  0
VERTEX
  8
0
 10
169.380196
 20
152.193895
 42
0.113077
  0
VERTEX
  8
0
 10
171.906372
 20
153.000768
 42
0.145016
  0
VERTEX
  8
0
 10
173.442095
 20
154.654513
 42
0.115608
  0
VERTEX
  8
0
 10
174.000000
 20
157.035184
 42
-0.033584
  0
VERTEX
  8
0
 10
174.093473
 20
158.425238
 42
-0.097658
  0
VERTEX
  8
0
 10
174.403103
 20
159.332201
 42
-0.143143
  0
VERTEX
  8
0
 10
174.949612
 20
159.854510
 42
-0.110671
  0
VERTEX
  8
0
 10
175.750000
 20
160.065683
 42
0.016464
  0
VERTEX
  8
0
 10
176.909219
 20
160.147474
 42
0.001103
  0
VERTEX
  8
0
 10
180.217187
 20
160.498002
 42
0.001587
  0
VERTEX
  8
0
 10
184.159165
 20
160.937168
 42
0.001187
  0
VERTEX
  8
0
 10
188.500000
 20
161.445170
 42
-0.000154
  0
VERTEX
  8
0
 10
192.787397
 20
161.955901
 42
-0.000226
  0
VERTEX
  8
0
 10
196.562500
 20
162.402696
 42
-0.000107
  0
VERTEX
  8
0
 10
199.776587
 20
162.780923
 42
-0.004081
  0
VERTEX
  8
0
 10
200.500000
 20
162.859915
 42
-0.650448
  0
VERTEX
  8
0
 10
200.609844
 20
162.667182
 42
-0.029608
  0
VERTEX
  8
0
 10
199.957813
 20
161.884466
 42
-0.020259
  0
VERTEX
  8
0
 10
198.812418
 20
160.759229
 42
-0.009567
  0
SEQEND
  0
POLYLINE
  8
0
 66
1
 70
1
  0
VERTEX
  8
0
 10
172.264432
 20
158.402234
 42
-0.213922
  0
VERTEX
  8
0
 10
172.552623
 20
157.645569
 42
-0.067764
  0
VERTEX
  8
0
 10
172.315526
 20
156.431777
 42
-0.069069
  0
VERTEX
  8
0
 10
171.770766
 20
155.349030
 42
-0.246501
  0
VERTEX
  8
0
 10
171.105815
 20
155.000000
 42
-0.239440
  0
VERTEX
  8
0
 10
170.833819
 20
155.138175
 42
-0.059319
  0
VERTEX
  8
0
 10
170.581164
 20
155.587500
 42
-0.047671
  0
VERTEX
  8
0
 10
170.382271
 20
156.233974
 42
-0.032014
  0
VERTEX
  8
0
 10
170.274953
 20
157.000000
 42
-0.062740
  0
VERTEX
  8
0
 10
170.335707
 20
158.210933
 42
-0.197872
  0
VERTEX
  8
0
 10
170.763150
 20
158.883501
 42
-0.259074
  0
VERTEX
  8
0
 10
171.441693
 20
158.956353
 42
-0.096637
  0
SEQEND
  0
POLYLINE
  8
0
 66
1
 70
1
  0
VERTEX
  8
0
 10
206.257246
 20
116.953205
 42
-0.016520
  0
VERTEX
  8
0
 10
205.804907
 20
114.409245
 42
-0.048394
  0
VERTEX
  8
0
 10
205.269534
 20
112.712958
 42
-0.077885
  0
VERTEX
  8
0
 10
204.618199
 20
111.669173
 42
-0.168364
  0
VERTEX
  8
0
 10
203.809063
 20
111.201745
 42
-0.211750
  0
VERTEX
  8
0
 10
203.061848
 20
111.374402
 42
-0.256329
  0
VERTEX
  8
0
 10
202.769501
 20
112.021168
 42
-0.054582
  0
VERTEX
  8
0
 10
203.067190
 20
113.599841
 42
-0.004727
  0
VERTEX
  8
0
 10
204.297859
 20
117.510417
 42
-0.003589
  0
VERTEX
  8
0
 10
206.029946
 20
122.710642
 42
-0.399170
  0
VERTEX
  8
0
 10
206.622572
 20
123.021067
 42
-0.371469
  0
VERTEX
  8
0
 10
207.007340
 20
122.436834
 42
-0.003494
  0
SEQEND
  0
POLYLINE
  8
0
 66
1
 70
1
  0
VERTEX
  8
0
 10
178.500000
 20
105.052573
 42
0.038426
  0
VERTEX
  8
0
 10
179.830798
 20
105.163168
 42
0.024406
  0
VERTEX
  8
0
 10
181.353125
 20
105.485303
 42
0.024482
  0
VERTEX
  8
0
 10
182.825234
 20
105.950843
 42
0.041041
  0
VERTEX
  8
0
 10
184.000000
 20
106.500000
 42
-0.080384
  0
VERTEX
  8
0
 10
186.476178
 20
107.428907
 42
-0.031220
  0
VERTEX
  8
0
 10
190.113536
 20
107.926842
 42
-0.029508
  0
VERTEX
  8
0
 10
193.363666
 20
107.974400
 42
-0.524678
  0
VERTEX
  8
0
 10
193.833333
 20
107.225339
 42
0.002101
  0
VERTEX
  8
0
 10
193.380527
 20
106.160727
 42
0.000006
  0
VERTEX
  8
0
 10
187.548055
 20
92.285721
 42
0.000033
  0
VERTEX
  8
0
 10
182.284886
 20
79.762291
 42
0.000273
  0
VERTEX
  8
0
 10
179.896190
 20
74.068778
 42
0.000000
  0
VERTEX
  8
0
 10
178.877737
 20
71.637556
 42
0.000000
  0
VERTEX
  8
0
 10
176.896404
 20
74.568778
 42
-0.044280
  0
VERTEX
  8
0
 10
175.933198
 20
76.307479
 42
-0.060787
  0
VERTEX
  8
0
 10
175.412275
 20
78.015852
 42
-0.048345
  0
VERTEX
  8
0
 10
175.251205
 20
80.078526
 42
-0.017752
  0
VERTEX
  8
0
 10
175.409657
 20
83.000000
 42
0.006825
  0
VERTEX
  8
0
 10
175.572784
 20
85.141321
 42
0.037963
  0
VERTEX
  8
0
 10
175.557223
 20
86.293333
 42
0.610654
  0
VERTEX
  8
0
 10
175.379102
 20
86.365505
 42
0.141668
  0
VERTEX
  8
0
 10
175.140749
 20
86.000000
 42
-0.309369
  0
VERTEX
  8
0
 10
174.660406
 20
85.616045
 42
-0.334609
  0
VERTEX
  8
0
 10
174.162915
 20
85.935989
 42
-0.036728
  0
VERTEX
  8
0
 10
173.540829
 20
88.098887
 42
-0.004353
  0
VERTEX
  8
0
 10
172.557898
 20
93.000000
 42
0.007124
  0
VERTEX
  8
0
 10
171.792015
 20
96.712053
 42
0.009975
  0
VERTEX
  8
0
 10
170.994771
 20
100.003125
 42
0.006689
  0
VERTEX
  8
0
 10
170.240459
 20
102.718158
 42
0.119022
  0
VERTEX
  8
0
 10
169.791455
 20
103.500000
 42
0.289956
  0
VERTEX
  8
0
 10
169.461531
 20
103.583588
 42
0.282001
  0
VERTEX
  8
0
 10
169.238249
 20
103.321050
 42
0.063491
  0
VERTEX
  8
0
 10
169.213699
 20
102.451790
 42
0.014766
  0
VERTEX
  8
0
 10
169.400706
 20
101.000000
 42
-0.006267
  0
VERTEX
  8
0
 10
171.228535
 20
88.491653
 42
-0.035641
  0
VERTEX
  8
0
 10
171.640379
 20
81.783381
 42
-0.038336
  0
VERTEX
  8
0
 10
171.076671
 20
75.288076
 42
-0.007948
  0
VERTEX
  8
0
 10
169.033079
 20
64.000000
 42
0.000000
  0
VERTEX
  8
0
 10
168.341811
 20
60.500000
 42
0.000000
  0
VERTEX
  8
0
 10
167.134432
 20
65.969292
 42
0.028947
  0
VERTEX
  8
0
 10
166.440918
 20
68.425856
 42
0.016580
  0
VERTEX
  8
0
 10
165.337747
 20
71.302581
 42
0.016524
  0
VERTEX
  8
0
 10
164.032479
 20
74.130809
 42
0.026312
  0
VERTEX
  8
0
 10
162.713526
 20
76.444889
 42
-0.022725
  0
VERTEX
  8
0
 10
160.866532
 20
79.632067
 42
-0.063742
  0
VERTEX
  8
0
 10
159.977711
 20
82.048510
 42
-0.047689
  0
VERTEX
  8
0
 10
159.594926
 20
84.979892
 42
-0.008636
  0
VERTEX
  8
0
 10
159.500000
 20
90.475597
 42
-0.007680
  0
VERTEX
  8
0
 10
159.558301
 20
94.270848
 42
-0.006843
  0
VERTEX
  8
0
 10
159.733414
 20
98.211733
 42
-0.006882
  0
VERTEX
  8
0
 10
159.988147
 20
101.750802
 42
-0.021011
  0
VERTEX
  8
0
 10
160.294599
 20
104.138813
 42
0.000000
  0
VERTEX
  8
0
 10
161.089199
 20
108.777625
 42
0.000000
  0
VERTEX
  8
0
 10
168.294599
 20
106.905950
 42
0.009257
  0
VERTEX
  8
0
 10
171.273231
 20
106.190813
 42
0.009367
  0
VERTEX
  8
0
 10
174.264664
 20
105.589455
 42
0.009205
  0
VERTEX
  8
0
 10
176.885971
 20
105.163091
 42
0.037250
  0
SEQEND
  0
POLYLINE
  8
0
 66
1
 70
1
  0
VERTEX
  8
0
 10
205.153487
 20
103.929256
 42
-0.044014
  0
VERTEX
  8
0
 10
205.089445
 20
100.685808
 42
-0.043370
  0
VERTEX
  8
0
 10
204.459651
 20
97.487043
 42
-0.025883
  0
VERTEX
  8
0
 10
203.001691
 20
93.269636
 42
-0.005466
  0
VERTEX
  8
0
 10
200.000000
 20
86.080442
 42
-0.006156
  0
VERTEX
  8
0
 10
196.055754
 20
77.218879
 42
-0.025343
  0
VERTEX
  8
0
 10
193.335239
 20
72.015577
 42
-0.058025
  0
VERTEX
  8
0
 10
191.471099
 20
69.555016
 42
-0.535376
  0
VERTEX
  8
0
 10
190.378308
 20
69.750000
 42
0.103682
  0
VERTEX
  8
0
 10
189.611923
 20
70.828609
 42
0.356865
  0
VERTEX
  8
0
 10
188.815301
 20
70.877149
 42
0.188638
  0
VERTEX
  8
0
 10
188.187925
 20
69.905227
 42
0.050120
  0
VERTEX
  8
0
 10
188.000000
 20
68.035184
 42
-0.101578
  0
VERTEX
  8
0
 10
187.506207
 20
65.629653
 42
-0.143027
  0
VERTEX
  8
0
 10
186.122000
 20
63.949264
 42
-0.219271
  0
VERTEX
  8
0
 10
184.480637
 20
63.674422
 42
-0.207884
  0
VERTEX
  8
0
 10
183.154748
 20
64.737287
 42
-0.218886
  0
VERTEX
  8
0
 10
183.076227
 20
66.185607
 42
-0.037097
  0
VERTEX
  8
0
 10
184.313894
 20
68.741425
 42
-0.022089
  0
VERTEX
  8
0
 10
186.817021
 20
72.652646
 42
-0.004498
  0
VERTEX
  8
0
 10
191.612761
 20
79.335250
 42
0.004113
  0
VERTEX
  8
0
 10
195.209263
 20
84.338634
 42
0.006285
  0
VERTEX
  8
0
 10
198.237806
 20
88.742291
 42
0.002569
  0
VERTEX
  8
0
 10
200.753654
 20
92.542891
 42
0.149425
  0
VERTEX
  8
0
 10
200.984027
 20
93.335250
 42
0.612541
  0
VERTEX
  8
0
 10
200.558630
 20
93.544903
 42
0.038086
  0
VERTEX
  8
0
 10
199.193902
 20
92.354184
 42
0.014016
  0
VERTEX
  8
0
 10
196.642121
 20
89.610754
 42
0.001761
  0
VERTEX
  8
0
 10
191.307724
 20
83.500000
 42
-0.022732
  0
VERTEX
  8
0
 10
188.979443
 20
81.048402
 42
-0.775542
  0
VERTEX
  8
0
 10
188.562703
 20
81.305954
 42
-0.034724
  0
VERTEX
  8
0
 10
189.576492
 20
83.908279
 42
-0.000877
  0
VERTEX
  8
0
 10
195.000000
 20
95.349499
 42
-0.007898
  0
VERTEX
  8
0
 10
199.976048
 20
105.387745
 42
-0.098619
  0
VERTEX
  8
0
 10
202.607835
 20
108.691911
 42
-0.525083
  0
VERTEX
  8
0
 10
204.264601
 20
108.241518
 42
-0.067629
  0
SEQEND
  0
POLYLINE
  8
0
 66
1
 70
1
  0
VERTEX
  8
0
 10
205.415033
 20
89.750000
 42
-0.022097
  0
VERTEX
  8
0
 10
205.055311
 20
87.630154
 42
-0.023748
  0
VERTEX
  8
0
 10
204.516175
 20
85.601562
 42
-0.024169
  0
VERTEX
  8
0
 10
203.890388
 20
83.916462
 42
-0.094642
  0
VERTEX
  8
0
 10
203.273267
 20
83.000000
 42
-0.007185
  0
VERTEX
  8
0
 10
202.372493
 20
82.117638
 42
-0.324713
  0
VERTEX
  8
0
 10
202.127991
 20
82.084986
 42
-0.342335
  0
VERTEX
  8
0
 10
202.030950
 20
82.304674
 42
-0.007568
  0
VERTEX
  8
0
 10
202.347459
 20
83.500000
 42
0.004688
  0
VERTEX
  8
0
 10
202.638722
 20
84.574926
 42
0.001222
  0
VERTEX
  8
0
 10
203.086351
 20
86.307812
 42
0.001242
  0
VERTEX
  8
0
 10
203.586650
 20
88.284766
 42
0.001269
  0
VERTEX
  8
0
 10
204.073497
 20
90.250000
 42
-0.003820
  0
VERTEX
  8
0
 10
205.164918
 20
94.561325
 42
-0.444168
  0
VERTEX
  8
0
 10
205.625286
 20
94.800546
 42
-0.343553
  0
VERTEX
  8
0
 10
205.946366
 20
94.279426
 42
-0.003566
  0
SEQEND
  0
POLYLINE
  8
0
 66
1
 70
1
  0
VERTEX
  8
0
 10
240.109126
 20
85.754581
 42
-0.019324
  0
VERTEX
  8
0
 10
238.851010
 20
83.106965
 42
-0.101341
  0
VERTEX
  8
0
 10
237.837497
 20
81.864451
 42
-0.117748
  0
VERTEX
  8
0
 10
236.490850
 20
81.213698
 42
-0.030173
  0
VERTEX
  8
0
 10
234.083994
 20
80.836620
 42
-0.019919
  0
VERTEX
  8
0
 10
231.330022
 20
80.684321
 42
-0.210294
  0
VERTEX
  8
0
 10
230.316115
 20
81.111961
 42
-0.285529
  0
VERTEX
  8
0
 10
230.125596
 20
82.047706
 42
-0.034012
  0
VERTEX
  8
0
 10
231.034238
 20
84.063975
 42
-0.121298
  0
VERTEX
  8
0
 10
232.427088
 20
85.611588
 42
-0.013417
  0
VERTEX
  8
0
 10
236.467810
 20
88.200040
 42
-0.008618
  0
VERTEX
  8
0
 10
240.736562
 20
90.676384
 42
-0.328310
  0
VERTEX
  8
0
 10
241.775132
 20
90.544811
 42
-0.289068
  0
VERTEX
  8
0
 10
241.832812
 20
90.316574
 42
-0.004863
  0
VERTEX
  8
0
 10
241.399234
 20
89.029713
 42
-0.010799
  0
VERTEX
  8
0
 10
240.833391
 20
87.509406
 42
-0.006764
  0
SEQEND
  0
POLYLINE
  8
0
 66
1
 70
1
  0
VERTEX
  8
0
 10
96.896634
 20
80.500000
 42
-0.010344
  0
VERTEX
  8
0
 10
97.680682
 20
77.873746
 42
-0.007660
  0
VERTEX
  8
0
 10
98.442493
 20
74.940625
 42
-0.007749
  0
VERTEX
  8
0
 10
99.076724
 20
72.147666
 42
-0.017243
  0
VERTEX
  8
0
 10
99.452720
 20
70.000000
 42
0.000000
  0
VERTEX
  8
0
 10
100.081512
 20
65.500000
 42
0.000000
  0
VERTEX
  8
0
 10
97.151417
 20
68.500000
 42
-0.043298
  0
VERTEX
  8
0
 10
95.500482
 20
70.512309
 42
-0.079936
  0
VERTEX
  8
0
 10
94.599600
 20
72.420988
 42
-0.048296
  0
VERTEX
  8
0
 10
94.098389
 20
75.100146
 42
-0.007814
  0
VERTEX
  8
0
 10
93.712303
 20
80.394556
 42
-0.003874
  0
VERTEX
  8
0
 10
93.382155
 20
87.069999
 42
-0.416725
  0
VERTEX
  8
0
 10
93.941402
 20
87.672705
 42
-0.331214
  0
VERTEX
  8
0
 10
94.714631
 20
87.136204
 42
-0.003431
  0
SEQEND
  0
POLYLINE
  8
0
 66
1
 70
1
  0
VERTEX
  8
0
 10
81.739853
 20
75.750000
 42
-0.007578
  0
VERTEX
  8
0
 10
85.739327
 20
69.969977
 42
-0.021277
  0
VERTEX
  8
0
 10
88.300623
 20
65.769784
 42
-0.030010
  0
VERTEX
  8
0
 10
89.926501
 20
62.360964
 42
-0.044651
  0
VERTEX
  8
0
 10
90.889549
 20
59.200779
 42
-0.002299
  0
VERTEX
  8
0
 10
91.314962
 20
57.123107
 42
-0.003237
  0
VERTEX
  8
0
 10
91.673805
 20
55.266172
 42
-0.001901
  0
VERTEX
  8
0
 10
91.960036
 20
53.698695
 42
-0.044232
  0
VERTEX
  8
0
 10
92.000000
 20
53.247831
 42
-0.612807
  0
VERTEX
  8
0
 10
91.824147
 20
53.158232
 42
-0.011761
  0
VERTEX
  8
0
 10
90.790154
 20
53.947315
 42
-0.014610
  0
VERTEX
  8
0
 10
89.461958
 20
55.076520
 42
-0.007765
  0
VERTEX
  8
0
 10
87.881376
 20
56.547052
 42
-0.050566
  0
VERTEX
  8
0
 10
84.876727
 20
60.079210
 42
-0.020747
  0
VERTEX
  8
0
 10
81.518174
 20
65.408448
 42
-0.017782
  0
VERTEX
  8
0
 10
78.685798
 20
70.779363
 42
-0.112752
  0
VERTEX
  8
0
 10
78.000789
 20
73.769870
 42
0.073888
  0
VERTEX
  8
0
 10
77.883278
 20
74.557366
 42
0.006965
  0
VERTEX
  8
0
 10
77.286436
 20
76.423380
 42
0.008800
  0
VERTEX
  8
0
 10
76.500700
 20
78.636910
 42
0.006816
  0
VERTEX
  8
0
 10
75.570056
 20
81.019870
 42
-0.003772
  0
VERTEX
  8
0
 10
74.658252
 20
83.313297
 42
-0.006445
  0
VERTEX
  8
0
 10
73.936230
 20
85.243337
 42
-0.001798
  0
VERTEX
  8
0
 10
73.348117
 20
86.898044
 42
-0.517024
  0
VERTEX
  8
0
 10
73.420360
 20
87.000000
 42
-0.237514
  0
VERTEX
  8
0
 10
73.599499
 20
86.909816
 42
-0.000317
  0
VERTEX
  8
0
 10
75.979813
 20
83.695312
 42
-0.002530
  0
VERTEX
  8
0
 10
78.637382
 20
80.063327
 42
-0.001544
  0
SEQEND
  0
POLYLINE
  8
0
 66
1
 70
1
  0
VERTEX
  8
0
 10
226.100526
 20
81.187835
 42
-0.145224
  0
VERTEX
  8
0
 10
224.815505
 20
79.888417
 42
-0.025222
  0
VERTEX
  8
0
 10
221.675488
 20
78.363459
 42
-0.021064
  0
VERTEX
  8
0
 10
218.427059
 20
77.142415
 42
-0.282911
  0
VERTEX
  8
0
 10
217.241727
 20
77.424940
 42
-0.482491
  0
VERTEX
  8
0
 10
217.294574
 20
77.887783
 42
-0.003408
  0
VERTEX
  8
0
 10
221.129913
 20
80.245625
 42
-0.006987
  0
VERTEX
  8
0
 10
224.828245
 20
82.414610
 42
-0.097742
  0
VERTEX
  8
0
 10
226.285184
 20
82.899973
 42
-0.327107
  0
VERTEX
  8
0
 10
226.498396
 20
82.781950
 42
-0.135927
  0
VERTEX
  8
0
 10
226.554829
 20
82.438294
 42
-0.066127
  0
VERTEX
  8
0
 10
226.417705
 20
81.876736
 42
-0.029968
  0
SEQEND
  0
POLYLINE
  8
0
 66
1
 70
1
  0
VERTEX
  8
0
 10
203.256592
 20
74.910416
 42
-0.046243
  0
VERTEX
  8
0
 10
202.332818
 20
72.347703
 42
-0.174446
  0
VERTEX
  8
0
 10
201.146878
 20
71.157977
 42
-0.528659
  0
VERTEX
  8
0
 10
200.420722
 20
71.584465
 42
-0.075685
  0
VERTEX
  8
0
 10
200.594716
 20
73.652128
 42
-0.024649
  0
VERTEX
  8
0
 10
201.385486
 20
76.358036
 42
-0.042239
  0
VERTEX
  8
0
 10
202.339436
 20
78.505511
 42
-0.095479
  0
VERTEX
  8
0
 10
203.164857
 20
79.499837
 42
-0.525902
  0
VERTEX
  8
0
 10
203.720089
 20
79.339734
 42
-0.087353
  0
VERTEX
  8
0
 10
203.816702
 20
78.689434
 42
-0.019375
  0
VERTEX
  8
0
 10
203.742741
 20
77.562209
 42
-0.019566
  0
VERTEX
  8
0
 10
203.553095
 20
76.248697
 42
-0.017760
  0
SEQEND
  0
POLYLINE
  8
0
 66
1
 70
1
  0
VERTEX
  8
0
 10
76.548796
 20
61.512887
 42
-0.003504
  0
VERTEX
  8
0
 10
78.637462
 20
56.237867
 42
-0.005102
  0
VERTEX
  8
0
 10
80.398709
 20
51.555914
 42
-0.002645
  0
VERTEX
  8
0
 10
81.826533
 20
47.574173
 42
-0.084958
  0
VERTEX
  8
0
 10
82.000000
 20
46.560647
 42
-0.498555
  0
VERTEX
  8
0
 10
81.561024
 20
46.229826
 42
-0.045899
  0
VERTEX
  8
0
 10
80.078725
 20
46.806295
 42
-0.027108
  0
VERTEX
  8
0
 10
77.765842
 20
48.120874
 42
-0.008870
  0
VERTEX
  8
0
 10
74.503630
 20
50.299359
 42
-0.006639
  0
VERTEX
  8
0
 10
70.046643
 20
53.479893
 42
-0.056525
  0
VERTEX
  8
0
 10
68.245050
 20
55.144860
 42
-0.128935
  0
VERTEX
  8
0
 10
67.534845
 20
56.595025
 42
-0.092814
  0
VERTEX
  8
0
 10
67.509760
 20
58.405648
 42
0.014540
  0
VERTEX
  8
0
 10
67.743833
 20
60.041019
 42
0.002992
  0
VERTEX
  8
0
 10
68.055286
 20
62.937862
 42
0.003145
  0
VERTEX
  8
0
 10
68.375900
 20
66.308750
 42
0.002955
  0
VERTEX
  8
0
 10
68.661231
 20
69.754189
 42
-0.010922
  0
VERTEX
  8
0
 10
69.272319
 20
75.934312
 42
-0.633138
  0
VERTEX
  8
0
 10
70.103524
 20
76.211179
 42
-0.093836
  0
VERTEX
  8
0
 10
71.338561
 20
74.310996
 42
-0.001300
  0
SEQEND
  0
POLYLINE
  8
0
 66
1
 70
1
  0
VERTEX
  8
0
 10
236.986780
 20
76.250000
 42
-0.116700
  0
VERTEX
  8
0
 10
236.359563
 20
73.685889
 42
-0.008629
  0
VERTEX
  8
0
 10
232.939802
 20
67.266906
 42
-0.005356
  0
VERTEX
  8
0
 10
229.209970
 20
60.714367
 42
-0.266719
  0
VERTEX
  8
0
 10
227.966061
 20
60.000000
 42
0.055925
  0
VERTEX
  8
0
 10
226.858787
 20
59.875762
 42
0.078234
  0
VERTEX
  8
0
 10
225.935426
 20
59.507370
 42
0.050799
  0
VERTEX
  8
0
 10
224.910726
 20
58.748763
 42
0.011653
  0
VERTEX
  8
0
 10
223.350985
 20
57.260076
 42
-0.258500
  0
VERTEX
  8
0
 10
220.419971
 20
56.418920
 42
-0.358161
  0
VERTEX
  8
0
 10
218.826752
 20
58.486696
 42
-0.090092
  0
VERTEX
  8
0
 10
220.156617
 20
64.693753
 42
-0.051844
  0
VERTEX
  8
0
 10
223.796019
 20
71.445973
 42
-0.016371
  0
VERTEX
  8
0
 10
226.438117
 20
75.064441
 42
-0.083508
  0
VERTEX
  8
0
 10
228.270266
 20
76.739837
 42
-0.103277
  0
VERTEX
  8
0
 10
230.362816
 20
77.547332
 42
-0.031706
  0
VERTEX
  8
0
 10
233.750000
 20
77.883999
 42
-0.025500
  0
VERTEX
  8
0
 10
235.353684
 20
77.859442
 42
-0.100637
  0
VERTEX
  8
0
 10
236.301156
 20
77.600381
 42
-0.168783
  0
VERTEX
  8
0
 10
236.807515
 20
77.077016
 42
-0.110958
  0
SEQEND
  0
POLYLINE
  8
0
 66
1
 70
1
  0
VERTEX
  8
0
 10
221.808333
 20
74.925000
 42
-0.073624
  0
VERTEX
  8
0
 10
221.600259
 20
74.514089
 42
-0.066918
  0
VERTEX
  8
0
 10
221.276198
 20
74.165781
 42
-0.070382
  0
VERTEX
  8
0
 10
220.889952
 20
73.930417
 42
-0.102038
  0
VERTEX
  8
0
 10
220.500000
 20
73.850000
 42
-0.102038
  0
VERTEX
  8
0
 10
220.110048
 20
73.930417
 42
-0.070382
  0
VERTEX
  8
0
 10
219.723802
 20
74.165781
 42
-0.066918
  0
VERTEX
  8
0
 10
219.399741
 20
74.514089
 42
-0.073624
  0
VERTEX
  8
0
 10
219.191667
 20
74.925000
 42
-0.159683
  0
VERTEX
  8
0
 10
219.189601
 20
75.333474
 42
-0.143818
  0
VERTEX
  8
0
 10
219.428177
 20
75.684219
 42
-0.107546
  0
VERTEX
  8
0
 10
219.888977
 20
75.920344
 42
-0.064908
  0
VERTEX
  8
0
 10
220.500000
 20
76.000000
 42
-0.064908
  0
VERTEX
  8
0
 10
221.111023
 20
75.920344
 42
-0.107546
  0
VERTEX
  8
0
 10
221.571823
 20
75.684219
 42
-0.143818
  0
VERTEX
  8
0
 10
221.810399
 20
75.333474
 42
-0.159683
  0
SEQEND
  0
POLYLINE
  8
0
 66
1
 70
1
  0
VERTEX
  8
0
 10
217.984687
 20
72.750000
 42
-0.055921
  0
VERTEX
  8
0
 10
217.761939
 20
70.879555
 42
-0.068822
  0
VERTEX
  8
0
 10
217.130757
 20
69.240975
 42
-0.139670
  0
VERTEX
  8
0
 10
216.373045
 20
68.479094
 42
-0.401681
  0
VERTEX
  8
0
 10
215.716970
 20
68.648934
 42
-0.158442
  0
VERTEX
  8
0
 10
215.394822
 20
69.969337
 42
-0.035499
  0
VERTEX
  8
0
 10
215.736180
 20
72.291766
 42
-0.032612
  0
VERTEX
  8
0
 10
216.369159
 20
74.475673
 42
-0.315782
  0
VERTEX
  8
0
 10
217.116577
 20
75.000000
 42
-0.230434
  0
VERTEX
  8
0
 10
217.453819
 20
74.835860
 42
-0.074298
  0
VERTEX
  8
0
 10
217.735996
 20
74.339062
 42
-0.056418
  0
VERTEX
  8
0
 10
217.926007
 20
73.611670
 42
-0.037418
  0
SEQEND
  0
POLYLINE
  8
0
 66
1
 70
1
  0
VERTEX
  8
0
 10
213.435203
 20
71.750000
 42
-0.031097
  0
VERTEX
  8
0
 10
213.097395
 20
70.862295
 42
-0.034493
  0
VERTEX
  8
0
 10
212.661788
 20
70.054880
 42
-0.036870
  0
VERTEX
  8
0
 10
212.198027
 20
69.428631
 42
-0.124847
  0
VERTEX
  8
0
 10
211.784678
 20
69.138954
 42
0.152299
  0
VERTEX
  8
0
 10
211.314978
 20
68.770540
 42
0.016431
  0
VERTEX
  8
0
 10
210.560429
 20
67.594710
 42
0.018979
  0
VERTEX
  8
0
 10
209.742349
 20
66.096224
 42
0.014203
  0
VERTEX
  8
0
 10
208.952400
 20
64.388954
 42
-0.042605
  0
VERTEX
  8
0
 10
207.314068
 20
61.318266
 42
-0.175046
  0
VERTEX
  8
0
 10
205.660187
 20
60.063747
 42
-0.383154
  0
VERTEX
  8
0
 10
204.463665
 20
60.611691
 42
-0.102748
  0
VERTEX
  8
0
 10
204.000000
 20
62.844198
 42
-0.079797
  0
VERTEX
  8
0
 10
204.247889
 20
64.387550
 42
-0.055463
  0
VERTEX
  8
0
 10
204.984227
 20
65.995952
 42
-0.042531
  0
VERTEX
  8
0
 10
206.266616
 20
67.772814
 42
-0.020055
  0
VERTEX
  8
0
 10
208.197346
 20
69.844198
 42
-0.011391
  0
VERTEX
  8
0
 10
211.322239
 20
72.800278
 42
-0.096776
  0
VERTEX
  8
0
 10
212.969538
 20
73.792006
 42
-0.495610
  0
VERTEX
  8
0
 10
213.616611
 20
73.376068
 42
-0.095460
  0
SEQEND
  0
POLYLINE
  8
0
 66
1
 70
1
  0
VERTEX
  8
0
 10
201.977764
 20
68.250000
 42
-0.146463
  0
VERTEX
  8
0
 10
201.638374
 20
67.227563
 42
-0.012914
  0
VERTEX
  8
0
 10
200.000124
 20
65.014233
 42
-0.014673
  0
VERTEX
  8
0
 10
198.377354
 20
63.057433
 42
-0.679538
  0
VERTEX
  8
0
 10
198.022236
 20
63.184900
 42
-0.093642
  0
VERTEX
  8
0
 10
198.256920
 20
64.693917
 42
-0.032226
  0
VERTEX
  8
0
 10
199.132040
 20
66.732699
 42
-0.026900
  0
VERTEX
  8
0
 10
200.198039
 20
68.578762
 42
-0.253569
  0
VERTEX
  8
0
 10
200.975249
 20
69.000000
 42
-0.071830
  0
VERTEX
  8
0
 10
201.365187
 20
68.943691
 42
-0.089102
  0
VERTEX
  8
0
 10
201.692448
 20
68.779687
 42
-0.103758
  0
VERTEX
  8
0
 10
201.906988
 20
68.535926
 42
-0.136995
  0
SEQEND
  0
POLYLINE
  8
0
 66
1
 70
1
  0
VERTEX
  8
0
 10
69.262798
 20
49.729840
 42
-0.009500
  0
VERTEX
  8
0
 10
71.436030
 20
48.144816
 42
-0.016163
  0
VERTEX
  8
0
 10
73.182631
 20
46.728158
 42
-0.010260
  0
VERTEX
  8
0
 10
74.509127
 20
45.530714
 42
-0.423195
  0
VERTEX
  8
0
 10
74.514470
 20
45.181137
 42
0.286457
  0
VERTEX
  8
0
 10
74.423926
 20
44.789897
 42
0.015971
  0
VERTEX
  8
0
 10
74.887371
 20
43.567875
 42
0.020658
  0
VERTEX
  8
0
 10
75.581136
 20
42.077769
 42
0.013262
  0
VERTEX
  8
0
 10
76.501672
 20
40.406935
 42
-0.003846
  0
VERTEX
  8
0
 10
78.557873
 20
36.835602
 42
-0.130271
  0
VERTEX
  8
0
 10
78.803575
 20
35.895443
 42
-0.436586
  0
VERTEX
  8
0
 10
78.377145
 20
35.502894
 42
-0.027419
  0
VERTEX
  8
0
 10
76.485593
 20
35.758003
 42
0.020484
  0
VERTEX
  8
0
 10
75.122004
 20
35.961191
 42
0.190812
  0
VERTEX
  8
0
 10
74.559542
 20
35.805445
 42
0.282791
  0
VERTEX
  8
0
 10
74.383102
 20
35.353738
 42
0.042206
  0
VERTEX
  8
0
 10
74.648318
 20
34.369331
 42
0.030227
  0
VERTEX
  8
0
 10
75.046669
 20
33.447681
 42
0.010464
  0
VERTEX
  8
0
 10
75.728203
 20
32.167866
 42
0.010352
  0
VERTEX
  8
0
 10
76.539839
 20
30.785667
 42
0.011846
  0
VERTEX
  8
0
 10
77.373655
 20
29.500000
 42
-0.001656
  0
VERTEX
  8
0
 10
78.736187
 20
27.490041
 42
-0.134376
  0
VERTEX
  8
0
 10
78.855801
 20
27.135366
 42
-0.634006
  0
VERTEX
  8
0
 10
78.717668
 20
27.060116
 42
-0.005428
  0
VERTEX
  8
0
 10
77.460930
 20
28.000000
 42
-0.033224
  0
VERTEX
  8
0
 10
69.913516
 20
34.611840
 42
-0.007105
  0
VERTEX
  8
0
 10
57.767575
 20
47.119053
 42
-0.002520
  0
VERTEX
  8
0
 10
45.076604
 20
60.701078
 42
-0.188811
  0
VERTEX
  8
0
 10
44.000000
 20
63.450451
 42
-0.565921
  0
VERTEX
  8
0
 10
44.651202
 20
63.841534
 42
-0.002100
  0
VERTEX
  8
0
 10
54.104413
 20
58.758655
 42
-0.007927
  0
VERTEX
  8
0
 10
63.035415
 20
53.723135
 42
-0.020478
  0
SEQEND
  0
POLYLINE
  8
0
 66
1
 70
1
  0
VERTEX
  8
0
 10
202.000000
 20
61.500000
 42
-0.062722
  0
VERTEX
  8
0
 10
201.927770
 20
60.926468
 42
-0.080880
  0
VERTEX
  8
0
 10
201.715469
 20
60.440625
 42
-0.098158
  0
VERTEX
  8
0
 10
201.400789
 20
60.115494
 42
-0.152681
  0
VERTEX
  8
0
 10
201.031385
 20
60.000000
 42
-0.184534
  0
VERTEX
  8
0
 10
200.710807
 20
60.122486
 42
-0.147206
  0
VERTEX
  8
0
 10
200.516384
 20
60.440625
 42
-0.100118
  0
VERTEX
  8
0
 10
200.488865
 20
60.925634
 42
-0.055937
  0
VERTEX
  8
0
 10
200.638374
 20
61.500000
 42
-0.021360
  0
VERTEX
  8
0
 10
200.887494
 20
62.074558
 42
-0.030395
  0
VERTEX
  8
0
 10
201.160341
 20
62.559375
 42
-0.030693
  0
VERTEX
  8
0
 10
201.420671
 20
62.912889
 42
-0.222225
  0
VERTEX
  8
0
 10
201.606989
 20
63.000000
 42
-0.289661
  0
VERTEX
  8
0
 10
201.758929
 20
62.903916
 42
-0.046727
  0
VERTEX
  8
0
 10
201.884553
 20
62.559375
 42
-0.039339
  0
VERTEX
  8
0
 10
201.971531
 20
62.074824
 42
-0.024748
  0
SEQEND
  0
POLYLINE
  8
0
 66
1
 70
1
  0
VERTEX
  8
0
 10
179.183333
 20
59.783333
 42
-0.034019
  0
VERTEX
  8
0
 10
178.693024
 20
59.355562
 42
-0.131573
  0
VERTEX
  8
0
 10
178.322581
 20
59.204271
 42
-0.290264
  0
VERTEX
  8
0
 10
178.093678
 20
59.311730
 42
-0.142677
  0
VERTEX
  8
0
 10
178.000000
 20
59.633333
 42
-0.094783
  0
VERTEX
  8
0
 10
178.175276
 20
60.549640
 42
-0.102202
  0
VERTEX
  8
0
 10
178.674729
 20
61.309147
 42
-0.145728
  0
VERTEX
  8
0
 10
179.299565
 20
61.647242
 42
-0.253202
  0
VERTEX
  8
0
 10
179.850000
 20
61.483333
 42
-0.212536
  0
VERTEX
  8
0
 10
179.959631
 20
61.197768
 42
-0.080535
  0
VERTEX
  8
0
 10
179.867292
 20
60.770833
 42
-0.061283
  0
VERTEX
  8
0
 10
179.598500
 20
60.274266
 42
-0.041736
  0
SEQEND
  0
POLYLINE
  8
0
 66
1
 70
1
  0
VERTEX
  8
0
 10
215.604167
 20
58.270833
 42
-0.198339
  0
VERTEX
  8
0
 10
214.941134
 20
57.995338
 42
-0.274516
  0
VERTEX
  8
0
 10
214.399603
 20
58.315272
 42
-0.160291
  0
VERTEX
  8
0
 10
214.239822
 20
59.176395
 42
-0.105175
  0
VERTEX
  8
0
 10
214.582949
 20
60.134215
 42
-0.024362
  0
VERTEX
  8
0
 10
215.012891
 20
60.759582
 42
-0.233206
  0
VERTEX
  8
0
 10
215.294341
 20
60.899578
 42
-0.286646
  0
VERTEX
  8
0
 10
215.536207
 20
60.749629
 42
-0.033951
  0
VERTEX
  8
0
 10
215.787251
 20
60.138246
 42
-0.052621
  0
VERTEX
  8
0
 10
215.903448
 20
59.610215
 42
-0.052345
  0
VERTEX
  8
0
 10
215.907167
 20
59.068604
 42
-0.057227
  0
VERTEX
  8
0
 10
215.805016
 20
58.594136
 42
-0.115259
  0
SEQEND
  0
POLYLINE
  8
0
 66
1
 70
1
  0
VERTEX
  8
0
 10
189.500000
 20
59.000000
 42
-0.082592
  0
VERTEX
  8
0
 10
189.656512
 20
58.617900
 42
-0.161196
  0
VERTEX
  8
0
 10
189.625400
 20
58.293750
 42
-0.182303
  0
VERTEX
  8
0
 10
189.413961
 20
58.078288
 42
-0.108972
  0
VERTEX
  8
0
 10
189.059017
 20
58.000000
 42
-0.093332
  0
VERTEX
  8
0
 10
188.654762
 20
58.076123
 42
-0.096420
  0
VERTEX
  8
0
 10
188.311086
 20
58.293750
 42
-0.099167
  0
VERTEX
  8
0
 10
188.081062
 20
58.618444
 42
-0.105053
  0
VERTEX
  8
0
 10
188.000000
 20
59.000000
 42
-0.042167
  0
VERTEX
  8
0
 10
188.032345
 20
59.382849
 42
-0.061769
  0
VERTEX
  8
0
 10
188.129539
 20
59.706250
 42
-0.081139
  0
VERTEX
  8
0
 10
188.272352
 20
59.925540
 42
-0.210953
  0
VERTEX
  8
0
 10
188.440983
 20
60.000000
 42
-0.151918
  0
VERTEX
  8
0
 10
188.651710
 20
59.934461
 42
-0.038439
  0
VERTEX
  8
0
 10
188.933975
 20
59.706250
 42
-0.035638
  0
VERTEX
  8
0
 10
189.231006
 20
59.382774
 42
-0.029505
  0
SEQEND
  0
POLYLINE
  8
0
 66
1
 70
1
  0
VERTEX
  8
0
 10
201.000000
 20
54.059017
 42
-0.033433
  0
VERTEX
  8
0
 10
200.921404
 20
52.884901
 42
-0.038601
  0
VERTEX
  8
0
 10
200.686706
 20
51.788322
 42
-0.042192
  0
VERTEX
  8
0
 10
200.344272
 20
50.911550
 42
-0.141060
  0
VERTEX
  8
0
 10
199.933469
 20
50.458881
 42
-0.109582
  0
VERTEX
  8
0
 10
198.916321
 20
50.104470
 42
-0.352616
  0
VERTEX
  8
0
 10
198.350729
 20
50.459872
 42
-0.166694
  0
VERTEX
  8
0
 10
198.349269
 20
51.488237
 42
-0.040639
  0
VERTEX
  8
0
 10
199.035314
 20
53.065984
 42
0.009785
  0
VERTEX
  8
0
 10
199.689497
 20
54.348028
 42
0.178301
  0
VERTEX
  8
0
 10
199.734265
 20
54.797094
 42
0.410615
  0
VERTEX
  8
0
 10
199.474540
 20
54.952083
 42
0.031306
  0
VERTEX
  8
0
 10
198.616334
 20
54.683015
 42
-0.046685
  0
VERTEX
  8
0
 10
197.996971
 20
54.509529
 42
-0.085792
  0
VERTEX
  8
0
 10
197.474798
 20
54.505018
 42
-0.135608
  0
VERTEX
  8
0
 10
197.132330
 20
54.662952
 42
-0.220766
  0
VERTEX
  8
0
 10
197.000000
 20
54.948051
 42
-0.190697
  0
VERTEX
  8
0
 10
197.246032
 20
55.569677
 42
-0.067967
  0
VERTEX
  8
0
 10
198.001119
 20
56.181952
 42
-0.058035
  0
VERTEX
  8
0
 10
199.064597
 20
56.669258
 42
-0.052260
  0
VERTEX
  8
0
 10
200.250000
 20
56.921053
 42
-0.315399
  0
VERTEX
  8
0
 10
200.539677
 20
56.760472
 42
-0.049362
  0
VERTEX
  8
0
 10
200.779687
 20
56.112895
 42
-0.039973
  0
VERTEX
  8
0
 10
200.945851
 20
55.180635
 42
-0.024125
  0
SEQEND
  0
POLYLINE
  8
0
 66
1
 70
1
  0
VERTEX
  8
0
 10
206.000000
 20
56.622445
 42
-0.172217
  0
VERTEX
  8
0
 10
205.925448
 20
56.412416
 42
-0.016008
  0
VERTEX
  8
0
 10
205.559375
 20
55.990110
 42
-0.019119
  0
VERTEX
  8
0
 10
205.074554
 20
55.504355
 42
-0.013852
  0
VERTEX
  8
0
 10
204.500000
 20
55.000000
 42
-0.020633
  0
VERTEX
  8
0
 10
203.689039
 20
54.381629
 42
-0.217533
  0
VERTEX
  8
0
 10
203.289310
 20
54.308142
 42
-0.304492
  0
VERTEX
  8
0
 10
203.057736
 20
54.565314
 42
-0.035496
  0
VERTEX
  8
0
 10
203.000000
 20
55.377555
 42
-0.091307
  0
VERTEX
  8
0
 10
203.114059
 20
55.996941
 42
-0.095788
  0
VERTEX
  8
0
 10
203.440625
 20
56.523407
 42
-0.099536
  0
VERTEX
  8
0
 10
203.927707
 20
56.875699
 42
-0.107348
  0
VERTEX
  8
0
 10
204.500000
 20
57.000000
 42
-0.023761
  0
VERTEX
  8
0
 10
205.074850
 20
56.972666
 42
-0.037907
  0
VERTEX
  8
0
 10
205.559375
 20
56.889093
 42
-0.044235
  0
VERTEX
  8
0
 10
205.905570
 20
56.768578
 42
-0.294983
  0
SEQEND
  0
POLYLINE
  8
0
 66
1
 70
1
  0
VERTEX
  8
0
 10
180.541119
 20
54.066531
 42
-0.064100
  0
VERTEX
  8
0
 10
180.210125
 20
53.658556
 42
-0.051744
  0
VERTEX
  8
0
 10
179.763210
 20
53.313294
 42
-0.053409
  0
VERTEX
  8
0
 10
179.274058
 20
53.078415
 42
-0.085443
  0
VERTEX
  8
0
 10
178.818538
 20
53.000000
 42
-0.176123
  0
VERTEX
  8
0
 10
178.485592
 20
53.121034
 42
-0.256649
  0
VERTEX
  8
0
 10
178.374856
 20
53.405689
 42
-0.110288
  0
VERTEX
  8
0
 10
178.548584
 20
53.879936
 42
-0.030483
  0
VERTEX
  8
0
 10
179.020056
 20
54.524166
 42
-0.055352
  0
VERTEX
  8
0
 10
179.961207
 20
55.432181
 42
-0.241841
  0
VERTEX
  8
0
 10
180.698517
 20
55.568117
 42
-0.400869
  0
VERTEX
  8
0
 10
180.972110
 20
55.085853
 42
-0.076926
  0
SEQEND
  0
POLYLINE
  8
0
 66
1
 70
1
  0
VERTEX
  8
0
 10
185.997327
 20
51.995005
 42
-0.040117
  0
VERTEX
  8
0
 10
185.036901
 20
50.501830
 42
-0.083522
  0
VERTEX
  8
0
 10
184.029538
 20
49.558922
 42
-0.247278
  0
VERTEX
  8
0
 10
183.348545
 20
49.489994
 42
-0.305735
  0
VERTEX
  8
0
 10
183.000000
 20
50.006724
 42
-0.092460
  0
VERTEX
  8
0
 10
183.291645
 20
51.570387
 42
-0.057913
  0
VERTEX
  8
0
 10
184.161122
 20
53.222348
 42
-0.065401
  0
VERTEX
  8
0
 10
185.218699
 20
54.402203
 42
-0.326666
  0
VERTEX
  8
0
 10
186.052878
 20
54.467320
 42
-0.153671
  0
VERTEX
  8
0
 10
186.378464
 20
54.090255
 42
-0.107859
  0
VERTEX
  8
0
 10
186.486473
 20
53.535883
 42
-0.077383
  0
VERTEX
  8
0
 10
186.359324
 20
52.824734
 42
-0.040025
  0
SEQEND
  0
POLYLINE
  8
0
 66
1
 70
1
  0
VERTEX
  8
0
 10
213.000000
 20
51.000000
 42
-0.011967
  0
VERTEX
  8
0
 10
211.881313
 20
48.472119
 42
-0.519223
  0
VERTEX
  8
0
 10
211.391753
 20
48.386864
 42
-0.276456
  0
VERTEX
  8
0
 10
211.208941
 20
49.115073
 42
-0.010488
  0
VERTEX
  8
0
 10
212.111111
 20
51.888889
 42
-0.018350
  0
VERTEX
  8
0
 10
212.577880
 20
53.084780
 42
-0.034448
  0
VERTEX
  8
0
 10
213.054653
 20
54.005763
 42
-0.045812
  0
VERTEX
  8
0
 10
213.477185
 20
54.575503
 42
-0.430629
  0
VERTEX
  8
0
 10
213.750222
 20
54.583111
 42
-0.225330
  0
VERTEX
  8
0
 10
213.882613
 20
54.211380
 42
-0.026326
  0
VERTEX
  8
0
 10
213.743924
 20
53.316492
 42
-0.027473
  0
VERTEX
  8
0
 10
213.448416
 20
52.211561
 42
-0.019112
  0
SEQEND
  0
POLYLINE
  8
0
 66
1
 70
1
  0
VERTEX
  8
0
 10
99.000000
 20
48.642204
 42
-0.068313
  0
VERTEX
  8
0
 10
98.832339
 20
47.420772
 42
-0.609279
  0
VERTEX
  8
0
 10
98.424928
 20
47.336682
 42
-0.090472
  0
VERTEX
  8
0
 10
97.799305
 20
48.483360
 42
-0.012260
  0
VERTEX
  8
0
 10
97.001372
 20
51.114189
 42
-0.002794
  0
VERTEX
  8
0
 10
96.422161
 20
53.253767
 42
-0.153931
  0
VERTEX
  8
0
 10
96.441372
 20
53.665041
 42
-0.581636
  0
VERTEX
  8
0
 10
96.639301
 20
53.698008
 42
-0.008701
  0
VERTEX
  8
0
 10
97.532227
 20
52.558870
 42
-0.041601
  0
VERTEX
  8
0
 10
98.094219
 20
51.670923
 42
-0.030650
  0
VERTEX
  8
0
 10
98.568842
 20
50.607634
 42
-0.031259
  0
VERTEX
  8
0
 10
98.894794
 20
49.539005
 42
-0.058456
  0
SEQEND
  0
POLYLINE
  8
0
 66
1
 70
1
  0
VERTEX
  8
0
 10
80.777007
 20
40.960652
 42
-0.064662
  0
VERTEX
  8
0
 10
82.733021
 20
38.655123
 42
-0.040280
  0
VERTEX
  8
0
 10
84.415876
 20
35.529546
 42
-0.044874
  0
VERTEX
  8
0
 10
85.333972
 20
32.793059
 42
-0.484539
  0
VERTEX
  8
0
 10
84.707741
 20
32.000000
 42
-0.230560
  0
VERTEX
  8
0
 10
84.384773
 20
32.157288
 42
-0.003925
  0
VERTEX
  8
0
 10
83.147818
 20
33.762500
 42
-0.009138
  0
VERTEX
  8
0
 10
81.733737
 20
35.700232
 42
-0.005844
  0
VERTEX
  8
0
 10
80.158836
 20
38.000000
 42
-0.004249
  0
VERTEX
  8
0
 10
77.162587
 20
42.570553
 42
-0.196889
  0
VERTEX
  8
0
 10
76.963252
 20
43.647833
 42
-0.569873
  0
VERTEX
  8
0
 10
77.514966
 20
43.836200
 42
-0.007788
  0
SEQEND
  0
POLYLINE
  8
0
 66
1
 70
1
  0
VERTEX
  8
0
 10
92.935849
 20
37.500000
 42
-0.087262
  0
VERTEX
  8
0
 10
92.805277
 20
36.798098
 42
-0.505455
  0
VERTEX
  8
0
 10
92.498604
 20
36.710979
 42
-0.093630
  0
VERTEX
  8
0
 10
91.963864
 20
37.314722
 42
-0.009311
  0
VERTEX
  8
0
 10
91.000000
 20
39.000000
 42
-0.012226
  0
VERTEX
  8
0
 10
89.456354
 20
41.990913
 42
-0.113484
  0
VERTEX
  8
0
 10
89.132543
 20
43.399216
 42
-0.663117
  0
VERTEX
  8
0
 10
89.575669
 20
43.586417
 42
-0.033920
  0
VERTEX
  8
0
 10
91.000000
 20
42.000000
 42
-0.034494
  0
VERTEX
  8
0
 10
91.747009
 20
40.895915
 42
-0.029914
  0
VERTEX
  8
0
 10
92.375311
 20
39.646875
 42
-0.031070
  0
VERTEX
  8
0
 10
92.806682
 20
38.443267
 42
-0.073094
  0
SEQEND
  0
POLYLINE
  8
0
 66
1
 70
1
  0
VERTEX
  8
0
 10
226.500000
 20
43.000000
 42
-0.064269
  0
VERTEX
  8
0
 10
226.189439
 20
42.617474
 42
-0.051777
  0
VERTEX
  8
0
 10
225.769763
 20
42.293750
 42
-0.053414
  0
VERTEX
  8
0
 10
225.310186
 20
42.073533
 42
-0.085235
  0
VERTEX
  8
0
 10
224.881966
 20
42.000000
 42
-0.117858
  0
VERTEX
  8
0
 10
224.550471
 20
42.079239
 42
-0.186277
  0
VERTEX
  8
0
 10
224.357263
 20
42.293750
 42
-0.154201
  0
VERTEX
  8
0
 10
224.338175
 20
42.617617
 42
-0.076764
  0
VERTEX
  8
0
 10
224.500000
 20
43.000000
 42
-0.064269
  0
VERTEX
  8
0
 10
224.810561
 20
43.382526
 42
-0.051777
  0
VERTEX
  8
0
 10
225.230237
 20
43.706250
 42
-0.053414
  0
VERTEX
  8
0
 10
225.689814
 20
43.926467
 42
-0.085235
  0
VERTEX
  8
0
 10
226.118034
 20
44.000000
 42
-0.117858
  0
VERTEX
  8
0
 10
226.449529
 20
43.920761
 42
-0.186277
  0
VERTEX
  8
0
 10
226.642737
 20
43.706250
 42
-0.154201
  0
VERTEX
  8
0
 10
226.661825
 20
43.382383
 42
-0.076764
  0
SEQEND
  0
POLYLINE
  8
0
 66
1
 70
1
  0
VERTEX
  8
0
 10
81.547749
 20
30.353977
 42
-0.023907
  0
VERTEX
  8
0
 10
82.910821
 20
28.734380
 42
-0.048392
  0
VERTEX
  8
0
 10
83.788242
 20
27.319489
 42
-0.097241
  0
VERTEX
  8
0
 10
84.044404
 20
26.373749
 42
-0.435058
  0
VERTEX
  8
0
 10
83.696167
 20
26.000000
 42
-0.189406
  0
VERTEX
  8
0
 10
83.498161
 20
26.077798
 42
-0.002347
  0
VERTEX
  8
0
 10
82.485087
 20
27.028125
 42
-0.006534
  0
VERTEX
  8
0
 10
81.322216
 20
28.158466
 42
-0.004184
  0
VERTEX
  8
0
 10
80.000000
 20
29.500000
 42
-0.017269
  0
VERTEX
  8
0
 10
78.783942
 20
30.844594
 42
-0.037563
  0
VERTEX
  8
0
 10
77.969565
 20
31.971875
 42
-0.071077
  0
VERTEX
  8
0
 10
77.642808
 20
32.726536
 42
-0.494669
  0
VERTEX
  8
0
 10
77.851582
 20
33.000000
 42
-0.128155
  0
VERTEX
  8
0
 10
78.486613
 20
32.834517
 42
-0.027873
  0
VERTEX
  8
0
 10
79.450446
 20
32.222731
 42
-0.027322
  0
VERTEX
  8
0
 10
80.517640
 20
31.366881
 42
-0.023209
  0
SEQEND
  0
POLYLINE
  8
0
 66
1
 70
1
  0
VERTEX
  8
0
 10
125.358161
 20
214.725208
 42
0.088788
  0
VERTEX
  8
0
 10
123.109477
 20
213.578797
 42
0.068946
  0
VERTEX
  8
0
 10
121.165545
 20
211.631536
 42
0.083868
  0
VERTEX
  8
0
 10
120.115667
 20
209.612565
 42
0.290800
  0
VERTEX
  8
0
 10
120.468731
 20
208.251507
 42
0.126026
  0
VERTEX
  8
0
 10
120.810419
 20
208.064724
 42
0.158453
  0
VERTEX
  8
0
 10
121.168456
 20
208.087943
 42
0.133483
  0
VERTEX
  8
0
 10
121.489107
 20
208.328907
 42
0.079649
  0
VERTEX
  8
0
 10
121.720238
 20
208.750000
 42
-0.146102
  0
VERTEX
  8
0
 10
122.071914
 20
209.229129
 42
-0.061638
  0
VERTEX
  8
0
 10
122.769903
 20
209.632812
 42
-0.053714
  0
VERTEX
  8
0
 10
123.677202
 20
209.907424
 42
-0.046679
  0
VERTEX
  8
0
 10
124.666667
 20
210.000000
 42
0.038184
  0
VERTEX
  8
0
 10
125.692670
 20
210.078468
 42
0.098322
  0
VERTEX
  8
0
 10
126.388254
 20
210.331332
 42
0.167831
  0
VERTEX
  8
0
 10
126.723570
 20
210.734689
 42
0.176055
  0
VERTEX
  8
0
 10
126.729984
 20
211.250000
 42
-0.152823
  0
VERTEX
  8
0
 10
126.711593
 20
211.810612
 42
-0.078066
  0
VERTEX
  8
0
 10
127.005684
 20
212.458137
 42
-0.065828
  0
VERTEX
  8
0
 10
127.553669
 20
213.091049
 42
-0.054443
  0
VERTEX
  8
0
 10
128.281750
 20
213.607487
 42
0.087227
  0
VERTEX
  8
0
 10
129.437947
 20
214.546642
 42
0.520684
  0
VERTEX
  8
0
 10
129.280327
 20
215.175687
 42
0.135834
  0
VERTEX
  8
0
 10
127.824312
 20
215.314646
 42
0.029882
  0
SEQEND
  0
POLYLINE
  8
0
 66
1
 70
1
  0
VERTEX
  8
0
 10
78.140571
 20
213.000000
 42
0.041790
  0
VERTEX
  8
0
 10
78.200514
 20
212.284048
 42
0.018434
  0
VERTEX
  8
0
 10
78.393028
 20
211.353125
 42
0.018093
  0
VERTEX
  8
0
 10
78.670913
 20
210.375609
 42
0.023180
  0
VERTEX
  8
0
 10
79.000000
 20
209.500000
 42
0.015364
  0
VERTEX
  8
0
 10
79.374931
 20
208.696484
 42
0.145150
  0
VERTEX
  8
0
 10
79.632858
 20
208.422706
 42
0.507108
  0
VERTEX
  8
0
 10
79.803802
 20
208.497353
 42
0.055166
  0
VERTEX
  8
0
 10
79.859429
 20
209.000000
 42
0.041790
  0
VERTEX
  8
0
 10
79.799486
 20
209.715952
 42
0.018434
  0
VERTEX
  8
0
 10
79.606972
 20
210.646875
 42
0.018093
  0
VERTEX
  8
0
 10
79.329087
 20
211.624391
 42
0.023180
  0
VERTEX
  8
0
 10
79.000000
 20
212.500000
 42
0.015364
  0
VERTEX
  8
0
 10
78.625069
 20
213.303516
 42
0.145150
  0
VERTEX
  8
0
 10
78.367142
 20
213.577294
 42
0.507108
  0
VERTEX
  8
0
 10
78.196198
 20
213.502647
 42
0.055166
  0
SEQEND
  0
POLYLINE
  8
0
 66
1
 70
1
  0
VERTEX
  8
0
 10
146.000000
 20
211.940983
 42
-0.093263
  0
VERTEX
  8
0
 10
145.931884
 20
211.578979
 42
-0.171646
  0
VERTEX
  8
0
 10
145.738382
 20
211.354741
 42
-0.173988
  0
VERTEX
  8
0
 10
145.449105
 20
211.303794
 42
-0.096139
  0
VERTEX
  8
0
 10
145.109384
 20
211.432397
 42
0.346610
  0
VERTEX
  8
0
 10
144.184167
 20
211.326716
 42
0.038170
  0
VERTEX
  8
0
 10
142.689823
 20
209.600275
 42
0.040771
  0
VERTEX
  8
0
 10
141.394997
 20
207.514943
 42
0.119099
  0
VERTEX
  8
0
 10
141.000000
 20
205.880196
 42
0.211047
  0
VERTEX
  8
0
 10
141.152524
 20
205.534938
 42
0.254405
  0
VERTEX
  8
0
 10
141.492431
 20
205.451549
 42
0.094277
  0
VERTEX
  8
0
 10
142.068391
 20
205.726691
 42
0.025483
  0
VERTEX
  8
0
 10
142.855382
 20
206.369123
 42
-0.055678
  0
VERTEX
  8
0
 10
143.695941
 20
206.974706
 42
-0.055594
  0
VERTEX
  8
0
 10
144.649825
 20
207.380259
 42
-0.060367
  0
VERTEX
  8
0
 10
145.581990
 20
207.540603
 42
-0.104418
  0
VERTEX
  8
0
 10
146.355382
 20
207.417121
 42
0.062282
  0
VERTEX
  8
0
 10
147.098495
 20
207.233690
 42
0.180332
  0
VERTEX
  8
0
 10
147.604942
 20
207.357211
 42
0.182084
  0
VERTEX
  8
0
 10
147.903873
 20
207.780827
 42
0.063660
  0
VERTEX
  8
0
 10
148.000000
 20
208.532769
 42
-0.082567
  0
VERTEX
  8
0
 10
148.127329
 20
209.298580
 42
-0.046997
  0
VERTEX
  8
0
 10
148.514062
 20
210.156637
 42
-0.045317
  0
VERTEX
  8
0
 10
149.080424
 20
210.970542
 42
-0.055802
  0
VERTEX
  8
0
 10
149.750000
 20
211.607954
 42
0.015105
  0
VERTEX
  8
0
 10
150.748045
 20
212.414231
 42
0.392187
  0
VERTEX
  8
0
 10
150.784074
 20
212.730105
 42
0.227511
  0
VERTEX
  8
0
 10
150.421223
 20
212.923390
 42
0.007620
  0
VERTEX
  8
0
 10
148.750000
 20
212.968197
 42
0.036683
  0
VERTEX
  8
0
 10
147.696791
 20
212.903058
 42
0.055652
  0
VERTEX
  8
0
 10
146.807813
 20
212.679572
 42
0.073360
  0
VERTEX
  8
0
 10
146.199965
 20
212.344385
 42
0.234248
  0
SEQEND
  0
POLYLINE
  8
0
 66
1
 70
1
  0
VERTEX
  8
0
 10
130.692798
 20
207.889876
 42
-0.063613
  0
VERTEX
  8
0
 10
131.142484
 20
207.170988
 42
-0.085563
  0
VERTEX
  8
0
 10
131.340440
 20
206.430478
 42
-0.088993
  0
VERTEX
  8
0
 10
131.275749
 20
205.688892
 42
-0.074995
  0
VERTEX
  8
0
 10
130.958110
 20
204.966462
 42
0.035820
  0
VERTEX
  8
0
 10
130.601802
 20
204.302199
 42
0.025877
  0
VERTEX
  8
0
 10
130.298576
 20
203.518058
 42
0.026306
  0
VERTEX
  8
0
 10
130.087362
 20
202.738675
 42
0.050329
  0
VERTEX
  8
0
 10
130.015313
 20
202.095012
 42
0.083545
  0
VERTEX
  8
0
 10
130.108695
 20
201.500518
 42
0.366133
  0
VERTEX
  8
0
 10
130.389758
 20
201.329609
 42
0.131072
  0
VERTEX
  8
0
 10
130.900034
 20
201.555203
 42
0.014661
  0
VERTEX
  8
0
 10
131.874841
 20
202.386732
 42
-0.038185
  0
VERTEX
  8
0
 10
132.684873
 20
203.014403
 42
-0.040236
  0
VERTEX
  8
0
 10
133.567360
 20
203.499339
 42
-0.043694
  0
VERTEX
  8
0
 10
134.391453
 20
203.785952
 42
-0.119542
  0
VERTEX
  8
0
 10
135.003853
 20
203.791720
 42
0.182047
  0
VERTEX
  8
0
 10
135.497429
 20
203.857059
 42
0.110200
  0
VERTEX
  8
0
 10
135.949498
 20
204.246630
 42
0.082506
  0
VERTEX
  8
0
 10
136.291262
 20
204.910592
 42
0.055147
  0
VERTEX
  8
0
 10
136.461893
 20
205.750000
 42
0.046049
  0
VERTEX
  8
0
 10
136.460451
 20
206.612361
 42
0.069282
  0
VERTEX
  8
0
 10
136.287779
 20
207.343074
 42
0.093695
  0
VERTEX
  8
0
 10
135.980469
 20
207.836264
 42
0.206384
  0
VERTEX
  8
0
 10
135.582881
 20
208.013655
 42
-0.034419
  0
VERTEX
  8
0
 10
135.005414
 20
208.060777
 42
-0.008889
  0
VERTEX
  8
0
 10
134.083721
 20
208.217103
 42
-0.009002
  0
VERTEX
  8
0
 10
133.036557
 20
208.433508
 42
-0.009057
  0
VERTEX
  8
0
 10
132.000000
 20
208.687070
 42
0.009649
  0
VERTEX
  8
0
 10
130.603574
 20
209.026911
 42
0.194150
  0
VERTEX
  8
0
 10
130.180381
 20
208.956835
 42
0.424744
  0
VERTEX
  8
0
 10
130.116755
 20
208.672117
 42
0.025653
  0
SEQEND
  0
ENDSEC
  0
EOF
