  0
SECTION
  2
HEADER
  9
$ACADVER
  1
AC1014
  9
$HANDSEED
  5
FFFF
  9
$MEASUREMENT
 70
     1
  0
ENDSEC
  0
SECTION
  2
TABLES
  0
TABLE
  2
VPORT
  5
8
330
0
100
AcDbSymbolTable
 70
     4
  0
VPORT
  5
2E
330
8
100
AcDbSymbolTableRecord
100
AcDbViewportTableRecord
  2
*ACTIVE
 70
     0
 10
0.0
 20
0.0
 11
1.0
 21
1.0
 12
210.0
 22
148.5
 13
0.0
 23
0.0
 14
10.0
 24
10.0
 15
10.0
 25
10.0
 16
0.0
 26
0.0
 36
1.0
 17
0.0
 27
0.0
 37
0.0
 40
341.0
 41
1.24
 42
50.0
 43
0.0
 44
0.0
 50
0.0
 51
0.0
 71
     0
 72
   100
 73
     1
 74
     3
 75
     0
 76
     0
 77
     0
 78
     0
  0
ENDTAB
  0
TABLE
  2
LTYPE
  5
5
330
0
100
AcDbSymbolTable
 70
     1
  0
LTYPE
  5
14
330
5
100
AcDbSymbolTableRecord
100
AcDbLinetypeTableRecord
  2
BYBLOCK
 70
     0
  3

 72
    65
 73
     0
 40
0.0
  0
LTYPE
  5
15
330
5
100
AcDbSymbolTableRecord
100
AcDbLinetypeTableRecord
  2
BYLAYER
 70
     0
  3

 72
    65
 73
     0
 40
0.0
  0
LTYPE
  5
16
330
5
100
AcDbSymbolTableRecord
100
AcDbLinetypeTableRecord
  2
CONTINUOUS
 70
     0
  3
Solid line
 72
    65
 73
     0
 40
0.0
  0
ENDTAB
  0
TABLE
  2
LAYER
  5
2
100
AcDbSymbolTable
 70
2
  0
LAYER
  5
50
100
AcDbSymbolTableRecord
100
AcDbLayerTableRecord
  2
0
 70
0
  6
CONTINUOUS
  0
LAYER
  5
51
100
AcDbSymbolTableRecord
100
AcDbLayerTableRecord
  2
Layer_1
 70
0
  6
CONTINUOUS
  0
ENDTAB
  0
TABLE
  2
STYLE
  5
3
330
0
100
AcDbSymbolTable
 70
     1
  0
STYLE
  5
11
330
3
100
AcDbSymbolTableRecord
100
AcDbTextStyleTableRecord
  2
STANDARD
 70
     0
 40
0.0
 41
1.0
 50
0.0
 71
     0
 42
2.5
  3
txt
  4

  0
ENDTAB
  0
TABLE
  2
VIEW
  5
6
330
0
100
AcDbSymbolTable
 70
     0
  0
ENDTAB
  0
TABLE
  2
UCS
  5
7
330
0
100
AcDbSymbolTable
 70
     0
  0
ENDTAB
  0
TABLE
  2
APPID
  5
9
330
0
100
AcDbSymbolTable
 70
     2
  0
APPID
  5
12
330
9
100
AcDbSymbolTableRecord
100
AcDbRegAppTableRecord
  2
ACAD
 70
     0
  0
ENDTAB
  0
TABLE
  2
DIMSTYLE
  5
A
330
0
100
AcDbSymbolTable
 70
     1
  0
DIMSTYLE
105
27
330
A
100
AcDbSymbolTableRecord
100
AcDbDimStyleTableRecord
  2
ISO-25
 70
     0
  3

  4

  5

  6

  7

 40
1.0
 41
2.5
 42
0.625
 43
3.75
 44
1.25
 45
0.0
 46
0.0
 47
0.0
 48
0.0
140
2.5
141
2.5
142
0.0
143
0.03937007874016
144
1.0
145
0.0
146
1.0
147
0.625
 71
     0
 72
     0
 73
     0
 74
     0
 75
     0
 76
     0
 77
     1
 78
     8
170
     0
171
     3
172
     1
173
     0
174
     0
175
     0
176
     0
177
     0
178
     0
270
     2
271
     2
272
     2
273
     2
274
     3
340
11
275
     0
280
     0
281
     0
282
     0
283
     0
284
     8
285
     0
286
     0
287
     3
288
     0
  0
ENDTAB
  0
TABLE
  2
BLOCK_RECORD
  5
1
330
0
100
AcDbSymbolTable
 70
     1
  0
BLOCK_RECORD
  5
1F
330
1
100
AcDbSymbolTableRecord
100
AcDbBlockTableRecord
  2
*MODEL_SPACE
  0
BLOCK_RECORD
  5
1B
330
1
100
AcDbSymbolTableRecord
100
AcDbBlockTableRecord
  2
*PAPER_SPACE
  0
ENDTAB
  0
ENDSEC
  0
SECTION
  2
BLOCKS
  0
BLOCK
  5
20
330
1F
100
AcDbEntity
  8
0
100
AcDbBlockBegin
  2
*MODEL_SPACE
 70
     0
 10
0.0
 20
0.0
 30
0.0
  3
*MODEL_SPACE
  1

  0
ENDBLK
  5
21
330
1F
100
AcDbEntity
  8
0
100
AcDbBlockEnd
  0
BLOCK
  5
1C
330
1B
100
AcDbEntity
 67
     1
  8
0
100
AcDbBlockBegin
  2
*PAPER_SPACE
  1

  0
ENDBLK
  5
1D
330
1B
100
AcDbEntity
 67
     1
  8
0
100
AcDbBlockEnd
  0
ENDSEC
  0
SECTION
  2
ENTITIES
  0
SPLINE
  5
100
100
AcDbEntity
  8
Layer_1
 62
1
100
AcDbSpline
 70
8
 71
3
 72
8
 73
4
 74
0
 40
0
 40
0
 40
0
 40
0
 40
1
 40
1
 40
1
 40
1
 10
69.369717
 20
250.289034
 30
0.0
 10
69.369717
 20
250.289034
 30
0.0
 10
72.409889
 20
251.758867
 30
0.0
 10
75.209763
 20
252.070027
 30
0.0
  0
SPLINE
  5
101
100
AcDbEntity
  8
Layer_1
 62
1
100
AcDbSpline
 70
8
 71
3
 72
8
 73
4
 74
0
 40
0
 40
0
 40
0
 40
0
 40
1
 40
1
 40
1
 40
1
 10
75.209763
 20
252.070027
 30
0.0
 10
78.009644
 20
252.381187
 30
0.0
 10
82.337380
 20
252.129377
 30
0.0
 10
85.279067
 20
252.683674
 30
0.0
  0
SPLINE
  5
102
100
AcDbEntity
  8
Layer_1
 62
1
100
AcDbSpline
 70
8
 71
3
 72
8
 73
4
 74
0
 40
0
 40
0
 40
0
 40
0
 40
1
 40
1
 40
1
 40
1
 10
85.279067
 20
252.683674
 30
0.0
 10
88.222230
 20
253.237138
 30
0.0
 10
91.702537
 20
254.341227
 30
0.0
 10
94.695535
 20
255.729436
 30
0.0
  0
SPLINE
  5
103
100
AcDbEntity
  8
Layer_1
 62
1
100
AcDbSpline
 70
8
 71
3
 72
8
 73
4
 74
0
 40
0
 40
0
 40
0
 40
0
 40
1
 40
1
 40
1
 40
1
 10
94.695535
 20
255.729436
 30
0.0
 10
97.687697
 20
257.118168
 30
0.0
 10
100.643030
 20
257.883154
 30
0.0
 10
101.174250
 20
256.921544
 30
0.0
  0
SPLINE
  5
104
100
AcDbEntity
  8
Layer_1
 62
1
100
AcDbSpline
 70
8
 71
3
 72
8
 73
4
 74
0
 40
0
 40
0
 40
0
 40
0
 40
1
 40
1
 40
1
 40
1
 10
101.174250
 20
256.921544
 30
0.0
 10
101.174250
 20
256.921544
 30
0.0
 10
95.472057
 20
249.765198
 30
0.0
 10
92.959986
 20
241.716979
 30
0.0
  0
SPLINE
  5
105
100
AcDbEntity
  8
Layer_1
 62
1
100
AcDbSpline
 70
8
 71
3
 72
8
 73
4
 74
0
 40
0
 40
0
 40
0
 40
0
 40
1
 40
1
 40
1
 40
1
 10
92.959986
 20
241.716979
 30
0.0
 10
92.959986
 20
241.716979
 30
0.0
 10
104.531900
 20
239.291378
 30
0.0
 10
113.061770
 20
247.180133
 30
0.0
  0
SPLINE
  5
106
100
AcDbEntity
  8
Layer_1
 62
1
100
AcDbSpline
 70
8
 71
3
 72
8
 73
4
 74
0
 40
0
 40
0
 40
0
 40
0
 40
1
 40
1
 40
1
 40
1
 10
113.061770
 20
247.180133
 30
0.0
 10
113.061770
 20
247.180133
 30
0.0
 10
113.329670
 20
247.454648
 30
0.0
 10
114.013390
 20
246.191579
 30
0.0
  0
SPLINE
  5
107
100
AcDbEntity
  8
Layer_1
 62
1
100
AcDbSpline
 70
8
 71
3
 72
8
 73
4
 74
0
 40
0
 40
0
 40
0
 40
0
 40
1
 40
1
 40
1
 40
1
 10
114.013390
 20
246.191579
 30
0.0
 10
114.694860
 20
244.930265
 30
0.0
 10
121.518650
 20
230.249166
 30
0.0
 10
122.231110
 20
215.565115
 30
0.0
  0
SPLINE
  5
108
100
AcDbEntity
  8
Layer_1
 62
1
100
AcDbSpline
 70
8
 71
3
 72
8
 73
4
 74
0
 40
0
 40
0
 40
0
 40
0
 40
1
 40
1
 40
1
 40
1
 10
122.231110
 20
215.565115
 30
0.0
 10
122.939420
 20
200.882934
 30
0.0
 10
122.644880
 20
190.461340
 30
0.0
 10
116.385410
 20
171.307050
 30
0.0
  0
SPLINE
  5
109
100
AcDbEntity
  8
Layer_1
 62
1
100
AcDbSpline
 70
8
 71
3
 72
8
 73
4
 74
0
 40
0
 40
0
 40
0
 40
0
 40
1
 40
1
 40
1
 40
1
 10
116.385410
 20
171.307050
 30
0.0
 10
116.385410
 20
171.307050
 30
0.0
 10
108.769330
 20
152.078040
 30
0.0
 10
107.524860
 20
147.509360
 30
0.0
  0
SPLINE
  5
10a
100
AcDbEntity
  8
Layer_1
 62
1
100
AcDbSpline
 70
8
 71
3
 72
8
 73
4
 74
0
 40
0
 40
0
 40
0
 40
0
 40
1
 40
1
 40
1
 40
1
 10
107.524860
 20
147.509360
 30
0.0
 10
106.277660
 20
142.937980
 30
0.0
 10
105.804340
 20
139.323550
 30
0.0
 10
108.335200
 20
131.685570
 30
0.0
  0
SPLINE
  5
10b
100
AcDbEntity
  8
Layer_1
 62
1
100
AcDbSpline
 70
8
 71
3
 72
8
 73
4
 74
0
 40
0
 40
0
 40
0
 40
0
 40
1
 40
1
 40
1
 40
1
 10
108.335200
 20
131.685570
 30
0.0
 10
108.335200
 20
131.685570
 30
0.0
 10
107.860620
 20
130.123990
 30
0.0
 10
105.398800
 20
127.777290
 30
0.0
  0
SPLINE
  5
10c
100
AcDbEntity
  8
Layer_1
 62
1
100
AcDbSpline
 70
8
 71
3
 72
8
 73
4
 74
0
 40
0
 40
0
 40
0
 40
0
 40
1
 40
1
 40
1
 40
1
 10
105.398800
 20
127.777290
 30
0.0
 10
102.939280
 20
125.429460
 30
0.0
 10
102.174790
 20
123.930250
 30
0.0
 10
100.673960
 20
120.050070
 30
0.0
  0
SPLINE
  5
10d
100
AcDbEntity
  8
Layer_1
 62
1
100
AcDbSpline
 70
8
 71
3
 72
8
 73
4
 74
0
 40
0
 40
0
 40
0
 40
0
 40
1
 40
1
 40
1
 40
1
 10
100.673960
 20
120.050070
 30
0.0
 10
99.172303
 20
116.167260
 30
0.0
 10
98.544702
 20
113.403730
 30
0.0
 10
94.635869
 20
108.761570
 30
0.0
  0
SPLINE
  5
10e
100
AcDbEntity
  8
Layer_1
 62
1
100
AcDbSpline
 70
8
 71
3
 72
8
 73
4
 74
0
 40
0
 40
0
 40
0
 40
0
 40
1
 40
1
 40
1
 40
1
 10
94.635869
 20
108.761570
 30
0.0
 10
90.731362
 20
104.122990
 30
0.0
 10
87.087240
 20
101.618340
 30
0.0
 10
86.119097
 20
101.083390
 30
0.0
  0
SPLINE
  5
10f
100
AcDbEntity
  8
Layer_1
 62
1
100
AcDbSpline
 70
8
 71
3
 72
8
 73
4
 74
0
 40
0
 40
0
 40
0
 40
0
 40
1
 40
1
 40
1
 40
1
 10
86.119097
 20
101.083390
 30
0.0
 10
85.254921
 20
100.723360
 30
0.0
 10
90.803313
 20
99.757700
 30
0.0
 10
93.219018
 20
99.970990
 30
0.0
  0
SPLINE
  5
110
100
AcDbEntity
  8
Layer_1
 62
1
100
AcDbSpline
 70
8
 71
3
 72
8
 73
4
 74
0
 40
0
 40
0
 40
0
 40
0
 40
1
 40
1
 40
1
 40
1
 10
93.219018
 20
99.970990
 30
0.0
 10
95.633783
 20
100.182660
 30
0.0
 10
100.686550
 20
100.801840
 30
0.0
 10
103.774440
 20
105.161540
 30
0.0
  0
SPLINE
  5
111
100
AcDbEntity
  8
Layer_1
 62
1
100
AcDbSpline
 70
8
 71
3
 72
8
 73
4
 74
0
 40
0
 40
0
 40
0
 40
0
 40
1
 40
1
 40
1
 40
1
 10
103.774440
 20
105.161540
 30
0.0
 10
106.865600
 20
109.521530
 30
0.0
 10
106.847310
 20
113.420640
 30
0.0
 10
107.442570
 20
115.560920
 30
0.0
  0
SPLINE
  5
112
100
AcDbEntity
  8
Layer_1
 62
1
100
AcDbSpline
 70
8
 71
3
 72
8
 73
4
 74
0
 40
0
 40
0
 40
0
 40
0
 40
1
 40
1
 40
1
 40
1
 10
107.442570
 20
115.560920
 30
0.0
 10
108.034300
 20
117.702230
 30
0.0
 10
108.406150
 20
119.647630
 30
0.0
 10
110.630920
 20
121.591280
 30
0.0
  0
SPLINE
  5
113
100
AcDbEntity
  8
Layer_1
 62
1
100
AcDbSpline
 70
8
 71
3
 72
8
 73
4
 74
0
 40
0
 40
0
 40
0
 40
0
 40
1
 40
1
 40
1
 40
1
 10
110.630920
 20
121.591280
 30
0.0
 10
112.396460
 20
123.135370
 30
0.0
 10
112.694380
 20
123.632420
 30
0.0
 10
113.353430
 20
122.704820
 30
0.0
  0
SPLINE
  5
114
100
AcDbEntity
  8
Layer_1
 62
1
100
AcDbSpline
 70
8
 71
3
 72
8
 73
4
 74
0
 40
0
 40
0
 40
0
 40
0
 40
1
 40
1
 40
1
 40
1
 10
113.353430
 20
122.704820
 30
0.0
 10
114.014580
 20
121.778950
 30
0.0
 10
117.358450
 20
118.533580
 30
0.0
 10
121.683680
 20
115.470650
 30
0.0
  0
SPLINE
  5
115
100
AcDbEntity
  8
Layer_1
 62
1
100
AcDbSpline
 70
8
 71
3
 72
8
 73
4
 74
0
 40
0
 40
0
 40
0
 40
0
 40
1
 40
1
 40
1
 40
1
 10
121.683680
 20
115.470650
 30
0.0
 10
126.006920
 20
112.406150
 30
0.0
 10
128.914110
 20
110.279440
 30
0.0
 10
128.776260
 20
103.873850
 30
0.0
  0
SPLINE
  5
116
100
AcDbEntity
  8
Layer_1
 62
1
100
AcDbSpline
 70
8
 71
3
 72
8
 73
4
 74
0
 40
0
 40
0
 40
0
 40
0
 40
1
 40
1
 40
1
 40
1
 10
128.776260
 20
103.873850
 30
0.0
 10
128.641580
 20
97.466510
 30
0.0
 10
126.726230
 20
89.506430
 30
0.0
 10
122.521410
 20
85.473050
 30
0.0
  0
SPLINE
  5
117
100
AcDbEntity
  8
Layer_1
 62
1
100
AcDbSpline
 70
8
 71
3
 72
8
 73
4
 74
0
 40
0
 40
0
 40
0
 40
0
 40
1
 40
1
 40
1
 40
1
 10
122.521410
 20
85.473050
 30
0.0
 10
122.521410
 20
85.473050
 30
0.0
 10
126.802420
 20
78.220620
 30
0.0
 10
127.547950
 20
73.139120
 30
0.0
  0
SPLINE
  5
118
100
AcDbEntity
  8
Layer_1
 62
1
100
AcDbSpline
 70
8
 71
3
 72
8
 73
4
 74
0
 40
0
 40
0
 40
0
 40
0
 40
1
 40
1
 40
1
 40
1
 10
127.547950
 20
73.139120
 30
0.0
 10
128.290750
 20
68.055250
 30
0.0
 10
129.127390
 20
59.571120
 30
0.0
 10
128.470320
 20
54.332470
 30
0.0
  0
SPLINE
  5
119
100
AcDbEntity
  8
Layer_1
 62
1
100
AcDbSpline
 70
8
 71
3
 72
8
 73
4
 74
0
 40
0
 40
0
 40
0
 40
0
 40
1
 40
1
 40
1
 40
1
 10
128.470320
 20
54.332470
 30
0.0
 10
127.818180
 20
49.091020
 30
0.0
 10
127.742240
 20
47.840160
 30
0.0
 10
126.932170
 20
47.013600
 30
0.0
  0
SPLINE
  5
11a
100
AcDbEntity
  8
Layer_1
 62
1
100
AcDbSpline
 70
8
 71
3
 72
8
 73
4
 74
0
 40
0
 40
0
 40
0
 40
0
 40
1
 40
1
 40
1
 40
1
 10
133.451780
 20
24.514260
 30
0.0
 10
133.451780
 20
24.514260
 30
0.0
 10
137.128550
 20
27.448370
 30
0.0
 10
138.320440
 20
33.236920
 30
0.0
  0
SPLINE
  5
11b
100
AcDbEntity
  8
Layer_1
 62
1
100
AcDbSpline
 70
8
 71
3
 72
8
 73
4
 74
0
 40
0
 40
0
 40
0
 40
0
 40
1
 40
1
 40
1
 40
1
 10
138.320440
 20
33.236920
 30
0.0
 10
139.515100
 20
39.026080
 30
0.0
 10
138.776090
 20
60.212340
 30
0.0
 10
138.304640
 20
69.131340
 30
0.0
  0
SPLINE
  5
11c
100
AcDbEntity
  8
Layer_1
 62
1
100
AcDbSpline
 70
8
 71
3
 72
8
 73
4
 74
0
 40
0
 40
0
 40
0
 40
0
 40
1
 40
1
 40
1
 40
1
 10
138.304640
 20
69.131340
 30
0.0
 10
137.834320
 20
78.056070
 30
0.0
 10
137.372010
 20
88.631790
 30
0.0
 10
139.831970
 20
96.939790
 30
0.0
  0
SPLINE
  5
11d
100
AcDbEntity
  8
Layer_1
 62
1
100
AcDbSpline
 70
8
 71
3
 72
8
 73
4
 74
0
 40
0
 40
0
 40
0
 40
0
 40
1
 40
1
 40
1
 40
1
 10
139.831970
 20
96.939790
 30
0.0
 10
143.139410
 20
105.599010
 30
0.0
 10
146.380310
 20
119.452780
 30
0.0
 10
147.392180
 20
126.427640
 30
0.0
  0
SPLINE
  5
11e
100
AcDbEntity
  8
Layer_1
 62
1
100
AcDbSpline
 70
8
 71
3
 72
8
 73
4
 74
0
 40
0
 40
0
 40
0
 40
0
 40
1
 40
1
 40
1
 40
1
 10
147.392180
 20
126.427640
 30
0.0
 10
148.405970
 20
133.404390
 30
0.0
 10
148.440290
 20
149.933290
 30
0.0
 10
147.732250
 20
157.887680
 30
0.0
  0
SPLINE
  5
11f
100
AcDbEntity
  8
Layer_1
 62
1
100
AcDbSpline
 70
8
 71
3
 72
8
 73
4
 74
0
 40
0
 40
0
 40
0
 40
0
 40
1
 40
1
 40
1
 40
1
 10
147.732250
 20
157.887680
 30
0.0
 10
147.732250
 20
157.887680
 30
0.0
 10
147.536710
 20
159.287370
 30
0.0
 10
148.784640
 20
160.626190
 30
0.0
  0
SPLINE
  5
120
100
AcDbEntity
  8
Layer_1
 62
1
100
AcDbSpline
 70
8
 71
3
 72
8
 73
4
 74
0
 40
0
 40
0
 40
0
 40
0
 40
1
 40
1
 40
1
 40
1
 10
148.784640
 20
160.626190
 30
0.0
 10
150.347180
 20
162.741190
 30
0.0
 10
152.832310
 20
165.506300
 30
0.0
 10
153.375700
 20
166.811700
 30
0.0
  0
SPLINE
  5
121
100
AcDbEntity
  8
Layer_1
 62
1
100
AcDbSpline
 70
8
 71
3
 72
8
 73
4
 74
0
 40
0
 40
0
 40
0
 40
0
 40
1
 40
1
 40
1
 40
1
 10
153.375700
 20
166.811700
 30
0.0
 10
154.131820
 20
168.006290
 30
0.0
 10
155.776610
 20
181.407130
 30
0.0
 10
155.991600
 20
184.956330
 30
0.0
  0
SPLINE
  5
122
100
AcDbEntity
  8
Layer_1
 62
1
100
AcDbSpline
 70
8
 71
3
 72
8
 73
4
 74
0
 40
0
 40
0
 40
0
 40
0
 40
1
 40
1
 40
1
 40
1
 10
155.991600
 20
184.956330
 30
0.0
 10
156.206150
 20
188.506640
 30
0.0
 10
156.542670
 20
205.171233
 30
0.0
 10
156.756070
 20
207.966433
 30
0.0
  0
SPLINE
  5
123
100
AcDbEntity
  8
Layer_1
 62
1
100
AcDbSpline
 70
8
 71
3
 72
8
 73
4
 74
0
 40
0
 40
0
 40
0
 40
0
 40
1
 40
1
 40
1
 40
1
 10
156.756070
 20
207.966433
 30
0.0
 10
156.966960
 20
210.763044
 30
0.0
 10
157.114370
 20
212.514107
 30
0.0
 10
157.682020
 20
211.426347
 30
0.0
  0
SPLINE
  5
124
100
AcDbEntity
  8
Layer_1
 62
1
100
AcDbSpline
 70
8
 71
3
 72
8
 73
4
 74
0
 40
0
 40
0
 40
0
 40
0
 40
1
 40
1
 40
1
 40
1
 10
157.682020
 20
211.426347
 30
0.0
 10
158.246540
 20
210.338182
 30
0.0
 10
160.519280
 20
202.635513
 30
0.0
 10
160.899800
 20
199.172486
 30
0.0
  0
SPLINE
  5
125
100
AcDbEntity
  8
Layer_1
 62
1
100
AcDbSpline
 70
8
 71
3
 72
8
 73
4
 74
0
 40
0
 40
0
 40
0
 40
0
 40
1
 40
1
 40
1
 40
1
 10
160.899800
 20
199.172486
 30
0.0
 10
161.279200
 20
195.707880
 30
0.0
 10
162.187420
 20
192.585250
 30
0.0
 10
160.760080
 20
192.010460
 30
0.0
  0
SPLINE
  5
126
100
AcDbEntity
  8
Layer_1
 62
1
100
AcDbSpline
 70
8
 71
3
 72
8
 73
4
 74
0
 40
0
 40
0
 40
0
 40
0
 40
1
 40
1
 40
1
 40
1
 10
160.760080
 20
192.010460
 30
0.0
 10
159.335630
 20
191.437260
 30
0.0
 10
159.006200
 20
192.242510
 30
0.0
 10
159.027850
 20
188.480330
 30
0.0
  0
SPLINE
  5
127
100
AcDbEntity
  8
Layer_1
 62
1
100
AcDbSpline
 70
8
 71
3
 72
8
 73
4
 74
0
 40
0
 40
0
 40
0
 40
0
 40
1
 40
1
 40
1
 40
1
 10
159.027850
 20
188.480330
 30
0.0
 10
159.063150
 20
185.543290
 30
0.0
 10
158.882500
 20
172.138650
 30
0.0
 10
158.882500
 20
172.138650
 30
0.0
  0
SPLINE
  5
128
100
AcDbEntity
  8
Layer_1
 62
1
100
AcDbSpline
 70
8
 71
3
 72
8
 73
4
 74
0
 40
0
 40
0
 40
0
 40
0
 40
1
 40
1
 40
1
 40
1
 10
158.882500
 20
172.138650
 30
0.0
 10
158.882500
 20
172.138650
 30
0.0
 10
166.925410
 20
178.255920
 30
0.0
 10
169.567040
 20
184.280240
 30
0.0
  0
SPLINE
  5
129
100
AcDbEntity
  8
Layer_1
 62
1
100
AcDbSpline
 70
8
 71
3
 72
8
 73
4
 74
0
 40
0
 40
0
 40
0
 40
0
 40
1
 40
1
 40
1
 40
1
 10
169.567040
 20
184.280240
 30
0.0
 10
172.207880
 20
190.306630
 30
0.0
 10
172.029210
 20
194.126390
 30
0.0
 10
171.678550
 20
198.761829
 30
0.0
  0
SPLINE
  5
12a
100
AcDbEntity
  8
Layer_1
 62
1
100
AcDbSpline
 70
8
 71
3
 72
8
 73
4
 74
0
 40
0
 40
0
 40
0
 40
0
 40
1
 40
1
 40
1
 40
1
 10
171.678550
 20
198.761829
 30
0.0
 10
171.326390
 20
203.398063
 30
0.0
 10
169.639330
 20
211.909817
 30
0.0
 10
168.694690
 20
214.407176
 30
0.0
  0
SPLINE
  5
12b
100
AcDbEntity
  8
Layer_1
 62
1
100
AcDbSpline
 70
8
 71
3
 72
8
 73
4
 74
0
 40
0
 40
0
 40
0
 40
0
 40
1
 40
1
 40
1
 40
1
 10
168.694690
 20
214.407176
 30
0.0
 10
167.749930
 20
216.902455
 30
0.0
 10
165.607780
 20
222.232910
 30
0.0
 10
163.934830
 20
225.909528
 30
0.0
  0
SPLINE
  5
12c
100
AcDbEntity
  8
Layer_1
 62
1
100
AcDbSpline
 70
8
 71
3
 72
8
 73
4
 74
0
 40
0
 40
0
 40
0
 40
0
 40
1
 40
1
 40
1
 40
1
 10
163.934830
 20
225.909528
 30
0.0
 10
162.135990
 20
229.504470
 30
0.0
 10
155.253850
 20
240.691659
 30
0.0
 10
154.429200
 20
241.712840
 30
0.0
  0
SPLINE
  5
12d
100
AcDbEntity
  8
Layer_1
 62
1
100
AcDbSpline
 70
8
 71
3
 72
8
 73
4
 74
0
 40
0
 40
0
 40
0
 40
0
 40
1
 40
1
 40
1
 40
1
 10
154.429200
 20
241.712840
 30
0.0
 10
154.429200
 20
241.712840
 30
0.0
 10
154.334200
 20
241.615250
 30
0.0
 10
147.063470
 20
229.149721
 30
0.0
  0
SPLINE
  5
12e
100
AcDbEntity
  8
Layer_1
 62
1
100
AcDbSpline
 70
8
 71
3
 72
8
 73
4
 74
0
 40
0
 40
0
 40
0
 40
0
 40
1
 40
1
 40
1
 40
1
 10
147.063470
 20
229.149721
 30
0.0
 10
147.063470
 20
229.149721
 30
0.0
 10
141.690360
 20
241.073038
 30
0.0
 10
139.039960
 20
245.319868
 30
0.0
  0
SPLINE
  5
12f
100
AcDbEntity
  8
Layer_1
 62
1
100
AcDbSpline
 70
8
 71
3
 72
8
 73
4
 74
0
 40
0
 40
0
 40
0
 40
0
 40
1
 40
1
 40
1
 40
1
 10
139.039960
 20
245.319868
 30
0.0
 10
136.390440
 20
249.570534
 30
0.0
 10
130.460080
 20
258.109973
 30
0.0
 10
129.702880
 20
258.873095
 30
0.0
  0
SPLINE
  5
130
100
AcDbEntity
  8
Layer_1
 62
1
100
AcDbSpline
 70
8
 71
3
 72
8
 73
4
 74
0
 40
0
 40
0
 40
0
 40
0
 40
1
 40
1
 40
1
 40
1
 10
129.702880
 20
258.873095
 30
0.0
 10
128.950780
 20
259.637433
 30
0.0
 10
129.370040
 20
259.609101
 30
0.0
 10
130.943540
 20
261.935045
 30
0.0
  0
SPLINE
  5
131
100
AcDbEntity
  8
Layer_1
 62
1
100
AcDbSpline
 70
8
 71
3
 72
8
 73
4
 74
0
 40
0
 40
0
 40
0
 40
0
 40
1
 40
1
 40
1
 40
1
 10
130.943540
 20
261.935045
 30
0.0
 10
132.516500
 20
264.256503
 30
0.0
 10
135.403540
 20
270.141904
 30
0.0
 10
136.173970
 20
272.395656
 30
0.0
  0
SPLINE
  5
132
100
AcDbEntity
  8
Layer_1
 62
1
100
AcDbSpline
 70
8
 71
3
 72
8
 73
4
 74
0
 40
0
 40
0
 40
0
 40
0
 40
1
 40
1
 40
1
 40
1
 10
136.173970
 20
272.395656
 30
0.0
 10
137.194450
 20
275.067785
 30
0.0
 10
138.287070
 20
279.121306
 30
0.0
 10
138.883030
 20
280.973796
 30
0.0
  0
SPLINE
  5
133
100
AcDbEntity
  8
Layer_1
 62
1
100
AcDbSpline
 70
8
 71
3
 72
8
 73
4
 74
0
 40
0
 40
0
 40
0
 40
0
 40
1
 40
1
 40
1
 40
1
 10
138.883030
 20
280.973796
 30
0.0
 10
138.883030
 20
280.973796
 30
0.0
 10
138.721270
 20
283.082358
 30
0.0
 10
137.908290
 20
284.352626
 30
0.0
  0
LWPOLYLINE
  5
134
100
AcDbEntity
  8
Layer_1
 62
1
100
AcDbPolyline
 90
4
 70
0
 10
126.932170
 20
47.013600
 30
0.0
 10
128.269970
 20
44.070680
 30
0.0
 10
126.073040
 20
40.490790
 30
0.0
 10
133.451780
 20
24.514260
 30
0.0
  0
SPLINE
  5
135
100
AcDbEntity
  8
Layer_1
 62
1
100
AcDbSpline
 70
8
 71
3
 72
8
 73
4
 74
0
 40
0
 40
0
 40
0
 40
0
 40
1
 40
1
 40
1
 40
1
 10
134.489030
 20
286.346961
 30
0.0
 10
134.489030
 20
286.346961
 30
0.0
 10
131.151010
 20
283.432680
 30
0.0
 10
126.415350
 20
281.110197
 30
0.0
  0
LWPOLYLINE
  5
136
100
AcDbEntity
  8
Layer_1
 62
1
100
AcDbPolyline
 90
2
 70
0
 10
137.908290
 20
284.352626
 30
0.0
 10
134.489030
 20
286.346961
 30
0.0
  0
SPLINE
  5
137
100
AcDbEntity
  8
Layer_1
 62
1
100
AcDbSpline
 70
8
 71
3
 72
8
 73
4
 74
0
 40
0
 40
0
 40
0
 40
0
 40
1
 40
1
 40
1
 40
1
 10
126.415190
 20
281.109915
 30
0.0
 10
121.680460
 20
278.793433
 30
0.0
 10
116.811080
 20
277.743096
 30
0.0
 10
115.374490
 20
276.960478
 30
0.0
  0
SPLINE
  5
138
100
AcDbEntity
  8
Layer_1
 62
1
100
AcDbSpline
 70
8
 71
3
 72
8
 73
4
 74
0
 40
0
 40
0
 40
0
 40
0
 40
1
 40
1
 40
1
 40
1
 10
115.374490
 20
276.960478
 30
0.0
 10
113.934950
 20
276.179603
 30
0.0
 10
111.878270
 20
275.082812
 30
0.0
 10
109.395980
 20
270.826932
 30
0.0
  0
SPLINE
  5
139
100
AcDbEntity
  8
Layer_1
 62
1
100
AcDbSpline
 70
8
 71
3
 72
8
 73
4
 74
0
 40
0
 40
0
 40
0
 40
0
 40
1
 40
1
 40
1
 40
1
 10
109.395980
 20
270.826932
 30
0.0
 10
109.395980
 20
270.826932
 30
0.0
 10
104.658080
 20
270.565709
 30
0.0
 10
102.264630
 20
270.013083
 30
0.0
  0
SPLINE
  5
13a
100
AcDbEntity
  8
Layer_1
 62
1
100
AcDbSpline
 70
8
 71
3
 72
8
 73
4
 74
0
 40
0
 40
0
 40
0
 40
0
 40
1
 40
1
 40
1
 40
1
 10
102.264630
 20
270.013083
 30
0.0
 10
99.871426
 20
269.464676
 30
0.0
 10
96.680699
 20
268.296687
 30
0.0
 10
93.449385
 20
265.750575
 30
0.0
  0
SPLINE
  5
13b
100
AcDbEntity
  8
Layer_1
 62
1
100
AcDbSpline
 70
8
 71
3
 72
8
 73
4
 74
0
 40
0
 40
0
 40
0
 40
0
 40
1
 40
1
 40
1
 40
1
 10
93.449385
 20
265.750575
 30
0.0
 10
90.218219
 20
263.204367
 30
0.0
 10
85.210497
 20
259.855305
 30
0.0
 10
81.087727
 20
258.587994
 30
0.0
  0
SPLINE
  5
13c
100
AcDbEntity
  8
Layer_1
 62
1
100
AcDbSpline
 70
8
 71
3
 72
8
 73
4
 74
0
 40
0
 40
0
 40
0
 40
0
 40
1
 40
1
 40
1
 40
1
 10
81.087727
 20
258.587994
 30
0.0
 10
76.964974
 20
257.318482
 30
0.0
 10
73.451644
 20
257.095444
 30
0.0
 10
69.371134
 20
250.287929
 30
0.0
  0
LWPOLYLINE
  5
13d
100
AcDbEntity
  8
Layer_1
 62
1
100
AcDbPolyline
 90
2
 70
0
 10
126.415350
 20
281.110197
 30
0.0
 10
126.415190
 20
281.109915
 30
0.0
  0
SPLINE
  5
13e
100
AcDbEntity
  8
Layer_1
 62
1
100
AcDbSpline
 70
8
 71
3
 72
8
 73
4
 74
0
 40
0
 40
0
 40
0
 40
0
 40
1
 40
1
 40
1
 40
1
 10
75.478048
 20
254.239814
 30
0.0
 10
77.793642
 20
254.850757
 30
0.0
 10
83.141105
 20
256.619523
 30
0.0
 10
84.308708
 20
257.089243
 30
0.0
  0
SPLINE
  5
13f
100
AcDbEntity
  8
Layer_1
 62
1
100
AcDbSpline
 70
8
 71
3
 72
8
 73
4
 74
0
 40
0
 40
0
 40
0
 40
0
 40
1
 40
1
 40
1
 40
1
 10
84.308708
 20
257.089243
 30
0.0
 10
85.740167
 20
257.666970
 30
0.0
 10
89.729811
 20
259.448809
 30
0.0
 10
93.737776
 20
262.199101
 30
0.0
  0
SPLINE
  5
140
100
AcDbEntity
  8
Layer_1
 62
1
100
AcDbSpline
 70
8
 71
3
 72
8
 73
4
 74
0
 40
0
 40
0
 40
0
 40
0
 40
1
 40
1
 40
1
 40
1
 10
93.737776
 20
262.199101
 30
0.0
 10
94.161305
 20
262.490136
 30
0.0
 10
94.462251
 20
262.720382
 30
0.0
 10
94.817718
 20
262.931312
 30
0.0
  0
SPLINE
  5
141
100
AcDbEntity
  8
Layer_1
 62
1
100
AcDbSpline
 70
8
 71
3
 72
8
 73
4
 74
0
 40
0
 40
0
 40
0
 40
0
 40
1
 40
1
 40
1
 40
1
 10
94.817718
 20
262.931312
 30
0.0
 10
95.652108
 20
263.131984
 30
0.0
 10
100.870800
 20
264.349726
 30
0.0
 10
103.974400
 20
264.551645
 30
0.0
  0
LWPOLYLINE
  5
142
100
AcDbEntity
  8
Layer_1
 62
1
100
AcDbPolyline
 90
2
 70
0
 10
69.371134
 20
250.287929
 30
0.0
 10
69.369717
 20
250.289034
 30
0.0
  0
SPLINE
  5
143
100
AcDbEntity
  8
Layer_1
 62
1
100
AcDbSpline
 70
8
 71
3
 72
8
 73
4
 74
0
 40
0
 40
0
 40
0
 40
0
 40
1
 40
1
 40
1
 40
1
 10
103.980400
 20
264.552939
 30
0.0
 10
103.980400
 20
264.552939
 30
0.0
 10
112.326540
 20
266.020499
 30
0.0
 10
114.043470
 20
266.343117
 30
0.0
  0
SPLINE
  5
144
100
AcDbEntity
  8
Layer_1
 62
1
100
AcDbSpline
 70
8
 71
3
 72
8
 73
4
 74
0
 40
0
 40
0
 40
0
 40
0
 40
1
 40
1
 40
1
 40
1
 10
114.043470
 20
266.343117
 30
0.0
 10
114.053470
 20
266.340717
 30
0.0
 10
114.060470
 20
266.344717
 30
0.0
 10
114.064570
 20
266.342331
 30
0.0
  0
SPLINE
  5
145
100
AcDbEntity
  8
Layer_1
 62
1
100
AcDbSpline
 70
8
 71
3
 72
8
 73
4
 74
0
 40
0
 40
0
 40
0
 40
0
 40
1
 40
1
 40
1
 40
1
 10
114.064570
 20
266.342331
 30
0.0
 10
114.065350
 20
266.342433
 30
0.0
 10
114.069570
 20
266.342637
 30
0.0
 10
114.069570
 20
266.342637
 30
0.0
  0
SPLINE
  5
146
100
AcDbEntity
  8
Layer_1
 62
1
100
AcDbSpline
 70
8
 71
3
 72
8
 73
4
 74
0
 40
0
 40
0
 40
0
 40
0
 40
1
 40
1
 40
1
 40
1
 10
114.069570
 20
266.342637
 30
0.0
 10
114.069740
 20
266.342645
 30
0.0
 10
114.073570
 20
266.344237
 30
0.0
 10
114.075570
 20
266.344237
 30
0.0
  0
LWPOLYLINE
  5
147
100
AcDbEntity
  8
Layer_1
 62
1
100
AcDbPolyline
 90
3
 70
0
 10
103.974400
 20
264.551645
 30
0.0
 10
103.978400
 20
264.553245
 30
0.0
 10
103.980400
 20
264.552939
 30
0.0
  0
SPLINE
  5
148
100
AcDbEntity
  8
Layer_1
 62
1
100
AcDbSpline
 70
8
 71
3
 72
8
 73
4
 74
0
 40
0
 40
0
 40
0
 40
0
 40
1
 40
1
 40
1
 40
1
 10
120.219150
 20
267.257365
 30
0.0
 10
119.995040
 20
266.871256
 30
0.0
 10
119.209850
 20
265.424205
 30
0.0
 10
118.769640
 20
264.430455
 30
0.0
  0
SPLINE
  5
149
100
AcDbEntity
  8
Layer_1
 62
1
100
AcDbSpline
 70
8
 71
3
 72
8
 73
4
 74
0
 40
0
 40
0
 40
0
 40
0
 40
1
 40
1
 40
1
 40
1
 10
118.769640
 20
264.430455
 30
0.0
 10
118.516040
 20
263.858510
 30
0.0
 10
118.257510
 20
263.129443
 30
0.0
 10
118.371280
 20
262.158939
 30
0.0
  0
SPLINE
  5
14a
100
AcDbEntity
  8
Layer_1
 62
1
100
AcDbSpline
 70
8
 71
3
 72
8
 73
4
 74
0
 40
0
 40
0
 40
0
 40
0
 40
1
 40
1
 40
1
 40
1
 10
118.371280
 20
262.158939
 30
0.0
 10
118.485140
 20
261.188333
 30
0.0
 10
118.968640
 20
259.979735
 30
0.0
 10
120.182550
 20
258.433851
 30
0.0
  0
SPLINE
  5
14b
100
AcDbEntity
  8
Layer_1
 62
1
100
AcDbSpline
 70
8
 71
3
 72
8
 73
4
 74
0
 40
0
 40
0
 40
0
 40
0
 40
1
 40
1
 40
1
 40
1
 10
120.182550
 20
258.433851
 30
0.0
 10
120.182550
 20
258.433851
 30
0.0
 10
121.831910
 20
256.070296
 30
0.0
 10
123.927680
 20
252.474267
 30
0.0
  0
SPLINE
  5
14c
100
AcDbEntity
  8
Layer_1
 62
1
100
AcDbSpline
 70
8
 71
3
 72
8
 73
4
 74
0
 40
0
 40
0
 40
0
 40
0
 40
1
 40
1
 40
1
 40
1
 10
123.927680
 20
252.474267
 30
0.0
 10
124.324980
 20
251.608835
 30
0.0
 10
130.642430
 20
237.830310
 30
0.0
 10
133.000350
 20
230.493219
 30
0.0
  0
SPLINE
  5
14d
100
AcDbEntity
  8
Layer_1
 62
1
100
AcDbSpline
 70
8
 71
3
 72
8
 73
4
 74
0
 40
0
 40
0
 40
0
 40
0
 40
1
 40
1
 40
1
 40
1
 10
133.000350
 20
230.493219
 30
0.0
 10
134.217730
 20
226.706877
 30
0.0
 10
134.850200
 20
223.602504
 30
0.0
 10
135.571500
 20
221.240348
 30
0.0
  0
SPLINE
  5
14e
100
AcDbEntity
  8
Layer_1
 62
1
100
AcDbSpline
 70
8
 71
3
 72
8
 73
4
 74
0
 40
0
 40
0
 40
0
 40
0
 40
1
 40
1
 40
1
 40
1
 10
135.571500
 20
221.240348
 30
0.0
 10
136.292860
 20
218.878208
 30
0.0
 10
137.106970
 20
217.247726
 30
0.0
 10
138.696960
 20
216.444680
 30
0.0
  0
SPLINE
  5
14f
100
AcDbEntity
  8
Layer_1
 62
1
100
AcDbSpline
 70
8
 71
3
 72
8
 73
4
 74
0
 40
0
 40
0
 40
0
 40
0
 40
1
 40
1
 40
1
 40
1
 10
138.696960
 20
216.444680
 30
0.0
 10
139.497360
 20
216.041035
 30
0.0
 10
140.315420
 20
216.061037
 30
0.0
 10
141.081870
 20
216.316200
 30
0.0
  0
SPLINE
  5
150
100
AcDbEntity
  8
Layer_1
 62
1
100
AcDbSpline
 70
8
 71
3
 72
8
 73
4
 74
0
 40
0
 40
0
 40
0
 40
0
 40
1
 40
1
 40
1
 40
1
 10
141.081870
 20
216.316200
 30
0.0
 10
141.848370
 20
216.571333
 30
0.0
 10
142.566190
 20
217.059527
 30
0.0
 10
143.184170
 20
217.595439
 30
0.0
  0
SPLINE
  5
151
100
AcDbEntity
  8
Layer_1
 62
1
100
AcDbSpline
 70
8
 71
3
 72
8
 73
4
 74
0
 40
0
 40
0
 40
0
 40
0
 40
1
 40
1
 40
1
 40
1
 10
143.184170
 20
217.595439
 30
0.0
 10
144.420110
 20
218.667276
 30
0.0
 10
145.259930
 20
219.936282
 30
0.0
 10
145.259930
 20
219.936282
 30
0.0
  0
LWPOLYLINE
  5
152
100
AcDbEntity
  8
Layer_1
 62
1
100
AcDbPolyline
 90
2
 70
0
 10
114.075570
 20
266.344237
 30
0.0
 10
120.219150
 20
267.257365
 30
0.0
  0
SPLINE
  5
153
100
AcDbEntity
  8
Layer_1
 62
1
100
AcDbSpline
 70
8
 71
3
 72
8
 73
4
 74
0
 40
0
 40
0
 40
0
 40
0
 40
1
 40
1
 40
1
 40
1
 10
145.534410
 20
220.406865
 30
0.0
 10
145.534800
 20
220.407543
 30
0.0
 10
145.536410
 20
220.410965
 30
0.0
 10
145.536410
 20
220.410965
 30
0.0
  0
SPLINE
  5
154
100
AcDbEntity
  8
Layer_1
 62
1
100
AcDbSpline
 70
8
 71
3
 72
8
 73
4
 74
0
 40
0
 40
0
 40
0
 40
0
 40
1
 40
1
 40
1
 40
1
 10
145.536410
 20
220.410965
 30
0.0
 10
145.536580
 20
220.411250
 30
0.0
 10
145.536810
 20
220.411644
 30
0.0
 10
145.536810
 20
220.411644
 30
0.0
  0
SPLINE
  5
155
100
AcDbEntity
  8
Layer_1
 62
1
100
AcDbSpline
 70
8
 71
3
 72
8
 73
4
 74
0
 40
0
 40
0
 40
0
 40
0
 40
1
 40
1
 40
1
 40
1
 10
145.536810
 20
220.411644
 30
0.0
 10
145.935270
 20
221.093242
 30
0.0
 10
146.445730
 20
222.016662
 30
0.0
 10
147.164390
 20
223.390717
 30
0.0
  0
SPLINE
  5
156
100
AcDbEntity
  8
Layer_1
 62
1
100
AcDbSpline
 70
8
 71
3
 72
8
 73
4
 74
0
 40
0
 40
0
 40
0
 40
0
 40
1
 40
1
 40
1
 40
1
 10
147.164390
 20
223.390717
 30
0.0
 10
150.290180
 20
228.562193
 30
0.0
 10
154.448260
 20
236.090828
 30
0.0
 10
154.511100
 20
236.204164
 30
0.0
  0
SPLINE
  5
157
100
AcDbEntity
  8
Layer_1
 62
1
100
AcDbSpline
 70
8
 71
3
 72
8
 73
4
 74
0
 40
0
 40
0
 40
0
 40
0
 40
1
 40
1
 40
1
 40
1
 10
154.511100
 20
236.204164
 30
0.0
 10
157.220670
 20
232.378490
 30
0.0
 10
158.524240
 20
229.834218
 30
0.0
 10
163.466520
 20
220.300572
 30
0.0
  0
SPLINE
  5
158
100
AcDbEntity
  8
Layer_1
 62
1
100
AcDbSpline
 70
8
 71
3
 72
8
 73
4
 74
0
 40
0
 40
0
 40
0
 40
0
 40
1
 40
1
 40
1
 40
1
 10
163.466520
 20
220.300572
 30
0.0
 10
168.440800
 20
210.708721
 30
0.0
 10
169.657260
 20
199.523529
 30
0.0
 10
168.959150
 20
192.161590
 30
0.0
  0
SPLINE
  5
159
100
AcDbEntity
  8
Layer_1
 62
1
100
AcDbSpline
 70
8
 71
3
 72
8
 73
4
 74
0
 40
0
 40
0
 40
0
 40
0
 40
1
 40
1
 40
1
 40
1
 10
168.959150
 20
192.161590
 30
0.0
 10
168.610910
 20
188.490370
 30
0.0
 10
167.011700
 20
185.328650
 30
0.0
 10
165.417710
 20
183.038440
 30
0.0
  0
SPLINE
  5
15a
100
AcDbEntity
  8
Layer_1
 62
1
100
AcDbSpline
 70
8
 71
3
 72
8
 73
4
 74
0
 40
0
 40
0
 40
0
 40
0
 40
1
 40
1
 40
1
 40
1
 10
165.417710
 20
183.038440
 30
0.0
 10
164.620720
 20
181.893310
 30
0.0
 10
163.824780
 20
180.965630
 30
0.0
 10
163.188060
 20
180.302090
 30
0.0
  0
SPLINE
  5
15b
100
AcDbEntity
  8
Layer_1
 62
1
100
AcDbSpline
 70
8
 71
3
 72
8
 73
4
 74
0
 40
0
 40
0
 40
0
 40
0
 40
1
 40
1
 40
1
 40
1
 10
163.188060
 20
180.302090
 30
0.0
 10
162.869810
 20
179.970290
 30
0.0
 10
162.591370
 20
179.704850
 30
0.0
 10
162.372950
 20
179.510580
 30
0.0
  0
SPLINE
  5
15c
100
AcDbEntity
  8
Layer_1
 62
1
100
AcDbSpline
 70
8
 71
3
 72
8
 73
4
 74
0
 40
0
 40
0
 40
0
 40
0
 40
1
 40
1
 40
1
 40
1
 10
162.372950
 20
179.510580
 30
0.0
 10
162.154140
 20
179.316570
 30
0.0
 10
161.991120
 20
179.193000
 30
0.0
 10
161.920760
 20
179.152670
 30
0.0
  0
SPLINE
  5
15d
100
AcDbEntity
  8
Layer_1
 62
1
100
AcDbSpline
 70
8
 71
3
 72
8
 73
4
 74
0
 40
0
 40
0
 40
0
 40
0
 40
1
 40
1
 40
1
 40
1
 10
161.920760
 20
179.152670
 30
0.0
 10
161.918760
 20
179.153670
 30
0.0
 10
161.912760
 20
179.157670
 30
0.0
 10
161.897560
 20
179.178170
 30
0.0
  0
SPLINE
  5
15e
100
AcDbEntity
  8
Layer_1
 62
1
100
AcDbSpline
 70
8
 71
3
 72
8
 73
4
 74
0
 40
0
 40
0
 40
0
 40
0
 40
1
 40
1
 40
1
 40
1
 10
161.897560
 20
179.178170
 30
0.0
 10
161.872060
 20
179.218570
 30
0.0
 10
161.841460
 20
179.304180
 30
0.0
 10
161.815460
 20
179.421260
 30
0.0
  0
SPLINE
  5
15f
100
AcDbEntity
  8
Layer_1
 62
1
100
AcDbSpline
 70
8
 71
3
 72
8
 73
4
 74
0
 40
0
 40
0
 40
0
 40
0
 40
1
 40
1
 40
1
 40
1
 10
161.815460
 20
179.421260
 30
0.0
 10
161.763160
 20
179.655570
 30
0.0
 10
161.721860
 20
180.019900
 30
0.0
 10
161.692100
 20
180.469710
 30
0.0
  0
SPLINE
  5
160
100
AcDbEntity
  8
Layer_1
 62
1
100
AcDbSpline
 70
8
 71
3
 72
8
 73
4
 74
0
 40
0
 40
0
 40
0
 40
0
 40
1
 40
1
 40
1
 40
1
 10
161.692100
 20
180.469710
 30
0.0
 10
161.632500
 20
181.369420
 30
0.0
 10
161.616200
 20
182.613860
 30
0.0
 10
161.628700
 20
183.889030
 30
0.0
  0
SPLINE
  5
161
100
AcDbEntity
  8
Layer_1
 62
1
100
AcDbSpline
 70
8
 71
3
 72
8
 73
4
 74
0
 40
0
 40
0
 40
0
 40
0
 40
1
 40
1
 40
1
 40
1
 10
161.628700
 20
183.889030
 30
0.0
 10
161.641100
 20
185.164230
 30
0.0
 10
161.681900
 20
186.469860
 30
0.0
 10
161.734960
 20
187.495060
 30
0.0
  0
SPLINE
  5
162
100
AcDbEntity
  8
Layer_1
 62
1
100
AcDbSpline
 70
8
 71
3
 72
8
 73
4
 74
0
 40
0
 40
0
 40
0
 40
0
 40
1
 40
1
 40
1
 40
1
 10
161.734960
 20
187.495060
 30
0.0
 10
161.761660
 20
188.007730
 30
0.0
 10
161.791460
 20
188.449920
 30
0.0
 10
161.822060
 20
188.782370
 30
0.0
  0
SPLINE
  5
163
100
AcDbEntity
  8
Layer_1
 62
1
100
AcDbSpline
 70
8
 71
3
 72
8
 73
4
 74
0
 40
0
 40
0
 40
0
 40
0
 40
1
 40
1
 40
1
 40
1
 10
161.822060
 20
188.782370
 30
0.0
 10
161.837460
 20
188.948770
 30
0.0
 10
161.852960
 20
189.088390
 30
0.0
 10
161.868160
 20
189.193870
 30
0.0
  0
SPLINE
  5
164
100
AcDbEntity
  8
Layer_1
 62
1
100
AcDbSpline
 70
8
 71
3
 72
8
 73
4
 74
0
 40
0
 40
0
 40
0
 40
0
 40
1
 40
1
 40
1
 40
1
 10
161.868160
 20
189.193870
 30
0.0
 10
161.880660
 20
189.289970
 30
0.0
 10
161.896960
 20
189.348650
 30
0.0
 10
161.906960
 20
189.379840
 30
0.0
  0
SPLINE
  5
165
100
AcDbEntity
  8
Layer_1
 62
1
100
AcDbSpline
 70
8
 71
3
 72
8
 73
4
 74
0
 40
0
 40
0
 40
0
 40
0
 40
1
 40
1
 40
1
 40
1
 10
161.906960
 20
189.379840
 30
0.0
 10
162.180990
 20
189.578900
 30
0.0
 10
162.829830
 20
189.866770
 30
0.0
 10
163.413480
 20
190.099260
 30
0.0
  0
SPLINE
  5
166
100
AcDbEntity
  8
Layer_1
 62
1
100
AcDbSpline
 70
8
 71
3
 72
8
 73
4
 74
0
 40
0
 40
0
 40
0
 40
0
 40
1
 40
1
 40
1
 40
1
 10
163.413480
 20
190.099260
 30
0.0
 10
164.004400
 20
190.334610
 30
0.0
 10
164.523820
 20
190.517380
 30
0.0
 10
164.523820
 20
190.517380
 30
0.0
  0
LWPOLYLINE
  5
167
100
AcDbEntity
  8
Layer_1
 62
1
100
AcDbPolyline
 90
4
 70
0
 10
145.259930
 20
219.936282
 30
0.0
 10
145.260320
 20
219.936961
 30
0.0
 10
145.534010
 20
220.406187
 30
0.0
 10
145.534410
 20
220.406865
 30
0.0
  0
SPLINE
  5
168
100
AcDbEntity
  8
Layer_1
 62
1
100
AcDbSpline
 70
8
 71
3
 72
8
 73
4
 74
0
 40
0
 40
0
 40
0
 40
0
 40
1
 40
1
 40
1
 40
1
 10
164.565610
 20
190.580080
 30
0.0
 10
164.853160
 20
200.530411
 30
0.0
 10
162.654380
 20
207.767331
 30
0.0
 10
160.382360
 20
212.516785
 30
0.0
  0
SPLINE
  5
169
100
AcDbEntity
  8
Layer_1
 62
1
100
AcDbSpline
 70
8
 71
3
 72
8
 73
4
 74
0
 40
0
 40
0
 40
0
 40
0
 40
1
 40
1
 40
1
 40
1
 10
160.382360
 20
212.516785
 30
0.0
 10
158.110340
 20
217.266212
 30
0.0
 10
155.760790
 20
219.532000
 30
0.0
 10
155.760790
 20
219.532000
 30
0.0
  0
LWPOLYLINE
  5
16a
100
AcDbEntity
  8
Layer_1
 62
1
100
AcDbPolyline
 90
3
 70
0
 10
164.523820
 20
190.517380
 30
0.0
 10
164.564820
 20
190.531680
 30
0.0
 10
164.565610
 20
190.580080
 30
0.0
  0
SPLINE
  5
16b
100
AcDbEntity
  8
Layer_1
 62
1
100
AcDbSpline
 70
8
 71
3
 72
8
 73
4
 74
0
 40
0
 40
0
 40
0
 40
0
 40
1
 40
1
 40
1
 40
1
 10
139.605450
 20
198.044088
 30
0.0
 10
139.604800
 20
198.043552
 30
0.0
 10
139.263340
 20
197.676978
 30
0.0
 10
138.889080
 20
197.253802
 30
0.0
  0
SPLINE
  5
16c
100
AcDbEntity
  8
Layer_1
 62
1
100
AcDbSpline
 70
8
 71
3
 72
8
 73
4
 74
0
 40
0
 40
0
 40
0
 40
0
 40
1
 40
1
 40
1
 40
1
 10
138.889080
 20
197.253802
 30
0.0
 10
138.514080
 20
196.830290
 30
0.0
 10
138.110900
 20
196.357530
 30
0.0
 10
137.971450
 20
196.118440
 30
0.0
  0
SPLINE
  5
16d
100
AcDbEntity
  8
Layer_1
 62
1
100
AcDbSpline
 70
8
 71
3
 72
8
 73
4
 74
0
 40
0
 40
0
 40
0
 40
0
 40
1
 40
1
 40
1
 40
1
 10
137.971450
 20
196.118440
 30
0.0
 10
137.704470
 20
195.660700
 30
0.0
 10
137.273710
 20
194.584160
 30
0.0
 10
137.398470
 20
192.671070
 30
0.0
  0
SPLINE
  5
16e
100
AcDbEntity
  8
Layer_1
 62
1
100
AcDbSpline
 70
8
 71
3
 72
8
 73
4
 74
0
 40
0
 40
0
 40
0
 40
0
 40
1
 40
1
 40
1
 40
1
 10
137.398470
 20
192.671070
 30
0.0
 10
137.521670
 20
190.773500
 30
0.0
 10
138.156030
 20
178.714780
 30
0.0
 10
135.303530
 20
169.744130
 30
0.0
  0
SPLINE
  5
16f
100
AcDbEntity
  8
Layer_1
 62
1
100
AcDbSpline
 70
8
 71
3
 72
8
 73
4
 74
0
 40
0
 40
0
 40
0
 40
0
 40
1
 40
1
 40
1
 40
1
 10
135.303530
 20
169.744130
 30
0.0
 10
132.446850
 20
160.756610
 30
0.0
 10
129.636870
 20
153.489140
 30
0.0
 10
126.915700
 20
149.366670
 30
0.0
  0
SPLINE
  5
170
100
AcDbEntity
  8
Layer_1
 62
1
100
AcDbSpline
 70
8
 71
3
 72
8
 73
4
 74
0
 40
0
 40
0
 40
0
 40
0
 40
1
 40
1
 40
1
 40
1
 10
126.915700
 20
149.366670
 30
0.0
 10
125.550450
 20
147.298590
 30
0.0
 10
124.713960
 20
145.903660
 30
0.0
 10
124.644200
 20
144.448940
 30
0.0
  0
SPLINE
  5
171
100
AcDbEntity
  8
Layer_1
 62
1
100
AcDbSpline
 70
8
 71
3
 72
8
 73
4
 74
0
 40
0
 40
0
 40
0
 40
0
 40
1
 40
1
 40
1
 40
1
 10
124.644200
 20
144.448940
 30
0.0
 10
124.574500
 20
142.994190
 30
0.0
 10
125.275960
 20
141.503570
 30
0.0
 10
126.947370
 20
139.254390
 30
0.0
  0
SPLINE
  5
172
100
AcDbEntity
  8
Layer_1
 62
1
100
AcDbSpline
 70
8
 71
3
 72
8
 73
4
 74
0
 40
0
 40
0
 40
0
 40
0
 40
1
 40
1
 40
1
 40
1
 10
126.947370
 20
139.254390
 30
0.0
 10
130.281530
 20
134.764350
 30
0.0
 10
137.533400
 20
125.493250
 30
0.0
 10
137.542740
 20
125.481340
 30
0.0
  0
SPLINE
  5
173
100
AcDbEntity
  8
Layer_1
 62
1
100
AcDbSpline
 70
8
 71
3
 72
8
 73
4
 74
0
 40
0
 40
0
 40
0
 40
0
 40
1
 40
1
 40
1
 40
1
 10
137.542740
 20
125.481340
 30
0.0
 10
141.762990
 20
117.836410
 30
0.0
 10
141.309030
 20
112.623700
 30
0.0
 10
141.305980
 20
112.581690
 30
0.0
  0
SPLINE
  5
174
100
AcDbEntity
  8
Layer_1
 62
1
100
AcDbSpline
 70
8
 71
3
 72
8
 73
4
 74
0
 40
0
 40
0
 40
0
 40
0
 40
1
 40
1
 40
1
 40
1
 10
141.305980
 20
112.581690
 30
0.0
 10
140.882420
 20
110.484990
 30
0.0
 10
139.724920
 20
106.771210
 30
0.0
 10
138.578180
 20
103.044810
 30
0.0
  0
SPLINE
  5
175
100
AcDbEntity
  8
Layer_1
 62
1
100
AcDbSpline
 70
8
 71
3
 72
8
 73
4
 74
0
 40
0
 40
0
 40
0
 40
0
 40
1
 40
1
 40
1
 40
1
 10
138.578180
 20
103.044810
 30
0.0
 10
137.430930
 20
99.316870
 30
0.0
 10
136.293940
 20
95.578050
 30
0.0
 10
135.909360
 20
93.414290
 30
0.0
  0
SPLINE
  5
176
100
AcDbEntity
  8
Layer_1
 62
1
100
AcDbSpline
 70
8
 71
3
 72
8
 73
4
 74
0
 40
0
 40
0
 40
0
 40
0
 40
1
 40
1
 40
1
 40
1
 10
135.909360
 20
93.414290
 30
0.0
 10
135.139370
 20
89.096080
 30
0.0
 10
134.930440
 20
81.436710
 30
0.0
 10
134.910210
 20
74.854330
 30
0.0
  0
SPLINE
  5
177
100
AcDbEntity
  8
Layer_1
 62
1
100
AcDbSpline
 70
8
 71
3
 72
8
 73
4
 74
0
 40
0
 40
0
 40
0
 40
0
 40
1
 40
1
 40
1
 40
1
 10
134.910210
 20
74.854330
 30
0.0
 10
134.890410
 20
68.263040
 30
0.0
 10
136.168100
 20
57.362640
 30
0.0
 10
136.313080
 20
45.822850
 30
0.0
  0
SPLINE
  5
178
100
AcDbEntity
  8
Layer_1
 62
1
100
AcDbSpline
 70
8
 71
3
 72
8
 73
4
 74
0
 40
0
 40
0
 40
0
 40
0
 40
1
 40
1
 40
1
 40
1
 10
136.313080
 20
45.822850
 30
0.0
 10
136.383480
 20
40.058000
 30
0.0
 10
135.775700
 20
36.311550
 30
0.0
 10
135.080710
 20
34.025580
 30
0.0
  0
SPLINE
  5
179
100
AcDbEntity
  8
Layer_1
 62
1
100
AcDbSpline
 70
8
 71
3
 72
8
 73
4
 74
0
 40
0
 40
0
 40
0
 40
0
 40
1
 40
1
 40
1
 40
1
 10
135.080710
 20
34.025580
 30
0.0
 10
134.733190
 20
32.882610
 30
0.0
 10
134.362840
 20
32.104790
 30
0.0
 10
134.047090
 20
31.624140
 30
0.0
  0
SPLINE
  5
17a
100
AcDbEntity
  8
Layer_1
 62
1
100
AcDbSpline
 70
8
 71
3
 72
8
 73
4
 74
0
 40
0
 40
0
 40
0
 40
0
 40
1
 40
1
 40
1
 40
1
 10
134.047090
 20
31.624140
 30
0.0
 10
133.890280
 20
31.383180
 30
0.0
 10
133.745530
 20
31.218260
 30
0.0
 10
133.627190
 20
31.118980
 30
0.0
  0
SPLINE
  5
17b
100
AcDbEntity
  8
Layer_1
 62
1
100
AcDbSpline
 70
8
 71
3
 72
8
 73
4
 74
0
 40
0
 40
0
 40
0
 40
0
 40
1
 40
1
 40
1
 40
1
 10
133.627190
 20
31.118980
 30
0.0
 10
133.508810
 20
31.019680
 30
0.0
 10
133.419170
 20
30.993880
 30
0.0
 10
133.381960
 20
31.001960
 30
0.0
  0
SPLINE
  5
17c
100
AcDbEntity
  8
Layer_1
 62
1
100
AcDbSpline
 70
8
 71
3
 72
8
 73
4
 74
0
 40
0
 40
0
 40
0
 40
0
 40
1
 40
1
 40
1
 40
1
 10
133.381960
 20
31.001960
 30
0.0
 10
133.382680
 20
31.001920
 30
0.0
 10
133.330160
 20
31.034760
 30
0.0
 10
133.273450
 20
31.104460
 30
0.0
  0
SPLINE
  5
17d
100
AcDbEntity
  8
Layer_1
 62
1
100
AcDbSpline
 70
8
 71
3
 72
8
 73
4
 74
0
 40
0
 40
0
 40
0
 40
0
 40
1
 40
1
 40
1
 40
1
 10
133.273450
 20
31.104460
 30
0.0
 10
133.216550
 20
31.174160
 30
0.0
 10
133.147590
 20
31.276180
 30
0.0
 10
133.068450
 20
31.405660
 30
0.0
  0
SPLINE
  5
17e
100
AcDbEntity
  8
Layer_1
 62
1
100
AcDbSpline
 70
8
 71
3
 72
8
 73
4
 74
0
 40
0
 40
0
 40
0
 40
0
 40
1
 40
1
 40
1
 40
1
 10
133.068450
 20
31.405660
 30
0.0
 10
132.909740
 20
31.664820
 30
0.0
 10
132.712390
 20
32.032190
 30
0.0
 10
132.492480
 20
32.468880
 30
0.0
  0
SPLINE
  5
17f
100
AcDbEntity
  8
Layer_1
 62
1
100
AcDbSpline
 70
8
 71
3
 72
8
 73
4
 74
0
 40
0
 40
0
 40
0
 40
0
 40
1
 40
1
 40
1
 40
1
 10
132.492480
 20
32.468880
 30
0.0
 10
132.052660
 20
33.342260
 30
0.0
 10
131.519280
 20
34.495980
 30
0.0
 10
131.004610
 20
35.646930
 30
0.0
  0
SPLINE
  5
180
100
AcDbEntity
  8
Layer_1
 62
1
100
AcDbSpline
 70
8
 71
3
 72
8
 73
4
 74
0
 40
0
 40
0
 40
0
 40
0
 40
1
 40
1
 40
1
 40
1
 10
131.004610
 20
35.646930
 30
0.0
 10
129.982890
 20
37.931650
 30
0.0
 10
129.047390
 20
40.168110
 30
0.0
 10
129.033280
 20
40.201880
 30
0.0
  0
LWPOLYLINE
  5
181
100
AcDbEntity
  8
Layer_1
 62
1
100
AcDbPolyline
 90
7
 70
0
 10
155.760790
 20
219.532000
 30
0.0
 10
155.683290
 20
219.604430
 30
0.0
 10
155.656190
 20
219.520600
 30
0.0
 10
150.733140
 20
210.294803
 30
0.0
 10
150.732350
 20
210.295357
 30
0.0
 10
139.605840
 20
198.044766
 30
0.0
 10
139.605450
 20
198.044088
 30
0.0
  0
SPLINE
  5
182
100
AcDbEntity
  8
Layer_1
 62
1
100
AcDbSpline
 70
8
 71
3
 72
8
 73
4
 74
0
 40
0
 40
0
 40
0
 40
0
 40
1
 40
1
 40
1
 40
1
 10
131.569740
 20
44.033590
 30
0.0
 10
131.535340
 20
44.231320
 30
0.0
 10
131.417240
 20
44.468680
 30
0.0
 10
131.260500
 20
44.737210
 30
0.0
  0
SPLINE
  5
183
100
AcDbEntity
  8
Layer_1
 62
1
100
AcDbSpline
 70
8
 71
3
 72
8
 73
4
 74
0
 40
0
 40
0
 40
0
 40
0
 40
1
 40
1
 40
1
 40
1
 10
131.260500
 20
44.737210
 30
0.0
 10
131.103920
 20
45.005640
 30
0.0
 10
130.908490
 20
45.302720
 30
0.0
 10
130.716390
 20
45.603420
 30
0.0
  0
SPLINE
  5
184
100
AcDbEntity
  8
Layer_1
 62
1
100
AcDbSpline
 70
8
 71
3
 72
8
 73
4
 74
0
 40
0
 40
0
 40
0
 40
0
 40
1
 40
1
 40
1
 40
1
 10
130.716390
 20
45.603420
 30
0.0
 10
130.332270
 20
46.204820
 30
0.0
 10
129.967030
 20
46.829980
 30
0.0
 10
129.952420
 20
47.235930
 30
0.0
  0
SPLINE
  5
185
100
AcDbEntity
  8
Layer_1
 62
1
100
AcDbSpline
 70
8
 71
3
 72
8
 73
4
 74
0
 40
0
 40
0
 40
0
 40
0
 40
1
 40
1
 40
1
 40
1
 10
129.952420
 20
47.235930
 30
0.0
 10
129.945420
 20
47.436990
 30
0.0
 10
130.031120
 20
47.729480
 30
0.0
 10
130.167930
 20
48.271150
 30
0.0
  0
SPLINE
  5
186
100
AcDbEntity
  8
Layer_1
 62
1
100
AcDbSpline
 70
8
 71
3
 72
8
 73
4
 74
0
 40
0
 40
0
 40
0
 40
0
 40
1
 40
1
 40
1
 40
1
 10
130.167930
 20
48.271150
 30
0.0
 10
130.304280
 20
48.813060
 30
0.0
 10
130.488940
 20
49.604910
 30
0.0
 10
130.670990
 20
50.818820
 30
0.0
  0
SPLINE
  5
187
100
AcDbEntity
  8
Layer_1
 62
1
100
AcDbSpline
 70
8
 71
3
 72
8
 73
4
 74
0
 40
0
 40
0
 40
0
 40
0
 40
1
 40
1
 40
1
 40
1
 10
130.670990
 20
50.818820
 30
0.0
 10
131.034850
 20
53.246780
 30
0.0
 10
131.390390
 20
57.367130
 30
0.0
 10
131.343160
 20
64.584990
 30
0.0
  0
SPLINE
  5
188
100
AcDbEntity
  8
Layer_1
 62
1
100
AcDbSpline
 70
8
 71
3
 72
8
 73
4
 74
0
 40
0
 40
0
 40
0
 40
0
 40
1
 40
1
 40
1
 40
1
 10
131.343160
 20
64.584990
 30
0.0
 10
131.294960
 20
71.807520
 30
0.0
 10
130.053970
 20
76.941840
 30
0.0
 10
128.824880
 20
80.272050
 30
0.0
  0
SPLINE
  5
189
100
AcDbEntity
  8
Layer_1
 62
1
100
AcDbSpline
 70
8
 71
3
 72
8
 73
4
 74
0
 40
0
 40
0
 40
0
 40
0
 40
1
 40
1
 40
1
 40
1
 10
128.824880
 20
80.272050
 30
0.0
 10
127.616150
 20
83.546980
 30
0.0
 10
126.439750
 20
85.044190
 30
0.0
 10
126.400170
 20
85.094240
 30
0.0
  0
SPLINE
  5
18a
100
AcDbEntity
  8
Layer_1
 62
1
100
AcDbSpline
 70
8
 71
3
 72
8
 73
4
 74
0
 40
0
 40
0
 40
0
 40
0
 40
1
 40
1
 40
1
 40
1
 10
126.400170
 20
85.094240
 30
0.0
 10
127.127020
 20
86.064060
 30
0.0
 10
128.583510
 20
88.705920
 30
0.0
 10
129.858750
 20
92.216700
 30
0.0
  0
SPLINE
  5
18b
100
AcDbEntity
  8
Layer_1
 62
1
100
AcDbSpline
 70
8
 71
3
 72
8
 73
4
 74
0
 40
0
 40
0
 40
0
 40
0
 40
1
 40
1
 40
1
 40
1
 10
129.858750
 20
92.216700
 30
0.0
 10
131.144580
 20
95.756460
 30
0.0
 10
132.234610
 20
100.155570
 30
0.0
 10
132.161780
 20
104.532790
 30
0.0
  0
SPLINE
  5
18c
100
AcDbEntity
  8
Layer_1
 62
1
100
AcDbSpline
 70
8
 71
3
 72
8
 73
4
 74
0
 40
0
 40
0
 40
0
 40
0
 40
1
 40
1
 40
1
 40
1
 10
132.161780
 20
104.532790
 30
0.0
 10
132.088180
 20
108.911450
 30
0.0
 10
130.682140
 20
111.772520
 30
0.0
 10
128.689730
 20
113.993480
 30
0.0
  0
SPLINE
  5
18d
100
AcDbEntity
  8
Layer_1
 62
1
100
AcDbSpline
 70
8
 71
3
 72
8
 73
4
 74
0
 40
0
 40
0
 40
0
 40
0
 40
1
 40
1
 40
1
 40
1
 10
128.689730
 20
113.993480
 30
0.0
 10
126.697320
 20
116.214420
 30
0.0
 10
124.123710
 20
117.796730
 30
0.0
 10
121.710580
 20
119.636710
 30
0.0
  0
SPLINE
  5
18e
100
AcDbEntity
  8
Layer_1
 62
1
100
AcDbSpline
 70
8
 71
3
 72
8
 73
4
 74
0
 40
0
 40
0
 40
0
 40
0
 40
1
 40
1
 40
1
 40
1
 10
121.710580
 20
119.636710
 30
0.0
 10
116.884760
 20
123.312730
 30
0.0
 10
114.028720
 20
127.567590
 30
0.0
 10
114.028720
 20
127.567590
 30
0.0
  0
LWPOLYLINE
  5
18f
100
AcDbEntity
  8
Layer_1
 62
1
100
AcDbPolyline
 90
3
 70
0
 10
129.033280
 20
40.201880
 30
0.0
 10
131.575740
 20
44.006290
 30
0.0
 10
131.569740
 20
44.033590
 30
0.0
  0
SPLINE
  5
190
100
AcDbEntity
  8
Layer_1
 62
1
100
AcDbSpline
 70
8
 71
3
 72
8
 73
4
 74
0
 40
0
 40
0
 40
0
 40
0
 40
1
 40
1
 40
1
 40
1
 10
113.935220
 20
127.584490
 30
0.0
 10
110.985630
 20
125.521490
 30
0.0
 10
109.477850
 20
124.343250
 30
0.0
 10
108.498970
 20
123.323700
 30
0.0
  0
SPLINE
  5
191
100
AcDbEntity
  8
Layer_1
 62
1
100
AcDbSpline
 70
8
 71
3
 72
8
 73
4
 74
0
 40
0
 40
0
 40
0
 40
0
 40
1
 40
1
 40
1
 40
1
 10
108.498970
 20
123.323700
 30
0.0
 10
107.519890
 20
122.304270
 30
0.0
 10
107.074700
 20
121.446690
 30
0.0
 10
106.252710
 20
120.037400
 30
0.0
  0
SPLINE
  5
192
100
AcDbEntity
  8
Layer_1
 62
1
100
AcDbSpline
 70
8
 71
3
 72
8
 73
4
 74
0
 40
0
 40
0
 40
0
 40
0
 40
1
 40
1
 40
1
 40
1
 10
106.252710
 20
120.037400
 30
0.0
 10
105.427240
 20
118.622130
 30
0.0
 10
105.179520
 20
117.911700
 30
0.0
 10
105.010510
 20
116.963940
 30
0.0
  0
SPLINE
  5
193
100
AcDbEntity
  8
Layer_1
 62
1
100
AcDbSpline
 70
8
 71
3
 72
8
 73
4
 74
0
 40
0
 40
0
 40
0
 40
0
 40
1
 40
1
 40
1
 40
1
 10
105.010510
 20
116.963940
 30
0.0
 10
104.841630
 20
116.016140
 30
0.0
 10
104.750120
 20
114.833180
 30
0.0
 10
104.226570
 20
112.439470
 30
0.0
  0
SPLINE
  5
194
100
AcDbEntity
  8
Layer_1
 62
1
100
AcDbSpline
 70
8
 71
3
 72
8
 73
4
 74
0
 40
0
 40
0
 40
0
 40
0
 40
1
 40
1
 40
1
 40
1
 10
104.226570
 20
112.439470
 30
0.0
 10
103.545460
 20
109.327990
 30
0.0
 10
101.816280
 20
107.075110
 30
0.0
 10
100.762340
 20
105.968790
 30
0.0
  0
SPLINE
  5
195
100
AcDbEntity
  8
Layer_1
 62
1
100
AcDbSpline
 70
8
 71
3
 72
8
 73
4
 74
0
 40
0
 40
0
 40
0
 40
0
 40
1
 40
1
 40
1
 40
1
 10
100.762340
 20
105.968790
 30
0.0
 10
100.880890
 20
106.218720
 30
0.0
 10
101.014260
 20
106.456730
 30
0.0
 10
101.258190
 20
107.179330
 30
0.0
  0
SPLINE
  5
196
100
AcDbEntity
  8
Layer_1
 62
1
100
AcDbSpline
 70
8
 71
3
 72
8
 73
4
 74
0
 40
0
 40
0
 40
0
 40
0
 40
1
 40
1
 40
1
 40
1
 10
101.258190
 20
107.179330
 30
0.0
 10
101.593590
 20
108.168010
 30
0.0
 10
101.946160
 20
109.525340
 30
0.0
 10
102.035280
 20
111.044520
 30
0.0
  0
LWPOLYLINE
  5
197
100
AcDbEntity
  8
Layer_1
 62
1
100
AcDbPolyline
 90
3
 70
0
 10
114.028720
 20
127.567590
 30
0.0
 10
113.990420
 20
127.623190
 30
0.0
 10
113.935220
 20
127.584490
 30
0.0
  0
SPLINE
  5
198
100
AcDbEntity
  8
Layer_1
 62
1
100
AcDbSpline
 70
8
 71
3
 72
8
 73
4
 74
0
 40
0
 40
0
 40
0
 40
0
 40
1
 40
1
 40
1
 40
1
 10
102.034520
 20
111.046520
 30
0.0
 10
102.291890
 20
114.122730
 30
0.0
 10
102.350500
 20
116.687470
 30
0.0
 10
102.354190
 20
116.846270
 30
0.0
  0
SPLINE
  5
199
100
AcDbEntity
  8
Layer_1
 62
1
100
AcDbSpline
 70
8
 71
3
 72
8
 73
4
 74
0
 40
0
 40
0
 40
0
 40
0
 40
1
 40
1
 40
1
 40
1
 10
102.354190
 20
116.846270
 30
0.0
 10
103.688660
 20
121.986720
 30
0.0
 10
105.443490
 20
123.727470
 30
0.0
 10
108.419670
 20
126.859870
 30
0.0
  0
SPLINE
  5
19a
100
AcDbEntity
  8
Layer_1
 62
1
100
AcDbSpline
 70
8
 71
3
 72
8
 73
4
 74
0
 40
0
 40
0
 40
0
 40
0
 40
1
 40
1
 40
1
 40
1
 10
108.419670
 20
126.859870
 30
0.0
 10
109.974930
 20
128.496930
 30
0.0
 10
110.915940
 20
129.735690
 30
0.0
 10
111.469190
 20
130.566950
 30
0.0
  0
SPLINE
  5
19b
100
AcDbEntity
  8
Layer_1
 62
1
100
AcDbSpline
 70
8
 71
3
 72
8
 73
4
 74
0
 40
0
 40
0
 40
0
 40
0
 40
1
 40
1
 40
1
 40
1
 10
111.469190
 20
130.566950
 30
0.0
 10
112.022600
 20
131.398120
 30
0.0
 10
112.192080
 20
131.825080
 30
0.0
 10
112.192080
 20
131.825080
 30
0.0
  0
LWPOLYLINE
  5
19c
100
AcDbEntity
  8
Layer_1
 62
1
100
AcDbPolyline
 90
2
 70
0
 10
102.035280
 20
111.044520
 30
0.0
 10
102.034520
 20
111.046520
 30
0.0
  0
SPLINE
  5
19d
100
AcDbEntity
  8
Layer_1
 62
1
100
AcDbSpline
 70
8
 71
3
 72
8
 73
4
 74
0
 40
0
 40
0
 40
0
 40
0
 40
1
 40
1
 40
1
 40
1
 10
112.190680
 20
131.878780
 30
0.0
 10
108.203150
 20
139.590480
 30
0.0
 10
110.628210
 20
146.356760
 30
0.0
 10
112.040350
 20
150.832760
 30
0.0
  0
LWPOLYLINE
  5
19e
100
AcDbEntity
  8
Layer_1
 62
1
100
AcDbPolyline
 90
3
 70
0
 10
112.192080
 20
131.825080
 30
0.0
 10
112.203180
 20
131.853480
 30
0.0
 10
112.190680
 20
131.878780
 30
0.0
  0
SPLINE
  5
19f
100
AcDbEntity
  8
Layer_1
 62
1
100
AcDbSpline
 70
8
 71
3
 72
8
 73
4
 74
0
 40
0
 40
0
 40
0
 40
0
 40
1
 40
1
 40
1
 40
1
 10
112.040740
 20
150.833450
 30
0.0
 10
113.446710
 20
155.293100
 30
0.0
 10
118.607260
 20
166.071270
 30
0.0
 10
123.354430
 20
182.390450
 30
0.0
  0
LWPOLYLINE
  5
1a0
100
AcDbEntity
  8
Layer_1
 62
1
100
AcDbPolyline
 90
2
 70
0
 10
112.040350
 20
150.832760
 30
0.0
 10
112.040740
 20
150.833450
 30
0.0
  0
SPLINE
  5
1a1
100
AcDbEntity
  8
Layer_1
 62
1
100
AcDbSpline
 70
8
 71
3
 72
8
 73
4
 74
0
 40
0
 40
0
 40
0
 40
0
 40
1
 40
1
 40
1
 40
1
 10
123.354070
 20
182.392130
 30
0.0
 10
127.400460
 20
199.066973
 30
0.0
 10
127.038860
 20
211.178694
 30
0.0
 10
124.801540
 20
224.377026
 30
0.0
  0
SPLINE
  5
1a2
100
AcDbEntity
  8
Layer_1
 62
1
100
AcDbSpline
 70
8
 71
3
 72
8
 73
4
 74
0
 40
0
 40
0
 40
0
 40
0
 40
1
 40
1
 40
1
 40
1
 10
124.801540
 20
224.377026
 30
0.0
 10
122.565540
 20
237.587818
 30
0.0
 10
114.752110
 20
251.334962
 30
0.0
 10
114.752110
 20
251.334962
 30
0.0
  0
LWPOLYLINE
  5
1a3
100
AcDbEntity
  8
Layer_1
 62
1
100
AcDbPolyline
 90
3
 70
0
 10
123.354430
 20
182.390450
 30
0.0
 10
123.354830
 20
182.391130
 30
0.0
 10
123.354070
 20
182.392130
 30
0.0
  0
SPLINE
  5
1a4
100
AcDbEntity
  8
Layer_1
 62
1
100
AcDbSpline
 70
8
 71
3
 72
8
 73
4
 74
0
 40
0
 40
0
 40
0
 40
0
 40
1
 40
1
 40
1
 40
1
 10
114.654410
 20
251.353272
 30
0.0
 10
108.191860
 20
246.536075
 30
0.0
 10
103.838130
 20
244.817157
 30
0.0
 10
101.107220
 20
244.300152
 30
0.0
  0
SPLINE
  5
1a5
100
AcDbEntity
  8
Layer_1
 62
1
100
AcDbSpline
 70
8
 71
3
 72
8
 73
4
 74
0
 40
0
 40
0
 40
0
 40
0
 40
1
 40
1
 40
1
 40
1
 10
101.107220
 20
244.300152
 30
0.0
 10
99.741753
 20
244.041636
 30
0.0
 10
98.782768
 20
244.082732
 30
0.0
 10
98.166172
 20
244.187772
 30
0.0
  0
SPLINE
  5
1a6
100
AcDbEntity
  8
Layer_1
 62
1
100
AcDbSpline
 70
8
 71
3
 72
8
 73
4
 74
0
 40
0
 40
0
 40
0
 40
0
 40
1
 40
1
 40
1
 40
1
 10
98.166172
 20
244.187772
 30
0.0
 10
97.587169
 20
244.286402
 30
0.0
 10
97.366894
 20
244.424137
 30
0.0
 10
97.336047
 20
244.442129
 30
0.0
  0
SPLINE
  5
1a7
100
AcDbEntity
  8
Layer_1
 62
1
100
AcDbSpline
 70
8
 71
3
 72
8
 73
4
 74
0
 40
0
 40
0
 40
0
 40
0
 40
1
 40
1
 40
1
 40
1
 10
97.336047
 20
244.442129
 30
0.0
 10
100.580780
 20
254.056968
 30
0.0
 10
107.419810
 20
259.843166
 30
0.0
 10
107.419810
 20
259.843166
 30
0.0
  0
LWPOLYLINE
  5
1a8
100
AcDbEntity
  8
Layer_1
 62
1
100
AcDbPolyline
 90
3
 70
0
 10
114.752110
 20
251.334962
 30
0.0
 10
114.714610
 20
251.400382
 30
0.0
 10
114.654410
 20
251.353272
 30
0.0
  0
SPLINE
  5
1a9
100
AcDbEntity
  8
Layer_1
 62
1
100
AcDbSpline
 70
8
 71
3
 72
8
 73
4
 74
0
 40
0
 40
0
 40
0
 40
0
 40
1
 40
1
 40
1
 40
1
 10
107.402710
 20
259.958496
 30
0.0
 10
105.050150
 20
261.001172
 30
0.0
 10
100.952870
 20
262.077718
 30
0.0
 10
93.118749
 20
258.200409
 30
0.0
  0
SPLINE
  5
1aa
100
AcDbEntity
  8
Layer_1
 62
1
100
AcDbSpline
 70
8
 71
3
 72
8
 73
4
 74
0
 40
0
 40
0
 40
0
 40
0
 40
1
 40
1
 40
1
 40
1
 10
93.118749
 20
258.200409
 30
0.0
 10
86.755235
 20
255.054125
 30
0.0
 10
78.263468
 20
254.457356
 30
0.0
 10
75.471143
 20
254.242543
 30
0.0
  0
LWPOLYLINE
  5
1ab
100
AcDbEntity
  8
Layer_1
 62
1
100
AcDbPolyline
 90
3
 70
0
 10
107.419810
 20
259.843166
 30
0.0
 10
107.499010
 20
259.913516
 30
0.0
 10
107.402710
 20
259.958496
 30
0.0
  0
SPLINE
  5
1ac
100
AcDbEntity
  8
Layer_1
 62
1
100
AcDbSpline
 70
8
 71
3
 72
8
 73
4
 74
0
 40
0
 40
0
 40
0
 40
0
 40
1
 40
1
 40
1
 40
1
 10
94.900509
 20
263.089043
 30
0.0
 10
101.769720
 20
268.783300
 30
0.0
 10
111.151890
 20
268.495315
 30
0.0
 10
111.151890
 20
268.495315
 30
0.0
  0
SPLINE
  5
1ad
100
AcDbEntity
  8
Layer_1
 62
1
100
AcDbSpline
 70
8
 71
3
 72
8
 73
4
 74
0
 40
0
 40
0
 40
0
 40
0
 40
1
 40
1
 40
1
 40
1
 10
111.151890
 20
268.495315
 30
0.0
 10
111.309110
 20
268.946038
 30
0.0
 10
112.966090
 20
271.979235
 30
0.0
 10
115.460830
 20
274.200522
 30
0.0
  0
SPLINE
  5
1ae
100
AcDbEntity
  8
Layer_1
 62
1
100
AcDbSpline
 70
8
 71
3
 72
8
 73
4
 74
0
 40
0
 40
0
 40
0
 40
0
 40
1
 40
1
 40
1
 40
1
 10
115.460830
 20
274.200522
 30
0.0
 10
117.961770
 20
276.420278
 30
0.0
 10
121.134860
 20
276.627593
 30
0.0
 10
125.248920
 20
278.444478
 30
0.0
  0
SPLINE
  5
1af
100
AcDbEntity
  8
Layer_1
 62
1
100
AcDbSpline
 70
8
 71
3
 72
8
 73
4
 74
0
 40
0
 40
0
 40
0
 40
0
 40
1
 40
1
 40
1
 40
1
 10
125.248920
 20
278.444478
 30
0.0
 10
128.713350
 20
279.971107
 30
0.0
 10
133.122190
 20
283.300293
 30
0.0
 10
134.251770
 20
284.132947
 30
0.0
  0
LWPOLYLINE
  5
1b0
100
AcDbEntity
  8
Layer_1
 62
1
100
AcDbPolyline
 90
2
 70
0
 10
75.471143
 20
254.242543
 30
0.0
 10
75.478048
 20
254.239814
 30
0.0
  0
SPLINE
  5
1b1
100
AcDbEntity
  8
Layer_1
 62
1
100
AcDbSpline
 70
8
 71
3
 72
8
 73
4
 74
0
 40
0
 40
0
 40
0
 40
0
 40
1
 40
1
 40
1
 40
1
 10
134.248770
 20
284.129047
 30
0.0
 10
134.519030
 20
283.899581
 30
0.0
 10
135.227690
 20
281.598786
 30
0.0
 10
133.095910
 20
279.638164
 30
0.0
  0
SPLINE
  5
1b2
100
AcDbEntity
  8
Layer_1
 62
1
100
AcDbSpline
 70
8
 71
3
 72
8
 73
4
 74
0
 40
0
 40
0
 40
0
 40
0
 40
1
 40
1
 40
1
 40
1
 10
133.095910
 20
279.638164
 30
0.0
 10
133.096700
 20
279.637693
 30
0.0
 10
133.104910
 20
279.644464
 30
0.0
 10
133.104910
 20
279.644464
 30
0.0
  0
SPLINE
  5
1b3
100
AcDbEntity
  8
Layer_1
 62
1
100
AcDbSpline
 70
8
 71
3
 72
8
 73
4
 74
0
 40
0
 40
0
 40
0
 40
0
 40
1
 40
1
 40
1
 40
1
 10
133.104910
 20
279.644464
 30
0.0
 10
134.964520
 20
280.919563
 30
0.0
 10
136.456300
 20
280.898009
 30
0.0
 10
136.456300
 20
280.898009
 30
0.0
  0
SPLINE
  5
1b4
100
AcDbEntity
  8
Layer_1
 62
1
100
AcDbSpline
 70
8
 71
3
 72
8
 73
4
 74
0
 40
0
 40
0
 40
0
 40
0
 40
1
 40
1
 40
1
 40
1
 10
136.456300
 20
280.898009
 30
0.0
 10
136.456300
 20
280.898009
 30
0.0
 10
135.724710
 20
277.189069
 30
0.0
 10
133.291270
 20
270.973699
 30
0.0
  0
SPLINE
  5
1b5
100
AcDbEntity
  8
Layer_1
 62
1
100
AcDbSpline
 70
8
 71
3
 72
8
 73
4
 74
0
 40
0
 40
0
 40
0
 40
0
 40
1
 40
1
 40
1
 40
1
 10
133.291270
 20
270.973699
 30
0.0
 10
132.189570
 20
268.158602
 30
0.0
 10
130.891570
 20
266.013499
 30
0.0
 10
129.800480
 20
264.508856
 30
0.0
  0
SPLINE
  5
1b6
100
AcDbEntity
  8
Layer_1
 62
1
100
AcDbSpline
 70
8
 71
3
 72
8
 73
4
 74
0
 40
0
 40
0
 40
0
 40
0
 40
1
 40
1
 40
1
 40
1
 10
129.800480
 20
264.508856
 30
0.0
 10
129.800390
 20
264.509642
 30
0.0
 10
129.800450
 20
264.510456
 30
0.0
 10
129.800370
 20
264.512756
 30
0.0
  0
SPLINE
  5
1b7
100
AcDbEntity
  8
Layer_1
 62
1
100
AcDbSpline
 70
8
 71
3
 72
8
 73
4
 74
0
 40
0
 40
0
 40
0
 40
0
 40
1
 40
1
 40
1
 40
1
 10
129.800370
 20
264.512756
 30
0.0
 10
128.946370
 20
263.334300
 30
0.0
 10
128.219420
 20
262.544544
 30
0.0
 10
127.814860
 20
262.138042
 30
0.0
  0
SPLINE
  5
1b8
100
AcDbEntity
  8
Layer_1
 62
1
100
AcDbSpline
 70
8
 71
3
 72
8
 73
4
 74
0
 40
0
 40
0
 40
0
 40
0
 40
1
 40
1
 40
1
 40
1
 10
127.814860
 20
262.138042
 30
0.0
 10
127.690900
 20
262.000130
 30
0.0
 10
127.562650
 20
261.856001
 30
0.0
 10
127.425540
 20
261.708656
 30
0.0
  0
SPLINE
  5
1b9
100
AcDbEntity
  8
Layer_1
 62
1
100
AcDbSpline
 70
8
 71
3
 72
8
 73
4
 74
0
 40
0
 40
0
 40
0
 40
0
 40
1
 40
1
 40
1
 40
1
 10
127.425540
 20
261.708656
 30
0.0
 10
126.019340
 20
260.193157
 30
0.0
 10
122.588690
 20
259.167298
 30
0.0
 10
121.276030
 20
258.817631
 30
0.0
  0
SPLINE
  5
1ba
100
AcDbEntity
  8
Layer_1
 62
1
100
AcDbSpline
 70
8
 71
3
 72
8
 73
4
 74
0
 40
0
 40
0
 40
0
 40
0
 40
1
 40
1
 40
1
 40
1
 10
121.276030
 20
258.817631
 30
0.0
 10
121.307730
 20
258.787961
 30
0.0
 10
121.337430
 20
258.749111
 30
0.0
 10
121.365730
 20
258.710862
 30
0.0
  0
SPLINE
  5
1bb
100
AcDbEntity
  8
Layer_1
 62
1
100
AcDbSpline
 70
8
 71
3
 72
8
 73
4
 74
0
 40
0
 40
0
 40
0
 40
0
 40
1
 40
1
 40
1
 40
1
 10
121.365730
 20
258.710862
 30
0.0
 10
126.816170
 20
258.915306
 30
0.0
 10
127.106780
 20
258.544258
 30
0.0
 10
127.106780
 20
258.544258
 30
0.0
  0
SPLINE
  5
1bc
100
AcDbEntity
  8
Layer_1
 62
1
100
AcDbSpline
 70
8
 71
3
 72
8
 73
4
 74
0
 40
0
 40
0
 40
0
 40
0
 40
1
 40
1
 40
1
 40
1
 10
127.106780
 20
258.544258
 30
0.0
 10
140.930330
 20
239.542202
 30
0.0
 10
144.555020
 20
225.115542
 30
0.0
 10
145.305850
 20
221.397095
 30
0.0
  0
SPLINE
  5
1bd
100
AcDbEntity
  8
Layer_1
 62
1
100
AcDbSpline
 70
8
 71
3
 72
8
 73
4
 74
0
 40
0
 40
0
 40
0
 40
0
 40
1
 40
1
 40
1
 40
1
 10
145.305850
 20
221.397095
 30
0.0
 10
145.402250
 20
220.919925
 30
0.0
 10
145.445570
 20
220.658871
 30
0.0
 10
145.463440
 20
220.545903
 30
0.0
  0
SPLINE
  5
1be
100
AcDbEntity
  8
Layer_1
 62
1
100
AcDbSpline
 70
8
 71
3
 72
8
 73
4
 74
0
 40
0
 40
0
 40
0
 40
0
 40
1
 40
1
 40
1
 40
1
 10
145.463440
 20
220.545903
 30
0.0
 10
145.451540
 20
220.525613
 30
0.0
 10
145.437640
 20
220.500993
 30
0.0
 10
145.426340
 20
220.481543
 30
0.0
  0
LWPOLYLINE
  5
1bf
100
AcDbEntity
  8
Layer_1
 62
1
100
AcDbPolyline
 90
2
 70
0
 10
134.251770
 20
284.132947
 30
0.0
 10
134.248770
 20
284.129047
 30
0.0
  0
SPLINE
  5
1c0
100
AcDbEntity
  8
Layer_1
 62
1
100
AcDbSpline
 70
8
 71
3
 72
8
 73
4
 74
0
 40
0
 40
0
 40
0
 40
0
 40
1
 40
1
 40
1
 40
1
 10
145.150160
 20
220.008095
 30
0.0
 10
145.149730
 20
220.007468
 30
0.0
 10
145.073260
 20
219.895012
 30
0.0
 10
144.944890
 20
219.721543
 30
0.0
  0
SPLINE
  5
1c1
100
AcDbEntity
  8
Layer_1
 62
1
100
AcDbSpline
 70
8
 71
3
 72
8
 73
4
 74
0
 40
0
 40
0
 40
0
 40
0
 40
1
 40
1
 40
1
 40
1
 10
144.944890
 20
219.721543
 30
0.0
 10
144.543710
 20
219.417479
 30
0.0
 10
143.630500
 20
218.987649
 30
0.0
 10
141.884490
 20
219.337954
 30
0.0
  0
SPLINE
  5
1c2
100
AcDbEntity
  8
Layer_1
 62
1
100
AcDbSpline
 70
8
 71
3
 72
8
 73
4
 74
0
 40
0
 40
0
 40
0
 40
0
 40
1
 40
1
 40
1
 40
1
 10
141.884490
 20
219.337954
 30
0.0
 10
139.344590
 20
219.846191
 30
0.0
 10
136.442710
 20
225.588946
 30
0.0
 10
134.393440
 20
231.427207
 30
0.0
  0
SPLINE
  5
1c3
100
AcDbEntity
  8
Layer_1
 62
1
100
AcDbSpline
 70
8
 71
3
 72
8
 73
4
 74
0
 40
0
 40
0
 40
0
 40
0
 40
1
 40
1
 40
1
 40
1
 10
134.393440
 20
231.427207
 30
0.0
 10
132.345910
 20
237.268813
 30
0.0
 10
127.559290
 20
246.188574
 30
0.0
 10
125.703730
 20
249.516899
 30
0.0
  0
SPLINE
  5
1c4
100
AcDbEntity
  8
Layer_1
 62
1
100
AcDbSpline
 70
8
 71
3
 72
8
 73
4
 74
0
 40
0
 40
0
 40
0
 40
0
 40
1
 40
1
 40
1
 40
1
 10
125.703730
 20
249.516899
 30
0.0
 10
125.523370
 20
249.858461
 30
0.0
 10
125.349630
 20
250.175446
 30
0.0
 10
125.174710
 20
250.496733
 30
0.0
  0
LWPOLYLINE
  5
1c5
100
AcDbEntity
  8
Layer_1
 62
1
100
AcDbPolyline
 90
5
 70
0
 10
145.426340
 20
220.481543
 30
0.0
 10
145.424340
 20
220.477443
 30
0.0
 10
145.423940
 20
220.476764
 30
0.0
 10
145.152160
 20
220.010795
 30
0.0
 10
145.150160
 20
220.008095
 30
0.0
  0
SPLINE
  5
1c6
100
AcDbEntity
  8
Layer_1
 62
1
100
AcDbSpline
 70
8
 71
3
 72
8
 73
4
 74
0
 40
0
 40
0
 40
0
 40
0
 40
1
 40
1
 40
1
 40
1
 10
125.240110
 20
250.534243
 30
0.0
 10
125.239880
 20
250.534662
 30
0.0
 10
125.239330
 20
250.534521
 30
0.0
 10
125.239330
 20
250.534718
 30
0.0
  0
SPLINE
  5
1c7
100
AcDbEntity
  8
Layer_1
 62
1
100
AcDbSpline
 70
8
 71
3
 72
8
 73
4
 74
0
 40
0
 40
0
 40
0
 40
0
 40
1
 40
1
 40
1
 40
1
 10
125.239330
 20
250.534718
 30
0.0
 10
125.232330
 20
250.550148
 30
0.0
 10
125.233330
 20
250.543618
 30
0.0
 10
125.226130
 20
250.558718
 30
0.0
  0
SPLINE
  5
1c8
100
AcDbEntity
  8
Layer_1
 62
1
100
AcDbSpline
 70
8
 71
3
 72
8
 73
4
 74
0
 40
0
 40
0
 40
0
 40
0
 40
1
 40
1
 40
1
 40
1
 10
125.226130
 20
250.558718
 30
0.0
 10
124.366830
 20
252.097269
 30
0.0
 10
123.825890
 20
253.037548
 30
0.0
 10
123.822380
 20
253.043633
 30
0.0
  0
LWPOLYLINE
  5
1c9
100
AcDbEntity
  8
Layer_1
 62
1
100
AcDbPolyline
 90
2
 70
0
 10
125.174710
 20
250.496733
 30
0.0
 10
125.240110
 20
250.534243
 30
0.0
  0
SPLINE
  5
1ca
100
AcDbEntity
  8
Layer_1
 62
1
100
AcDbSpline
 70
8
 71
3
 72
8
 73
4
 74
0
 40
0
 40
0
 40
0
 40
0
 40
1
 40
1
 40
1
 40
1
 10
123.764060
 20
253.021473
 30
0.0
 10
121.824910
 20
256.296220
 30
0.0
 10
120.294260
 20
258.516853
 30
0.0
 10
120.294260
 20
258.516853
 30
0.0
  0
LWPOLYLINE
  5
1cb
100
AcDbEntity
  8
Layer_1
 62
1
100
AcDbPolyline
 90
4
 70
0
 10
123.822380
 20
253.043633
 30
0.0
 10
123.822260
 20
253.047333
 30
0.0
 10
123.820260
 20
253.052433
 30
0.0
 10
123.764060
 20
253.021473
 30
0.0
  0
SPLINE
  5
1cc
100
AcDbEntity
  8
Layer_1
 62
1
100
AcDbSpline
 70
8
 71
3
 72
8
 73
4
 74
0
 40
0
 40
0
 40
0
 40
0
 40
1
 40
1
 40
1
 40
1
 10
120.293470
 20
258.517329
 30
0.0
 10
119.089780
 20
260.050180
 30
0.0
 10
118.619070
 20
261.237104
 30
0.0
 10
118.508760
 20
262.176939
 30
0.0
  0
SPLINE
  5
1cd
100
AcDbEntity
  8
Layer_1
 62
1
100
AcDbSpline
 70
8
 71
3
 72
8
 73
4
 74
0
 40
0
 40
0
 40
0
 40
0
 40
1
 40
1
 40
1
 40
1
 10
118.508760
 20
262.176939
 30
0.0
 10
118.398500
 20
263.116743
 30
0.0
 10
118.647020
 20
263.812494
 30
0.0
 10
118.897120
 20
264.377046
 30
0.0
  0
SPLINE
  5
1ce
100
AcDbEntity
  8
Layer_1
 62
1
100
AcDbSpline
 70
8
 71
3
 72
8
 73
4
 74
0
 40
0
 40
0
 40
0
 40
0
 40
1
 40
1
 40
1
 40
1
 10
118.897120
 20
264.377046
 30
0.0
 10
119.350950
 20
265.402570
 30
0.0
 10
120.232330
 20
267.028556
 30
0.0
 10
120.400840
 20
267.309967
 30
0.0
  0
LWPOLYLINE
  5
1cf
100
AcDbEntity
  8
Layer_1
 62
1
100
AcDbPolyline
 90
2
 70
0
 10
120.294260
 20
258.516853
 30
0.0
 10
120.293470
 20
258.517329
 30
0.0
  0
SPLINE
  5
1d0
100
AcDbEntity
  8
Layer_1
 62
1
100
AcDbSpline
 70
8
 71
3
 72
8
 73
4
 74
0
 40
0
 40
0
 40
0
 40
0
 40
1
 40
1
 40
1
 40
1
 10
120.422040
 20
267.341940
 30
0.0
 10
120.422790
 20
267.343540
 30
0.0
 10
120.424040
 20
267.345040
 30
0.0
 10
120.427040
 20
267.350440
 30
0.0
  0
SPLINE
  5
1d1
100
AcDbEntity
  8
Layer_1
 62
1
100
AcDbSpline
 70
8
 71
3
 72
8
 73
4
 74
0
 40
0
 40
0
 40
0
 40
0
 40
1
 40
1
 40
1
 40
1
 10
120.427040
 20
267.350440
 30
0.0
 10
120.441840
 20
267.374480
 30
0.0
 10
120.451340
 20
267.390740
 30
0.0
 10
120.451340
 20
267.390740
 30
0.0
  0
LWPOLYLINE
  5
1d2
100
AcDbEntity
  8
Layer_1
 62
1
100
AcDbPolyline
 90
3
 70
0
 10
120.400840
 20
267.309967
 30
0.0
 10
120.420040
 20
267.342247
 30
0.0
 10
120.422040
 20
267.341940
 30
0.0
  0
SPLINE
  5
1d3
100
AcDbEntity
  8
Layer_1
 62
1
100
AcDbSpline
 70
8
 71
3
 72
8
 73
4
 74
0
 40
0
 40
0
 40
0
 40
0
 40
1
 40
1
 40
1
 40
1
 10
120.472860
 20
267.431865
 30
0.0
 10
120.602160
 20
267.663051
 30
0.0
 10
121.000120
 20
268.363789
 30
0.0
 10
121.531310
 20
269.024342
 30
0.0
  0
SPLINE
  5
1d4
100
AcDbEntity
  8
Layer_1
 62
1
100
AcDbSpline
 70
8
 71
3
 72
8
 73
4
 74
0
 40
0
 40
0
 40
0
 40
0
 40
1
 40
1
 40
1
 40
1
 10
121.531310
 20
269.024342
 30
0.0
 10
122.057910
 20
269.681627
 30
0.0
 10
127.649550
 20
272.920143
 30
0.0
 10
130.019920
 20
275.977187
 30
0.0
  0
SPLINE
  5
1d5
100
AcDbEntity
  8
Layer_1
 62
1
100
AcDbSpline
 70
8
 71
3
 72
8
 73
4
 74
0
 40
0
 40
0
 40
0
 40
0
 40
1
 40
1
 40
1
 40
1
 10
130.019920
 20
275.977187
 30
0.0
 10
130.539370
 20
276.647425
 30
0.0
 10
130.906320
 20
277.310192
 30
0.0
 10
131.028170
 20
277.934581
 30
0.0
  0
SPLINE
  5
1d6
100
AcDbEntity
  8
Layer_1
 62
1
100
AcDbSpline
 70
8
 71
3
 72
8
 73
4
 74
0
 40
0
 40
0
 40
0
 40
0
 40
1
 40
1
 40
1
 40
1
 10
131.028170
 20
277.934581
 30
0.0
 10
131.028170
 20
277.934581
 30
0.0
 10
131.007970
 20
277.919181
 30
0.0
 10
131.005670
 20
277.915021
 30
0.0
  0
LWPOLYLINE
  5
1d7
100
AcDbEntity
  8
Layer_1
 62
1
100
AcDbPolyline
 90
4
 70
0
 10
120.451340
 20
267.390740
 30
0.0
 10
120.450560
 20
267.391219
 30
0.0
 10
120.474860
 20
267.432069
 30
0.0
 10
120.472860
 20
267.431865
 30
0.0
  0
SPLINE
  5
1d8
100
AcDbEntity
  8
Layer_1
 62
1
100
AcDbSpline
 70
8
 71
3
 72
8
 73
4
 74
0
 40
0
 40
0
 40
0
 40
0
 40
1
 40
1
 40
1
 40
1
 10
131.005270
 20
277.914345
 30
0.0
 10
131.003270
 20
277.915131
 30
0.0
 10
130.994070
 20
277.904645
 30
0.0
 10
130.987470
 20
277.902955
 30
0.0
  0
SPLINE
  5
1d9
100
AcDbEntity
  8
Layer_1
 62
1
100
AcDbSpline
 70
8
 71
3
 72
8
 73
4
 74
0
 40
0
 40
0
 40
0
 40
0
 40
1
 40
1
 40
1
 40
1
 10
130.987470
 20
277.902955
 30
0.0
 10
130.982470
 20
277.900555
 30
0.0
 10
130.983470
 20
277.899855
 30
0.0
 10
130.978470
 20
277.896655
 30
0.0
  0
SPLINE
  5
1da
100
AcDbEntity
  8
Layer_1
 62
1
100
AcDbSpline
 70
8
 71
3
 72
8
 73
4
 74
0
 40
0
 40
0
 40
0
 40
0
 40
1
 40
1
 40
1
 40
1
 10
130.978470
 20
277.896655
 30
0.0
 10
130.485400
 20
277.517215
 30
0.0
 10
125.583110
 20
273.773854
 30
0.0
 10
122.496400
 20
272.630483
 30
0.0
  0
SPLINE
  5
1db
100
AcDbEntity
  8
Layer_1
 62
1
100
AcDbSpline
 70
8
 71
3
 72
8
 73
4
 74
0
 40
0
 40
0
 40
0
 40
0
 40
1
 40
1
 40
1
 40
1
 10
122.496400
 20
272.630483
 30
0.0
 10
119.251200
 20
271.428749
 30
0.0
 10
116.660730
 20
270.490603
 30
0.0
 10
115.713560
 20
269.247553
 30
0.0
  0
SPLINE
  5
1dc
100
AcDbEntity
  8
Layer_1
 62
1
100
AcDbSpline
 70
8
 71
3
 72
8
 73
4
 74
0
 40
0
 40
0
 40
0
 40
0
 40
1
 40
1
 40
1
 40
1
 10
115.713560
 20
269.247553
 30
0.0
 10
114.866030
 20
268.135271
 30
0.0
 10
114.224580
 20
266.769504
 30
0.0
 10
114.093750
 20
266.489530
 30
0.0
  0
LWPOLYLINE
  5
1dd
100
AcDbEntity
  8
Layer_1
 62
1
100
AcDbPolyline
 90
2
 70
0
 10
131.005670
 20
277.915021
 30
0.0
 10
131.005270
 20
277.914345
 30
0.0
  0
SPLINE
  5
1de
100
AcDbEntity
  8
Layer_1
 62
1
100
AcDbSpline
 70
8
 71
3
 72
8
 73
4
 74
0
 40
0
 40
0
 40
0
 40
0
 40
1
 40
1
 40
1
 40
1
 10
114.051050
 20
266.481630
 30
0.0
 10
114.025350
 20
266.474530
 30
0.0
 10
113.916430
 20
266.457120
 30
0.0
 10
113.885300
 20
266.451390
 30
0.0
  0
SPLINE
  5
1df
100
AcDbEntity
  8
Layer_1
 62
1
100
AcDbSpline
 70
8
 71
3
 72
8
 73
4
 74
0
 40
0
 40
0
 40
0
 40
0
 40
1
 40
1
 40
1
 40
1
 10
113.885300
 20
266.451390
 30
0.0
 10
112.026090
 20
266.104603
 30
0.0
 10
103.956460
 20
264.686945
 30
0.0
 10
103.956460
 20
264.686945
 30
0.0
  0
LWPOLYLINE
  5
1e0
100
AcDbEntity
  8
Layer_1
 62
1
100
AcDbPolyline
 90
2
 70
0
 10
114.093750
 20
266.489530
 30
0.0
 10
114.051050
 20
266.481630
 30
0.0
  0
SPLINE
  5
1e1
100
AcDbEntity
  8
Layer_1
 62
1
100
AcDbSpline
 70
8
 71
3
 72
8
 73
4
 74
0
 40
0
 40
0
 40
0
 40
0
 40
1
 40
1
 40
1
 40
1
 10
103.962460
 20
264.687730
 30
0.0
 10
100.902080
 20
264.488584
 30
0.0
 10
95.901013
 20
263.330879
 30
0.0
 10
94.897263
 20
263.091204
 30
0.0
  0
LWPOLYLINE
  5
1e2
100
AcDbEntity
  8
Layer_1
 62
1
100
AcDbPolyline
 90
2
 70
0
 10
103.956460
 20
264.686945
 30
0.0
 10
103.962460
 20
264.687730
 30
0.0
  0
LWPOLYLINE
  5
1e3
100
AcDbEntity
  8
Layer_1
 62
1
100
AcDbPolyline
 90
2
 70
0
 10
94.897263
 20
263.091204
 30
0.0
 10
94.900509
 20
263.089043
 30
0.0
  0
SPLINE
  5
1e4
100
AcDbEntity
  8
Layer_1
 62
1
100
AcDbSpline
 70
8
 71
3
 72
8
 73
4
 74
0
 40
0
 40
0
 40
0
 40
0
 40
1
 40
1
 40
1
 40
1
 10
102.314990
 20
248.014415
 30
0.0
 10
111.113370
 20
250.544632
 30
0.0
 10
115.394620
 20
258.175379
 30
0.0
 10
115.394620
 20
258.175379
 30
0.0
  0
LWPOLYLINE
  5
1e5
100
AcDbEntity
  8
Layer_1
 62
1
100
AcDbPolyline
 90
2
 70
0
 10
102.144220
 20
247.965335
 30
0.0
 10
102.314990
 20
248.014415
 30
0.0
  0
SPLINE
  5
1e6
100
AcDbEntity
  8
Layer_1
 62
1
100
AcDbSpline
 70
8
 71
3
 72
8
 73
4
 74
0
 40
0
 40
0
 40
0
 40
0
 40
1
 40
1
 40
1
 40
1
 10
115.336050
 20
258.275969
 30
0.0
 10
115.336050
 20
258.275969
 30
0.0
 10
113.882400
 20
258.291359
 30
0.0
 10
112.369940
 20
258.283869
 30
0.0
  0
SPLINE
  5
1e7
100
AcDbEntity
  8
Layer_1
 62
1
100
AcDbSpline
 70
8
 71
3
 72
8
 73
4
 74
0
 40
0
 40
0
 40
0
 40
0
 40
1
 40
1
 40
1
 40
1
 10
112.369940
 20
258.283869
 30
0.0
 10
111.613660
 20
258.280069
 30
0.0
 10
110.842410
 20
258.270189
 30
0.0
 10
110.231140
 20
258.249259
 30
0.0
  0
SPLINE
  5
1e8
100
AcDbEntity
  8
Layer_1
 62
1
100
AcDbSpline
 70
8
 71
3
 72
8
 73
4
 74
0
 40
0
 40
0
 40
0
 40
0
 40
1
 40
1
 40
1
 40
1
 10
110.231140
 20
258.249259
 30
0.0
 10
109.925390
 20
258.238599
 30
0.0
 10
109.659740
 20
258.225809
 30
0.0
 10
109.454840
 20
258.209169
 30
0.0
  0
SPLINE
  5
1e9
100
AcDbEntity
  8
Layer_1
 62
1
100
AcDbSpline
 70
8
 71
3
 72
8
 73
4
 74
0
 40
0
 40
0
 40
0
 40
0
 40
1
 40
1
 40
1
 40
1
 10
109.454840
 20
258.209169
 30
0.0
 10
109.250120
 20
258.192419
 30
0.0
 10
109.114270
 20
258.177989
 30
0.0
 10
109.032790
 20
258.143819
 30
0.0
  0
SPLINE
  5
1ea
100
AcDbEntity
  8
Layer_1
 62
1
100
AcDbSpline
 70
8
 71
3
 72
8
 73
4
 74
0
 40
0
 40
0
 40
0
 40
0
 40
1
 40
1
 40
1
 40
1
 10
109.032790
 20
258.143819
 30
0.0
 10
109.002290
 20
258.128859
 30
0.0
 10
108.980890
 20
258.110889
 30
0.0
 10
108.954290
 20
258.083919
 30
0.0
  0
SPLINE
  5
1eb
100
AcDbEntity
  8
Layer_1
 62
1
100
AcDbSpline
 70
8
 71
3
 72
8
 73
4
 74
0
 40
0
 40
0
 40
0
 40
0
 40
1
 40
1
 40
1
 40
1
 10
108.954290
 20
258.083919
 30
0.0
 10
108.926990
 20
258.056279
 30
0.0
 10
108.896590
 20
258.022289
 30
0.0
 10
108.856590
 20
257.981866
 30
0.0
  0
SPLINE
  5
1ec
100
AcDbEntity
  8
Layer_1
 62
1
100
AcDbSpline
 70
8
 71
3
 72
8
 73
4
 74
0
 40
0
 40
0
 40
0
 40
0
 40
1
 40
1
 40
1
 40
1
 10
108.856590
 20
257.981866
 30
0.0
 10
108.785090
 20
257.896656
 30
0.0
 10
108.691100
 20
257.782125
 30
0.0
 10
108.583310
 20
257.637494
 30
0.0
  0
SPLINE
  5
1ed
100
AcDbEntity
  8
Layer_1
 62
1
100
AcDbSpline
 70
8
 71
3
 72
8
 73
4
 74
0
 40
0
 40
0
 40
0
 40
0
 40
1
 40
1
 40
1
 40
1
 10
108.583310
 20
257.637494
 30
0.0
 10
108.366400
 20
257.349581
 30
0.0
 10
108.081900
 20
256.951536
 30
0.0
 10
107.753910
 20
256.477874
 30
0.0
  0
SPLINE
  5
1ee
100
AcDbEntity
  8
Layer_1
 62
1
100
AcDbSpline
 70
8
 71
3
 72
8
 73
4
 74
0
 40
0
 40
0
 40
0
 40
0
 40
1
 40
1
 40
1
 40
1
 10
107.753910
 20
256.477874
 30
0.0
 10
107.097930
 20
255.530558
 30
0.0
 10
106.267090
 20
254.285405
 30
0.0
 10
105.450330
 20
253.046613
 30
0.0
  0
SPLINE
  5
1ef
100
AcDbEntity
  8
Layer_1
 62
1
100
AcDbSpline
 70
8
 71
3
 72
8
 73
4
 74
0
 40
0
 40
0
 40
0
 40
0
 40
1
 40
1
 40
1
 40
1
 10
105.450330
 20
253.046613
 30
0.0
 10
103.816810
 20
250.569010
 30
0.0
 10
102.240120
 20
248.115100
 30
0.0
 10
102.240120
 20
248.115100
 30
0.0
  0
LWPOLYLINE
  5
1f0
100
AcDbEntity
  8
Layer_1
 62
1
100
AcDbPolyline
 90
3
 70
0
 10
115.394620
 20
258.175379
 30
0.0
 10
115.448720
 20
258.273969
 30
0.0
 10
115.336050
 20
258.275969
 30
0.0
  0
LWPOLYLINE
  5
1f1
100
AcDbEntity
  8
Layer_1
 62
1
100
AcDbPolyline
 90
2
 70
0
 10
102.240120
 20
248.115100
 30
0.0
 10
102.144220
 20
247.965335
 30
0.0
  0
SPLINE
  5
1f2
100
AcDbEntity
  8
Layer_1
 62
1
100
AcDbSpline
 70
8
 71
3
 72
8
 73
4
 74
0
 40
0
 40
0
 40
0
 40
0
 40
1
 40
1
 40
1
 40
1
 10
145.310490
 20
221.463265
 30
0.0
 10
145.313490
 20
221.450165
 30
0.0
 10
145.315490
 20
221.444015
 30
0.0
 10
145.315490
 20
221.433505
 30
0.0
  0
SPLINE
  5
1f3
100
AcDbEntity
  8
Layer_1
 62
1
100
AcDbSpline
 70
8
 71
3
 72
8
 73
4
 74
0
 40
0
 40
0
 40
0
 40
0
 40
1
 40
1
 40
1
 40
1
 10
145.315490
 20
221.433505
 30
0.0
 10
145.329090
 20
221.382035
 30
0.0
 10
145.337190
 20
221.331562
 30
0.0
 10
145.347890
 20
221.280041
 30
0.0
  0
SPLINE
  5
1f4
100
AcDbEntity
  8
Layer_1
 62
1
100
AcDbSpline
 70
8
 71
3
 72
8
 73
4
 74
0
 40
0
 40
0
 40
0
 40
0
 40
1
 40
1
 40
1
 40
1
 10
145.347890
 20
221.280041
 30
0.0
 10
145.339890
 20
221.312171
 30
0.0
 10
145.327190
 20
221.365101
 30
0.0
 10
145.320590
 20
221.402204
 30
0.0
  0
SPLINE
  5
1f5
100
AcDbEntity
  8
Layer_1
 62
1
100
AcDbSpline
 70
8
 71
3
 72
8
 73
4
 74
0
 40
0
 40
0
 40
0
 40
0
 40
1
 40
1
 40
1
 40
1
 10
145.320590
 20
221.402204
 30
0.0
 10
145.319800
 20
221.419184
 30
0.0
 10
145.318590
 20
221.425524
 30
0.0
 10
145.315590
 20
221.431964
 30
0.0
  0
SPLINE
  5
1f6
100
AcDbEntity
  8
Layer_1
 62
1
100
AcDbSpline
 70
8
 71
3
 72
8
 73
4
 74
0
 40
0
 40
0
 40
0
 40
0
 40
1
 40
1
 40
1
 40
1
 10
145.315590
 20
221.431964
 30
0.0
 10
145.313590
 20
221.438364
 30
0.0
 10
145.314800
 20
221.448864
 30
0.0
 10
145.308590
 20
221.457654
 30
0.0
  0
LWPOLYLINE
  5
1f7
100
AcDbEntity
  8
Layer_1
 62
1
100
AcDbPolyline
 90
2
 70
0
 10
145.309710
 20
221.461965
 30
0.0
 10
145.310490
 20
221.463265
 30
0.0
  0
SPLINE
  5
1f8
100
AcDbEntity
  8
Layer_1
 62
1
100
AcDbSpline
 70
8
 71
3
 72
8
 73
4
 74
0
 40
0
 40
0
 40
0
 40
0
 40
1
 40
1
 40
1
 40
1
 10
145.301710
 20
221.445075
 30
0.0
 10
145.385010
 20
221.047355
 30
0.0
 10
145.437630
 20
220.764004
 30
0.0
 10
145.473940
 20
220.561359
 30
0.0
  0
SPLINE
  5
1f9
100
AcDbEntity
  8
Layer_1
 62
1
100
AcDbSpline
 70
8
 71
3
 72
8
 73
4
 74
0
 40
0
 40
0
 40
0
 40
0
 40
1
 40
1
 40
1
 40
1
 10
145.473940
 20
220.561359
 30
0.0
 10
145.471940
 20
220.557959
 30
0.0
 10
145.468940
 20
220.553059
 30
0.0
 10
145.466940
 20
220.549219
 30
0.0
  0
SPLINE
  5
1fa
100
AcDbEntity
  8
Layer_1
 62
1
100
AcDbSpline
 70
8
 71
3
 72
8
 73
4
 74
0
 40
0
 40
0
 40
0
 40
0
 40
1
 40
1
 40
1
 40
1
 10
145.466940
 20
220.549219
 30
0.0
 10
145.449140
 20
220.661496
 30
0.0
 10
145.406140
 20
220.926715
 30
0.0
 10
145.300990
 20
221.443696
 30
0.0
  0
LWPOLYLINE
  5
1fb
100
AcDbEntity
  8
Layer_1
 62
1
100
AcDbPolyline
 90
2
 70
0
 10
145.308590
 20
221.457654
 30
0.0
 10
145.309710
 20
221.461965
 30
0.0
  0
SPLINE
  5
1fc
100
AcDbEntity
  8
Layer_1
 62
1
100
AcDbSpline
 70
8
 71
3
 72
8
 73
4
 74
0
 40
0
 40
0
 40
0
 40
0
 40
1
 40
1
 40
1
 40
1
 10
155.661680
 20
219.226510
 30
0.0
 10
155.564580
 20
218.672615
 30
0.0
 10
153.150750
 20
204.835086
 30
0.0
 10
152.888480
 20
197.784072
 30
0.0
  0
SPLINE
  5
1fd
100
AcDbEntity
  8
Layer_1
 62
1
100
AcDbSpline
 70
8
 71
3
 72
8
 73
4
 74
0
 40
0
 40
0
 40
0
 40
0
 40
1
 40
1
 40
1
 40
1
 10
152.888480
 20
197.784072
 30
0.0
 10
152.619200
 20
190.592260
 30
0.0
 10
151.452980
 20
170.627570
 30
0.0
 10
150.604660
 20
169.173120
 30
0.0
  0
SPLINE
  5
1fe
100
AcDbEntity
  8
Layer_1
 62
1
100
AcDbSpline
 70
8
 71
3
 72
8
 73
4
 74
0
 40
0
 40
0
 40
0
 40
0
 40
1
 40
1
 40
1
 40
1
 10
150.604660
 20
169.173120
 30
0.0
 10
149.757170
 20
167.720130
 30
0.0
 10
143.632540
 20
159.837900
 30
0.0
 10
143.710840
 20
159.036190
 30
0.0
  0
SPLINE
  5
1ff
100
AcDbEntity
  8
Layer_1
 62
1
100
AcDbSpline
 70
8
 71
3
 72
8
 73
4
 74
0
 40
0
 40
0
 40
0
 40
0
 40
1
 40
1
 40
1
 40
1
 10
143.710840
 20
159.036190
 30
0.0
 10
143.787140
 20
158.232540
 30
0.0
 10
144.988500
 20
148.129520
 30
0.0
 10
144.977030
 20
143.811410
 30
0.0
  0
SPLINE
  5
200
100
AcDbEntity
  8
Layer_1
 62
1
100
AcDbSpline
 70
8
 71
3
 72
8
 73
4
 74
0
 40
0
 40
0
 40
0
 40
0
 40
1
 40
1
 40
1
 40
1
 10
144.977030
 20
143.811410
 30
0.0
 10
144.970030
 20
139.528320
 30
0.0
 10
144.543130
 20
124.610460
 30
0.0
 10
141.458190
 20
112.884880
 30
0.0
  0
SPLINE
  5
201
100
AcDbEntity
  8
Layer_1
 62
1
100
AcDbSpline
 70
8
 71
3
 72
8
 73
4
 74
0
 40
0
 40
0
 40
0
 40
0
 40
1
 40
1
 40
1
 40
1
 10
141.458190
 20
112.884880
 30
0.0
 10
141.484090
 20
114.108270
 30
0.0
 10
141.322080
 20
118.922360
 30
0.0
 10
137.663540
 20
125.546830
 30
0.0
  0
LWPOLYLINE
  5
202
100
AcDbEntity
  8
Layer_1
 62
1
100
AcDbPolyline
 90
2
 70
0
 10
145.300990
 20
221.443696
 30
0.0
 10
145.301710
 20
221.445075
 30
0.0
  0
SPLINE
  5
203
100
AcDbEntity
  8
Layer_1
 62
1
100
AcDbSpline
 70
8
 71
3
 72
8
 73
4
 74
0
 40
0
 40
0
 40
0
 40
0
 40
1
 40
1
 40
1
 40
1
 10
137.657840
 20
125.555530
 30
0.0
 10
137.657570
 20
125.555900
 30
0.0
 10
137.450570
 20
125.821090
 30
0.0
 10
137.413420
 20
125.868510
 30
0.0
  0
SPLINE
  5
204
100
AcDbEntity
  8
Layer_1
 62
1
100
AcDbSpline
 70
8
 71
3
 72
8
 73
4
 74
0
 40
0
 40
0
 40
0
 40
0
 40
1
 40
1
 40
1
 40
1
 10
137.413420
 20
125.868510
 30
0.0
 10
137.288450
 20
126.103360
 30
0.0
 10
136.976190
 20
126.690680
 30
0.0
 10
136.335730
 20
127.900030
 30
0.0
  0
SPLINE
  5
205
100
AcDbEntity
  8
Layer_1
 62
1
100
AcDbSpline
 70
8
 71
3
 72
8
 73
4
 74
0
 40
0
 40
0
 40
0
 40
0
 40
1
 40
1
 40
1
 40
1
 10
136.335730
 20
127.900030
 30
0.0
 10
134.773300
 20
131.053880
 30
0.0
 10
133.274560
 20
133.812350
 30
0.0
 10
132.041140
 20
136.088270
 30
0.0
  0
SPLINE
  5
206
100
AcDbEntity
  8
Layer_1
 62
1
100
AcDbSpline
 70
8
 71
3
 72
8
 73
4
 74
0
 40
0
 40
0
 40
0
 40
0
 40
1
 40
1
 40
1
 40
1
 10
132.041140
 20
136.088270
 30
0.0
 10
131.058280
 20
137.992740
 30
0.0
 10
130.323070
 20
139.456620
 30
0.0
 10
130.260940
 20
139.690450
 30
0.0
  0
SPLINE
  5
207
100
AcDbEntity
  8
Layer_1
 62
1
100
AcDbSpline
 70
8
 71
3
 72
8
 73
4
 74
0
 40
0
 40
0
 40
0
 40
0
 40
1
 40
1
 40
1
 40
1
 10
130.260940
 20
139.690450
 30
0.0
 10
130.063380
 20
140.441460
 30
0.0
 10
128.620190
 20
141.919810
 30
0.0
 10
130.771190
 20
146.152340
 30
0.0
  0
SPLINE
  5
208
100
AcDbEntity
  8
Layer_1
 62
1
100
AcDbSpline
 70
8
 71
3
 72
8
 73
4
 74
0
 40
0
 40
0
 40
0
 40
0
 40
1
 40
1
 40
1
 40
1
 10
130.771190
 20
146.152340
 30
0.0
 10
132.921820
 20
150.384860
 30
0.0
 10
144.061570
 20
169.892740
 30
0.0
 10
144.112550
 20
196.424260
 30
0.0
  0
LWPOLYLINE
  5
209
100
AcDbEntity
  8
Layer_1
 62
1
100
AcDbPolyline
 90
4
 70
0
 10
137.663540
 20
125.546830
 30
0.0
 10
137.628740
 20
125.524530
 30
0.0
 10
137.660840
 20
125.551530
 30
0.0
 10
137.657840
 20
125.555530
 30
0.0
  0
SPLINE
  5
20a
100
AcDbEntity
  8
Layer_1
 62
1
100
AcDbSpline
 70
8
 71
3
 72
8
 73
4
 74
0
 40
0
 40
0
 40
0
 40
0
 40
1
 40
1
 40
1
 40
1
 10
150.170310
 20
209.065439
 30
0.0
 10
150.170470
 20
209.065717
 30
0.0
 10
150.170660
 20
209.066043
 30
0.0
 10
150.170710
 20
209.066117
 30
0.0
  0
SPLINE
  5
20b
100
AcDbEntity
  8
Layer_1
 62
1
100
AcDbSpline
 70
8
 71
3
 72
8
 73
4
 74
0
 40
0
 40
0
 40
0
 40
0
 40
1
 40
1
 40
1
 40
1
 10
150.170710
 20
209.066117
 30
0.0
 10
150.272560
 20
209.232171
 30
0.0
 10
150.436980
 20
209.429277
 30
0.0
 10
150.532800
 20
209.612205
 30
0.0
  0
LWPOLYLINE
  5
20c
100
AcDbEntity
  8
Layer_1
 62
1
100
AcDbPolyline
 90
2
 70
0
 10
144.112550
 20
196.424260
 30
0.0
 10
150.170310
 20
209.065439
 30
0.0
  0
SPLINE
  5
20d
100
AcDbEntity
  8
Layer_1
 62
1
100
AcDbSpline
 70
8
 71
3
 72
8
 73
4
 74
0
 40
0
 40
0
 40
0
 40
0
 40
1
 40
1
 40
1
 40
1
 10
91.805398
 20
102.407740
 30
0.0
 10
99.024355
 20
107.426720
 30
0.0
 10
101.366170
 20
114.521880
 30
0.0
 10
101.366170
 20
114.521880
 30
0.0
  0
LWPOLYLINE
  5
20e
100
AcDbEntity
  8
Layer_1
 62
1
100
AcDbPolyline
 90
2
 70
0
 10
150.532800
 20
209.612205
 30
0.0
 10
155.661680
 20
219.226510
 30
0.0
  0
SPLINE
  5
20f
100
AcDbEntity
  8
Layer_1
 62
1
100
AcDbSpline
 70
8
 71
3
 72
8
 73
4
 74
0
 40
0
 40
0
 40
0
 40
0
 40
1
 40
1
 40
1
 40
1
 10
102.224790
 20
116.687750
 30
0.0
 10
102.213290
 20
116.216090
 30
0.0
 10
102.148790
 20
113.891630
 30
0.0
 10
101.910850
 20
111.048680
 30
0.0
  0
LWPOLYLINE
  5
210
100
AcDbEntity
  8
Layer_1
 62
1
100
AcDbPolyline
 90
2
 70
0
 10
101.366170
 20
114.521880
 30
0.0
 10
102.224790
 20
116.687750
 30
0.0
  0
SPLINE
  5
211
100
AcDbEntity
  8
Layer_1
 62
1
100
AcDbSpline
 70
8
 71
3
 72
8
 73
4
 74
0
 40
0
 40
0
 40
0
 40
0
 40
1
 40
1
 40
1
 40
1
 10
101.910050
 20
111.047330
 30
0.0
 10
101.822050
 20
109.543300
 30
0.0
 10
101.473840
 20
108.197760
 30
0.0
 10
101.140980
 20
107.217070
 30
0.0
  0
SPLINE
  5
212
100
AcDbEntity
  8
Layer_1
 62
1
100
AcDbSpline
 70
8
 71
3
 72
8
 73
4
 74
0
 40
0
 40
0
 40
0
 40
0
 40
1
 40
1
 40
1
 40
1
 10
101.140980
 20
107.217070
 30
0.0
 10
100.892370
 20
106.484560
 30
0.0
 10
100.654340
 20
105.959750
 30
0.0
 10
100.538830
 20
105.719700
 30
0.0
  0
SPLINE
  5
213
100
AcDbEntity
  8
Layer_1
 62
1
100
AcDbSpline
 70
8
 71
3
 72
8
 73
4
 74
0
 40
0
 40
0
 40
0
 40
0
 40
1
 40
1
 40
1
 40
1
 10
100.538830
 20
105.719700
 30
0.0
 10
98.976927
 20
104.261810
 30
0.0
 10
97.498456
 20
103.334290
 30
0.0
 10
96.223295
 20
102.842630
 30
0.0
  0
SPLINE
  5
214
100
AcDbEntity
  8
Layer_1
 62
1
100
AcDbSpline
 70
8
 71
3
 72
8
 73
4
 74
0
 40
0
 40
0
 40
0
 40
0
 40
1
 40
1
 40
1
 40
1
 10
96.223295
 20
102.842630
 30
0.0
 10
93.598358
 20
101.829800
 30
0.0
 10
91.806168
 20
102.408680
 30
0.0
 10
91.806168
 20
102.408680
 30
0.0
  0
LWPOLYLINE
  5
215
100
AcDbEntity
  8
Layer_1
 62
1
100
AcDbPolyline
 90
3
 70
0
 10
101.910850
 20
111.048680
 30
0.0
 10
101.910440
 20
111.048000
 30
0.0
 10
101.910050
 20
111.047330
 30
0.0
  0
LWPOLYLINE
  5
216
100
AcDbEntity
  8
Layer_1
 62
1
100
AcDbPolyline
 90
2
 70
0
 10
91.806168
 20
102.408680
 30
0.0
 10
91.805398
 20
102.407740
 30
0.0
  0
ENDSEC
  0
SECTION
  2
OBJECTS
  0
DICTIONARY
  5
C
330
0
100
AcDbDictionary
  3
ACAD_GROUP
350
D
  3
ACAD_MLINESTYLE
350
17
  0
DICTIONARY
  5
D
330
C
100
AcDbDictionary
  0
DICTIONARY
  5
1A
330
C
100
AcDbDictionary
  0
DICTIONARY
  5
17
330
C
100
AcDbDictionary
  3
STANDARD
350
18
  0
DICTIONARY
  5
19
330
C
100
AcDbDictionary
  0
ENDSEC
  0
EOF
