  0
SECTION
  2
HEADER
  9
$ACADVER
  1
AC1018
  9
$ACADMAINTVER
 70
     0
  9
$DWGCODEPAGE
  3
ANSI_1252
  9
$INSBASE
 10
0.0
 20
0.0
 30
0.0
  9
$EXTMIN
 10
-29.16374061904804
 20
-25.20598473660278
 30
0.0
  9
$EXTMAX
 10
36.15535254087732
 20
23.21562226688947
 30
0.0
  9
$LIMMIN
 10
0.0
 20
0.0
  9
$LIMMAX
 10
12.0
 20
9.0
  9
$ORTHOMODE
 70
     0
  9
$REGENMODE
 70
     1
  9
$FILLMODE
 70
     1
  9
$QTEXTMODE
 70
     0
  9
$MIRRTEXT
 70
     1
  9
$LTSCALE
 40
1.0
  9
$ATTMODE
 70
     1
  9
$TEXTSIZE
 40
0.2
  9
$TRACEWID
 40
0.05
  9
$TEXTSTYLE
  7
Standard
  9
$CLAYER
  8
Default
  9
$CELTYPE
  6
ByLayer
  9
$CECOLOR
 62
   256
  9
$CELTSCALE
 40
1.0
  9
$DISPSILH
 70
     0
  9
$DIMSCALE
 40
1.0
  9
$DIMASZ
 40
0.18
  9
$DIMEXO
 40
0.0625
  9
$DIMDLI
 40
0.38
  9
$DIMRND
 40
0.0
  9
$DIMDLE
 40
0.0
  9
$DIMEXE
 40
0.18
  9
$DIMTP
 40
0.0
  9
$DIMTM
 40
0.0
  9
$DIMTXT
 40
0.18
  9
$DIMCEN
 40
0.09
  9
$DIMTSZ
 40
0.0
  9
$DIMTOL
 70
     0
  9
$DIMLIM
 70
     0
  9
$DIMTIH
 70
     1
  9
$DIMTOH
 70
     1
  9
$DIMSE1
 70
     0
  9
$DIMSE2
 70
     0
  9
$DIMTAD
 70
     0
  9
$DIMZIN
 70
     0
  9
$DIMBLK
  1

  9
$DIMASO
 70
     1
  9
$DIMSHO
 70
     1
  9
$DIMPOST
  1

  9
$DIMAPOST
  1

  9
$DIMALT
 70
     0
  9
$DIMALTD
 70
     2
  9
$DIMALTF
 40
25.4
  9
$DIMLFAC
 40
1.0
  9
$DIMTOFL
 70
     0
  9
$DIMTVP
 40
0.0
  9
$DIMTIX
 70
     0
  9
$DIMSOXD
 70
     0
  9
$DIMSAH
 70
     0
  9
$DIMBLK1
  1

  9
$DIMBLK2
  1

  9
$DIMSTYLE
  2
Standard
  9
$DIMCLRD
 70
     0
  9
$DIMCLRE
 70
     0
  9
$DIMCLRT
 70
     0
  9
$DIMTFAC
 40
1.0
  9
$DIMGAP
 40
0.09
  9
$DIMJUST
 70
     0
  9
$DIMSD1
 70
     0
  9
$DIMSD2
 70
     0
  9
$DIMTOLJ
 70
     1
  9
$DIMTZIN
 70
     0
  9
$DIMALTZ
 70
     0
  9
$DIMALTTZ
 70
     0
  9
$DIMUPT
 70
     0
  9
$DIMDEC
 70
     4
  9
$DIMTDEC
 70
     4
  9
$DIMALTU
 70
     2
  9
$DIMALTTD
 70
     2
  9
$DIMTXSTY
  7
Standard
  9
$DIMAUNIT
 70
     0
  9
$DIMADEC
 70
     0
  9
$DIMALTRND
 40
0.0
  9
$DIMAZIN
 70
     0
  9
$DIMDSEP
 70
    46
  9
$DIMATFIT
 70
     3
  9
$DIMFRAC
 70
     0
  9
$DIMLDRBLK
  1

  9
$DIMLUNIT
 70
     2
  9
$DIMLWD
 70
    -2
  9
$DIMLWE
 70
    -2
  9
$DIMTMOVE
 70
     2
  9
$LUNITS
 70
     2
  9
$LUPREC
 70
     3
  9
$SKETCHINC
 40
0.1
  9
$FILLETRAD
 40
0.5
  9
$AUNITS
 70
     0
  9
$AUPREC
 70
     0
  9
$MENU
  1
.
  9
$ELEVATION
 40
0.0
  9
$PELEVATION
 40
0.0
  9
$THICKNESS
 40
0.0
  9
$LIMCHECK
 70
     0
  9
$CHAMFERA
 40
0.0
  9
$CHAMFERB
 40
0.0
  9
$CHAMFERC
 40
0.0
  9
$CHAMFERD
 40
0.0
  9
$SKPOLY
 70
     0
  9
$TDCREATE
 40
2458147.139302616
  9
$TDUCREATE
 40
2458147.097635949
  9
$TDUPDATE
 40
2458147.139320602
  9
$TDUUPDATE
 40
2458147.097653935
  9
$TDINDWG
 40
0.0000000116
  9
$TDUSRTIMER
 40
0.0000000116
  9
$USRTIMER
 70
     1
  9
$ANGBASE
 50
0.0
  9
$ANGDIR
 70
     0
  9
$PDMODE
 70
     0
  9
$PDSIZE
 40
0.0
  9
$PLINEWID
 40
0.0
  9
$SPLFRAME
 70
     0
  9
$SPLINETYPE
 70
     6
  9
$SPLINESEGS
 70
     8
  9
$HANDSEED
  5
3B0
  9
$SURFTAB1
 70
     6
  9
$SURFTAB2
 70
     6
  9
$SURFTYPE
 70
     6
  9
$SURFU
 70
     6
  9
$SURFV
 70
     6
  9
$UCSBASE
  2

  9
$UCSNAME
  2

  9
$UCSORG
 10
0.0
 20
0.0
 30
0.0
  9
$UCSXDIR
 10
1.0
 20
0.0
 30
0.0
  9
$UCSYDIR
 10
0.0
 20
1.0
 30
0.0
  9
$UCSORTHOREF
  2

  9
$UCSORTHOVIEW
 70
     0
  9
$UCSORGTOP
 10
0.0
 20
0.0
 30
0.0
  9
$UCSORGBOTTOM
 10
0.0
 20
0.0
 30
0.0
  9
$UCSORGLEFT
 10
0.0
 20
0.0
 30
0.0
  9
$UCSORGRIGHT
 10
0.0
 20
0.0
 30
0.0
  9
$UCSORGFRONT
 10
0.0
 20
0.0
 30
0.0
  9
$UCSORGBACK
 10
0.0
 20
0.0
 30
0.0
  9
$PUCSBASE
  2

  9
$PUCSNAME
  2

  9
$PUCSORG
 10
0.0
 20
0.0
 30
0.0
  9
$PUCSXDIR
 10
1.0
 20
0.0
 30
0.0
  9
$PUCSYDIR
 10
0.0
 20
1.0
 30
0.0
  9
$PUCSORTHOREF
  2

  9
$PUCSORTHOVIEW
 70
     0
  9
$PUCSORGTOP
 10
0.0
 20
0.0
 30
0.0
  9
$PUCSORGBOTTOM
 10
0.0
 20
0.0
 30
0.0
  9
$PUCSORGLEFT
 10
0.0
 20
0.0
 30
0.0
  9
$PUCSORGRIGHT
 10
0.0
 20
0.0
 30
0.0
  9
$PUCSORGFRONT
 10
0.0
 20
0.0
 30
0.0
  9
$PUCSORGBACK
 10
0.0
 20
0.0
 30
0.0
  9
$USERI1
 70
     0
  9
$USERI2
 70
     0
  9
$USERI3
 70
     0
  9
$USERI4
 70
     0
  9
$USERI5
 70
     0
  9
$USERR1
 40
0.0
  9
$USERR2
 40
0.0
  9
$USERR3
 40
0.0
  9
$USERR4
 40
0.0
  9
$USERR5
 40
0.0
  9
$WORLDVIEW
 70
     1
  9
$SHADEDGE
 70
     3
  9
$SHADEDIF
 70
    70
  9
$TILEMODE
 70
     1
  9
$MAXACTVP
 70
    64
  9
$PINSBASE
 10
0.0
 20
0.0
 30
0.0
  9
$PLIMCHECK
 70
     0
  9
$PEXTMIN
 10
1.000000000000000E+20
 20
1.000000000000000E+20
 30
1.000000000000000E+20
  9
$PEXTMAX
 10
-1.000000000000000E+20
 20
-1.000000000000000E+20
 30
-1.000000000000000E+20
  9
$PLIMMIN
 10
0.0
 20
0.0
  9
$PLIMMAX
 10
12.0
 20
9.0
  9
$UNITMODE
 70
     0
  9
$VISRETAIN
 70
     1
  9
$PLINEGEN
 70
     0
  9
$PSLTSCALE
 70
     1
  9
$TREEDEPTH
 70
  3020
  9
$CMLSTYLE
  2
Standard
  9
$CMLJUST
 70
     0
  9
$CMLSCALE
 40
1.0
  9
$PROXYGRAPHICS
 70
     1
  9
$MEASUREMENT
 70
     0
  9
$CELWEIGHT
370
    -1
  9
$ENDCAPS
280
     0
  9
$JOINSTYLE
280
     0
  9
$LWDISPLAY
290
     0
  9
$INSUNITS
 70
     4
  9
$HYPERLINKBASE
  1

  9
$STYLESHEET
  1

  9
$XEDIT
290
     1
  9
$CEPSNTYPE
380
     0
  9
$PSTYLEMODE
290
     1
  9
$FINGERPRINTGUID
  2
{C66FFC19-1126-4886-A3B6-EB75E1B3CF6B}
  9
$VERSIONGUID
  2
{FAEB1C32-E019-11D5-929B-00C0DF256EC4}
  9
$EXTNAMES
290
     1
  9
$PSVPSCALE
 40
0.0
  9
$OLESTARTUP
290
     0
  9
$SORTENTS
280
   127
  9
$INDEXCTL
280
     0
  9
$HIDETEXT
280
     1
  9
$XCLIPFRAME
290
     0
  9
$HALOGAP
280
     0
  9
$OBSCOLOR
 70
   257
  9
$OBSLTYPE
280
     0
  9
$INTERSECTIONDISPLAY
280
     0
  9
$INTERSECTIONCOLOR
 70
   257
  9
$DIMASSOC
280
     2
  9
$PROJECTNAME
  1

  0
ENDSEC
  0
SECTION
  2
CLASSES
  0
CLASS
  1
ACDBDICTIONARYWDFLT
  2
AcDbDictionaryWithDefault
  3
ObjectDBX Classes
 90
        0
 91
        4
280
     0
281
     0
  0
CLASS
  1
VISUALSTYLE
  2
AcDbVisualStyle
  3
ObjectDBX Classes
 90
     4095
 91
        4
280
     0
281
     0
  0
CLASS
  1
MATERIAL
  2
AcDbMaterial
  3
ObjectDBX Classes
 90
     1153
 91
        4
280
     0
281
     0
  0
CLASS
  1
SCALE
  2
AcDbScale
  3
ObjectDBX Classes
 90
     1153
 91
        4
280
     0
281
     0
  0
CLASS
  1
TABLESTYLE
  2
AcDbTableStyle
  3
ObjectDBX Classes
 90
     4095
 91
        4
280
     0
281
     0
  0
CLASS
  1
MLEADERSTYLE
  2
AcDbMLeaderStyle
  3
ACDB_MLEADERSTYLE_CLASS
 90
     4095
 91
        4
280
     0
281
     0
  0
CLASS
  1
SUN
  2
AcDbSun
  3
SCENEOE
 90
     1153
 91
        4
280
     0
281
     0
  0
CLASS
  1
DICTIONARYVAR
  2
AcDbDictionaryVar
  3
ObjectDBX Classes
 90
        0
 91
        4
280
     0
281
     0
  0
CLASS
  1
CELLSTYLEMAP
  2
AcDbCellStyleMap
  3
ObjectDBX Classes
 90
     1152
 91
        4
280
     0
281
     0
  0
ENDSEC
  0
SECTION
  2
TABLES
  0
TABLE
  2
VPORT
  5
8
102
{ACAD_XDICTIONARY
360
369
102
}
330
0
100
AcDbSymbolTable
 70
     1
  0
VPORT
  5
29
330
8
100
AcDbSymbolTableRecord
100
AcDbViewportTableRecord
  2
*Active
 70
     0
 10
0.0
 20
0.0
 11
1.0
 21
1.0
 12
3.495805960914637
 22
-0.9951812348566555
 13
0.0
 23
0.0
 14
0.5
 24
0.5
 15
0.5
 25
0.5
 16
0.0
 26
0.0
 36
1.0
 17
0.0
 27
0.0
 37
0.0
 40
49.3900391435621
 41
1.348965827491319
 42
50.0
 43
0.0
 44
0.0
 50
0.0
 51
0.0
 71
     0
 72
   100
 73
     1
 74
     3
 75
     0
 76
     0
 77
     0
 78
     0
281
     0
 65
     1
110
0.0
120
0.0
130
0.0
111
1.0
121
0.0
131
0.0
112
0.0
122
1.0
132
0.0
 79
     0
146
0.0
  0
ENDTAB
  0
TABLE
  2
LTYPE
  5
5
330
0
100
AcDbSymbolTable
 70
     1
  0
LTYPE
  5
14
330
5
100
AcDbSymbolTableRecord
100
AcDbLinetypeTableRecord
  2
ByBlock
 70
     0
  3

 72
    65
 73
     0
 40
0.0
  0
LTYPE
  5
15
330
5
100
AcDbSymbolTableRecord
100
AcDbLinetypeTableRecord
  2
ByLayer
 70
     0
  3

 72
    65
 73
     0
 40
0.0
  0
LTYPE
  5
16
330
5
100
AcDbSymbolTableRecord
100
AcDbLinetypeTableRecord
  2
Continuous
 70
     0
  3
Solid line
 72
    65
 73
     0
 40
0.0
  0
ENDTAB
  0
TABLE
  2
LAYER
  5
2
330
0
100
AcDbSymbolTable
 70
     2
  0
LAYER
  5
10
330
2
100
AcDbSymbolTableRecord
100
AcDbLayerTableRecord
  2
0
 70
     0
 62
     7
  6
Continuous
370
    -3
390
F
  0
LAYER
  5
6E
330
2
100
AcDbSymbolTableRecord
100
AcDbLayerTableRecord
  2
Default
 70
     0
 62
    18
420
        0
  6
Continuous
370
    -3
390
F
  0
ENDTAB
  0
TABLE
  2
STYLE
  5
3
330
0
100
AcDbSymbolTable
 70
     1
  0
STYLE
  5
11
330
3
100
AcDbSymbolTableRecord
100
AcDbTextStyleTableRecord
  2
Standard
 70
     0
 40
0.0
 41
1.0
 50
0.0
 71
     0
 42
0.2
  3
txt
  4

  0
ENDTAB
  0
TABLE
  2
VIEW
  5
6
330
0
100
AcDbSymbolTable
 70
     0
  0
ENDTAB
  0
TABLE
  2
UCS
  5
7
330
0
100
AcDbSymbolTable
 70
     0
  0
ENDTAB
  0
TABLE
  2
APPID
  5
9
330
0
100
AcDbSymbolTable
 70
     2
  0
APPID
  5
12
330
9
100
AcDbSymbolTableRecord
100
AcDbRegAppTableRecord
  2
ACAD
 70
     0
  0
APPID
  5
3A8
330
9
100
AcDbSymbolTableRecord
100
AcDbRegAppTableRecord
  2
ACAD_MLEADERVER
 70
     0
  0
ENDTAB
  0
TABLE
  2
DIMSTYLE
  5
A
330
0
100
AcDbSymbolTable
 70
     1
100
AcDbDimStyleTable
  0
DIMSTYLE
105
27
330
A
100
AcDbSymbolTableRecord
100
AcDbDimStyleTableRecord
  2
Standard
 70
     0
178
     0
340
11
  0
ENDTAB
  0
TABLE
  2
BLOCK_RECORD
  5
1
330
0
100
AcDbSymbolTable
 70
     1
  0
BLOCK_RECORD
  5
1F
330
1
100
AcDbSymbolTableRecord
100
AcDbBlockTableRecord
  2
*Model_Space
340
22
  0
BLOCK_RECORD
  5
1B
330
1
100
AcDbSymbolTableRecord
100
AcDbBlockTableRecord
  2
*Paper_Space
340
1E
  0
BLOCK_RECORD
  5
23
330
1
100
AcDbSymbolTableRecord
100
AcDbBlockTableRecord
  2
*Paper_Space0
340
26
  0
ENDTAB
  0
ENDSEC
  0
SECTION
  2
BLOCKS
  0
BLOCK
  5
20
330
1F
100
AcDbEntity
  8
0
100
AcDbBlockBegin
  2
*Model_Space
 70
     0
 10
0.0
 20
0.0
 30
0.0
  3
*Model_Space
  1

  0
ENDBLK
  5
21
330
1F
100
AcDbEntity
  8
0
100
AcDbBlockEnd
  0
BLOCK
  5
1C
330
1B
100
AcDbEntity
 67
     1
  8
0
100
AcDbBlockBegin
  2
*Paper_Space
 70
     0
 10
0.0
 20
0.0
 30
0.0
  3
*Paper_Space
  1

  0
ENDBLK
  5
1D
330
1B
100
AcDbEntity
 67
     1
  8
0
100
AcDbBlockEnd
  0
BLOCK
  5
24
330
23
100
AcDbEntity
  8
0
100
AcDbBlockBegin
  2
*Paper_Space0
 70
     0
 10
0.0
 20
0.0
 30
0.0
  3
*Paper_Space0
  1

  0
ENDBLK
  5
25
330
23
100
AcDbEntity
  8
0
100
AcDbBlockEnd
  0
ENDSEC
  0
SECTION
  2
ENTITIES
  0
ARC
  5
6F
330
1F
100
AcDbEntity
  8
Default
100
AcDbCircle
 10
-10.78511540366777
 20
3.630496634591169
 30
0.0
 40
3.281108206484597
100
AcDbArc
 50
294.5671713206015
 51
321.1827959815955
  0
ARC
  5
70
330
1F
100
AcDbEntity
  8
Default
100
AcDbCircle
 10
-8.228640661501336
 20
-0.7597704383868678
 30
0.0
 40
2.333544448187415
100
AcDbArc
 50
90.0
 51
140.0337869562006
  0
ARC
  5
71
330
1F
100
AcDbEntity
  8
Default
100
AcDbCircle
 10
-10.92537637796937
 20
-0.7461117483880202
 30
0.0
 40
1.740954169613227
100
AcDbArc
 50
341.4124489460681
 51
58.55376409773145
  0
ARC
  5
72
330
1F
100
AcDbEntity
  8
Default
100
AcDbCircle
 10
-8.445042589934824
 20
-1.626392205358531
 30
0.0
 40
0.8916659109006481
100
AcDbArc
 50
158.6001898679181
 51
236.9917879799426
  0
ARC
  5
73
330
1F
100
AcDbEntity
  8
Default
100
AcDbCircle
 10
-5.709732944658491
 20
-2.208954349788377
 30
0.0
 40
3.225285543346051
100
AcDbArc
 50
147.8554316599988
 51
182.9356734464213
  0
ARC
  5
74
330
1F
100
AcDbEntity
  8
Default
100
AcDbCircle
 10
-10.6397806671711
 20
-1.393782920254543
 30
0.0
 40
2.376534158110576
100
AcDbArc
 50
22.27589784825878
 51
59.14579549410265
  0
ARC
  5
75
330
1F
100
AcDbEntity
  8
Default
100
AcDbCircle
 10
-11.42012525974357
 20
-1.295417063204644
 30
0.0
 40
2.433503719266991
100
AcDbArc
 50
162.9408861807418
 51
254.4489225779446
  0
ARC
  5
76
330
1F
100
AcDbEntity
  8
Default
100
AcDbCircle
 10
55.57793729538849
 20
32.91755769397
 30
0.0
 40
76.99399248505296
100
AcDbArc
 50
205.7908310121512
 51
207.569374564912
  0
ARC
  5
77
330
1F
100
AcDbEntity
  8
Default
100
AcDbCircle
 10
-11.96804642267088
 20
-2.422173015552014
 30
0.0
 40
0.7645482318865539
100
AcDbArc
 50
202.6805596070248
 51
313.7430737947596
  0
ARC
  5
78
330
1F
100
AcDbEntity
  8
Default
100
AcDbCircle
 10
-10.53004686383685
 20
-4.044367531944608
 30
0.0
 40
1.404112498422975
100
AcDbArc
 50
87.25924203194099
 51
130.3645365730974
  0
ARC
  5
79
330
1F
100
AcDbEntity
  8
Default
100
AcDbCircle
 10
-12.03877227237063
 20
-1.897221263788657
 30
0.0
 40
1.742940573867701
100
AcDbArc
 50
268.8898468056103
 51
334.7079788429791
  0
ARC
  5
7A
330
1F
100
AcDbEntity
  8
Default
100
AcDbCircle
 10
-6.715243568411683
 20
1.357087341322929
 30
0.0
 40
0.9616456829355184
100
AcDbArc
 50
157.8600945307844
 51
217.9542308751321
  0
ARC
  5
7B
330
1F
100
AcDbEntity
  8
Default
100
AcDbCircle
 10
3.994079072891566
 20
7.519533601882245
 30
0.0
 40
12.96926437018702
100
AcDbArc
 50
206.5650511770777
 51
215.7389935846018
  0
ARC
  5
7C
330
1F
100
AcDbEntity
  8
Default
100
AcDbCircle
 10
-7.310263621973094
 20
-0.0240033186484891
 30
0.0
 40
0.7780170465156294
100
AcDbArc
 50
306.1923319874181
 51
357.6626941408761
  0
ARC
  5
7D
330
1F
100
AcDbEntity
  8
Default
100
AcDbCircle
 10
-3.433857862802888
 20
-1.843866423698062
 30
0.0
 40
3.61892380121358
100
AcDbArc
 50
160.7693276243392
 51
185.467225114387
  0
ARC
  5
7E
330
1F
100
AcDbEntity
  8
Default
100
AcDbCircle
 10
-6.004104902110446
 20
-1.213010121339297
 30
0.0
 40
1.420340186536407
100
AcDbArc
 50
157.310907108872
 51
223.3864610671185
  0
ARC
  5
7F
330
1F
100
AcDbEntity
  8
Default
100
AcDbCircle
 10
-8.120125964370029
 20
-0.0304274867486007
 30
0.0
 40
1.025598169891687
100
AcDbArc
 50
321.7661748225536
 51
50.91420866926635
  0
SPLINE
  5
80
330
1F
100
AcDbEntity
  8
Default
100
AcDbSpline
210
0.0
220
0.0
230
1.0
 70
     8
 71
     3
 72
     8
 73
     4
 74
     0
 42
0.000000001
 43
0.0000000001
 40
1.169499323595242
 40
1.169499323595242
 40
1.169499323595242
 40
1.169499323595242
 40
2.169499323595242
 40
2.169499323595242
 40
2.169499323595242
 40
2.169499323595242
 10
-7.460255384969223
 20
2.39515137436937
 30
0.0
 10
-7.392732528372671
 20
1.885828450159412
 30
0.0
 10
-6.618761224364886
 20
2.158074866241727
 30
0.0
 10
-6.864094394556375
 20
2.620367748525337
 30
0.0
  0
ARC
  5
81
330
1F
100
AcDbEntity
  8
Default
100
AcDbCircle
 10
-8.252272700761665
 20
1.883678524650453
 30
0.0
 40
1.571543834066478
100
AcDbArc
 50
27.95434468341658
 51
79.41836447905608
  0
ARC
  5
82
330
1F
100
AcDbEntity
  8
Default
100
AcDbCircle
 10
-9.263108360536949
 20
2.156140371432959
 30
0.0
 40
1.8186272600613
100
AcDbArc
 50
7.551879119242849
 51
44.39690880561921
  0
SPLINE
  5
83
330
1F
100
AcDbEntity
  8
Default
100
AcDbSpline
210
0.0
220
0.0
230
1.0
 70
     8
 71
     3
 72
     8
 73
     4
 74
     0
 42
0.000000001
 43
0.0000000001
 40
1.963561250634386
 40
1.963561250634386
 40
1.963561250634386
 40
1.963561250634386
 40
2.963561250634386
 40
2.963561250634386
 40
2.963561250634386
 40
2.963561250634386
 10
-4.240986036739843
 20
2.885328188708828
 30
0.0
 10
-4.085535845066197
 20
2.710809472453214
 30
0.0
 10
-4.075425486665371
 20
2.472223038278557
 30
0.0
 10
-4.174745926693971
 20
2.24942313226845
 30
0.0
  0
ARC
  5
84
330
1F
100
AcDbEntity
  8
Default
100
AcDbCircle
 10
-12.64729760229467
 20
6.026343758740987
 30
0.0
 40
9.276274107334144
100
AcDbArc
 50
319.8917233721584
 51
335.9734934213212
  0
SPLINE
  5
85
330
1F
100
AcDbEntity
  8
Default
100
AcDbSpline
210
0.0
220
0.0
230
1.0
 70
     8
 71
     3
 72
     8
 73
     4
 74
     0
 42
0.000000001
 43
0.0000000001
 40
5.567224354180915
 40
5.567224354180915
 40
5.567224354180915
 40
5.567224354180915
 40
6.567224354180915
 40
6.567224354180915
 40
6.567224354180915
 40
6.567224354180915
 10
-5.552540215648109
 20
0.050251478745476
 30
0.0
 10
-5.833859951944293
 20
-0.2837285174767898
 30
0.0
 10
-6.165015915927531
 20
0.0739750124458624
 30
0.0
 10
-5.910236809895817
 20
0.4211960950023617
 30
0.0
  0
ARC
  5
86
330
1F
100
AcDbEntity
  8
Default
100
AcDbCircle
 10
-16.66461042818934
 20
8.31239232141242
 30
0.0
 40
13.33894785226916
100
AcDbArc
 50
323.7300362344104
 51
334.2358539330963
  0
SPLINE
  5
87
330
1F
100
AcDbEntity
  8
Default
100
AcDbSpline
210
0.0
220
0.0
230
1.0
 70
     8
 71
     3
 72
     8
 73
     4
 74
     0
 42
0.000000001
 43
0.0000000001
 40
9.013068631353548
 40
9.013068631353548
 40
9.013068631353548
 40
9.013068631353548
 40
10.01306863135355
 40
10.01306863135355
 40
10.01306863135355
 40
10.01306863135355
 10
-4.651674719024251
 20
2.51438357245194
 30
0.0
 10
-4.549192323484381
 20
2.726717579219764
 30
0.0
 10
-4.699862917907906
 20
2.884679899613105
 30
0.0
 10
-4.929883181216912
 20
3.031056430809747
 30
0.0
  0
ARC
  5
88
330
1F
100
AcDbEntity
  8
Default
100
AcDbCircle
 10
-1.533421538614736
 20
8.368353297755947
 30
0.0
 40
6.326348831322976
100
AcDbArc
 50
225.8908659063621
 51
237.5288077091512
  0
SPLINE
  5
89
330
1F
100
AcDbEntity
  8
Default
100
AcDbSpline
210
0.0
220
0.0
230
1.0
 70
     8
 71
     3
 72
     8
 73
     4
 74
     0
 42
0.000000001
 43
0.0000000001
 40
11.29807915304944
 40
11.29807915304944
 40
11.29807915304944
 40
11.29807915304944
 40
12.29807915304944
 40
12.29807915304944
 40
12.29807915304944
 40
12.29807915304944
 10
-5.936732853914165
 20
3.825937751360219
 30
0.0
 10
-6.11858654771779
 20
4.002222465842116
 30
0.0
 10
-6.00979076090192
 20
4.213856470245135
 30
0.0
 10
-5.777756589804072
 20
4.090898191543711
 30
0.0
  0
ARC
  5
8A
330
1F
100
AcDbEntity
  8
Default
100
AcDbCircle
 10
-8.361588684396294
 20
-0.7850430192189908
 30
0.0
 40
5.518241656892063
100
AcDbArc
 50
41.69262109097217
 51
62.0802335718912
  0
SPLINE
  5
8B
330
1F
100
AcDbEntity
  8
Default
100
AcDbSpline
210
0.0
220
0.0
230
1.0
 70
     8
 71
     3
 72
     8
 73
     4
 74
     0
 42
0.000000001
 43
0.0000000001
 40
1.963078969564691
 40
1.963078969564691
 40
1.963078969564691
 40
1.963078969564691
 40
2.963078969564691
 40
2.963078969564691
 40
2.963078969564691
 40
2.963078969564691
 10
-13.10230938693145
 20
0.3865016571723945
 30
0.0
 10
-13.50424900338565
 20
-0.0633454375049783
 30
0.0
 10
-14.15914431958159
 20
0.5036096134054959
 30
0.0
 10
-13.68522235533512
 20
0.8369344054843271
 30
0.0
  0
ARC
  5
8C
330
1F
100
AcDbEntity
  8
Default
100
AcDbCircle
 10
-15.76528299169379
 20
3.794369453705199
 30
0.0
 40
3.615670659141127
100
AcDbArc
 50
305.1199719426679
 51
333.8609318995655
  0
ARC
  5
8D
330
1F
100
AcDbEntity
  8
Default
100
AcDbCircle
 10
-14.85145316046218
 20
1.949366430058019
 30
0.0
 40
2.345644951566237
100
AcDbArc
 50
318.2191244759473
 51
6.170175095029555
  0
ARC
  5
8E
330
1F
100
AcDbEntity
  8
Default
100
AcDbCircle
 10
-13.96940430933295
 20
4.574387028854803
 30
0.0
 40
0.9589526340622266
100
AcDbArc
 50
86.30858909405944
 51
171.6267235665014
  0
ARC
  5
8F
330
1F
100
AcDbEntity
  8
Default
100
AcDbCircle
 10
-11.33299815788907
 20
5.038327986658221
 30
0.0
 40
2.62144554569963
100
AcDbArc
 50
169.1596744628316
 51
212.3423814813854
  0
ARC
  5
90
330
1F
100
AcDbEntity
  8
Default
100
AcDbCircle
 10
-14.34297197583219
 20
3.241831002319663
 30
0.0
 40
0.8874956681875295
100
AcDbArc
 50
256.0800243367086
 51
26.36187550561121
  0
ARC
  5
91
330
1F
100
AcDbEntity
  8
Default
100
AcDbCircle
 10
-14.21223775995177
 20
1.826627906683567
 30
0.0
 40
0.6520433001907925
100
AcDbArc
 50
121.8659776936041
 51
202.6446790562823
  0
ARC
  5
92
330
1F
100
AcDbEntity
  8
Default
100
AcDbCircle
 10
-12.68305839523214
 20
-1.881223873322388
 30
0.0
 40
4.060847140260639
100
AcDbArc
 50
121.6518670995649
 51
162.6889088165784
  0
ARC
  5
93
330
1F
100
AcDbEntity
  8
Default
100
AcDbCircle
 10
-15.26593842908934
 20
0.2717579068861806
 30
0.0
 40
1.602135242074292
100
AcDbArc
 50
159.2195148905469
 51
216.1294441432407
  0
ARC
  5
94
330
1F
100
AcDbEntity
  8
Default
100
AcDbCircle
 10
-19.86006614793234
 20
3.015367462961822
 30
0.0
 40
3.783914886315633
100
AcDbArc
 50
324.9107448001551
 51
6.234966638745959
  0
ARC
  5
95
330
1F
100
AcDbEntity
  8
Default
100
AcDbCircle
 10
-15.37372214043995
 20
3.107406459532934
 30
0.0
 40
0.7918710487400648
100
AcDbArc
 50
99.78737967920745
 51
156.2505055071336
  0
ARC
  5
96
330
1F
100
AcDbEntity
  8
Default
100
AcDbCircle
 10
-15.52242286495683
 20
4.52174048176396
 30
0.0
 40
0.6341448878208157
100
AcDbArc
 50
271.2730300200566
 51
17.65161439599502
  0
SPLINE
  5
97
330
1F
100
AcDbEntity
  8
Default
100
AcDbSpline
210
0.0
220
0.0
230
1.0
 70
     8
 71
     3
 72
     8
 73
     4
 74
     0
 42
0.000000001
 43
0.0000000001
 40
0.0
 40
0.0
 40
0.0
 40
0.0
 40
1.0
 40
1.0
 40
1.0
 40
1.0
 10
-11.48605070181217
 20
0.1480372610072529
 30
0.0
 10
-11.49079381907253
 20
-0.4107053320515025
 30
0.0
 10
-10.96269605643186
 20
-0.3895674569040127
 30
0.0
 10
-10.8501456453718
 20
0.1347892389980787
 30
0.0
  0
ARC
  5
98
330
1F
100
AcDbEntity
  8
Default
100
AcDbCircle
 10
-13.95691311328535
 20
0.801640560463763
 30
0.0
 40
3.177529666993923
100
AcDbArc
 50
347.88557635453
 51
23.7671077045814
  0
ARC
  5
99
330
1F
100
AcDbEntity
  8
Default
100
AcDbCircle
 10
-6.813252355268022
 20
0.1083702823895951
 30
0.0
 40
4.672966708276276
100
AcDbArc
 50
155.0135667952203
 51
179.5136327951843
  0
SPLINE
  5
9A
330
1F
100
AcDbEntity
  8
Default
100
AcDbSpline
210
0.0
220
0.0
230
1.0
 70
     8
 71
     3
 72
     8
 73
     4
 74
     0
 42
0.000000001
 43
0.0000000001
 40
-1.0
 40
-1.0
 40
-1.0
 40
-1.0
 40
0.0
 40
0.0
 40
0.0
 40
0.0
 10
-0.6148047924859616
 20
2.027055010370696
 30
0.0
 10
-0.2318804698934415
 20
1.713896280840231
 30
0.0
 10
-0.5771828373923396
 20
1.300850359561083
 30
0.0
 10
-0.9582720297608525
 20
1.618165442186297
 30
0.0
  0
POLYLINE
  5
9B
330
1F
100
AcDbEntity
  8
Default
100
AcDb2dPolyline
 66
     1
 10
0.0
 20
0.0
 30
0.0
  0
VERTEX
  5
9C
330
9B
100
AcDbEntity
  8
Default
100
AcDbVertex
100
AcDb2dVertex
 10
-0.9582720297608525
 20
1.618165442186297
 30
0.0
  0
VERTEX
  5
9D
330
9B
100
AcDbEntity
  8
Default
100
AcDbVertex
100
AcDb2dVertex
 10
-4.965389797967918
 20
4.95470431857099
 30
0.0
  0
SEQEND
  5
9E
330
9B
100
AcDbEntity
  8
Default
  0
SPLINE
  5
9F
330
1F
100
AcDbEntity
  8
Default
100
AcDbSpline
210
0.0
220
0.0
230
1.0
 70
     8
 71
     3
 72
     8
 73
     4
 74
     0
 42
0.000000001
 43
0.0000000001
 40
5.214353697430506
 40
5.214353697430506
 40
5.214353697430506
 40
5.214353697430506
 40
6.214353697430506
 40
6.214353697430506
 40
6.214353697430506
 40
6.214353697430506
 10
-4.965389797967918
 20
4.95470431857099
 30
0.0
 10
-5.314684034866469
 20
5.245545234192643
 30
0.0
 10
-5.004144363134135
 20
5.616693804051297
 30
0.0
 10
-4.653175029780921
 20
5.329668133305374
 30
0.0
  0
POLYLINE
  5
A0
330
1F
100
AcDbEntity
  8
Default
100
AcDb2dPolyline
 66
     1
 10
0.0
 20
0.0
 30
0.0
  0
VERTEX
  5
A1
330
A0
100
AcDbEntity
  8
Default
100
AcDbVertex
100
AcDb2dVertex
 10
-4.653175029780921
 20
5.329668133305374
 30
0.0
  0
VERTEX
  5
A2
330
A0
100
AcDbEntity
  8
Default
100
AcDbVertex
100
AcDb2dVertex
 10
-0.6148047924859616
 20
2.027055010370696
 30
0.0
  0
SEQEND
  5
A3
330
A0
100
AcDbEntity
  8
Default
  0
ARC
  5
A4
330
1F
100
AcDbEntity
  8
Default
100
AcDbCircle
 10
-0.2545445659849624
 20
7.288241716236457
 30
0.0
 40
1.633214471129424
100
AcDbArc
 50
21.57556416454358
 51
56.88865803962772
  0
ARC
  5
A5
330
1F
100
AcDbEntity
  8
Default
100
AcDbCircle
 10
0.912581035271701
 20
8.241215831024
 30
0.0
 40
0.4978391854656871
100
AcDbArc
 50
314.939748955594
 51
123.5244732485774
  0
SPLINE
  5
A6
330
1F
100
AcDbEntity
  8
Default
100
AcDbSpline
210
0.0
220
0.0
230
1.0
 70
     8
 71
     3
 72
     8
 73
     4
 74
     0
 42
0.000000001
 43
0.0000000001
 40
-1.0
 40
-1.0
 40
-1.0
 40
-1.0
 40
0.0
 40
0.0
 40
0.0
 40
0.0
 10
-12.84077939036168
 20
6.354367252612548
 30
0.0
 10
-13.0749406035402
 20
6.250722125467953
 30
0.0
 10
-12.82341014439881
 20
6.023096242877097
 30
0.0
 10
-12.56177604684847
 20
6.032440317789609
 30
0.0
  0
ARC
  5
A7
330
1F
100
AcDbEntity
  8
Default
100
AcDbCircle
 10
-12.6605897310094
 20
8.799223474295607
 30
0.0
 40
2.768547124269831
100
AcDbArc
 50
272.0454084888873
 51
296.0270784469659
  0
ARC
  5
A8
330
1F
100
AcDbEntity
  8
Default
100
AcDbCircle
 10
-10.8791189216642
 20
6.878087412434246
 30
0.0
 40
0.801355277884028
100
AcDbArc
 50
224.9999999999996
 51
348.5652882905418
  0
ARC
  5
A9
330
1F
100
AcDbEntity
  8
Default
100
AcDbCircle
 10
-9.13683839774843
 20
6.121198310750931
 30
0.0
 40
1.128340875532129
100
AcDbArc
 50
106.6717746844552
 51
147.994616791917
  0
SPLINE
  5
AA
330
1F
100
AcDbEntity
  8
Default
100
AcDbSpline
210
0.0
220
0.0
230
1.0
 70
     8
 71
     3
 72
     8
 73
     4
 74
     0
 42
0.000000001
 43
0.0000000001
 40
3.700801926032059
 40
3.700801926032059
 40
3.700801926032059
 40
3.700801926032059
 40
4.700801926032059
 40
4.700801926032059
 40
4.700801926032059
 40
4.700801926032059
 10
-9.460546574720858
 20
7.202108180979619
 30
0.0
 10
-9.183272424251614
 20
7.285145548147881
 30
0.0
 10
-9.253307549055796
 20
7.587753302758417
 30
0.0
 10
-9.535662859512877
 20
7.513304217975129
 30
0.0
  0
ARC
  5
AB
330
1F
100
AcDbEntity
  8
Default
100
AcDbCircle
 10
-3.909989673482173
 20
-13.82260210774454
 30
0.0
 40
22.06511041295532
100
AcDbArc
 50
104.7710877823962
 51
113.8752808539278
  0
ARC
  5
AC
330
1F
100
AcDbEntity
  8
Default
100
AcDbCircle
 10
4.049657019612555
 20
3.972329493108051
 30
0.0
 40
1.755810855277839
100
AcDbArc
 50
59.23186396705828
 51
95.38931175997347
  0
ARC
  5
AD
330
1F
100
AcDbEntity
  8
Default
100
AcDbCircle
 10
1.858512107637002
 20
7.071411247134617
 30
0.0
 40
3.474698559243636
100
AcDbArc
 50
332.760441011592
 51
19.29863886752138
  0
ARC
  5
AE
330
1F
100
AcDbEntity
  8
Default
100
AcDbCircle
 10
7.104512196254141
 20
5.669844051561
 30
0.0
 40
3.220162038822125
100
AcDbArc
 50
127.6400458411682
 51
179.100807310773
  0
ARC
  5
AF
330
1F
100
AcDbEntity
  8
Default
100
AcDbCircle
 10
-10.13406269072682
 20
17.78906586868622
 30
0.0
 40
2.892674548447551
100
AcDbArc
 50
311.7947840689868
 51
339.59823740257
  0
ARC
  5
B0
330
1F
100
AcDbEntity
  8
Default
100
AcDbCircle
 10
-8.767215696415597
 20
16.18317753232416
 30
0.0
 40
1.471171756940244
100
AcDbArc
 50
329.6270791633951
 51
23.962488974578
  0
ARC
  5
B1
330
1F
100
AcDbEntity
  8
Default
100
AcDbCircle
 10
-7.229443335095615
 20
14.56415505544113
 30
0.0
 40
0.9154259857901007
100
AcDbArc
 50
107.0569655766171
 51
195.9517571868931
  0
ARC
  5
B2
330
1F
100
AcDbEntity
  8
Default
100
AcDbCircle
 10
-8.359836700137091
 20
13.98728800313942
 30
0.0
 40
0.410386859357937
100
AcDbArc
 50
52.43140797117186
 51
112.5768767493685
  0
ARC
  5
B3
330
1F
100
AcDbEntity
  8
Default
100
AcDbCircle
 10
-7.193535750832056
 20
14.7122332458757
 30
0.0
 40
1.368327870389582
100
AcDbArc
 50
137.7375866952345
 51
194.6473752723631
  0
ARC
  5
B4
330
1F
100
AcDbEntity
  8
Default
100
AcDbCircle
 10
-5.622580021916929
 20
17.28315883506534
 30
0.0
 40
1.16767175215042
100
AcDbArc
 50
174.942751467441
 51
213.9959803901376
  0
ARC
  5
B5
330
1F
100
AcDbEntity
  8
Default
100
AcDbCircle
 10
-5.696622497431701
 20
16.11938894406835
 30
0.0
 40
1.029719720110558
100
AcDbArc
 50
115.5026885036195
 51
150.2551187030577
  0
ARC
  5
B6
330
1F
100
AcDbEntity
  8
Default
100
AcDbCircle
 10
-5.445412031372657
 20
17.57236927404136
 30
0.0
 40
0.8698052590949287
100
AcDbArc
 50
118.5390814149258
 51
217.0106732336028
  0
ARC
  5
B7
330
1F
100
AcDbEntity
  8
Default
100
AcDbCircle
 10
-5.900871628605879
 20
16.7847233086779
 30
0.0
 40
1.5522754019114
100
AcDbArc
 50
88.52698111172487
 51
132.9041872092855
  0
ARC
  5
B8
330
1F
100
AcDbEntity
  8
Default
100
AcDbCircle
 10
-6.986412596127209
 20
17.7696300621518
 30
0.0
 40
0.1548249750734978
100
AcDbArc
 50
1.100650900849816
 51
79.28275791928613
  0
ARC
  5
B9
330
1F
100
AcDbEntity
  8
Default
100
AcDbCircle
 10
-6.83349760137061
 20
17.56341533228702
 30
0.0
 40
0.2091971923661555
100
AcDbArc
 50
89.48470367248363
 51
140.8217618997375
  0
ARC
  5
BA
330
1F
100
AcDbEntity
  8
Default
100
AcDbCircle
 10
-6.242095516731021
 20
17.38561248401703
 30
0.0
 40
0.8148255658916588
100
AcDbArc
 50
157.6415097416483
 51
198.6484305291979
  0
ARC
  5
BB
330
1F
100
AcDbEntity
  8
Default
100
AcDbCircle
 10
-6.382362683761026
 20
16.80263777594012
 30
0.0
 40
0.7092974496607284
100
AcDbArc
 50
124.6562856286579
 51
152.962685356573
  0
SPLINE
  5
BC
330
1F
100
AcDbEntity
  8
Default
100
AcDbSpline
210
0.0
220
0.0
230
1.0
 70
     8
 71
     3
 72
     8
 73
     4
 74
     0
 42
0.000000001
 43
0.0000000001
 40
50.36159218638323
 40
50.36159218638323
 40
50.36159218638323
 40
50.36159218638323
 40
51.36159218638323
 40
51.36159218638323
 40
51.36159218638323
 40
51.36159218638323
 10
-3.416091727967025
 20
16.9166371594382
 30
0.0
 10
-3.44340463271394
 20
16.98504757404743
 30
0.0
 10
-3.489255339327763
 20
17.01142743676948
 30
0.0
 10
-3.553167118112494
 20
16.98064750156853
 30
0.0
  0
ARC
  5
BD
330
1F
100
AcDbEntity
  8
Default
100
AcDbCircle
 10
-2.8226220261282
 20
15.46373604589633
 30
0.0
 40
1.683661633396651
100
AcDbArc
 50
115.7154825716633
 51
252.2515690560379
  0
SPLINE
  5
BE
330
1F
100
AcDbEntity
  8
Default
100
AcDbSpline
210
0.0
220
0.0
230
1.0
 70
     8
 71
     3
 72
     8
 73
     4
 74
     0
 42
0.000000001
 43
0.0000000001
 40
55.37376502601412
 40
55.37376502601412
 40
55.37376502601412
 40
55.37376502601412
 40
56.37376502601412
 40
56.37376502601412
 40
56.37376502601412
 40
56.37376502601412
 10
-3.335866437107013
 20
13.86020972232977
 30
0.0
 10
-3.037975802253668
 20
13.76486317193367
 30
0.0
 10
-3.154032671725484
 20
13.43049057033747
 30
0.0
 10
-3.448862791229862
 20
13.53860471444166
 30
0.0
  0
ARC
  5
BF
330
1F
100
AcDbEntity
  8
Default
100
AcDbCircle
 10
-2.73199728156841
 20
15.49351584686822
 30
0.0
 40
2.082204047308403
100
AcDbArc
 50
116.6566510662851
 51
249.8620234714386
  0
ARC
  5
C0
330
1F
100
AcDbEntity
  8
Default
100
AcDbCircle
 10
-2.806323608910107
 20
17.58154625549472
 30
0.0
 40
0.8893356447976923
100
AcDbArc
 50
161.5569378428501
 51
194.7976387449694
  0
ARC
  5
C1
330
1F
100
AcDbEntity
  8
Default
100
AcDbCircle
 10
-3.324668873232881
 20
17.47183086212497
 30
0.0
 40
0.5086867217704327
100
AcDbArc
 50
22.41058324411255
 51
129.7556618892851
  0
ARC
  5
C2
330
1F
100
AcDbEntity
  8
Default
100
AcDbCircle
 10
5.676715052332364
 20
17.44178415086526
 30
0.0
 40
8.534055155274093
100
AcDbArc
 50
178.4960811698562
 51
197.7981446201913
  0
ARC
  5
C3
330
1F
100
AcDbEntity
  8
Default
100
AcDbCircle
 10
-2.353680246982382
 20
14.86379313091405
 30
0.0
 40
0.0999999999999994
100
AcDbArc
 50
197.7981446201923
 51
274.1487870794027
  0
ARC
  5
C4
330
1F
100
AcDbEntity
  8
Default
100
AcDbCircle
 10
-2.039365689336575
 20
10.53062021876329
 30
0.0
 40
4.244557644656719
100
AcDbArc
 50
72.52028403408535
 51
94.14878707940133
  0
SPLINE
  5
C5
330
1F
100
AcDbEntity
  8
Default
100
AcDbSpline
210
0.0
220
0.0
230
1.0
 70
     8
 71
     3
 72
     8
 73
     4
 74
     0
 42
0.000000001
 43
0.0000000001
 40
67.29413810536182
 40
67.29413810536182
 40
67.29413810536182
 40
67.29413810536182
 40
68.29413810536182
 40
68.29413810536182
 40
68.29413810536182
 40
68.29413810536182
 10
-0.7644357927768759
 20
14.57917840133546
 30
0.0
 10
-0.5977176463522615
 20
14.52667725411452
 30
0.0
 10
-0.642912151334872
 20
14.36099543168929
 30
0.0
 10
-0.8137195872289191
 20
14.38908376559186
 30
0.0
  0
ARC
  5
C6
330
1F
100
AcDbEntity
  8
Default
100
AcDbCircle
 10
-1.350356826352492
 20
11.12574920335397
 30
0.0
 40
3.307163738237129
100
AcDbArc
 50
80.66160502376388
 51
107.6955329140152
  0
ARC
  5
C7
330
1F
100
AcDbEntity
  8
Default
100
AcDbCircle
 10
-3.736707335145036
 20
13.59018686980414
 30
0.0
 40
1.542205820222846
100
AcDbArc
 50
14.28674288439325
 51
26.42195450605902
  0
ARC
  5
C8
330
1F
100
AcDbEntity
  8
Default
100
AcDbCircle
 10
-2.291296472772398
 20
13.68857924996978
 30
0.0
 40
0.2864247921761006
100
AcDbArc
 50
25.04538174691062
 51
80.12960912945204
  0
ARC
  5
C9
330
1F
100
AcDbEntity
  8
Default
100
AcDbCircle
 10
-2.520613565702519
 20
13.82045947776274
 30
0.0
 40
0.4889256430991682
100
AcDbArc
 50
302.4673413341278
 51
358.7546357332318
  0
ARC
  5
CA
330
1F
100
AcDbEntity
  8
Default
100
AcDbCircle
 10
-16.74158908216256
 20
14.2698379390767
 30
0.0
 40
14.50906191351553
100
AcDbArc
 50
333.2842505233808
 51
356.5944458910408
  0
ARC
  5
CB
330
1F
100
AcDbEntity
  8
Default
100
AcDbCircle
 10
14.81137499528315
 20
42.55614644297756
 30
0.0
 40
39.46343314336552
100
AcDbArc
 50
241.8917211025897
 51
247.9329281900809
  0
ARC
  5
CC
330
1F
100
AcDbEntity
  8
Default
100
AcDbCircle
 10
-0.0341527570920453
 20
6.260883954447729
 30
0.0
 40
0.2779457151147768
100
AcDbArc
 50
274.0111921048788
 51
351.6765323301792
  0
ARC
  5
CD
330
1F
100
AcDbEntity
  8
Default
100
AcDbCircle
 10
0.3625506756950495
 20
6.684855526394474
 30
0.0
 40
0.4798915108410323
100
AcDbArc
 50
255.3112132266814
 51
337.3549582248785
  0
ARC
  5
CE
330
1F
100
AcDbEntity
  8
Default
100
AcDbCircle
 10
0.9720621014485766
 20
6.364500496975172
 30
0.0
 40
0.2148129097354473
100
AcDbArc
 50
19.27116608817253
 51
140.862378704075
  0
ARC
  5
CF
330
1F
100
AcDbEntity
  8
Default
100
AcDbCircle
 10
1.477945755956152
 20
5.854441517976955
 30
0.0
 40
0.655273663181895
100
AcDbArc
 50
117.5528115767179
 51
165.3648211807199
  0
ARC
  5
D0
330
1F
100
AcDbEntity
  8
Default
100
AcDbCircle
 10
3.457635432400846
 20
4.988537242262606
 30
0.0
 40
2.809869543374613
100
AcDbArc
 50
158.4638922178312
 51
199.0741295955877
  0
ARC
  5
D1
330
1F
100
AcDbEntity
  8
Default
100
AcDbCircle
 10
0.402856770590368
 20
3.920827130398512
 30
0.0
 40
0.4262467451516153
100
AcDbArc
 50
333.6007069649295
 51
20.52794614222785
  0
ARC
  5
D2
330
1F
100
AcDbEntity
  8
Default
100
AcDbCircle
 10
0.6205204130601814
 20
4.984686193105163
 30
0.0
 40
1.26407976584168
100
AcDbArc
 50
251.2583350095178
 51
277.4605661261684
  0
ARC
  5
D3
330
1F
100
AcDbEntity
  8
Default
100
AcDbCircle
 10
-1.246969470720251
 20
4.352240089346741
 30
0.0
 40
1.566618586660131
100
AcDbArc
 50
338.8752808539277
 51
17.20188381053174
  0
ARC
  5
D4
330
1F
100
AcDbEntity
  8
Default
100
AcDbCircle
 10
-0.0216861332975422
 20
4.781027241812009
 30
0.0
 40
0.2734464101749628
100
AcDbArc
 50
7.253194612725176
 51
102.5992964005775
  0
ARC
  5
D5
330
1F
100
AcDbEntity
  8
Default
100
AcDbCircle
 10
0.8434200710177936
 20
5.814113166379677
 30
0.0
 40
1.20094483120845
100
AcDbArc
 50
182.9673922785125
 51
219.6441749571445
  0
ARC
  5
D6
330
1F
100
AcDbEntity
  8
Default
100
AcDbCircle
 10
18.08899602069592
 20
52.02694247684892
 30
0.0
 40
49.81556272231039
100
AcDbArc
 50
243.6955915786635
 51
248.2680990124387
  0
ARC
  5
D7
330
1F
100
AcDbEntity
  8
Default
100
AcDbCircle
 10
-6.257184299709346
 20
7.744941282413148
 30
0.0
 40
2.301702715336256
100
AcDbArc
 50
244.0833167325268
 51
350.6164348276136
  0
SPLINE
  5
D8
330
1F
100
AcDbEntity
  8
Default
100
AcDbSpline
210
0.0
220
0.0
230
1.0
 70
     8
 71
     3
 72
     8
 73
     4
 74
     0
 42
0.000000001
 43
0.0000000001
 40
96.51310628115328
 40
96.51310628115328
 40
96.51310628115328
 40
96.51310628115328
 40
97.51310628115328
 40
97.51310628115328
 40
97.51310628115328
 40
97.51310628115328
 10
-7.263175007615967
 20
5.674719534533992
 30
0.0
 10
-7.511524559367408
 20
5.795400974399393
 30
0.0
 10
-7.439035979428021
 20
6.12585291180158
 30
0.0
 10
-7.184946762453993
 20
6.013708596902548
 30
0.0
  0
ARC
  5
D9
330
1F
100
AcDbEntity
  8
Default
100
AcDbCircle
 10
-6.380397941934408
 20
7.836602428009842
 30
0.0
 40
1.992546291579817
100
AcDbArc
 50
246.1853495779524
 51
351.0355697539786
  0
ARC
  5
DA
330
1F
100
AcDbEntity
  8
Default
100
AcDbCircle
 10
-6.11233994237222
 20
-1.553276606570904
 30
0.0
 40
9.237206103103347
100
AcDbArc
 50
79.39398403881752
 51
95.44253788778957
  0
ARC
  5
DB
330
1F
100
AcDbEntity
  8
Default
100
AcDbCircle
 10
-5.216227102719152
 20
4.540870036144419
 30
0.0
 40
3.572059873941424
100
AcDbArc
 50
73.12459700513105
 51
119.7448812969425
  0
ARC
  5
DC
330
1F
100
AcDbEntity
  8
Default
100
AcDbCircle
 10
-12.7282047567315
 20
13.19876967391001
 30
0.0
 40
10.02686330316878
100
AcDbArc
 50
328.4957303736048
 51
21.76438896896183
  0
ARC
  5
DD
330
1F
100
AcDbEntity
  8
Default
100
AcDbCircle
 10
-8.600592736464275
 20
7.394047909099651
 30
0.0
 40
0.5843166999828693
100
AcDbArc
 50
270.0000000000002
 51
6.308602126751327
  0
POLYLINE
  5
DE
330
1F
100
AcDbEntity
  8
Default
100
AcDb2dPolyline
 66
     1
 10
0.0
 20
0.0
 30
0.0
  0
VERTEX
  5
DF
330
DE
100
AcDbEntity
  8
Default
100
AcDbVertex
100
AcDb2dVertex
 10
-8.0198143842291
 20
7.45825469576482
 30
0.0
  0
VERTEX
  5
E0
330
DE
100
AcDbEntity
  8
Default
100
AcDbVertex
100
AcDb2dVertex
 10
-10.9147525269746
 20
10.09150351487233
 30
0.0
  0
SEQEND
  5
E1
330
DE
100
AcDbEntity
  8
Default
  0
ARC
  5
E2
330
1F
100
AcDbEntity
  8
Default
100
AcDbCircle
 10
-9.896402232039136
 20
9.802635607192599
 30
0.0
 40
1.058528219407683
100
AcDbArc
 50
164.1633431164268
 51
197.8491772587705
  0
ARC
  5
E3
330
1F
100
AcDbEntity
  8
Default
100
AcDbCircle
 10
-12.45394317238951
 20
6.735940956699195
 30
0.0
 40
3.149965164141924
100
AcDbArc
 50
27.88444189776669
 51
60.52411099675413
  0
ARC
  5
E4
330
1F
100
AcDbEntity
  8
Default
100
AcDbCircle
 10
-10.45969227493228
 20
6.497523854296516
 30
0.0
 40
1.885132495697802
100
AcDbArc
 50
9.532997950237554
 51
65.22485943116797
  0
ARC
  5
E5
330
1F
100
AcDbEntity
  8
Default
100
AcDbCircle
 10
-8.89056391666653
 20
8.43983543976354
 30
0.0
 40
1.167765788996312
100
AcDbArc
 50
340.3452575364948
 51
70.267310500339
  0
POLYLINE
  5
E6
330
1F
100
AcDbEntity
  8
Default
100
AcDb2dPolyline
 66
     1
 10
0.0
 20
0.0
 30
0.0
  0
VERTEX
  5
E7
330
E6
100
AcDbEntity
  8
Default
100
AcDbVertex
100
AcDb2dVertex
 10
-7.790836226045841
 20
8.04705567395035
 30
0.0
  0
VERTEX
  5
E8
330
E6
100
AcDbEntity
  8
Default
100
AcDbVertex
100
AcDb2dVertex
 10
-10.78390786515559
 20
10.77843798942211
 30
0.0
  0
SEQEND
  5
E9
330
E6
100
AcDbEntity
  8
Default
  0
ARC
  5
EA
330
1F
100
AcDbEntity
  8
Default
100
AcDbCircle
 10
-10.57795946029445
 20
9.803023233933853
 30
0.0
 40
0.9969196009152725
100
AcDbArc
 50
46.8144863597833
 51
101.9222856345852
  0
ARC
  5
EB
330
1F
100
AcDbEntity
  8
Default
100
AcDbCircle
 10
-7.145182493389648
 20
12.9307985043063
 30
0.0
 40
3.650971920110122
100
AcDbArc
 50
221.1171014396358
 51
248.2802220357837
  0
SPLINE
  5
EC
330
1F
100
AcDbEntity
  8
Default
100
AcDbSpline
210
0.0
220
0.0
230
1.0
 70
    11
 71
     3
 72
    14
 73
    10
 74
     0
 42
0.000000001
 43
0.0000000001
 40
0.0
 40
0.0
 40
0.0
 40
0.0
 40
0.1711801930997344
 40
0.3482439331460648
 40
0.5709469182272663
 40
0.7250291451185865
 40
0.9107001334116429
 40
1.104596661870111
 40
1.286552085552299
 40
1.286552085552299
 40
1.286552085552299
 40
1.286552085552299
 10
-4.841524793475924
 20
18.63412421320505
 30
0.0
 10
-4.851990684536068
 20
18.68181938175999
 30
0.0
 10
-4.757364637675321
 20
18.81684781916346
 30
0.0
 10
-4.581996967183001
 20
18.8199528015213
 30
0.0
 10
-4.333362739974995
 20
18.88169486957642
 30
0.0
 10
-4.336939079523715
 20
18.63362493322406
 30
0.0
 10
-4.493414991572541
 20
18.5134340023309
 30
0.0
 10
-4.674438339105254
 20
18.52229762803405
 30
0.0
 10
-4.830400108969051
 20
18.58342679053681
 30
0.0
 10
-4.841524793475924
 20
18.63412421320505
 30
0.0
  0
SPLINE
  5
ED
330
1F
100
AcDbEntity
  8
Default
100
AcDbSpline
210
0.0
220
0.0
230
1.0
 70
    11
 71
     3
 72
    13
 73
     9
 74
     0
 42
0.000000001
 43
0.0000000001
 40
0.0
 40
0.0
 40
0.0
 40
0.0
 40
0.2592126995717398
 40
0.447492775783375
 40
0.6423930893543417
 40
0.8534751863544398
 40
0.9965016626511012
 40
1.222106437652571
 40
1.222106437652571
 40
1.222106437652571
 40
1.222106437652571
 10
-3.130673071783564
 20
19.03902578733891
 30
0.0
 10
-3.230791362536715
 20
19.02341602094965
 30
0.0
 10
-3.401406514506685
 20
18.89432589589413
 30
0.0
 10
-3.226291090056971
 20
18.70806992926705
 30
0.0
 10
-3.024616263660658
 20
18.597931884641
 30
0.0
 10
-2.892983971366571
 20
18.79133238502526
 30
0.0
 10
-2.899560568806101
 20
19.00157825369841
 30
0.0
 10
-3.043535502921336
 20
19.05261168741207
 30
0.0
 10
-3.130673071783564
 20
19.03902578733891
 30
0.0
  0
SPLINE
  5
EE
330
1F
100
AcDbEntity
  8
Default
100
AcDbSpline
210
0.0
220
0.0
230
1.0
 70
    11
 71
     3
 72
    18
 73
    14
 74
     0
 42
0.000000001
 43
0.0000000001
 40
0.0
 40
0.0
 40
0.0
 40
0.0
 40
0.1695587063131571
 40
0.3398467007502453
 40
0.4337792478051907
 40
0.6520360518070978
 40
0.9027426270898283
 40
1.122808844883782
 40
1.30450394357116
 40
1.538542406184065
 40
1.7076620300865
 40
1.85551341344263
 40
2.172416024938361
 40
2.172416024938361
 40
2.172416024938361
 40
2.172416024938361
 10
-1.323921660354033
 20
16.50279954356071
 30
0.0
 10
-1.301962481148995
 20
16.45162679372447
 30
0.0
 10
-1.364524920855418
 20
16.28497836866152
 30
0.0
 10
-1.164669988111435
 20
16.32090755813971
 30
0.0
 10
-0.9923928244281524
 20
16.29700684458529
 30
0.0
 10
-1.041462871407838
 20
16.03844352433131
 30
0.0
 10
-1.174153516656322
 20
15.85745357063101
 30
0.0
 10
-1.417961842785621
 20
15.81697031648134
 30
0.0
 10
-1.603794832157492
 20
15.95389862160087
 30
0.0
 10
-1.641023405233299
 20
16.16095516417415
 30
0.0
 10
-1.629659420529923
 20
16.33573599911054
 30
0.0
 10
-1.697549196187042
 20
16.57491316749156
 30
0.0
 10
-1.364963028194659
 20
16.59844062512553
 30
0.0
 10
-1.323921660354032
 20
16.50279954356071
 30
0.0
  0
SPLINE
  5
EF
330
1F
100
AcDbEntity
  8
Default
100
AcDbSpline
210
0.0
220
0.0
230
1.0
 70
    15
 71
     2
 72
    12
 73
     9
 74
     0
 42
0.000000001
 43
0.0000000001
 40
0.0
 40
0.0
 40
0.0
 40
1.570796326794897
 40
1.570796326794897
 40
3.141592653589793
 40
3.141592653589793
 40
4.71238898038469
 40
4.71238898038469
 40
6.283185307179586
 40
6.283185307179586
 40
6.283185307179586
 10
-8.728789570380414
 20
5.71572438025699
 30
0.0
 41
1.0
 10
-8.913688964113202
 20
6.221116056459941
 30
0.0
 41
0.7071067811865475
 10
-9.270062080962193
 20
6.090735647856651
 30
0.0
 41
1.0
 10
-9.626435197811183
 20
5.96035523925336
 30
0.0
 41
0.7071067811865475
 10
-9.441535804078395
 20
5.454963563050409
 30
0.0
 41
1.0
 10
-9.256636410345607
 20
4.949571886847458
 30
0.0
 41
0.7071067811865475
 10
-8.900263293496616
 20
5.079952295450749
 30
0.0
 41
1.0
 10
-8.543890176647626
 20
5.210332704054039
 30
0.0
 41
0.7071067811865475
 10
-8.728789570380414
 20
5.71572438025699
 30
0.0
 41
1.0
  0
SPLINE
  5
F0
330
1F
100
AcDbEntity
  8
Default
100
AcDbSpline
210
0.0
220
0.0
230
1.0
 70
    15
 71
     2
 72
    12
 73
     9
 74
     0
 42
0.000000001
 43
0.0000000001
 40
0.0
 40
0.0
 40
0.0
 40
1.570796326794897
 40
1.570796326794897
 40
3.141592653589793
 40
3.141592653589793
 40
4.71238898038469
 40
4.71238898038469
 40
6.283185307179586
 40
6.283185307179586
 40
6.283185307179586
 10
-9.806600948167603
 20
5.202894773084049
 30
0.0
 41
1.0
 10
-9.940931992978632
 20
5.729885795035007
 30
0.0
 41
0.7071067811865475
 10
-10.38422538222981
 20
5.616889440912156
 30
0.0
 41
1.0
 10
-10.82751877148099
 20
5.503893086789305
 30
0.0
 41
0.7071067811865475
 10
-10.69318772666997
 20
4.976902064838347
 30
0.0
 41
1.0
 10
-10.55885668185894
 20
4.449911042887389
 30
0.0
 41
0.7071067811865475
 10
-10.11556329260775
 20
4.56290739701024
 30
0.0
 41
1.0
 10
-9.672269903356574
 20
4.675903751133091
 30
0.0
 41
0.7071067811865475
 10
-9.806600948167603
 20
5.202894773084049
 30
0.0
 41
1.0
  0
SPLINE
  5
F1
330
1F
100
AcDbEntity
  8
Default
100
AcDbSpline
210
0.0
220
0.0
230
1.0
 70
    15
 71
     2
 72
    12
 73
     9
 74
     0
 42
0.000000001
 43
0.0000000001
 40
0.0
 40
0.0
 40
0.0
 40
1.570796326794897
 40
1.570796326794897
 40
3.141592653589793
 40
3.141592653589793
 40
4.71238898038469
 40
4.71238898038469
 40
6.283185307179586
 40
6.283185307179586
 40
6.283185307179586
 10
-11.04956084351896
 20
4.872597737955714
 30
0.0
 41
1.0
 10
-11.14260982557397
 20
5.391013495119343
 30
0.0
 41
0.7071067811865475
 10
-11.48159888794252
 20
5.330169304437807
 30
0.0
 41
1.0
 10
-11.82058795031107
 20
5.269325113756271
 30
0.0
 41
0.7071067811865475
 10
-11.72753896825606
 20
4.750909356592643
 30
0.0
 41
1.0
 10
-11.63448998620105
 20
4.232493599429014
 30
0.0
 41
0.7071067811865475
 10
-11.2955009238325
 20
4.29333779011055
 30
0.0
 41
1.0
 10
-10.95651186146394
 20
4.354181980792085
 30
0.0
 41
0.7071067811865475
 10
-11.04956084351896
 20
4.872597737955714
 30
0.0
 41
1.0
  0
SPLINE
  5
F2
330
1F
100
AcDbEntity
  8
Default
100
AcDbSpline
210
0.0
220
0.0
230
1.0
 70
    15
 71
     2
 72
    12
 73
     9
 74
     0
 42
0.000000001
 43
0.0000000001
 40
0.0
 40
0.0
 40
0.0
 40
1.570796326794897
 40
1.570796326794897
 40
3.141592653589793
 40
3.141592653589793
 40
4.71238898038469
 40
4.71238898038469
 40
6.283185307179586
 40
6.283185307179586
 40
6.283185307179586
 10
-12.25775262990943
 20
4.377152185263212
 30
0.0
 41
1.0
 10
-12.27259855571777
 20
4.896759588554953
 30
0.0
 41
0.7071067811865475
 10
-12.57681950912544
 20
4.888067561314733
 30
0.0
 41
1.0
 10
-12.88104046253311
 20
4.879375534074513
 30
0.0
 41
0.7071067811865475
 10
-12.86619453672478
 20
4.359768130782773
 30
0.0
 41
1.0
 10
-12.85134861091644
 20
3.840160727491033
 30
0.0
 41
0.7071067811865475
 10
-12.54712765750877
 20
3.848852754731253
 30
0.0
 41
1.0
 10
-12.2429067041011
 20
3.857544781971473
 30
0.0
 41
0.7071067811865475
 10
-12.25775262990943
 20
4.377152185263212
 30
0.0
 41
1.0
  0
SPLINE
  5
F3
330
1F
100
AcDbEntity
  8
Default
100
AcDbSpline
210
0.0
220
0.0
230
1.0
 70
    11
 71
     3
 72
    18
 73
    14
 74
     0
 42
0.000000001
 43
0.0000000001
 40
0.0
 40
0.0
 40
0.0
 40
0.0
 40
0.3732748632055888
 40
0.8524548120311203
 40
1.413035106878139
 40
1.900198958805476
 40
2.265049484938136
 40
2.646109695506583
 40
2.968929633251149
 40
3.474080308488756
 40
3.779487014747872
 40
4.22154270061353
 40
4.518344669373536
 40
4.518344669373536
 40
4.518344669373536
 40
4.518344669373536
 10
-19.91367111977645
 20
-11.83233214047069
 30
0.0
 10
-19.96871306404599
 20
-11.90988006821302
 30
0.0
 10
-19.78007588354505
 20
-12.27067252829862
 30
0.0
 10
-19.39926615626261
 20
-12.52813135487573
 30
0.0
 10
-18.83139250844924
 20
-12.40132575532742
 30
0.0
 10
-18.47791098024278
 20
-12.31152414661254
 30
0.0
 10
-17.77265683985361
 20
-12.37893442202134
 30
0.0
 10
-18.42446891322597
 20
-12.18964833939055
 30
0.0
 10
-18.31074810556508
 20
-11.70278041136983
 30
0.0
 10
-18.8589326094655
 20
-11.65516860367896
 30
0.0
 10
-19.22085368447073
 20
-11.87117934237213
 30
0.0
 10
-19.54432347552915
 20
-11.74377090687026
 30
0.0
 10
-19.86990562942629
 20
-11.77067147189654
 30
0.0
 10
-19.91367111977645
 20
-11.83233214047069
 30
0.0
  0
SPLINE
  5
F4
330
1F
100
AcDbEntity
  8
Default
100
AcDbSpline
210
0.0
220
0.0
230
1.0
 70
    11
 71
     3
 72
    18
 73
    14
 74
     0
 42
0.000000001
 43
0.0000000001
 40
0.0
 40
0.0
 40
0.0
 40
0.0
 40
0.751239493280106
 40
0.9389535403408604
 40
1.383606520506079
 40
1.727665278412174
 40
2.168155236740357
 40
2.403746715924334
 40
2.833518838990922
 40
3.067885185173945
 40
3.327430977640166
 40
3.836442154738692
 40
4.620972803558034
 40
4.620972803558034
 40
4.620972803558034
 40
4.620972803558034
 10
-18.77470268536574
 20
-7.373725053307503
 30
0.0
 10
-18.89516762140035
 20
-7.43589514455502
 30
0.0
 10
-18.88032910002722
 20
-7.965593175711443
 30
0.0
 10
-18.66051715672863
 20
-8.3810192131939
 30
0.0
 10
-18.28668151194883
 20
-8.35838087987975
 30
0.0
 10
-17.81960220919571
 20
-8.30138398836338
 30
0.0
 10
-17.76498088116933
 20
-8.699250252309643
 30
0.0
 10
-17.33847790620045
 20
-8.966344631758412
 30
0.0
 10
-17.43836227310218
 20
-8.484134803339762
 30
0.0
 10
-17.45217800493382
 20
-8.141685838101644
 30
0.0
 10
-17.88134157222647
 20
-8.211607599788103
 30
0.0
 10
-18.20350767017863
 20
-7.852029944202449
 30
0.0
 10
-18.64889934931566
 20
-7.308799896337105
 30
0.0
 10
-18.77470268536574
 20
-7.373725053307503
 30
0.0
  0
ARC
  5
F5
330
1F
100
AcDbEntity
  8
Default
100
AcDbCircle
 10
24.46888527826543
 20
-16.74633544310036
 30
0.0
 40
1.248067675738804
100
AcDbArc
 50
329.8892819257087
 51
7.93863023182353
  0
ARC
  5
F6
330
1F
100
AcDbEntity
  8
Default
100
AcDbCircle
 10
25.89770363403751
 20
-17.77212438686612
 30
0.0
 40
1.213561312721753
100
AcDbArc
 50
19.22838828976509
 51
99.13715101413844
  0
POLYLINE
  5
F7
330
1F
100
AcDbEntity
  8
Default
100
AcDb2dPolyline
 66
     1
 10
0.0
 20
0.0
 30
0.0
  0
VERTEX
  5
F8
330
F7
100
AcDbEntity
  8
Default
100
AcDbVertex
100
AcDb2dVertex
 10
27.04356437929319
 20
-17.37245675968444
 30
0.0
  0
VERTEX
  5
F9
330
F7
100
AcDbEntity
  8
Default
100
AcDbVertex
100
AcDb2dVertex
 10
29.01611749921565
 20
-17.37245675968445
 30
0.0
  0
SEQEND
  5
FA
330
F7
100
AcDbEntity
  8
Default
  0
ARC
  5
FB
330
1F
100
AcDbEntity
  8
Default
100
AcDbCircle
 10
28.19295021881883
 20
-16.81538482553295
 30
0.0
 40
0.9939484450086896
100
AcDbArc
 50
325.9121344366355
 51
50.54618374938536
  0
ARC
  5
FC
330
1F
100
AcDbEntity
  8
Default
100
AcDbCircle
 10
62.60347823782115
 20
80.3845220734047
 30
0.0
 40
102.1774497066097
100
AcDbArc
 50
250.6953658152693
 51
254.9984582649356
  0
ARC
  5
FD
330
1F
100
AcDbEntity
  8
Default
100
AcDbCircle
 10
62.60347823781422
 20
-117.0057297189591
 30
0.0
 40
102.1774497065862
100
AcDbArc
 50
105.0015417350639
 51
109.3046341847312
  0
ARC
  5
FE
330
1F
100
AcDbEntity
  8
Default
100
AcDbCircle
 10
28.19295021881883
 20
-19.80582282004394
 30
0.0
 40
0.9939484450086896
100
AcDbArc
 50
309.4538162506146
 51
34.0878655633645
  0
POLYLINE
  5
FF
330
1F
100
AcDbEntity
  8
Default
100
AcDb2dPolyline
 66
     1
 10
0.0
 20
0.0
 30
0.0
  0
VERTEX
  5
100
330
FF
100
AcDbEntity
  8
Default
100
AcDbVertex
100
AcDb2dVertex
 10
29.01611749921565
 20
-19.24875088589243
 30
0.0
  0
VERTEX
  5
101
330
FF
100
AcDbEntity
  8
Default
100
AcDbVertex
100
AcDb2dVertex
 10
27.04356437929319
 20
-19.24875088589244
 30
0.0
  0
SEQEND
  5
102
330
FF
100
AcDbEntity
  8
Default
  0
ARC
  5
103
330
1F
100
AcDbEntity
  8
Default
100
AcDbCircle
 10
25.89770363403751
 20
-18.84908325871076
 30
0.0
 40
1.213561312721753
100
AcDbArc
 50
260.8628489858615
 51
340.7716117102349
  0
ARC
  5
104
330
1F
100
AcDbEntity
  8
Default
100
AcDbCircle
 10
24.46888527826543
 20
-19.87487220247652
 30
0.0
 40
1.248067675738804
100
AcDbArc
 50
352.0613697681765
 51
30.11071807429127
  0
POLYLINE
  5
105
330
1F
100
AcDbEntity
  8
Default
100
AcDb2dPolyline
 66
     1
 10
0.0
 20
0.0
 30
0.0
  0
VERTEX
  5
106
330
105
100
AcDbEntity
  8
Default
100
AcDbVertex
100
AcDb2dVertex
 10
25.54853569397556
 20
-19.24875088589243
 30
0.0
  0
VERTEX
  5
107
330
105
100
AcDbEntity
  8
Default
100
AcDbVertex
100
AcDb2dVertex
 10
17.8417429962064
 20
-19.24875088589243
 30
0.0
  0
SEQEND
  5
108
330
105
100
AcDbEntity
  8
Default
  0
ARC
  5
109
330
1F
100
AcDbEntity
  8
Default
100
AcDbCircle
 10
16.35741486511149
 20
-17.65784896044995
 30
0.0
 40
2.175821439626042
100
AcDbArc
 50
245.6449309371586
 51
313.0151774894942
  0
ARC
  5
10A
330
1F
100
AcDbEntity
  8
Default
100
AcDbCircle
 10
14.68885136580167
 20
-19.94003665169324
 30
0.0
 40
0.8275662910915562
100
AcDbArc
 50
287.5087125645159
 51
21.25422676358273
  0
ARC
  5
10B
330
1F
100
AcDbEntity
  8
Default
100
AcDbCircle
 10
13.24730827299662
 20
-21.53633714412945
 30
0.0
 40
1.873290428746089
100
AcDbArc
 50
25.520402414826
 51
190.8262497396284
  0
ARC
  5
10C
330
1F
100
AcDbEntity
  8
Default
100
AcDbCircle
 10
11.57604043001925
 20
-19.60949630508744
 30
0.0
 40
2.284938195682933
100
AcDbArc
 50
208.7292687844552
 51
265.7664159184659
  0
ARC
  5
10D
330
1F
100
AcDbEntity
  8
Default
100
AcDbCircle
 10
7.29898861242234
 20
-17.59954574768717
 30
0.0
 40
3.850914567532667
100
AcDbArc
 50
248.5506623834196
 51
306.1818569913729
  0
POLYLINE
  5
10E
330
1F
100
AcDbEntity
  8
Default
100
AcDb2dPolyline
 66
     1
 10
0.0
 20
0.0
 30
0.0
  0
VERTEX
  5
10F
330
10E
100
AcDbEntity
  8
Default
100
AcDbVertex
100
AcDb2dVertex
 10
5.890792393702231
 20
-21.18375087798004
 30
0.0
  0
VERTEX
  5
110
330
10E
100
AcDbEntity
  8
Default
100
AcDbVertex
100
AcDb2dVertex
 10
5.890792393702231
 20
-25.20598473660278
 30
0.0
  0
SEQEND
  5
111
330
10E
100
AcDbEntity
  8
Default
  0
POLYLINE
  5
112
330
1F
100
AcDbEntity
  8
Default
100
AcDb2dPolyline
 66
     1
 10
0.0
 20
0.0
 30
0.0
  0
VERTEX
  5
113
330
112
100
AcDbEntity
  8
Default
100
AcDbVertex
100
AcDb2dVertex
 10
5.890792393702231
 20
-25.20598473660278
 30
0.0
  0
VERTEX
  5
114
330
112
100
AcDbEntity
  8
Default
100
AcDbVertex
100
AcDb2dVertex
 10
3.934571608861925
 20
-25.20598473660278
 30
0.0
  0
VERTEX
  5
115
330
112
100
AcDbEntity
  8
Default
100
AcDbVertex
100
AcDb2dVertex
 10
3.934571608861924
 20
-21.18375087798004
 30
0.0
  0
SEQEND
  5
116
330
112
100
AcDbEntity
  8
Default
  0
ARC
  5
117
330
1F
100
AcDbEntity
  8
Default
100
AcDbCircle
 10
2.526375390141816
 20
-17.59954574768717
 30
0.0
 40
3.850914567532667
100
AcDbArc
 50
233.8181430086272
 51
291.4493376165805
  0
ARC
  5
118
330
1F
100
AcDbEntity
  8
Default
100
AcDbCircle
 10
-1.750676427455099
 20
-19.60949630508744
 30
0.0
 40
2.284938195682933
100
AcDbArc
 50
274.2335840815341
 51
331.2707312155448
  0
ARC
  5
119
330
1F
100
AcDbEntity
  8
Default
100
AcDbCircle
 10
-3.421944270432467
 20
-21.53633714412945
 30
0.0
 40
1.873290428746089
100
AcDbArc
 50
349.1737502603717
 51
154.479597585174
  0
ARC
  5
11A
330
1F
100
AcDbEntity
  8
Default
100
AcDbCircle
 10
-4.863487363237512
 20
-19.94003665169324
 30
0.0
 40
0.8275662910915562
100
AcDbArc
 50
158.7457732364173
 51
252.4912874354841
  0
ARC
  5
11B
330
1F
100
AcDbEntity
  8
Default
100
AcDbCircle
 10
-6.532050862547331
 20
-17.65784896044995
 30
0.0
 40
2.175821439626042
100
AcDbArc
 50
226.9848225105058
 51
294.3550690628414
  0
POLYLINE
  5
11C
330
1F
100
AcDbEntity
  8
Default
100
AcDb2dPolyline
 66
     1
 10
0.0
 20
0.0
 30
0.0
  0
VERTEX
  5
11D
330
11C
100
AcDbEntity
  8
Default
100
AcDbVertex
100
AcDb2dVertex
 10
-8.016378993642247
 20
-19.24875088589243
 30
0.0
  0
VERTEX
  5
11E
330
11C
100
AcDbEntity
  8
Default
100
AcDbVertex
100
AcDb2dVertex
 10
-21.87836067417595
 20
-19.24875088589243
 30
0.0
  0
SEQEND
  5
11F
330
11C
100
AcDbEntity
  8
Default
  0
ARC
  5
120
330
1F
100
AcDbEntity
  8
Default
100
AcDbCircle
 10
-20.86923576856385
 20
-20.23278249001013
 30
0.0
 40
1.409486173408267
100
AcDbArc
 50
135.7213002635039
 51
212.3233138912073
  0
ARC
  5
121
330
1F
100
AcDbEntity
  8
Default
100
AcDbCircle
 10
-21.84907269641732
 20
-21.4280184842786
 30
0.0
 40
0.4895138294670738
100
AcDbArc
 50
115.5648881119162
 51
273.764034864906
  0
ARC
  5
122
330
1F
100
AcDbEntity
  8
Default
100
AcDbCircle
 10
-22.03770124957265
 20
-17.39735377186161
 30
0.0
 40
4.524511661429913
100
AcDbArc
 50
272.7967363834679
 51
300.4421946226723
  0
ARC
  5
123
330
1F
100
AcDbEntity
  8
Default
100
AcDbCircle
 10
-22.19382216292439
 20
-19.69835929385351
 30
0.0
 40
2.924829905402532
100
AcDbArc
 50
233.5780517271823
 51
326.8414000943885
  0
ARC
  5
124
330
1F
100
AcDbEntity
  8
Default
100
AcDbCircle
 10
-22.42767938035592
 20
-19.67425524004872
 30
0.0
 40
2.812676410852893
100
AcDbArc
 50
119.6445931085956
 51
237.7064216954395
  0
ARC
  5
125
330
1F
100
AcDbEntity
  8
Default
100
AcDbCircle
 10
-21.74001497749811
 20
-12.83700458079413
 30
0.0
 40
4.85980608675901
100
AcDbArc
 50
149.0676671458339
 51
244.6740507067645
  0
ARC
  5
126
330
1F
100
AcDbEntity
  8
Default
100
AcDbCircle
 10
-28.27609264775056
 20
-8.640625495872335
 30
0.0
 40
2.913611301950911
100
AcDbArc
 50
324.3459207762388
 51
14.01411402158708
  0
ARC
  5
127
330
1F
100
AcDbEntity
  8
Default
100
AcDbCircle
 10
-30.45062843957924
 20
-9.27506603405919
 30
0.0
 40
5.177825559717987
100
AcDbArc
 50
14.99866455017636
 51
75.6089684597625
  0
ARC
  5
128
330
1F
100
AcDbEntity
  8
Default
100
AcDbCircle
 10
-27.59972729734417
 20
-10.62362616327445
 30
0.0
 40
6.553286810414804
100
AcDbArc
 50
43.00024059948198
 51
103.8075190162014
  0
ARC
  5
129
330
1F
100
AcDbEntity
  8
Default
100
AcDbCircle
 10
-22.06571458210112
 20
-5.388897342000972
 30
0.0
 40
1.065490957549313
100
AcDbArc
 50
225.9170610954075
 51
297.614636889829
  0
ARC
  5
12A
330
1F
100
AcDbEntity
  8
Default
100
AcDbCircle
 10
-20.82215345763735
 20
-4.833648732492781
 30
0.0
 40
1.676340330840504
100
AcDbArc
 50
202.8698306450889
 51
243.4349488229221
  0
ARC
  5
12B
330
1F
100
AcDbEntity
  8
Default
100
AcDbCircle
 10
-22.03491548969355
 20
-4.013672285728766
 30
0.0
 40
1.508412596692217
100
AcDbArc
 50
257.2928864986832
 51
321.3767305769694
  0
ARC
  5
12C
330
1F
100
AcDbEntity
  8
Default
100
AcDbCircle
 10
-20.92641602931936
 20
-3.567409608256842
 30
0.0
 40
1.389572128514836
100
AcDbArc
 50
218.8224975352922
 51
272.8864185438651
  0
ARC
  5
12D
330
1F
100
AcDbEntity
  8
Default
100
AcDbCircle
 10
-21.59793023495891
 20
-2.803273345847467
 30
0.0
 40
1.686152904438077
100
AcDbArc
 50
255.8888592070215
 51
305.1522351736849
  0
ARC
  5
12E
330
1F
100
AcDbEntity
  8
Default
100
AcDbCircle
 10
-20.85742654236721
 20
-3.85486431901733
 30
0.0
 40
0.4000000000000835
100
AcDbArc
 50
305.1522351736851
 51
329.7388571075991
  0
ARC
  5
12F
330
1F
100
AcDbEntity
  8
Default
100
AcDbCircle
 10
-14.76226171379284
 20
-7.411048109154508
 30
0.0
 40
6.656732773509513
100
AcDbArc
 50
115.8730124277741
 51
149.7388571076033
  0
ARC
  5
130
330
1F
100
AcDbEntity
  8
Default
100
AcDbCircle
 10
-17.75499088822811
 20
-0.4472904480855617
 30
0.0
 40
0.9782281366196998
100
AcDbArc
 50
235.2058087482356
 51
275.1540046452806
  0
ARC
  5
131
330
1F
100
AcDbEntity
  8
Default
100
AcDbCircle
 10
-18.9441448357546
 20
-0.3381714148553099
 30
0.0
 40
1.10934838748322
100
AcDbArc
 50
238.3780934687864
 51
304.6634458535003
  0
ARC
  5
132
330
1F
100
AcDbEntity
  8
Default
100
AcDbCircle
 10
-20.77683987860661
 20
-0.4794400735108736
 30
0.0
 40
1.486786202615548
100
AcDbArc
 50
177.4622324220472
 51
327.2931731206164
  0
ARC
  5
133
330
1F
100
AcDbEntity
  8
Default
100
AcDbCircle
 10
-21.4834108832886
 20
1.487713904808831
 30
0.0
 40
2.054626133690245
100
AcDbArc
 50
157.9379419924825
 51
247.7266267444018
  0
ARC
  5
134
330
1F
100
AcDbEntity
  8
Default
100
AcDbCircle
 10
-23.51420358528958
 20
3.285004755570697
 30
0.0
 40
1.033337407754165
100
AcDbArc
 50
214.5673832489139
 51
277.0379407631848
  0
ARC
  5
135
330
1F
100
AcDbEntity
  8
Default
100
AcDbCircle
 10
-24.03573128494948
 20
2.925664901744006
 30
0.0
 40
0.4000000000000212
100
AcDbArc
 50
165.7175724304151
 51
214.5673832489129
  0
ARC
  5
136
330
1F
100
AcDbEntity
  8
Default
100
AcDbCircle
 10
-23.51556486386894
 20
2.793246028937388
 30
0.0
 40
0.9367568010702194
100
AcDbArc
 50
100.2337213883303
 51
165.7175724304123
  0
ARC
  5
137
330
1F
100
AcDbEntity
  8
Default
100
AcDbCircle
 10
-23.43945663290587
 20
4.223171814314834
 30
0.0
 40
0.5629925252726153
100
AcDbArc
 50
143.7992408862635
 51
244.4817751401515
  0
ARC
  5
138
330
1F
100
AcDbEntity
  8
Default
100
AcDbCircle
 10
-23.68333488960287
 20
6.517868587177143
 30
0.0
 40
1.973435460053695
100
AcDbArc
 50
263.8788398993401
 51
295.3102034702957
  0
ARC
  5
139
330
1F
100
AcDbEntity
  8
Default
100
AcDbCircle
 10
-23.13077469146321
 20
5.42430719581689
 30
0.0
 40
0.7493026329667908
100
AcDbArc
 50
292.8625752018989
 51
348.4649061517493
  0
ARC
  5
13A
330
1F
100
AcDbEntity
  8
Default
100
AcDbCircle
 10
-25.4297678375902
 20
3.104307702391456
 30
0.0
 40
3.729567881425691
100
AcDbArc
 50
35.58291678594563
 51
52.82521000213157
  0
ARC
  5
13B
330
1F
100
AcDbEntity
  8
Default
100
AcDbCircle
 10
-21.28819355864807
 20
6.223301817944318
 30
0.0
 40
1.893724797062618
100
AcDbArc
 50
156.7328869930584
 51
184.4608482585169
  0
ARC
  5
13C
330
1F
100
AcDbEntity
  8
Default
100
AcDbCircle
 10
-22.77867835634703
 20
8.096832881404563
 30
0.0
 40
1.152740110524851
100
AcDbArc
 50
110.7214311723265
 51
257.51369843765
  0
ARC
  5
13D
330
1F
100
AcDbEntity
  8
Default
100
AcDbCircle
 10
-22.60266091623038
 20
9.923539360355765
 30
0.0
 40
0.9493297371559366
100
AcDbArc
 50
195.0859038627478
 51
232.0444367054537
  0
ARC
  5
13E
330
1F
100
AcDbEntity
  8
Default
100
AcDbCircle
 10
-24.25749783815428
 20
11.85122885618354
 30
0.0
 40
2.296648380635145
100
AcDbArc
 50
288.749757630311
 51
312.1373937295398
  0
ARC
  5
13F
330
1F
100
AcDbEntity
  8
Default
100
AcDbCircle
 10
-22.60127094313931
 20
10.68050663918476
 30
0.0
 40
0.5446908473961479
100
AcDbArc
 50
104.2159571011254
 51
257.7704900889966
  0
ARC
  5
140
330
1F
100
AcDbEntity
  8
Default
100
AcDbCircle
 10
-23.02225263981526
 20
12.67484063611765
 30
0.0
 40
1.49418805365453
100
AcDbArc
 50
281.0825694630294
 51
318.1470538296627
  0
ARC
  5
141
330
1F
100
AcDbEntity
  8
Default
100
AcDbCircle
 10
-21.0935638403852
 20
12.94081344531419
 30
0.0
 40
1.503461369662077
100
AcDbArc
 50
110.9992519610333
 51
237.1414547494385
  0
ARC
  5
142
330
1F
100
AcDbEntity
  8
Default
100
AcDbCircle
 10
-19.56947301389862
 20
16.38519474086813
 30
0.0
 40
2.901751618849172
100
AcDbArc
 50
148.745636156683
 51
224.6915401895227
  0
ARC
  5
143
330
1F
100
AcDbEntity
  8
Default
100
AcDbCircle
 10
-17.31047315419001
 20
18.16444263193713
 30
0.0
 40
4.747523676193897
100
AcDbArc
 50
167.1434701157169
 51
183.3050921092544
  0
ARC
  5
144
330
1F
100
AcDbEntity
  8
Default
100
AcDbCircle
 10
-20.85613900481452
 20
20.86822259178269
 30
0.0
 40
1.971417417913732
100
AcDbArc
 50
200.6228431364158
 51
236.6831110047296
  0
ARC
  5
145
330
1F
100
AcDbEntity
  8
Default
100
AcDbCircle
 10
-21.98659726040535
 20
20.51885354165952
 30
0.0
 40
0.7935459791913407
100
AcDbArc
 50
152.6454139180696
 51
205.7693276243389
  0
POLYLINE
  5
146
330
1F
100
AcDbEntity
  8
Default
100
AcDb2dPolyline
 66
     1
 10
0.0
 20
0.0
 30
0.0
  0
VERTEX
  5
147
330
146
100
AcDbEntity
  8
Default
100
AcDbVertex
100
AcDb2dVertex
 10
-22.69140882573245
 20
20.88348469566575
 30
0.0
  0
VERTEX
  5
148
330
146
100
AcDbEntity
  8
Default
100
AcDbVertex
100
AcDb2dVertex
 10
-23.73335038936626
 20
21.83914584026478
 30
0.0
  0
SEQEND
  5
149
330
146
100
AcDbEntity
  8
Default
  0
LINE
  5
14A
330
1F
100
AcDbEntity
  8
Default
100
AcDbLine
 10
-23.73335038936626
 20
21.83914584026478
 30
0.0
 11
-24.26070648016874
 21
21.26591205185339
 31
0.0
  0
POLYLINE
  5
14B
330
1F
100
AcDbEntity
  8
Default
100
AcDb2dPolyline
 66
     1
 10
0.0
 20
0.0
 30
0.0
  0
VERTEX
  5
14C
330
14B
100
AcDbEntity
  8
Default
100
AcDbVertex
100
AcDb2dVertex
 10
-24.26070648016874
 20
21.26591205185339
 30
0.0
  0
VERTEX
  5
14D
330
14B
100
AcDbEntity
  8
Default
100
AcDbVertex
100
AcDb2dVertex
 10
-24.62024019675566
 20
21.59567373437722
 30
0.0
  0
SEQEND
  5
14E
330
14B
100
AcDbEntity
  8
Default
  0
LINE
  5
14F
330
1F
100
AcDbEntity
  8
Default
100
AcDbLine
 10
-24.62024019675566
 20
21.59567373437722
 30
0.0
 11
-24.09288410595318
 21
22.16890752278861
 31
0.0
  0
POLYLINE
  5
150
330
1F
100
AcDbEntity
  8
Default
100
AcDb2dPolyline
 66
     1
 10
0.0
 20
0.0
 30
0.0
  0
VERTEX
  5
151
330
150
100
AcDbEntity
  8
Default
100
AcDbVertex
100
AcDb2dVertex
 10
-24.09288410595318
 20
22.16890752278861
 30
0.0
  0
VERTEX
  5
152
330
150
100
AcDbEntity
  8
Default
100
AcDbVertex
100
AcDb2dVertex
 10
-24.52228141266582
 20
22.56274757672561
 30
0.0
  0
SEQEND
  5
153
330
150
100
AcDbEntity
  8
Default
  0
LINE
  5
154
330
1F
100
AcDbEntity
  8
Default
100
AcDbLine
 10
-24.52228141266582
 20
22.56274757672561
 30
0.0
 11
-24.08890809764233
 21
23.03382249460375
 31
0.0
  0
POLYLINE
  5
155
330
1F
100
AcDbEntity
  8
Default
100
AcDb2dPolyline
 66
     1
 10
0.0
 20
0.0
 30
0.0
  0
VERTEX
  5
156
330
155
100
AcDbEntity
  8
Default
100
AcDbVertex
100
AcDb2dVertex
 10
-24.08890809764233
 20
23.03382249460375
 30
0.0
  0
VERTEX
  5
157
330
155
100
AcDbEntity
  8
Default
100
AcDbVertex
100
AcDb2dVertex
 10
-23.65951079092969
 20
22.63998244066675
 30
0.0
  0
SEQEND
  5
158
330
155
100
AcDbEntity
  8
Default
  0
LINE
  5
159
330
1F
100
AcDbEntity
  8
Default
100
AcDbLine
 10
-23.65951079092969
 20
22.63998244066675
 30
0.0
 11
-23.12994122506667
 21
23.21562226688947
 31
0.0
  0
POLYLINE
  5
15A
330
1F
100
AcDbEntity
  8
Default
100
AcDb2dPolyline
 66
     1
 10
0.0
 20
0.0
 30
0.0
  0
VERTEX
  5
15B
330
15A
100
AcDbEntity
  8
Default
100
AcDbVertex
100
AcDb2dVertex
 10
-23.12994122506667
 20
23.21562226688947
 30
0.0
  0
VERTEX
  5
15C
330
15A
100
AcDbEntity
  8
Default
100
AcDbVertex
100
AcDb2dVertex
 10
-22.77040750847974
 20
22.88586058436564
 30
0.0
  0
SEQEND
  5
15D
330
15A
100
AcDbEntity
  8
Default
  0
LINE
  5
15E
330
1F
100
AcDbEntity
  8
Default
100
AcDbLine
 10
-22.77040750847974
 20
22.88586058436564
 30
0.0
 11
-23.29997707434277
 21
22.31022075814292
 31
0.0
  0
POLYLINE
  5
15F
330
1F
100
AcDbEntity
  8
Default
100
AcDb2dPolyline
 66
     1
 10
0.0
 20
0.0
 30
0.0
  0
VERTEX
  5
160
330
15F
100
AcDbEntity
  8
Default
100
AcDbVertex
100
AcDb2dVertex
 10
-23.29997707434277
 20
22.31022075814292
 30
0.0
  0
VERTEX
  5
161
330
15F
100
AcDbEntity
  8
Default
100
AcDbVertex
100
AcDb2dVertex
 10
-22.35172347398852
 20
21.44048952492074
 30
0.0
  0
SEQEND
  5
162
330
15F
100
AcDbEntity
  8
Default
  0
ARC
  5
163
330
1F
100
AcDbEntity
  8
Default
100
AcDbCircle
 10
-22.42700081319622
 20
20.24821388402618
 30
0.0
 40
1.194649689937899
100
AcDbArc
 50
47.84604158670229
 51
86.38728141934831
  0
ARC
  5
164
330
1F
100
AcDbEntity
  8
Default
100
AcDbCircle
 10
-22.65293744086049
 20
19.09861933879085
 30
0.0
 40
2.279992400030619
100
AcDbArc
 50
35.99170686194625
 51
63.20848447058115
  0
ARC
  5
165
330
1F
100
AcDbEntity
  8
Default
100
AcDbCircle
 10
-21.18994380363548
 20
20.1955645722893
 30
0.0
 40
0.4524953714602996
100
AcDbArc
 50
334.4568308786025
 51
32.47119229084783
  0
POLYLINE
  5
166
330
1F
100
AcDbEntity
  8
Default
100
AcDb2dPolyline
 66
     1
 10
0.0
 20
0.0
 30
0.0
  0
VERTEX
  5
167
330
166
100
AcDbEntity
  8
Default
100
AcDbVertex
100
AcDb2dVertex
 10
-20.78167503000842
 20
20.00045263089654
 30
0.0
  0
VERTEX
  5
168
330
166
100
AcDbEntity
  8
Default
100
AcDbVertex
100
AcDb2dVertex
 10
-20.3605561905756
 20
19.61420552630746
 30
0.0
  0
SEQEND
  5
169
330
166
100
AcDbEntity
  8
Default
  0
LINE
  5
16A
330
1F
100
AcDbEntity
  8
Default
100
AcDbLine
 10
-20.3605561905756
 20
19.61420552630746
 30
0.0
 11
-20.13932754122253
 21
19.4112962350018
 31
0.0
  0
LINE
  5
16B
330
1F
100
AcDbEntity
  8
Default
100
AcDbLine
 10
-20.13932754122253
 20
19.4112962350018
 30
0.0
 11
-20.0970607720091
 21
19.69185582358551
 31
0.0
  0
POLYLINE
  5
16C
330
1F
100
AcDbEntity
  8
Default
100
AcDb2dPolyline
 66
     1
 10
0.0
 20
0.0
 30
0.0
  0
VERTEX
  5
16D
330
16C
100
AcDbEntity
  8
Default
100
AcDbVertex
100
AcDb2dVertex
 10
-20.0970607720091
 20
19.69185582358551
 30
0.0
  0
VERTEX
  5
16E
330
16C
100
AcDbEntity
  8
Default
100
AcDbVertex
100
AcDb2dVertex
 10
-19.66593802516245
 20
19.29643320863841
 30
0.0
  0
SEQEND
  5
16F
330
16C
100
AcDbEntity
  8
Default
  0
LINE
  5
170
330
1F
100
AcDbEntity
  8
Default
100
AcDbLine
 10
-19.66593802516245
 20
19.29643320863841
 30
0.0
 11
-19.70820479437589
 21
19.01587362005471
 31
0.0
  0
LINE
  5
171
330
1F
100
AcDbEntity
  8
Default
100
AcDbLine
 10
-19.70820479437589
 20
19.01587362005471
 30
0.0
 11
-16.99013894648344
 21
16.5228836003137
 31
0.0
  0
ARC
  5
172
330
1F
100
AcDbEntity
  8
Default
100
AcDbCircle
 10
-13.55664777053667
 20
16.52260714759408
 30
0.0
 40
3.433491187076274
100
AcDbArc
 50
312.5998404917008
 51
179.9953867439224
  0
ARC
  5
173
330
1F
100
AcDbEntity
  8
Default
100
AcDbCircle
 10
-12.39736110238534
 20
12.27266758546974
 30
0.0
 40
2.079382387474049
100
AcDbArc
 50
26.06633670005135
 51
55.93422966426382
  0
ARC
  5
174
330
1F
100
AcDbEntity
  8
Default
100
AcDbCircle
 10
-11.06845276213236
 20
12.92272517643729
 30
0.0
 40
0.5999999999999853
100
AcDbArc
 50
0.2066914029844126
 51
26.06633670005143
  0
ARC
  5
175
330
1F
100
AcDbEntity
  8
Default
100
AcDbCircle
 10
-11.50224031586263
 20
12.9211603046828
 30
0.0
 40
1.033790376328119
100
AcDbArc
 50
270.722177461545
 51
0.2066914029804944
  0
SPLINE
  5
176
330
1F
100
AcDbEntity
  8
Default
100
AcDbSpline
210
0.0
220
0.0
230
1.0
 70
     8
 71
     3
 72
     8
 73
     4
 74
     0
 42
0.000000001
 43
0.0000000001
 40
85.13753895474943
 40
85.13753895474943
 40
85.13753895474943
 40
85.13753895474943
 40
86.13753895474943
 40
86.13753895474943
 40
86.13753895474943
 40
86.13753895474943
 10
-11.4892103798356
 20
11.88745204653848
 30
0.0
 10
-11.77255317404213
 20
11.88388049871235
 30
0.0
 10
-11.66834691189547
 20
11.51641175236015
 30
0.0
 10
-11.38395813423948
 20
11.53137958276309
 30
0.0
  0
ARC
  5
177
330
1F
100
AcDbEntity
  8
Default
100
AcDbCircle
 10
-11.45471600920584
 20
12.87577920712397
 30
0.0
 40
1.346260385977175
100
AcDbArc
 50
273.0127875041835
 51
357.616830110595
  0
ARC
  5
178
330
1F
100
AcDbEntity
  8
Default
100
AcDbCircle
 10
-7.104066114129023
 20
14.11789925664204
 30
0.0
 40
3.273899682390812
100
AcDbArc
 50
203.3595438483485
 51
240.2749928036601
  0
ARC
  5
179
330
1F
100
AcDbEntity
  8
Default
100
AcDbCircle
 10
-9.3203627259819
 20
12.00578835718582
 30
0.0
 40
0.9412591962489351
100
AcDbArc
 50
309.0485777211208
 51
51.62947092778224
  0
ARC
  5
17A
330
1F
100
AcDbEntity
  8
Default
100
AcDbCircle
 10
-9.1937645667246
 20
12.61396725192902
 30
0.0
 40
0.4757279137823563
100
AcDbArc
 50
321.9269054356274
 51
15.83118111864841
  0
SPLINE
  5
17B
330
1F
100
AcDbEntity
  8
Default
100
AcDbSpline
210
0.0
220
0.0
230
1.0
 70
     8
 71
     3
 72
     8
 73
     4
 74
     0
 42
0.000000001
 43
0.0000000001
 40
92.36758815563299
 40
92.36758815563299
 40
92.36758815563299
 40
92.36758815563299
 40
93.36758815563299
 40
93.36758815563299
 40
93.36758815563299
 40
93.36758815563299
 10
-8.819259808177343
 20
12.32060189307223
 30
0.0
 10
-8.985058666548719
 20
12.10894615544952
 30
0.0
 10
-9.16474200271779
 20
12.1243770092871
 30
0.0
 10
-9.25328920315691
 20
12.37672638380234
 30
0.0
  0
ARC
  5
17C
330
1F
100
AcDbEntity
  8
Default
100
AcDbCircle
 10
-6.825860470220524
 20
13.22849001103502
 30
0.0
 40
2.57253018061241
100
AcDbArc
 50
148.3307425513089
 51
199.3355282781674
  0
ARC
  5
17D
330
1F
100
AcDbEntity
  8
Default
100
AcDbCircle
 10
-9.141253687562237
 20
13.96382401354531
 30
0.0
 40
0.6280381339384208
100
AcDbArc
 50
78.4329334899038
 51
162.4174760630198
  0
ARC
  5
17E
330
1F
100
AcDbEntity
  8
Default
100
AcDbCircle
 10
-8.811778113018661
 20
14.49615563287624
 30
0.0
 40
0.9893890941812897
100
AcDbArc
 50
108.2792316173384
 51
200.2604911302518
  0
SPLINE
  5
17F
330
1F
100
AcDbEntity
  8
Default
100
AcDbSpline
210
0.0
220
0.0
230
1.0
 70
     8
 71
     3
 72
     8
 73
     4
 74
     0
 42
0.000000001
 43
0.0000000001
 40
98.16658213744377
 40
98.16658213744377
 40
98.16658213744377
 40
98.16658213744377
 40
99.16658213744377
 40
99.16658213744377
 40
99.16658213744377
 40
99.16658213744377
 10
-9.122098311318451
 20
15.43561939173661
 30
0.0
 10
-8.955852357469615
 20
15.49053314107324
 30
0.0
 10
-8.878973722519735
 20
15.54675717481627
 30
0.0
 10
-8.6280031603106
 20
15.71468941792109
 30
0.0
  0
ARC
  5
180
330
1F
100
AcDbEntity
  8
Default
100
AcDbCircle
 10
-9.318269638558547
 20
16.74627550834137
 30
0.0
 40
1.241224263757931
100
AcDbArc
 50
303.7877168213158
 51
3.082180824527955
  0
ARC
  5
181
330
1F
100
AcDbEntity
  8
Default
100
AcDbCircle
 10
-8.309701565891302
 20
16.21378948548541
 30
0.0
 40
0.6421578088336961
100
AcDbArc
 50
68.93003379009664
 51
146.6737103128852
  0
ARC
  5
182
330
1F
100
AcDbEntity
  8
Default
100
AcDbCircle
 10
-7.042915888387163
 20
16.45861111093192
 30
0.0
 40
1.806574210527697
100
AcDbArc
 50
84.24216162609201
 51
176.57323148571
  0
ARC
  5
183
330
1F
100
AcDbEntity
  8
Default
100
AcDbCircle
 10
-6.466722078893543
 20
19.46801917062488
 30
0.0
 40
1.27467836828414
100
AcDbArc
 50
218.9562201146884
 51
251.9502039678249
  0
ARC
  5
184
330
1F
100
AcDbEntity
  8
Default
100
AcDbCircle
 10
-7.303038030560614
 20
20.95923148751388
 30
0.0
 40
2.297863656854435
100
AcDbArc
 50
266.1345388301484
 51
281.6664486546154
  0
ARC
  5
185
330
1F
100
AcDbEntity
  8
Default
100
AcDbCircle
 10
-6.040575787416886
 20
17.87995289108525
 30
0.0
 40
1.150452089537863
100
AcDbArc
 50
74.85747977403409
 51
133.905309408147
  0
ARC
  5
186
330
1F
100
AcDbEntity
  8
Default
100
AcDbCircle
 10
-5.610318480787728
 20
19.93208572034926
 30
0.0
 40
0.9505208391243847
100
AcDbArc
 50
262.1552999735608
 51
309.09639897252
  0
ARC
  5
187
330
1F
100
AcDbEntity
  8
Default
100
AcDbCircle
 10
-5.524330003713663
 20
18.66670200314674
 30
0.0
 40
0.7362615712162908
100
AcDbArc
 50
45.78482460299202
 51
105.9688015551292
  0
ARC
  5
188
330
1F
100
AcDbEntity
  8
Default
100
AcDbCircle
 10
-4.835892289089026
 20
18.47249070545323
 30
0.0
 40
1.267905678736443
100
AcDbArc
 50
31.46710727866538
 51
134.6463268407535
  0
ARC
  5
189
330
1F
100
AcDbEntity
  8
Default
100
AcDbCircle
 10
-2.34524775427928
 20
19.35066455249802
 30
0.0
 40
1.425702950975583
100
AcDbArc
 50
135.2866139551128
 51
188.7269428582873
  0
ARC
  5
18A
330
1F
100
AcDbEntity
  8
Default
100
AcDbCircle
 10
-2.364033100615505
 20
20.59238180514795
 30
0.0
 40
1.022606156271194
100
AcDbArc
 50
193.4957332807961
 51
227.9752421230449
  0
ARC
  5
18B
330
1F
100
AcDbEntity
  8
Default
100
AcDbCircle
 10
-4.596689487186261
 20
21.72912004471626
 30
0.0
 40
2.448021108978504
100
AcDbArc
 50
309.225674097337
 51
325.0165186959868
  0
ARC
  5
18C
330
1F
100
AcDbEntity
  8
Default
100
AcDbCircle
 10
-5.182355868858872
 20
19.81110733865822
 30
0.0
 40
2.641947178234287
100
AcDbArc
 50
345.9767461238683
 51
11.22889182153891
  0
SPLINE
  5
18D
330
1F
100
AcDbEntity
  8
Default
100
AcDbSpline
210
0.0
220
0.0
230
1.0
 70
     8
 71
     3
 72
     8
 73
     4
 74
     0
 42
0.000000001
 43
0.0000000001
 40
114.3958766910181
 40
114.3958766910181
 40
114.3958766910181
 40
114.3958766910181
 40
115.3958766910181
 40
115.3958766910181
 40
115.3958766910181
 40
115.3958766910181
 10
-2.619145425120084
 20
19.17092212039048
 30
0.0
 10
-2.645617419799826
 20
19.06493202362862
 30
0.0
 10
-2.553406926451622
 20
19.02433635693886
 30
0.0
 10
-2.42905078937649
 20
18.99490856877604
 30
0.0
  0
ARC
  5
18E
330
1F
100
AcDbEntity
  8
Default
100
AcDbCircle
 10
-1.600699468242107
 20
22.49536092582779
 30
0.0
 40
3.597128384588775
100
AcDbArc
 50
256.6863676878567
 51
282.8175680558305
  0
ARC
  5
18F
330
1F
100
AcDbEntity
  8
Default
100
AcDbCircle
 10
-0.6693069710339972
 20
18.34952021129837
 30
0.0
 40
0.6521332569044354
100
AcDbArc
 50
30.60285264085461
 51
101.8017883999207
  0
ARC
  5
190
330
1F
100
AcDbEntity
  8
Default
100
AcDbCircle
 10
-0.2429237217736028
 20
17.92442941008658
 30
0.0
 40
0.7690094842961945
100
AcDbArc
 50
338.8657601196331
 51
79.89545560294538
  0
ARC
  5
191
330
1F
100
AcDbEntity
  8
Default
100
AcDbCircle
 10
2.718320966969081
 20
15.8818047443077
 30
0.0
 40
2.855141925510067
100
AcDbArc
 50
141.8073725717091
 51
164.2611985625505
  0
ARC
  5
192
330
1F
100
AcDbEntity
  8
Default
100
AcDbCircle
 10
0.4924258257916724
 20
17.26122791349573
 30
0.0
 40
0.7991690979348814
100
AcDbArc
 50
146.1999090344424
 51
229.1991453383694
  0
ARC
  5
193
330
1F
100
AcDbEntity
  8
Default
100
AcDbCircle
 10
-0.8495015456073967
 20
17.2204427864781
 30
0.0
 40
0.8336843437432614
100
AcDbArc
 50
35.60453398043312
 51
121.4314833100708
  0
ARC
  5
194
330
1F
100
AcDbEntity
  8
Default
100
AcDbCircle
 10
-0.207858499263118
 20
18.11119453541357
 30
0.0
 40
1.091239046151901
100
AcDbArc
 50
189.4623222080252
 51
237.2933418648355
  0
ARC
  5
195
330
1F
100
AcDbEntity
  8
Default
100
AcDbCircle
 10
-1.70725326971115
 20
16.2433152835487
 30
0.0
 40
1.315107705624348
100
AcDbArc
 50
331.2629900386324
 51
46.22933448647785
  0
ARC
  5
196
330
1F
100
AcDbEntity
  8
Default
100
AcDbCircle
 10
3.132597987217796
 20
16.38025566536095
 30
0.0
 40
3.766112609856954
100
AcDbArc
 50
191.7856370924946
 51
218.0624751923555
  0
ARC
  5
197
330
1F
100
AcDbEntity
  8
Default
100
AcDbCircle
 10
0.6421074156393282
 20
13.06149108562779
 30
0.0
 40
1.104139770342229
100
AcDbArc
 50
115.4639131696425
 51
126.0743164016311
  0
ARC
  5
198
330
1F
100
AcDbEntity
  8
Default
100
AcDbCircle
 10
0.6796713187878518
 20
13.76658921127653
 30
0.0
 40
0.7127755401789304
100
AcDbArc
 50
164.7629177408474
 51
244.2278131225437
  0
ARC
  5
199
330
1F
100
AcDbEntity
  8
Default
100
AcDbCircle
 10
0.1337301886252391
 20
12.6013413019405
 30
0.0
 40
0.5741331706457659
100
AcDbArc
 50
320.7554809648138
 51
65.7255588655604
  0
ARC
  5
19A
330
1F
100
AcDbEntity
  8
Default
100
AcDbCircle
 10
0.4328705205348603
 20
11.83924847980701
 30
0.0
 40
0.4245866047182788
100
AcDbArc
 50
69.9595342518981
 51
92.33241062839524
  0
ARC
  5
19B
330
1F
100
AcDbEntity
  8
Default
100
AcDbCircle
 10
0.0417396373162572
 20
12.10084737383263
 30
0.0
 40
0.4076952094177459
100
AcDbArc
 50
264.1031841874702
 51
23.51040120140084
  0
ARC
  5
19C
330
1F
100
AcDbEntity
  8
Default
100
AcDbCircle
 10
-0.1421504176236701
 20
13.11535514862353
 30
0.0
 40
1.427128242531128
100
AcDbArc
 50
231.9881395899397
 51
275.7105931374994
  0
ARC
  5
19D
330
1F
100
AcDbEntity
  8
Default
100
AcDbCircle
 10
-0.460512320973039
 20
12.64920225329228
 30
0.0
 40
0.8645588025375476
100
AcDbArc
 50
165.3251801999142
 51
229.585989003457
  0
ARC
  5
19E
330
1F
100
AcDbEntity
  8
Default
100
AcDbCircle
 10
-1.343689975844568
 20
13.05773950516929
 30
0.0
 40
0.195214271656657
100
AcDbArc
 50
283.877483688846
 51
323.1862310588714
  0
ARC
  5
19F
330
1F
100
AcDbEntity
  8
Default
100
AcDbCircle
 10
-1.507572512350381
 20
12.91053788438866
 30
0.0
 40
0.3215922319413339
100
AcDbArc
 50
5.393128402831621
 51
122.6239689537929
  0
ARC
  5
1A0
330
1F
100
AcDbEntity
  8
Default
100
AcDbCircle
 10
-1.553037367823773
 20
12.94155471106432
 30
0.0
 40
0.2718150550717133
100
AcDbArc
 50
118.0724869358531
 51
204.1553383247284
  0
ARC
  5
1A1
330
1F
100
AcDbEntity
  8
Default
100
AcDbCircle
 10
1.310630012832172
 20
13.55560404653742
 30
0.0
 40
3.195089323975787
100
AcDbArc
 50
193.1204031529771
 51
210.8809935481037
  0
ARC
  5
1A2
330
1F
100
AcDbEntity
  8
Default
100
AcDbCircle
 10
-3.823584154204565
 20
13.33369415392031
 30
0.0
 40
2.780777824798349
100
AcDbArc
 50
318.1594998438717
 51
329.3411035414662
  0
ARC
  5
1A3
330
1F
100
AcDbEntity
  8
Default
100
AcDbCircle
 10
-3.979105109205328
 20
8.338823213894418
 30
0.0
 40
3.84962640404675
100
AcDbArc
 50
6.245916073758082
 51
54.65115811215423
  0
ARC
  5
1A4
330
1F
100
AcDbEntity
  8
Default
100
AcDbCircle
 10
0.0221913750486216
 20
8.24967637748183
 30
0.0
 40
0.5371145278226489
100
AcDbArc
 50
74.38081202108779
 51
108.9609361067686
  0
ARC
  5
1A5
330
1F
100
AcDbEntity
  8
Default
100
AcDbCircle
 10
0.9126148018103842
 20
8.215523278037914
 30
0.0
 40
0.9275291989073368
100
AcDbArc
 50
317.7935434920626
 51
143.5216824608883
  0
ARC
  5
1A6
330
1F
100
AcDbEntity
  8
Default
100
AcDbCircle
 10
0.7228890517853975
 20
6.961207011400218
 30
0.0
 40
1.080343947488719
100
AcDbArc
 50
336.5478370530409
 51
35.75050912290568
  0
ARC
  5
1A7
330
1F
100
AcDbEntity
  8
Default
100
AcDbCircle
 10
1.08854630335248
 20
9.225333427758489
 30
0.0
 40
2.765731977217833
100
AcDbArc
 50
283.0699178688635
 51
335.6338260876071
  0
ARC
  5
1A8
330
1F
100
AcDbEntity
  8
Default
100
AcDbCircle
 10
0.0027911674836538
 20
10.46318384211218
 30
0.0
 40
4.319278735724967
100
AcDbArc
 50
326.5806191822284
 51
343.7625715357592
  0
ARC
  5
1A9
330
1F
100
AcDbEntity
  8
Default
100
AcDbCircle
 10
4.721701544602833
 20
9.088870188290791
 30
0.0
 40
0.5956834377167544
100
AcDbArc
 50
152.5865374507072
 51
163.7625715357596
  0
ARC
  5
1AA
330
1F
100
AcDbEntity
  8
Default
100
AcDbCircle
 10
5.174177438266994
 20
8.855946167238374
 30
0.0
 40
1.10459082550196
100
AcDbArc
 50
29.31588597295913
 51
152.6672146637151
  0
ARC
  5
1AB
330
1F
100
AcDbEntity
  8
Default
100
AcDbCircle
 10
4.9785395420464
 20
8.757140825092089
 30
0.0
 40
1.323586646704813
100
AcDbArc
 50
332.6643336638595
 51
28.89869760084144
  0
ARC
  5
1AC
330
1F
100
AcDbEntity
  8
Default
100
AcDbCircle
 10
6.687322256110118
 20
7.873824786803368
 30
0.0
 40
0.5999999999999935
100
AcDbArc
 50
152.6643336638589
 51
174.9164008620153
  0
ARC
  5
1AD
330
1F
100
AcDbEntity
  8
Default
100
AcDbCircle
 10
13.43246679663186
 20
7.273782794568207
 30
0.0
 40
7.371781542915844
100
AcDbArc
 50
174.9164008620154
 51
197.2794277209566
  0
ARC
  5
1AE
330
1F
100
AcDbEntity
  8
Default
100
AcDbCircle
 10
6.969335588892243
 20
4.404514134865274
 30
0.0
 40
0.8908339724246012
100
AcDbArc
 50
130.2798630689566
 51
173.8621795136819
  0
ARC
  5
1AF
330
1F
100
AcDbEntity
  8
Default
100
AcDbCircle
 10
18.6084768907312
 20
18.61610465685451
 30
0.0
 40
18.87176333800089
100
AcDbArc
 50
228.4186315485352
 51
237.4850552037347
  0
ARC
  5
1B0
330
1F
100
AcDbEntity
  8
Default
100
AcDbCircle
 10
8.415814620522168
 20
1.947305840016118
 30
0.0
 40
0.7567303948650775
100
AcDbArc
 50
318.8396621437477
 51
86.30861401354873
  0
ARC
  5
1B1
330
1F
100
AcDbEntity
  8
Default
100
AcDbCircle
 10
11.01598624181531
 20
2.126066926243771
 30
0.0
 40
2.140283787050058
100
AcDbArc
 50
198.4349488229219
 51
244.3910868393286
  0
ARC
  5
1B2
330
1F
100
AcDbEntity
  8
Default
100
AcDbCircle
 10
14.20828193629929
 20
-0.2056629842225941
 30
0.0
 40
4.136930627376578
100
AcDbArc
 50
174.427795987165
 51
197.5424762564317
  0
ARC
  5
1B3
330
1F
100
AcDbEntity
  8
Default
100
AcDbCircle
 10
9.965215237951114
 20
-0.0977235398061419
 30
0.0
 40
1.387362132935782
100
AcDbArc
 50
165.6187595645125
 51
282.4259428654277
  0
ARC
  5
1B4
330
1F
100
AcDbEntity
  8
Default
100
AcDbCircle
 10
7.789802982707026
 20
0.4985047488232364
 30
0.0
 40
0.8687676020364992
100
AcDbArc
 50
343.1625273743237
 51
55.71754228202854
  0
ARC
  5
1B5
330
1F
100
AcDbEntity
  8
Default
100
AcDbCircle
 10
7.887652825138352
 20
1.594007586363996
 30
0.0
 40
0.5439727121604317
100
AcDbArc
 50
159.6983582864638
 51
316.0306903643757
  0
ARC
  5
1B6
330
1F
100
AcDbEntity
  8
Default
100
AcDbCircle
 10
35.261655403788
 20
36.67650733545763
 30
0.0
 40
44.66656769036779
100
AcDbArc
 50
228.5189326270915
 51
231.3710688863753
  0
ARC
  5
1B7
330
1F
100
AcDbEntity
  8
Default
100
AcDbCircle
 10
5.867559119335302
 20
2.25549462655727
 30
0.0
 40
0.9769676937920381
100
AcDbArc
 50
101.3226130674362
 51
174.5947294827792
  0
ARC
  5
1B8
330
1F
100
AcDbEntity
  8
Default
100
AcDbCircle
 10
5.148802945497223
 20
3.419766691665833
 30
0.0
 40
1.101885240120053
100
AcDbArc
 50
145.1459913273466
 51
256.6797578058443
  0
ARC
  5
1B9
330
1F
100
AcDbEntity
  8
Default
100
AcDbCircle
 10
4.961294558541253
 20
-0.6431809417722176
 30
0.0
 40
4.747077251934075
100
AcDbArc
 50
98.68368538475822
 51
156.6958527738237
  0
POLYLINE
  5
1BA
330
1F
100
AcDbEntity
  8
Default
100
AcDb2dPolyline
 66
     1
 10
0.0
 20
0.0
 30
0.0
  0
VERTEX
  5
1BB
330
1BA
100
AcDbEntity
  8
Default
100
AcDbVertex
100
AcDb2dVertex
 10
0.6014945579787092
 20
1.234819694789127
 30
0.0
  0
VERTEX
  5
1BC
330
1BA
100
AcDbEntity
  8
Default
100
AcDbVertex
100
AcDb2dVertex
 10
7.391094247999017
 20
-4.738146854870498
 30
0.0
  0
SEQEND
  5
1BD
330
1BA
100
AcDbEntity
  8
Default
  0
ARC
  5
1BE
330
1F
100
AcDbEntity
  8
Default
100
AcDbCircle
 10
7.561288674014749
 20
-5.258185378807458
 30
0.0
 40
0.5471802344980644
100
AcDbArc
 50
352.5424575154174
 51
108.1218602479014
  0
POLYLINE
  5
1BF
330
1F
100
AcDbEntity
  8
Default
100
AcDb2dPolyline
 66
     1
 10
0.0
 20
0.0
 30
0.0
  0
VERTEX
  5
1C0
330
1BF
100
AcDbEntity
  8
Default
100
AcDbVertex
100
AcDb2dVertex
 10
8.103840481696984
 20
-5.329204707205403
 30
0.0
  0
VERTEX
  5
1C1
330
1BF
100
AcDbEntity
  8
Default
100
AcDbVertex
100
AcDb2dVertex
 10
9.668122443579444
 20
-5.952176846134619
 30
0.0
  0
VERTEX
  5
1C2
330
1BF
100
AcDbEntity
  8
Default
100
AcDbVertex
100
AcDb2dVertex
 10
10.90239031169056
 20
-7.855730811742618
 30
0.0
  0
SEQEND
  5
1C3
330
1BF
100
AcDbEntity
  8
Default
  0
ARC
  5
1C4
330
1F
100
AcDbEntity
  8
Default
100
AcDbCircle
 10
11.04782012083336
 20
-9.077825104638881
 30
0.0
 40
1.230716982135588
100
AcDbArc
 50
25.25697822888338
 51
96.78631151173546
  0
ARC
  5
1C5
330
1F
100
AcDbEntity
  8
Default
100
AcDbCircle
 10
12.4401766261435
 20
-8.355834120133963
 30
0.0
 40
0.3417044183650281
100
AcDbArc
 50
215.1795967606367
 51
10.45163294398858
  0
ARC
  5
1C6
330
1F
100
AcDbEntity
  8
Default
100
AcDbCircle
 10
12.72817600828377
 20
-7.674358874702825
 30
0.0
 40
0.6213477766812824
100
AcDbArc
 50
168.5627309167366
 51
274.4338884110796
  0
ARC
  5
1C7
330
1F
100
AcDbEntity
  8
Default
100
AcDbCircle
 10
11.58706493841775
 20
-7.079166594998606
 30
0.0
 40
0.7112660941601437
100
AcDbArc
 50
318.4264986534828
 51
65.46124802201327
  0
ARC
  5
1C8
330
1F
100
AcDbEntity
  8
Default
100
AcDbCircle
 10
11.66025004083853
 20
-5.80849121135339
 30
0.0
 40
0.662055179341908
100
AcDbArc
 50
251.9165546169514
 51
289.6112423049091
  0
ARC
  5
1C9
330
1F
100
AcDbEntity
  8
Default
100
AcDbCircle
 10
11.67433492417667
 20
-6.117315087704452
 30
0.0
 40
0.3885331069943866
100
AcDbArc
 50
187.7651660184253
 51
235.5857714577926
  0
ARC
  5
1CA
330
1F
100
AcDbEntity
  8
Default
100
AcDbCircle
 10
11.4021890152072
 20
-6.686182193774972
 30
0.0
 40
0.528553229147972
100
AcDbArc
 50
102.3251326937027
 51
183.5828418577354
  0
ARC
  5
1CB
330
1F
100
AcDbEntity
  8
Default
100
AcDbCircle
 10
12.0272018017724
 20
-5.954269560254395
 30
0.0
 40
1.383282212906339
100
AcDbArc
 50
159.2597929983045
 51
213.5724598987972
  0
ARC
  5
1CC
330
1F
100
AcDbEntity
  8
Default
100
AcDbCircle
 10
11.08849756982011
 20
-5.433808290269837
 30
0.0
 40
0.3562518495333875
100
AcDbArc
 50
59.62417868150646
 51
184.9271099476491
  0
ARC
  5
1CD
330
1F
100
AcDbEntity
  8
Default
100
AcDbCircle
 10
11.88095180774061
 20
-5.208522110158424
 30
0.0
 40
0.6177829815649208
100
AcDbArc
 50
53.63193388615052
 51
172.3666694127686
  0
ARC
  5
1CE
330
1F
100
AcDbEntity
  8
Default
100
AcDbCircle
 10
12.47179410819952
 20
-4.965125082712884
 30
0.0
 40
0.3390458445161651
100
AcDbArc
 50
2.481310566834209
 51
131.4677054161095
  0
ARC
  5
1CF
330
1F
100
AcDbEntity
  8
Default
100
AcDbCircle
 10
16.14692463476421
 20
-4.738445063772573
 30
0.0
 40
3.343131283324345
100
AcDbArc
 50
183.6357977302671
 51
203.0858317640876
  0
ARC
  5
1D0
330
1F
100
AcDbEntity
  8
Default
100
AcDbCircle
 10
13.94839781452411
 20
-2.868074758130657
 30
0.0
 40
3.299884335892316
100
AcDbArc
 50
254.5896085618502
 51
276.5731505041715
  0
ARC
  5
1D1
330
1F
100
AcDbEntity
  8
Default
100
AcDbCircle
 10
14.91234816780423
 20
-6.330471788411105
 30
0.0
 40
0.614467382149658
100
AcDbArc
 50
162.5556692733946
 51
286.9355246655919
  0
ARC
  5
1D2
330
1F
100
AcDbEntity
  8
Default
100
AcDbCircle
 10
15.26123153732816
 20
-8.088395983210718
 30
0.0
 40
1.182373616297435
100
AcDbArc
 50
344.7062790941563
 51
98.26126051205215
  0
ARC
  5
1D3
330
1F
100
AcDbEntity
  8
Default
100
AcDbCircle
 10
17.67882853659708
 20
-8.866974711366566
 30
0.0
 40
1.359701692307088
100
AcDbArc
 50
159.9254618246785
 51
238.9079670518956
  0
ARC
  5
1D4
330
1F
100
AcDbEntity
  8
Default
100
AcDbCircle
 10
17.30196821819604
 20
-9.55909803430474
 30
0.0
 40
0.5734444958662966
100
AcDbArc
 50
235.4385723907864
 51
297.2983364419994
  0
ARC
  5
1D5
330
1F
100
AcDbEntity
  8
Default
100
AcDbCircle
 10
17.65668823615085
 20
-10.24640444126453
 30
0.0
 40
0.1999999999999755
100
AcDbArc
 50
82.31150202875097
 51
117.2983364420056
  0
ARC
  5
1D6
330
1F
100
AcDbEntity
  8
Default
100
AcDbCircle
 10
17.62864534476444
 20
-10.45412818990329
 30
0.0
 40
0.4096081093513307
100
AcDbArc
 50
273.9835523396777
 51
82.31150202875055
  0
ARC
  5
1D7
330
1F
100
AcDbEntity
  8
Default
100
AcDbCircle
 10
17.83699487698842
 20
-10.64509518036652
 30
0.0
 40
0.2823721662806322
100
AcDbArc
 50
173.5838606605574
 51
230.4254812369784
  0
ARC
  5
1D8
330
1F
100
AcDbEntity
  8
Default
100
AcDbCircle
 10
17.41013964478314
 20
-11.02570432201508
 30
0.0
 40
0.4373427145266693
100
AcDbArc
 50
70.46334506187094
 51
106.3543743957396
  0
ARC
  5
1D9
330
1F
100
AcDbEntity
  8
Default
100
AcDbCircle
 10
17.07517409542351
 20
-10.59849215872658
 30
0.0
 40
0.2119547493535735
100
AcDbArc
 50
295.7514168243761
 51
357.9545915111123
  0
ARC
  5
1DA
330
1F
100
AcDbEntity
  8
Default
100
AcDbCircle
 10
17.23430596040822
 20
-10.11148645482479
 30
0.0
 40
0.6812179276531388
100
AcDbArc
 50
189.7062977503562
 51
264.3518952717624
  0
ARC
  5
1DB
330
1F
100
AcDbEntity
  8
Default
100
AcDbCircle
 10
16.5269704807769
 20
-9.78694023816978
 30
0.0
 40
0.4408596275677599
100
AcDbArc
 50
229.2121977561634
 51
274.6668583714401
  0
ARC
  5
1DC
330
1F
100
AcDbEntity
  8
Default
100
AcDbCircle
 10
16.2214240480415
 20
-10.42260255049738
 30
0.0
 40
0.3023821997825972
100
AcDbArc
 50
86.67259575827309
 51
228.4135262418429
  0
ARC
  5
1DD
330
1F
100
AcDbEntity
  8
Default
100
AcDbCircle
 10
13.07912545711013
 20
-13.30697536113614
 30
0.0
 40
3.96472169760353
100
AcDbArc
 50
340.3654276939463
 51
42.10291435331193
  0
ARC
  5
1DE
330
1F
100
AcDbEntity
  8
Default
100
AcDbCircle
 10
16.65741239445736
 20
-14.71329674986864
 30
0.0
 40
0.17261724965698
100
AcDbArc
 50
25.41992158872803
 51
57.53032020499553
  0
ARC
  5
1DF
330
1F
100
AcDbEntity
  8
Default
100
AcDbCircle
 10
15.26258226189242
 20
-14.78313243997322
 30
0.0
 40
1.503024871720614
100
AcDbArc
 50
342.6610699330461
 51
8.242129981120488
  0
ARC
  5
1E0
330
1F
100
AcDbEntity
  8
Default
100
AcDbCircle
 10
15.12704597029715
 20
-18.34451873015749
 30
0.0
 40
3.487017218133279
100
AcDbArc
 50
43.70628332246844
 51
63.2360059435613
  0
ARC
  5
1E1
330
1F
100
AcDbEntity
  8
Default
100
AcDbCircle
 10
17.71200426817222
 20
-15.53194178803463
 30
0.0
 40
0.4082647420622195
100
AcDbArc
 50
260.9492783228168
 51
18.84890658476032
  0
ARC
  5
1E2
330
1F
100
AcDbEntity
  8
Default
100
AcDbCircle
 10
18.28761940545029
 20
-14.14775920557353
 30
0.0
 40
1.266501506339415
100
AcDbArc
 50
233.2172250722999
 51
261.4065276572092
  0
ARC
  5
1E3
330
1F
100
AcDbEntity
  8
Default
100
AcDbCircle
 10
17.66335719708137
 20
-14.87329006293177
 30
0.0
 40
0.3184363936967677
100
AcDbArc
 50
209.6766568688724
 51
245.0952311919056
  0
ARC
  5
1E4
330
1F
100
AcDbEntity
  8
Default
100
AcDbCircle
 10
17.30533591631681
 20
-14.70075139755425
 30
0.0
 40
0.340072158621011
100
AcDbArc
 50
213.4855859247318
 51
283.8406954916554
  0
ARC
  5
1E5
330
1F
100
AcDbEntity
  8
Default
100
AcDbCircle
 10
16.68290690958483
 20
-14.85831303699963
 30
0.0
 40
0.3401318424398844
100
AcDbArc
 50
354.9288118217842
 51
14.70497652474173
  0
ARC
  5
1E6
330
1F
100
AcDbEntity
  8
Default
100
AcDbCircle
 10
16.72237213575126
 20
-14.57153233905352
 30
0.0
 40
0.3521388815334912
100
AcDbArc
 50
309.9002779362355
 51
325.3048464687648
  0
ARC
  5
1E7
330
1F
100
AcDbEntity
  8
Default
100
AcDbCircle
 10
17.84627098778809
 20
-14.74065287594604
 30
0.0
 40
0.9036830893334421
100
AcDbArc
 50
169.631345247997
 51
186.4187867302386
  0
ARC
  5
1E8
330
1F
100
AcDbEntity
  8
Default
100
AcDbCircle
 10
16.89670284171302
 20
-14.89421244516673
 30
0.0
 40
0.3219678718390849
100
AcDbArc
 50
28.89505821082579
 51
79.14358665193758
  0
ARC
  5
1E9
330
1F
100
AcDbEntity
  8
Default
100
AcDbCircle
 10
17.74340948867607
 20
-14.84303006759371
 30
0.0
 40
0.574388278994772
100
AcDbArc
 50
147.6156702115956
 51
169.5283274404004
  0
ARC
  5
1EA
330
1F
100
AcDbEntity
  8
Default
100
AcDbCircle
 10
17.34232040645038
 20
-14.24675304821313
 30
0.0
 40
0.3006024291148078
100
AcDbArc
 50
253.779806304397
 51
295.8810336121851
  0
ARC
  5
1EB
330
1F
100
AcDbEntity
  8
Default
100
AcDbCircle
 10
17.35224665410397
 20
-14.46785241064103
 30
0.0
 40
0.1309446818820149
100
AcDbArc
 50
337.8580695292357
 51
92.81241952992356
  0
ARC
  5
1EC
330
1F
100
AcDbEntity
  8
Default
100
AcDbCircle
 10
17.70068601062902
 20
-14.21286293499369
 30
0.0
 40
0.375972010472788
100
AcDbArc
 50
164.5282586468045
 51
199.2900462191882
  0
ARC
  5
1ED
330
1F
100
AcDbEntity
  8
Default
100
AcDbCircle
 10
17.67099014134458
 20
-13.82386793800023
 30
0.0
 40
0.4404595276440909
100
AcDbArc
 50
220.9538404375068
 51
234.7709700147096
  0
ARC
  5
1EE
330
1F
100
AcDbEntity
  8
Default
100
AcDbCircle
 10
17.84862003331372
 20
-14.08793036560176
 30
0.0
 40
0.4421935000227643
100
AcDbArc
 50
117.5346374582185
 51
192.5026478609302
  0
ARC
  5
1EF
330
1F
100
AcDbEntity
  8
Default
100
AcDbCircle
 10
17.71773403771454
 20
-13.91359520530964
 30
0.0
 40
0.2298514463939867
100
AcDbArc
 50
2.988133978293661
 51
108.6578884741196
  0
ARC
  5
1F0
330
1F
100
AcDbEntity
  8
Default
100
AcDbCircle
 10
18.02251232060439
 20
-13.73745465809995
 30
0.0
 40
0.1805796301353422
100
AcDbArc
 50
245.3764352138351
 51
27.28800449390319
  0
ARC
  5
1F1
330
1F
100
AcDbEntity
  8
Default
100
AcDbCircle
 10
18.2585100925465
 20
-14.39519246820541
 30
0.0
 40
0.7443672561199886
100
AcDbArc
 50
337.5147152332837
 51
95.82253525396436
  0
ARC
  5
1F2
330
1F
100
AcDbEntity
  8
Default
100
AcDbCircle
 10
18.0484604754122
 20
-15.284532813199
 30
0.0
 40
1.082455334857925
100
AcDbArc
 50
33.95905981967725
 51
59.24098961061939
  0
ARC
  5
1F3
330
1F
100
AcDbEntity
  8
Default
100
AcDbCircle
 10
18.55020507196006
 20
-14.51509702911696
 30
0.0
 40
0.1689027712617287
100
AcDbArc
 50
72.12130340415834
 51
180.0488426815462
  0
ARC
  5
1F4
330
1F
100
AcDbEntity
  8
Default
100
AcDbCircle
 10
18.32536407639415
 20
-14.58901182113688
 30
0.0
 40
0.0925809048977466
100
AcDbArc
 50
52.82800228635378
 51
114.9390420822
  0
ARC
  5
1F5
330
1F
100
AcDbEntity
  8
Default
100
AcDbCircle
 10
18.47377730204821
 20
-14.56173447180383
 30
0.0
 40
0.1958295831688918
100
AcDbArc
 50
163.1785901099568
 51
196.8214098900395
  0
ARC
  5
1F6
330
1F
100
AcDbEntity
  8
Default
100
AcDbCircle
 10
18.22341084582618
 20
-14.68704128784092
 30
0.0
 40
0.0931091435096634
100
AcDbArc
 50
47.48955292199775
 51
96.57216759768869
  0
ARC
  5
1F7
330
1F
100
AcDbEntity
  8
Default
100
AcDbCircle
 10
18.56196634143598
 20
-14.6679024328503
 30
0.0
 40
0.3568342239485347
100
AcDbArc
 50
168.1364739685486
 51
215.1322952645714
  0
ARC
  5
1F8
330
1F
100
AcDbEntity
  8
Default
100
AcDbCircle
 10
17.77700789976573
 20
-15.9129004559677
 30
0.0
 40
1.150675315880975
100
AcDbArc
 50
28.15438769487439
 51
64.62396164040643
  0
ARC
  5
1F9
330
1F
100
AcDbEntity
  8
Default
100
AcDbCircle
 10
17.98024223008411
 20
-16.20411481332555
 30
0.0
 40
1.163622425411778
100
AcDbArc
 50
1.874116887823194
 51
45.79619475830975
  0
ARC
  5
1FA
330
1F
100
AcDbEntity
  8
Default
100
AcDbCircle
 10
18.90409628743795
 20
-16.35239563484457
 30
0.0
 40
0.3031694541152977
100
AcDbArc
 50
294.155062595839
 51
37.92468405704728
  0
ARC
  5
1FB
330
1F
100
AcDbEntity
  8
Default
100
AcDbCircle
 10
18.29010852352168
 20
-15.92061758910456
 30
0.0
 40
1.023008943642174
100
AcDbArc
 50
292.9854784345898
 51
316.1740974867222
  0
ARC
  5
1FC
330
1F
100
AcDbEntity
  8
Default
100
AcDbCircle
 10
18.74670434346763
 20
-17.53960131199504
 30
0.0
 40
0.6796018610956571
100
AcDbArc
 50
94.82076607809304
 51
144.8972662517531
  0
SPLINE
  5
1FD
330
1F
100
AcDbEntity
  8
Default
100
AcDbSpline
210
0.0
220
0.0
230
1.0
 70
     8
 71
     4
 72
    10
 73
     5
 74
     0
 42
0.000000001
 43
0.0000000001
 40
233.1485462934641
 40
233.1485462934641
 40
233.1485462934641
 40
233.1485462934641
 40
233.1485462934641
 40
234.1485462934641
 40
234.1485462934641
 40
234.1485462934641
 40
234.1485462934641
 40
234.1485462934641
 10
18.19070691847794
 20
-17.14880014386794
 30
0.0
 10
18.16203645986442
 20
-17.18958994303559
 30
0.0
 10
18.13735596629116
 20
-17.23318422101634
 30
0.0
 10
18.15336479749055
 20
-17.25967459151932
 30
0.0
 10
18.19070691847794
 20
-17.28423556398462
 30
0.0
  0
ARC
  5
1FE
330
1F
100
AcDbEntity
  8
Default
100
AcDbCircle
 10
18.505157746898
 20
-16.80614940937337
 30
0.0
 40
0.5722287084069045
100
AcDbArc
 50
236.6659457309349
 51
261.7502899067194
  0
POLYLINE
  5
1FF
330
1F
100
AcDbEntity
  8
Default
100
AcDb2dPolyline
 66
     1
 10
0.0
 20
0.0
 30
0.0
  0
VERTEX
  5
200
330
1FF
100
AcDbEntity
  8
Default
100
AcDbVertex
100
AcDb2dVertex
 10
18.42305001456612
 20
-17.37245675968445
 30
0.0
  0
VERTEX
  5
201
330
1FF
100
AcDbEntity
  8
Default
100
AcDbVertex
100
AcDb2dVertex
 10
25.54853569397556
 20
-17.37245675968445
 30
0.0
  0
SEQEND
  5
202
330
1FF
100
AcDbEntity
  8
Default
  0
ARC
  5
203
330
1F
100
AcDbEntity
  8
Default
100
AcDbCircle
 10
-1.457029291038926
 20
1.407922076989921
 30
0.0
 40
1.561818358967497
100
AcDbArc
 50
241.4600148120397
 51
334.4965985783738
  0
POLYLINE
  5
204
330
1F
100
AcDbEntity
  8
Default
100
AcDb2dPolyline
 66
     1
 10
0.0
 20
0.0
 30
0.0
  0
VERTEX
  5
205
330
204
100
AcDbEntity
  8
Default
100
AcDbVertex
100
AcDb2dVertex
 10
-0.0473949424149989
 20
0.7354582567084724
 30
0.0
  0
VERTEX
  5
206
330
204
100
AcDbEntity
  8
Default
100
AcDbVertex
100
AcDb2dVertex
 10
7.050150740818335
 20
-5.125704680855695
 30
0.0
  0
SEQEND
  5
207
330
204
100
AcDbEntity
  8
Default
  0
ARC
  5
208
330
1F
100
AcDbEntity
  8
Default
100
AcDbCircle
 10
7.585188006375466
 20
-5.229500821492535
 30
0.0
 40
0.5450123983415006
100
AcDbArc
 50
169.0211106436561
 51
300.2242320401415
  0
POLYLINE
  5
209
330
1F
100
AcDbEntity
  8
Default
100
AcDb2dPolyline
 66
     1
 10
0.0
 20
0.0
 30
0.0
  0
VERTEX
  5
20A
330
209
100
AcDbEntity
  8
Default
100
AcDbVertex
100
AcDb2dVertex
 10
7.859539306003536
 20
-5.700425315162533
 30
0.0
  0
VERTEX
  5
20B
330
209
100
AcDbEntity
  8
Default
100
AcDbVertex
100
AcDb2dVertex
 10
8.529466875110737
 20
-7.073448360122892
 30
0.0
  0
VERTEX
  5
20C
330
209
100
AcDbEntity
  8
Default
100
AcDbVertex
100
AcDb2dVertex
 10
10.63293746724377
 20
-8.107799601708972
 30
0.0
  0
SEQEND
  5
20D
330
209
100
AcDbEntity
  8
Default
  0
ARC
  5
20E
330
1F
100
AcDbEntity
  8
Default
100
AcDbCircle
 10
10.34830561814002
 20
-7.906951915870947
 30
0.0
 40
0.3483605638282108
100
AcDbArc
 50
251.5650511770787
 51
324.791666863971
  0
ARC
  5
20F
330
1F
100
AcDbEntity
  8
Default
100
AcDbCircle
 10
11.24085057986778
 20
-8.585930712048562
 30
0.0
 40
1.061540645211329
100
AcDbArc
 50
160.8348806333314
 51
220.8653286262636
  0
ARC
  5
210
330
1F
100
AcDbEntity
  8
Default
100
AcDbCircle
 10
10.79500775979427
 20
-9.373678648326376
 30
0.0
 40
0.3689135194612001
100
AcDbArc
 50
64.10081735624607
 51
165.3666438867475
  0
ARC
  5
211
330
1F
100
AcDbEntity
  8
Default
100
AcDbCircle
 10
11.74723725074316
 20
-8.843898888615822
 30
0.0
 40
0.8154743900916435
100
AcDbArc
 50
194.046154331724
 51
280.3672034914869
  0
ARC
  5
212
330
1F
100
AcDbEntity
  8
Default
100
AcDbCircle
 10
12.3173930850961
 20
-8.950269918205318
 30
0.0
 40
0.8144919799311741
100
AcDbArc
 50
238.6784208818339
 51
270.1373162842361
  0
ARC
  5
213
330
1F
100
AcDbEntity
  8
Default
100
AcDbCircle
 10
13.06451248081858
 20
-9.634486693674797
 30
0.0
 40
0.756469052201376
100
AcDbArc
 50
189.9164403054194
 51
233.5307656099478
  0
ARC
  5
214
330
1F
100
AcDbEntity
  8
Default
100
AcDbCircle
 10
11.7183629259151
 20
-9.156831743259751
 30
0.0
 40
1.40822759683115
100
AcDbArc
 50
268.2816419983446
 51
309.5405181507837
  0
ARC
  5
215
330
1F
100
AcDbEntity
  8
Default
100
AcDbCircle
 10
12.63513825176114
 20
-9.804792094007347
 30
0.0
 40
1.223409507197307
100
AcDbArc
 50
218.383022699502
 51
294.1873535167408
  0
ARC
  5
216
330
1F
100
AcDbEntity
  8
Default
100
AcDbCircle
 10
14.37959836202504
 20
-10.67727674278956
 30
0.0
 40
1.266829153961473
100
AcDbArc
 50
191.0829471867598
 51
230.8445658773864
  0
ARC
  5
217
330
1F
100
AcDbEntity
  8
Default
100
AcDbCircle
 10
12.86259681454979
 20
-10.64917333069306
 30
0.0
 40
1.239042690427378
100
AcDbArc
 50
259.6951535312337
 51
305.3624618870692
  0
ARC
  5
218
330
1F
100
AcDbEntity
  8
Default
100
AcDbCircle
 10
13.65865270900074
 20
-11.21852092279538
 30
0.0
 40
1.207410717693523
100
AcDbArc
 50
212.5544766840661
 51
287.1303015268437
  0
ARC
  5
219
330
1F
100
AcDbEntity
  8
Default
100
AcDbCircle
 10
12.11591748375061
 20
-12.18219364831964
 30
0.0
 40
1.907874734242189
100
AcDbArc
 50
275.4667671442501
 51
354.2793428852481
  0
ARC
  5
21A
330
1F
100
AcDbEntity
  8
Default
100
AcDbCircle
 10
12.67343028797048
 20
-13.76743637644243
 30
0.0
 40
0.4896502308855565
100
AcDbArc
 50
146.8530041677443
 51
219.8799171591151
  0
ARC
  5
21B
330
1F
100
AcDbEntity
  8
Default
100
AcDbCircle
 10
12.24532269246579
 20
-13.12541207356322
 30
0.0
 40
0.3747282113787611
100
AcDbArc
 50
272.7743609457422
 51
62.6577281720435
  0
ARC
  5
21C
330
1F
100
AcDbEntity
  8
Default
100
AcDbCircle
 10
13.20284624268917
 20
-12.63649643606631
 30
0.0
 40
0.8007619492380387
100
AcDbArc
 50
159.7343025290527
 51
191.2377205549451
  0
ARC
  5
21D
330
1F
100
AcDbEntity
  8
Default
100
AcDbCircle
 10
12.35212802150973
 20
-12.09956618638197
 30
0.0
 40
0.2779937717692493
100
AcDbArc
 50
238.3924977537507
 51
290.9784109063603
  0
ARC
  5
21E
330
1F
100
AcDbEntity
  8
Default
100
AcDbCircle
 10
12.60726031902839
 20
-12.19945375636593
 30
0.0
 40
0.423551728870178
100
AcDbArc
 50
161.1468412355819
 51
198.8531587644194
  0
ARC
  5
21F
330
1F
100
AcDbEntity
  8
Default
100
AcDbCircle
 10
11.49623575369136
 20
-12.36424969704215
 30
0.0
 40
0.7716088455338134
100
AcDbArc
 50
23.01391454970763
 51
94.43647448565727
  0
ARC
  5
220
330
1F
100
AcDbEntity
  8
Default
100
AcDbCircle
 10
11.57743384665168
 20
-11.81934713472037
 30
0.0
 40
0.2649554142701592
100
AcDbArc
 50
122.1224639952201
 51
195.8025139539354
  0
ARC
  5
221
330
1F
100
AcDbEntity
  8
Default
100
AcDbCircle
 10
11.17013525993015
 20
-12.27876960160083
 30
0.0
 40
0.4161610493565776
100
AcDbArc
 50
68.52465763820322
 51
135.76389846093
  0
ARC
  5
222
330
1F
100
AcDbEntity
  8
Default
100
AcDbCircle
 10
11.14870189381109
 20
-12.23983038914459
 30
0.0
 40
0.3738642462004136
100
AcDbArc
 50
137.7483915420651
 51
240.2551187030574
  0
ARC
  5
223
330
1F
100
AcDbEntity
  8
Default
100
AcDbCircle
 10
10.69007700623965
 20
-12.27028210336118
 30
0.0
 40
0.4014095433218447
100
AcDbArc
 50
312.8782632195337
 51
11.82148834060754
  0
ARC
  5
224
330
1F
100
AcDbEntity
  8
Default
100
AcDbCircle
 10
11.21327586193489
 20
-12.87031020001811
 30
0.0
 40
0.694593740002989
100
AcDbArc
 50
70.25316339457397
 51
100.8125184826479
  0
ARC
  5
225
330
1F
100
AcDbEntity
  8
Default
100
AcDbCircle
 10
12.23455764036533
 20
-12.50381859144121
 30
0.0
 40
0.8374129971385208
100
AcDbArc
 50
159.9385205876934
 51
205.9204314015197
  0
ARC
  5
226
330
1F
100
AcDbEntity
  8
Default
100
AcDbCircle
 10
10.39382871399506
 20
-11.76124308205691
 30
0.0
 40
1.553009222561332
100
AcDbArc
 50
222.4292628893092
 51
314.4503377368336
  0
ARC
  5
227
330
1F
100
AcDbEntity
  8
Default
100
AcDbCircle
 10
10.0183732007584
 20
-12.50644809627708
 30
0.0
 40
0.8280966525103978
100
AcDbArc
 50
81.35719741999569
 51
201.4315981104601
  0
ARC
  5
228
330
1F
100
AcDbEntity
  8
Default
100
AcDbCircle
 10
10.20531289408313
 20
-11.20467149342511
 30
0.0
 40
0.4871095352881633
100
AcDbArc
 50
262.6283738165744
 51
24.76038775764361
  0
ARC
  5
229
330
1F
100
AcDbEntity
  8
Default
100
AcDbCircle
 10
3.598270783414861
 20
-12.93434443821064
 30
0.0
 40
7.309771865256061
100
AcDbArc
 50
15.33929006130112
 51
93.60758693525842
  0
ARC
  5
22A
330
1F
100
AcDbEntity
  8
Default
100
AcDbCircle
 10
17.28961860956471
 20
54.71667237232931
 30
0.0
 40
61.99252680277632
100
AcDbArc
 50
250.3174886095017
 51
256.8045084757425
  0
ARC
  5
22B
330
1F
100
AcDbEntity
  8
Default
100
AcDbCircle
 10
4.631879996613354
 20
5.195892859237799
 30
0.0
 40
12.07958311966904
100
AcDbArc
 50
227.1064213432564
 51
255.271991170797
  0
ARC
  5
22C
330
1F
100
AcDbEntity
  8
Default
100
AcDbCircle
 10
5.763978024809012
 20
-3.603768297919668
 30
0.0
 40
5.096852911194812
100
AcDbArc
 50
214.4473774065423
 51
230.0695062489936
  0
ARC
  5
22D
330
1F
100
AcDbEntity
  8
Default
100
AcDbCircle
 10
3.042090118633149
 20
-8.800936719067979
 30
0.0
 40
1.40106408948732
100
AcDbArc
 50
352.8645621189456
 51
113.0945601668781
  0
ARC
  5
22E
330
1F
100
AcDbEntity
  8
Default
100
AcDbCircle
 10
4.020568475682188
 20
-12.89638965758902
 30
0.0
 40
3.942975551044016
100
AcDbArc
 50
19.96021568032384
 51
84.00611128400526
  0
ARC
  5
22F
330
1F
100
AcDbEntity
  8
Default
100
AcDbCircle
 10
8.391099625927147
 20
-12.39020824321501
 30
0.0
 40
1.070861052275854
100
AcDbArc
 50
128.3486530812358
 51
168.870810710389
  0
ARC
  5
230
330
1F
100
AcDbEntity
  8
Default
100
AcDbCircle
 10
6.847014627273307
 20
-9.557845940475012
 30
0.0
 40
2.671612022904974
100
AcDbArc
 50
198.1068617685532
 51
280.6417946203937
  0
ARC
  5
231
330
1F
100
AcDbEntity
  8
Default
100
AcDbCircle
 10
3.130744399249827
 20
-10.05639161068918
 30
0.0
 40
1.222826233460499
100
AcDbArc
 50
344.2577489030218
 51
137.9764370951462
  0
ARC
  5
232
330
1F
100
AcDbEntity
  8
Default
100
AcDbCircle
 10
0.1906712700679349
 20
-9.356296495645234
 30
0.0
 40
2.035126139831176
100
AcDbArc
 50
3.338323028604675
 51
73.85097713049268
  0
ARC
  5
233
330
1F
100
AcDbEntity
  8
Default
100
AcDbCircle
 10
0.0388803886233994
 20
-7.432357492804776
 30
0.0
 40
0.7184980304480846
100
AcDbArc
 50
333.1324943168604
 51
2.463580940904875
  0
ARC
  5
234
330
1F
100
AcDbEntity
  8
Default
100
AcDbCircle
 10
-0.8102695380629675
 20
-8.686157500030992
 30
0.0
 40
1.756010627059305
100
AcDbArc
 50
31.94408045767002
 51
94.55376797915862
  0
ARC
  5
235
330
1F
100
AcDbEntity
  8
Default
100
AcDbCircle
 10
-2.540618877380364
 20
-7.923340798006463
 30
0.0
 40
1.872569664060087
100
AcDbArc
 50
3.468229258917061
 51
31.83201918094307
  0
ARC
  5
236
330
1F
100
AcDbEntity
  8
Default
100
AcDbCircle
 10
-2.007945487955872
 20
-8.500706416613738
 30
0.0
 40
1.504372352152258
100
AcDbArc
 50
27.32859666416498
 51
114.168882553068
  0
ARC
  5
237
330
1F
100
AcDbEntity
  8
Default
100
AcDbCircle
 10
-0.0190990585436772
 20
-5.553221375585156
 30
0.0
 40
3.043918002242186
100
AcDbArc
 50
211.159304508344
 51
227.419509216656
  0
ARC
  5
238
330
1F
100
AcDbEntity
  8
Default
100
AcDbCircle
 10
-1.971961779197163
 20
-11.60883817533062
 30
0.0
 40
3.81578912515078
100
AcDbArc
 50
91.60279536063285
 51
211.9850222354105
  0
ARC
  5
239
330
1F
100
AcDbEntity
  8
Default
100
AcDbCircle
 10
-3.620910753732734
 20
-15.27219499788319
 30
0.0
 40
2.284065340526728
100
AcDbArc
 50
134.031641050661
 51
170.6764082218621
  0
ARC
  5
23A
330
1F
100
AcDbEntity
  8
Default
100
AcDbCircle
 10
-19.23671000915426
 20
-18.18032816600667
 30
0.0
 40
13.75816228540931
100
AcDbArc
 50
13.78453233100279
 51
30.14213870861828
  0
ARC
  5
23B
330
1F
100
AcDbEntity
  8
Default
100
AcDbCircle
 10
-8.291015235810837
 20
-10.75806556165414
 30
0.0
 40
1.081834087370279
100
AcDbArc
 50
331.6543063769236
 51
56.67002973370172
  0
ARC
  5
23C
330
1F
100
AcDbEntity
  8
Default
100
AcDbCircle
 10
-7.381472839864159
 20
-8.871745060639931
 30
0.0
 40
1.031727171092077
100
AcDbArc
 50
252.2161115573073
 51
338.0135582149824
  0
ARC
  5
23D
330
1F
100
AcDbEntity
  8
Default
100
AcDbCircle
 10
-6.0172994828428
 20
-8.680387816780577
 30
0.0
 40
0.7068867201350233
100
AcDbArc
 50
212.3725036862875
 51
234.7991269710803
  0
ARC
  5
23E
330
1F
100
AcDbEntity
  8
Default
100
AcDbCircle
 10
-8.788064312674827
 20
-8.8365746019144
 30
0.0
 40
2.185075802101418
100
AcDbArc
 50
354.1609933447136
 51
40.94750932160938
  0
ARC
  5
23F
330
1F
100
AcDbEntity
  8
Default
100
AcDbCircle
 10
2.419300659166845
 20
-4.843636417710687
 30
0.0
 40
9.894121880192497
100
AcDbArc
 50
177.6856522491655
 51
195.0007415785696
  0
ARC
  5
240
330
1F
100
AcDbEntity
  8
Default
100
AcDbCircle
 10
-8.662791012981614
 20
-3.703390012602329
 30
0.0
 40
1.406823269214532
100
AcDbArc
 50
328.2302686256373
 51
8.094541666127926
  0
ARC
  5
241
330
1F
100
AcDbEntity
  8
Default
100
AcDbCircle
 10
-7.497497392829046
 20
-2.805868765481952
 30
0.0
 40
0.7355038228528222
100
AcDbArc
 50
236.8338138758836
 51
288.0188724636061
  0
ARC
  5
242
330
1F
100
AcDbEntity
  8
Default
100
AcDbCircle
 10
-8.594765010280245
 20
-1.505321172060909
 30
0.0
 40
2.038335658684344
100
AcDbArc
 50
267.2499143025156
 51
289.9325365619397
  0
ARC
  5
243
330
1F
100
AcDbEntity
  8
Default
100
AcDbCircle
 10
-8.36874873506844
 20
-1.935727341780763
 30
0.0
 40
1.637910105229545
100
AcDbArc
 50
230.4758041106454
 51
258.5975057656108
  0
ARC
  5
244
330
1F
100
AcDbEntity
  8
Default
100
AcDbCircle
 10
-7.413422258127605
 20
-3.48955336467957
 30
0.0
 40
2.018698100402545
100
AcDbArc
 50
171.7286013120257
 51
234.749907990491
  0
ARC
  5
245
330
1F
100
AcDbEntity
  8
Default
100
AcDbCircle
 10
-8.363455702631915
 20
-3.673323771165149
 30
0.0
 40
1.480482633121379
100
AcDbArc
 50
165.2020644391019
 51
261.6478133614211
  0
ARC
  5
246
330
1F
100
AcDbEntity
  8
Default
100
AcDbCircle
 10
-7.659748747005885
 20
-3.870945815778469
 30
0.0
 40
2.211353322130573
100
AcDbArc
 50
143.7379413149187
 51
164.9084273214051
  0
ARC
  5
247
330
1F
100
AcDbEntity
  8
Default
100
AcDbCircle
 10
-8.10512939983671
 20
-1.307196557893072
 30
0.0
 40
1.834765518470524
100
AcDbArc
 50
223.1912606775076
 51
251.6606250533469
  0
ARC
  5
248
330
1F
100
AcDbEntity
  8
Default
100
AcDbCircle
 10
-8.740075095452184
 20
-1.876634423880111
 30
0.0
 40
1.173555613676107
100
AcDbArc
 50
272.8155566842114
 51
309.5725562788737
  0
ARC
  5
249
330
1F
100
AcDbEntity
  8
Default
100
AcDbCircle
 10
-7.286485238571889
 20
-1.901662891798759
 30
0.0
 40
1.127846439724774
100
AcDbArc
 50
231.2483716650379
 51
284.728671562231
  0
ARC
  5
24A
330
1F
100
AcDbEntity
  8
Default
100
AcDbCircle
 10
-16.00604318875162
 20
-4.278123737919465
 30
0.0
 40
9.097607819209689
100
AcDbArc
 50
352.1001235044501
 51
8.124241069493864
  0
ARC
  5
24B
330
1F
100
AcDbEntity
  8
Default
100
AcDbCircle
 10
-2.79168715996552
 20
-5.892567769487547
 30
0.0
 40
4.218823046989446
100
AcDbArc
 50
175.0497277657084
 51
212.4718424578739
  0
ARC
  5
24C
330
1F
100
AcDbEntity
  8
Default
100
AcDbCircle
 10
-8.781189402292638
 20
-5.504360944876303
 30
0.0
 40
3.598032574593746
100
AcDbArc
 50
312.4886367328372
 51
344.739728756822
  0
ARC
  5
24D
330
1F
100
AcDbEntity
  8
Default
100
AcDbCircle
 10
-6.713006359637609
 20
-5.362662936298939
 30
0.0
 40
1.775855656403618
100
AcDbArc
 50
322.1885371427369
 51
25.9991806297222
  0
ARC
  5
24E
330
1F
100
AcDbEntity
  8
Default
100
AcDbCircle
 10
-6.264009155775364
 20
-3.482490844576637
 30
0.0
 40
1.59050398945502
100
AcDbArc
 50
316.1573330681298
 51
41.56253886429739
  0
ARC
  5
24F
330
1F
100
AcDbEntity
  8
Default
100
AcDbCircle
 10
-7.398247130327496
 20
3.186009717255478
 30
0.0
 40
6.075486701131452
100
AcDbArc
 50
292.4930169289111
 51
328.7685316339606
  0
POLYLINE
  5
250
330
1F
100
AcDbEntity
  8
Default
100
AcDb2dPolyline
 66
     1
 10
0.0
 20
0.0
 30
0.0
  0
VERTEX
  5
251
330
250
100
AcDbEntity
  8
Default
100
AcDbVertex
100
AcDb2dVertex
 10
16.22882908244711
 20
-17.37245675968445
 30
0.0
  0
VERTEX
  5
252
330
250
100
AcDbEntity
  8
Default
100
AcDbVertex
100
AcDb2dVertex
 10
13.69075712830312
 20
-17.37245675968445
 30
0.0
  0
SEQEND
  5
253
330
250
100
AcDbEntity
  8
Default
  0
ARC
  5
254
330
1F
100
AcDbEntity
  8
Default
100
AcDbCircle
 10
14.05498085363661
 20
-17.16146102640243
 30
0.0
 40
0.4209253158922819
100
AcDbArc
 50
161.4222541869533
 51
210.0838222183396
  0
ARC
  5
255
330
1F
100
AcDbEntity
  8
Default
100
AcDbCircle
 10
14.17416122601713
 20
-17.23709430958178
 30
0.0
 40
0.5590096424983879
100
AcDbArc
 50
104.971637772364
 51
157.963773059855
  0
ARC
  5
256
330
1F
100
AcDbEntity
  8
Default
100
AcDbCircle
 10
14.32508051921433
 20
-15.41727881473345
 30
0.0
 40
1.313417132673559
100
AcDbArc
 50
257.0053832080835
 51
293.8183550965502
  0
ARC
  5
257
330
1F
100
AcDbEntity
  8
Default
100
AcDbCircle
 10
15.16077209078507
 20
-15.94720937287938
 30
0.0
 40
0.7377504594805109
100
AcDbArc
 50
245.5560452195834
 51
284.2396242757005
  0
ARC
  5
258
330
1F
100
AcDbEntity
  8
Default
100
AcDbCircle
 10
16.27813385765458
 20
-15.35204462093044
 30
0.0
 40
1.610168711937939
100
AcDbArc
 50
234.462322208025
 51
265.767347564263
  0
ARC
  5
259
330
1F
100
AcDbEntity
  8
Default
100
AcDbCircle
 10
16.75739844467581
 20
-17.0706649355689
 30
0.0
 40
0.6086574371432931
100
AcDbArc
 50
169.3157255147067
 51
209.724627221282
  0
POLYLINE
  5
25A
330
1F
100
AcDbEntity
  8
Default
100
AcDb2dPolyline
 66
     1
 10
0.0
 20
0.0
 30
0.0
  0
VERTEX
  5
25B
330
25A
100
AcDbEntity
  8
Default
100
AcDbVertex
100
AcDb2dVertex
 10
8.034373287670071
 20
-17.37245675968445
 30
0.0
  0
VERTEX
  5
25C
330
25A
100
AcDbEntity
  8
Default
100
AcDbVertex
100
AcDb2dVertex
 10
4.82520235601789
 20
-17.37245675968445
 30
0.0
  0
SEQEND
  5
25D
330
25A
100
AcDbEntity
  8
Default
  0
ARC
  5
25E
330
1F
100
AcDbEntity
  8
Default
100
AcDbCircle
 10
4.222222892784076
 20
-17.49375192248508
 30
0.0
 40
0.6150583302423994
100
AcDbArc
 50
11.37380803686634
 51
135.6828002633061
  0
ARC
  5
25F
330
1F
100
AcDbEntity
  8
Default
100
AcDbCircle
 10
4.614541381586088
 20
-15.28897334565114
 30
0.0
 40
1.960553597107663
100
AcDbArc
 50
164.8942548445808
 51
244.8768721946032
  0
ARC
  5
260
330
1F
100
AcDbEntity
  8
Default
100
AcDbCircle
 10
-1.437838047353237
 20
-15.31976191330309
 30
0.0
 40
4.194695730821501
100
AcDbArc
 50
7.420014895261227
 51
38.33372871404798
  0
ARC
  5
261
330
1F
100
AcDbEntity
  8
Default
100
AcDbCircle
 10
2.506910113585596
 20
-11.87835911011338
 30
0.0
 40
1.064555613304852
100
AcDbArc
 50
232.0699611082192
 51
278.3360315240482
  0
ARC
  5
262
330
1F
100
AcDbEntity
  8
Default
100
AcDbCircle
 10
-6.686920310561321
 20
-17.21278167079985
 30
0.0
 40
10.28183760405435
100
AcDbArc
 50
10.6505351636022
 51
24.60602275129398
  0
ARC
  5
263
330
1F
100
AcDbEntity
  8
Default
100
AcDbCircle
 10
4.595200331397004
 20
-14.99429139163815
 30
0.0
 40
1.219655865522945
100
AcDbArc
 50
195.1240073083105
 51
296.4686396538845
  0
ARC
  5
264
330
1F
100
AcDbEntity
  8
Default
100
AcDbCircle
 10
5.650632729050526
 20
-17.20926626589802
 30
0.0
 40
1.234286035982747
100
AcDbArc
 50
73.59039695692847
 51
114.4985741914339
  0
ARC
  5
265
330
1F
100
AcDbEntity
  8
Default
100
AcDbCircle
 10
4.871224568585577
 20
-19.9399895845808
 30
0.0
 40
4.074031740912941
100
AcDbArc
 50
39.06629295039498
 51
73.92476512728213
  0
POLYLINE
  5
266
330
1F
100
AcDbEntity
  8
Default
100
AcDb2dPolyline
 66
     1
 10
0.0
 20
0.0
 30
0.0
  0
VERTEX
  5
267
330
266
100
AcDbEntity
  8
Default
100
AcDbVertex
100
AcDb2dVertex
 10
-3.721922219711748
 20
-17.37245675968445
 30
0.0
  0
VERTEX
  5
268
330
266
100
AcDbEntity
  8
Default
100
AcDbVertex
100
AcDb2dVertex
 10
0.0316980318515414
 20
-17.37245675968445
 30
0.0
  0
SEQEND
  5
269
330
266
100
AcDbEntity
  8
Default
  0
ARC
  5
26A
330
1F
100
AcDbEntity
  8
Default
100
AcDbCircle
 10
0.4815678297647534
 20
-17.37245675968445
 30
0.0
 40
0.449869797913212
100
AcDbArc
 50
56.92772605418941
 51
179.9999999999991
  0
ARC
  5
26B
330
1F
100
AcDbEntity
  8
Default
100
AcDbCircle
 10
0.9558153641221339
 20
-16.19675752390739
 30
0.0
 40
0.8308286473714863
100
AcDbArc
 50
254.018096541743
 51
331.437664129329
  0
ARC
  5
26C
330
1F
100
AcDbEntity
  8
Default
100
AcDbCircle
 10
-0.7845230144741422
 20
-15.56630251760899
 30
0.0
 40
2.675313313287098
100
AcDbArc
 50
337.4098373714935
 51
8.479790506313002
  0
ARC
  5
26D
330
1F
100
AcDbEntity
  8
Default
100
AcDbCircle
 10
-1.412687342387788
 20
-15.38737206343708
 30
0.0
 40
3.281319842388483
100
AcDbArc
 50
3.766871390215885
 51
39.61956413653151
  0
ARC
  5
26E
330
1F
100
AcDbEntity
  8
Default
100
AcDbCircle
 10
1.954876091339092
 20
-12.33115336874266
 30
0.0
 40
1.278437376262328
100
AcDbArc
 50
78.48451215514896
 51
228.9259077036837
  0
ARC
  5
26F
330
1F
100
AcDbEntity
  8
Default
100
AcDbCircle
 10
2.006164769263493
 20
-12.21229726038953
 30
0.0
 40
1.152040332221181
100
AcDbArc
 50
358.0313148607225
 51
79.8040117527132
  0
ARC
  5
270
330
1F
100
AcDbEntity
  8
Default
100
AcDbCircle
 10
4.111209274486245
 20
-12.43973745379953
 30
0.0
 40
0.9720114718944685
100
AcDbArc
 50
168.8561297206954
 51
219.9002125157483
  0
ARC
  5
271
330
1F
100
AcDbEntity
  8
Default
100
AcDbCircle
 10
0.0688919862250295
 20
-15.84094949790676
 30
0.0
 40
4.310850683043033
100
AcDbArc
 50
25.80453533178819
 51
40.11724043616677
  0
ARC
  5
272
330
1F
100
AcDbEntity
  8
Default
100
AcDbCircle
 10
4.376850506278869
 20
-13.49102416473507
 30
0.0
 40
0.637503207614893
100
AcDbArc
 50
227.952289966603
 51
256.0907799660689
  0
SPLINE
  5
273
330
1F
100
AcDbEntity
  8
Default
100
AcDbSpline
210
0.0
220
0.0
230
1.0
 70
     8
 71
     4
 72
    10
 73
     5
 74
     0
 42
0.000000001
 43
0.0000000001
 40
24.5992268695937
 40
24.5992268695937
 40
24.5992268695937
 40
24.5992268695937
 40
24.5992268695937
 40
25.5992268695937
 40
25.5992268695937
 40
25.5992268695937
 40
25.5992268695937
 40
25.5992268695937
 10
4.223604777747892
 20
-14.10983438314317
 30
0.0
 10
4.363251295580158
 20
-14.14441725156618
 30
0.0
 10
4.457260158258594
 20
-14.0241575248786
 30
0.0
 10
4.361123109471016
 20
-13.92040677653748
 30
0.0
 10
4.268018615172783
 20
-13.81400252105162
 30
0.0
  0
ARC
  5
274
330
1F
100
AcDbEntity
  8
Default
100
AcDbCircle
 10
9.245940968655374
 20
-9.45828440375842
 30
0.0
 40
6.614528802161031
100
AcDbArc
 50
208.269168432388
 51
221.1861602242696
  0
ARC
  5
275
330
1F
100
AcDbEntity
  8
Default
100
AcDbCircle
 10
8.449435022167235
 20
-10.72198625901844
 30
0.0
 40
5.365199952544478
100
AcDbArc
 50
189.4382823437497
 51
200.3871841317879
  0
ARC
  5
276
330
1F
100
AcDbEntity
  8
Default
100
AcDbCircle
 10
2.762279649811816
 20
-11.66739318913257
 30
0.0
 40
0.4000000000000049
100
AcDbArc
 50
9.438282343749124
 51
42.68642737310582
  0
ARC
  5
277
330
1F
100
AcDbEntity
  8
Default
100
AcDbCircle
 10
1.912289225579817
 20
-12.45136905439477
 30
0.0
 40
1.556331214920587
100
AcDbArc
 50
42.68642737310581
 51
232.8368399750498
  0
ARC
  5
278
330
1F
100
AcDbEntity
  8
Default
100
AcDbCircle
 10
-1.933137961423003
 20
-12.35736696576621
 30
0.0
 40
3.197008250967939
100
AcDbArc
 50
248.2702102007378
 51
335.3326087719661
  0
ARC
  5
279
330
1F
100
AcDbEntity
  8
Default
100
AcDbCircle
 10
-5.107721749115414
 20
-14.51123085021474
 30
0.0
 40
2.151675168689053
100
AcDbArc
 50
285.3069378352403
 51
337.7144123531675
  0
ARC
  5
27A
330
1F
100
AcDbEntity
  8
Default
100
AcDbCircle
 10
-3.271148844370215
 20
-16.0849600786469
 30
0.0
 40
1.364127684492731
100
AcDbArc
 50
201.5750371053511
 51
250.7040255782272
  0
ARC
  5
27B
330
1F
100
AcDbEntity
  8
Default
100
AcDbCircle
 10
10.7686100374272
 20
-15.32618603867537
 30
0.0
 40
1.000000000000135
100
AcDbArc
 50
265.4732946662003
 51
275.1172123595911
  0
ARC
  5
27C
330
1F
100
AcDbEntity
  8
Default
100
AcDbCircle
 10
11.07608982845265
 20
-11.44242899641278
 30
0.0
 40
4.89590972498265
100
AcDbArc
 50
224.5230489040385
 51
265.4732946662052
  0
ARC
  5
27D
330
1F
100
AcDbEntity
  8
Default
100
AcDbCircle
 10
8.603721727549225
 20
-16.22215421597757
 30
0.0
 40
1.688355163536779
100
AcDbArc
 50
83.6303953266561
 51
127.0928372970418
  0
ARC
  5
27E
330
1F
100
AcDbEntity
  8
Default
100
AcDbCircle
 10
9.159257412572826
 20
-14.71672003181515
 30
0.0
 40
0.4066283809710231
100
AcDbArc
 50
103.5580812279045
 51
154.8988964485798
  0
ARC
  5
27F
330
1F
100
AcDbEntity
  8
Default
100
AcDbCircle
 10
8.310576015291021
 20
-14.98315410595854
 30
0.0
 40
1.002712151569296
100
AcDbArc
 50
347.4233005305667
 51
41.29537255792228
  0
ARC
  5
280
330
1F
100
AcDbEntity
  8
Default
100
AcDbCircle
 10
9.725960290234841
 20
-14.97532632782879
 30
0.0
 40
0.4918181939647053
100
AcDbArc
 50
207.3777027713313
 51
346.6553007181146
  0
ARC
  5
281
330
1F
100
AcDbEntity
  8
Default
100
AcDbCircle
 10
10.55784907530101
 20
-15.27551787720123
 30
0.0
 40
0.3996299108964378
100
AcDbArc
 50
73.82501186395
 51
152.1524217402117
  0
ARC
  5
282
330
1F
100
AcDbEntity
  8
Default
100
AcDbCircle
 10
11.59333851295773
 20
-15.0528985203535
 30
0.0
 40
0.9381158535889533
100
AcDbArc
 50
170.1060793302646
 51
233.4967396424384
  0
ARC
  5
283
330
1F
100
AcDbEntity
  8
Default
100
AcDbCircle
 10
11.06337594162565
 20
-14.98025813251205
 30
0.0
 40
0.8271966798859295
100
AcDbArc
 50
268.0537622503193
 51
329.5223956413868
  0
ARC
  5
284
330
1F
100
AcDbEntity
  8
Default
100
AcDbCircle
 10
12.34791648872823
 20
-15.21315568953244
 30
0.0
 40
0.6013427685293756
100
AcDbArc
 50
198.0834453830485
 51
248.5798797203645
  0
ARC
  5
285
330
1F
100
AcDbEntity
  8
Default
100
AcDbCircle
 10
12.07428127399724
 20
-15.07742129817973
 30
0.0
 40
0.6976357980870829
100
AcDbArc
 50
274.4412411894328
 51
344.9132573950312
  0
ARC
  5
286
330
1F
100
AcDbEntity
  8
Default
100
AcDbCircle
 10
13.23473563084263
 20
-13.87955456147865
 30
0.0
 40
1.46284442629626
100
AcDbArc
 50
250.5599651718239
 51
316.154280256774
  0
ARC
  5
287
330
1F
100
AcDbEntity
  8
Default
100
AcDbCircle
 10
12.89008125531211
 20
-14.37792195872991
 30
0.0
 40
1.491398722689681
100
AcDbArc
 50
284.4338797163553
 51
339.8001933785661
  0
ARC
  5
288
330
1F
100
AcDbEntity
  8
Default
100
AcDbCircle
 10
9.909474156606557
 20
-5.732308862884061
 30
0.0
 40
10.63226835827811
100
AcDbArc
 50
275.1172123595925
 51
288.3789412361542
  0
ARC
  5
289
330
1F
100
AcDbEntity
  8
Default
100
AcDbCircle
 10
-7.531136009976926
 20
-14.30021320039979
 30
0.0
 40
1.386126828074535
100
AcDbArc
 50
120.0748531971762
 51
284.1440434903268
  0
ARC
  5
28A
330
1F
100
AcDbEntity
  8
Default
100
AcDbCircle
 10
6.876683586087637
 20
-8.447036489498615
 30
0.0
 40
15.80318284632717
100
AcDbArc
 50
197.1261341064404
 51
207.0927625810626
  0
POLYLINE
  5
28B
330
1F
100
AcDbEntity
  8
Default
100
AcDb2dPolyline
 66
     1
 10
0.0
 20
0.0
 30
0.0
  0
VERTEX
  5
28C
330
28B
100
AcDbEntity
  8
Default
100
AcDbVertex
100
AcDb2dVertex
 10
-10.12300151660536
 20
-17.37245675968445
 30
0.0
  0
VERTEX
  5
28D
330
28B
100
AcDbEntity
  8
Default
100
AcDbVertex
100
AcDb2dVertex
 10
-8.020161776706617
 20
-17.37245675968445
 30
0.0
  0
SEQEND
  5
28E
330
28B
100
AcDbEntity
  8
Default
  0
ARC
  5
28F
330
1F
100
AcDbEntity
  8
Default
100
AcDbCircle
 10
-6.757853542028891
 20
-14.41236974202309
 30
0.0
 40
3.218002055851189
100
AcDbArc
 50
129.2852200450431
 51
246.9045180471242
  0
ARC
  5
290
330
1F
100
AcDbEntity
  8
Default
100
AcDbCircle
 10
-8.559635178681894
 20
-11.32047644924413
 30
0.0
 40
0.6457393732968691
100
AcDbArc
 50
183.7967089900718
 51
248.5826959087665
  0
ARC
  5
291
330
1F
100
AcDbEntity
  8
Default
100
AcDbCircle
 10
-10.17607565389785
 20
-10.59649389426343
 30
0.0
 40
1.238105860543423
100
AcDbArc
 50
257.77599078081
 51
321.7360112141196
  0
ARC
  5
292
330
1F
100
AcDbEntity
  8
Default
100
AcDbCircle
 10
-11.32571526628604
 20
-12.07483944695457
 30
0.0
 40
0.9271620065301144
100
AcDbArc
 50
325.6862655848493
 51
16.82140989004098
  0
ARC
  5
293
330
1F
100
AcDbEntity
  8
Default
100
AcDbCircle
 10
-12.76812583667778
 20
-14.38716519620721
 30
0.0
 40
2.842374401071365
100
AcDbArc
 50
39.02329761708259
 51
94.72725426779043
  0
ARC
  5
294
330
1F
100
AcDbEntity
  8
Default
100
AcDbCircle
 10
-12.18637431323919
 20
-11.85736839680008
 30
0.0
 40
0.8704067522369324
100
AcDbArc
 50
65.1258063680081
 51
159.6344637359111
  0
ARC
  5
295
330
1F
100
AcDbEntity
  8
Default
100
AcDbCircle
 10
-11.4490645065796
 20
-10.15400027737198
 30
0.0
 40
0.9862265148624164
100
AcDbArc
 50
247.8905516562486
 51
333.221538782919
  0
ARC
  5
296
330
1F
100
AcDbEntity
  8
Default
100
AcDbCircle
 10
-10.47338161126159
 20
-11.00303869297696
 30
0.0
 40
0.4157538989966662
100
AcDbArc
 50
30.8952792096328
 51
103.2405199151874
  0
ARC
  5
297
330
1F
100
AcDbEntity
  8
Default
100
AcDbCircle
 10
-9.963223065317242
 20
-11.32241448187231
 30
0.0
 40
0.5544936264331874
100
AcDbArc
 50
106.0599873071606
 51
176.1317357820314
  0
ARC
  5
298
330
1F
100
AcDbEntity
  8
Default
100
AcDbCircle
 10
-10.07988902090798
 20
-10.72860122479874
 30
0.0
 40
0.7072310289672724
100
AcDbArc
 50
231.8817236306368
 51
348.6496713112587
  0
ARC
  5
299
330
1F
100
AcDbEntity
  8
Default
100
AcDbCircle
 10
-9.695314216388233
 20
-10.71432597679379
 30
0.0
 40
0.3448529054718941
100
AcDbArc
 50
333.5759127005059
 51
69.3319004838369
  0
ARC
  5
29A
330
1F
100
AcDbEntity
  8
Default
100
AcDbCircle
 10
-9.454154012732483
 20
-9.66173809812648
 30
0.0
 40
0.7396375193685647
100
AcDbArc
 50
117.7855340905234
 51
260.7066914006029
  0
ARC
  5
29B
330
1F
100
AcDbEntity
  8
Default
100
AcDbCircle
 10
-10.8634273307058
 20
-7.507613387843227
 30
0.0
 40
1.839137272893851
100
AcDbArc
 50
305.3657575798323
 51
49.98589953368725
  0
ARC
  5
29C
330
1F
100
AcDbEntity
  8
Default
100
AcDbCircle
 10
-14.20386146948484
 20
-5.162572517849611
 30
0.0
 40
4.618885588390635
100
AcDbArc
 50
288.9822162319148
 51
348.3022847533144
  0
ARC
  5
29D
330
1F
100
AcDbEntity
  8
Default
100
AcDbCircle
 10
-11.85461241553408
 20
-10.88957839231035
 30
0.0
 40
1.601509072255039
100
AcDbArc
 50
121.9229193098317
 51
201.4027824433988
  0
ARC
  5
29E
330
1F
100
AcDbEntity
  8
Default
100
AcDbCircle
 10
-14.17039849466015
 20
-11.70131239774883
 30
0.0
 40
0.855471951459959
100
AcDbArc
 50
344.5035027992112
 51
15.40919135190792
  0
ARC
  5
29F
330
1F
100
AcDbEntity
  8
Default
100
AcDbCircle
 10
-49.46958868879742
 20
-26.66303401697768
 30
0.0
 40
39.01253287008026
100
AcDbArc
 50
16.05909885640414
 51
22.18831144981358
  0
ARC
  5
2A0
330
1F
100
AcDbEntity
  8
Default
100
AcDbCircle
 10
-11.5814381102252
 20
-17.27734445068836
 30
0.0
 40
1.461534689609522
100
AcDbArc
 50
356.2687250932822
 51
105.8025139539359
  0
ARC
  5
2A1
330
1F
100
AcDbEntity
  8
Default
100
AcDbCircle
 10
-16.36411150760064
 20
-12.59376337199709
 30
0.0
 40
4.77869338768736
100
AcDbArc
 50
171.5455336909814
 51
270.0
  0
POLYLINE
  5
2A2
330
1F
100
AcDbEntity
  8
Default
100
AcDb2dPolyline
 66
     1
 10
0.0
 20
0.0
 30
0.0
  0
VERTEX
  5
2A3
330
2A2
100
AcDbEntity
  8
Default
100
AcDbVertex
100
AcDb2dVertex
 10
-16.36411150760064
 20
-17.37245675968445
 30
0.0
  0
VERTEX
  5
2A4
330
2A2
100
AcDbEntity
  8
Default
100
AcDbVertex
100
AcDb2dVertex
 10
-12.54818442560479
 20
-17.37245675968445
 30
0.0
  0
SEQEND
  5
2A5
330
2A2
100
AcDbEntity
  8
Default
  0
ARC
  5
2A6
330
1F
100
AcDbEntity
  8
Default
100
AcDbCircle
 10
-12.71221326822892
 20
-17.11021106028993
 30
0.0
 40
0.3093190392839282
100
AcDbArc
 50
302.0250618199003
 51
107.5968793308424
  0
ARC
  5
2A7
330
1F
100
AcDbEntity
  8
Default
100
AcDbCircle
 10
-12.59865516136762
 20
-15.98708269659589
 30
0.0
 40
0.8537748302522766
100
AcDbArc
 50
149.1379944312597
 51
255.9637565320734
  0
ARC
  5
2A8
330
1F
100
AcDbEntity
  8
Default
100
AcDbCircle
 10
-5.424501340951657
 20
-11.08780921691523
 30
0.0
 40
9.078796932918483
100
AcDbArc
 50
191.2285737167572
 51
209.4325684463161
  0
ARC
  5
2A9
330
1F
100
AcDbEntity
  8
Default
100
AcDbCircle
 10
-13.50184338713898
 20
-11.04101598837844
 30
0.0
 40
1.994489285683334
100
AcDbArc
 50
138.7355168763258
 51
245.4820404414244
  0
ARC
  5
2AA
330
1F
100
AcDbEntity
  8
Default
100
AcDbCircle
 10
-16.25658684671786
 20
-8.526151824674262
 30
0.0
 40
1.736376833232703
100
AcDbArc
 50
316.3093658780609
 51
30.75746444415227
  0
ARC
  5
2AB
330
1F
100
AcDbEntity
  8
Default
100
AcDbCircle
 10
-10.31380656685308
 20
-3.077115089088961
 30
0.0
 40
6.372703472146269
100
AcDbArc
 50
177.8442669169103
 51
225.7018961834572
  0
ARC
  5
2AC
330
1F
100
AcDbEntity
  8
Default
100
AcDbCircle
 10
-16.59443898788195
 20
-4.031663347481976
 30
0.0
 40
1.197467961329391
100
AcDbArc
 50
94.19330954056674
 51
218.6731487910045
  0
ARC
  5
2AD
330
1F
100
AcDbEntity
  8
Default
100
AcDbCircle
 10
-17.93072388555007
 20
-3.444858541373652
 30
0.0
 40
1.394109629058436
100
AcDbArc
 50
254.4749507737554
 51
286.7335420722338
  0
ARC
  5
2AE
330
1F
100
AcDbEntity
  8
Default
100
AcDbCircle
 10
-19.03709892222532
 20
-7.083804458485922
 30
0.0
 40
2.409952941323632
100
AcDbArc
 50
4.703648528871836
 51
72.28695292231131
  0
ARC
  5
2AF
330
1F
100
AcDbEntity
  8
Default
100
AcDbCircle
 10
-18.16173892257083
 20
-8.439786047419878
 30
0.0
 40
2.178029284096335
100
AcDbArc
 50
45.50458355484309
 51
93.06421229770635
  0
ARC
  5
2B0
330
1F
100
AcDbEntity
  8
Default
100
AcDbCircle
 10
-15.33944512543402
 20
-4.731113419777951
 30
0.0
 40
3.314889185126646
100
AcDbArc
 50
207.5606552566905
 51
247.1994634723962
  0
ARC
  5
2B1
330
1F
100
AcDbEntity
  8
Default
100
AcDbCircle
 10
-17.16725952480918
 20
-6.921227381688799
 30
0.0
 40
1.022057729042841
100
AcDbArc
 50
259.4623397800077
 51
302.1062559551176
  0
ARC
  5
2B2
330
1F
100
AcDbEntity
  8
Default
100
AcDbCircle
 10
-18.20835992131178
 20
-10.52145527053686
 30
0.0
 40
2.732356171812847
100
AcDbArc
 50
56.98612655654031
 51
71.78290480217505
  0
ARC
  5
2B3
330
1F
100
AcDbEntity
  8
Default
100
AcDbCircle
 10
-17.89857680244502
 20
-10.08474913887493
 30
0.0
 40
2.197486737637572
100
AcDbArc
 50
357.8134322392037
 51
57.55529674078823
  0
ARC
  5
2B4
330
1F
100
AcDbEntity
  8
Default
100
AcDbCircle
 10
-16.41364324165974
 20
-10.84486356527592
 30
0.0
 40
0.9812231745154815
100
AcDbArc
 50
43.56790381583518
 51
103.4233734206544
  0
ARC
  5
2B5
330
1F
100
AcDbEntity
  8
Default
100
AcDbCircle
 10
-20.09728190431976
 20
-13.65058381844153
 30
0.0
 40
5.107010304138698
100
AcDbArc
 50
31.02823719469504
 51
47.41462485624595
  0
ARC
  5
2B6
330
1F
100
AcDbEntity
  8
Default
100
AcDbCircle
 10
-14.62799614479504
 20
-4.372421419654573
 30
0.0
 40
6.73498548048975
100
AcDbArc
 50
236.3116157385168
 51
260.6601627248232
  0
ARC
  5
2B7
330
1F
100
AcDbEntity
  8
Default
100
AcDbCircle
 10
-19.29509375349122
 20
-10.52557918073003
 30
0.0
 40
1.081231666424573
100
AcDbArc
 50
356.1422463520207
 51
30.52674482572708
  0
ARC
  5
2B8
330
1F
100
AcDbEntity
  8
Default
100
AcDbCircle
 10
-18.92285327820136
 20
-13.62843928680736
 30
0.0
 40
3.1113982200836
100
AcDbArc
 50
16.21182023596301
 51
76.8746859205314
  0
ARC
  5
2B9
330
1F
100
AcDbEntity
  8
Default
100
AcDbCircle
 10
-16.45789264950955
 20
-13.21694624854907
 30
0.0
 40
0.6944364694235907
100
AcDbArc
 50
41.17344576999936
 51
123.707618778071
  0
ARC
  5
2BA
330
1F
100
AcDbEntity
  8
Default
100
AcDbCircle
 10
-15.88191967733302
 20
-12.33244309969838
 30
0.0
 40
1.009126859126064
100
AcDbArc
 50
197.7004277886669
 51
263.2718850613412
  0
ARC
  5
2BB
330
1F
100
AcDbEntity
  8
Default
100
AcDbCircle
 10
-15.5096282972575
 20
-13.79998431300883
 30
0.0
 40
0.6761451143825195
100
AcDbArc
 50
136.5074357587755
 51
190.7134835731554
  0
ARC
  5
2BC
330
1F
100
AcDbEntity
  8
Default
100
AcDbCircle
 10
-16.55422375068874
 20
-14.47763397219532
 30
0.0
 40
0.6702497155330511
100
AcDbArc
 50
354.4194729198044
 51
55.43747535111805
  0
ARC
  5
2BD
330
1F
100
AcDbEntity
  8
Default
100
AcDbCircle
 10
-15.81988518777967
 20
-15.60945066733281
 30
0.0
 40
1.068757375762426
100
AcDbArc
 50
93.60846885256616
 51
157.6711495436077
  0
ARC
  5
2BE
330
1F
100
AcDbEntity
  8
Default
100
AcDbCircle
 10
-18.57724614061051
 20
-15.09391277704901
 30
0.0
 40
1.772126417313234
100
AcDbArc
 50
356.4576388078063
 51
79.4039798644097
  0
ARC
  5
2BF
330
1F
100
AcDbEntity
  8
Default
100
AcDbCircle
 10
-18.91665151305953
 20
-13.83709672821554
 30
0.0
 40
0.8233455757500356
100
AcDbArc
 50
337.5381451761957
 51
36.09828396710783
  0
ARC
  5
2C0
330
1F
100
AcDbEntity
  8
Default
100
AcDbCircle
 10
-19.87648534748477
 20
-14.69005434096169
 30
0.0
 40
1.8029749628704
100
AcDbArc
 50
17.37403713265739
 51
98.88429550803929
  0
ARC
  5
2C1
330
1F
100
AcDbEntity
  8
Default
100
AcDbCircle
 10
-18.62874414671432
 20
-10.56568403796092
 30
0.0
 40
2.796254157689062
100
AcDbArc
 50
208.2960101454085
 51
236.9207385399221
  0
CIRCLE
  5
2C2
330
1F
100
AcDbEntity
  8
Default
100
AcDbCircle
 10
-1.885953839096647
 20
-12.15452501802267
 30
0.0
 40
1.745172398334585
  0
SPLINE
  5
2C3
330
1F
100
AcDbEntity
  8
Default
100
AcDbSpline
210
0.0
220
0.0
230
1.0
 70
    11
 71
     3
 72
    17
 73
    13
 74
     0
 42
0.000000001
 43
0.0000000001
 40
0.0
 40
0.0
 40
0.0
 40
0.0
 40
0.1615021471519244
 40
0.355230872438796
 40
0.6194145462304192
 40
0.824716752833502
 40
0.9762449537736462
 40
1.102224786526768
 40
1.351328557290469
 40
1.614216449090114
 40
1.888901553317422
 40
2.089800198147196
 40
2.089800198147196
 40
2.089800198147196
 40
2.089800198147196
 10
15.44770170982083
 20
-10.8397884207815
 30
0.0
 10
15.42172863221269
 20
-10.83585183684985
 30
0.0
 10
15.30711348016668
 20
-10.97433160734778
 30
0.0
 10
15.19525279966101
 20
-11.1008466132123
 30
0.0
 10
14.89256394991686
 20
-11.17846246953866
 30
0.0
 10
15.0154754567639
 20
-11.40372242783585
 30
0.0
 10
14.85287899064696
 20
-11.59500950940427
 30
0.0
 10
15.10425757736087
 20
-11.57846790955107
 30
0.0
 10
15.28233992494375
 20
-11.54066862506779
 30
0.0
 10
15.48975675810359
 20
-11.30737082602678
 30
0.0
 10
15.46075804281502
 20
-11.10131992964983
 30
0.0
 10
15.48001060592873
 20
-10.84468528680509
 30
0.0
 10
15.44770170982083
 20
-10.8397884207815
 30
0.0
  0
SPLINE
  5
2C4
330
1F
100
AcDbEntity
  8
Default
100
AcDbSpline
210
0.0
220
0.0
230
1.0
 70
    11
 71
     3
 72
    15
 73
    11
 74
     0
 42
0.000000001
 43
0.0000000001
 40
0.0
 40
0.0
 40
0.0
 40
0.0
 40
0.1825799354303671
 40
0.3438805826321455
 40
0.479435519904169
 40
0.616778072017822
 40
0.7869101160346113
 40
0.9044771553397352
 40
1.088122741465764
 40
1.319070121868337
 40
1.319070121868337
 40
1.319070121868337
 40
1.319070121868337
 10
14.8719852855649
 20
-10.01641006437001
 30
0.0
 10
14.89267195947014
 20
-10.02539385943625
 30
0.0
 10
14.91220890982445
 20
-10.20397890383064
 30
0.0
 10
14.96017055444056
 20
-10.34498694626856
 30
0.0
 10
14.89299880853928
 20
-10.47426789489544
 30
0.0
 10
14.796947729673
 20
-10.63647354949087
 30
0.0
 10
14.6617833003127
 20
-10.49086721738544
 30
0.0
 10
14.61316234041153
 20
-10.32835480596655
 30
0.0
 10
14.76922021189587
 20
-10.23118729803932
 30
0.0
 10
14.84581848286341
 20
-10.0050463625934
 30
0.0
 10
14.87198528556491
 20
-10.01641006437001
 30
0.0
  0
SPLINE
  5
2C5
330
1F
100
AcDbEntity
  8
Default
100
AcDbSpline
210
0.0
220
0.0
230
1.0
 70
    11
 71
     3
 72
    15
 73
    11
 74
     0
 42
0.000000001
 43
0.0000000001
 40
0.0
 40
0.0
 40
0.0
 40
0.0
 40
0.1679431252787564
 40
0.3312472805196457
 40
0.47825811480578
 40
0.6247623048476232
 40
0.7843824337080727
 40
0.974607405178837
 40
1.141959179588741
 40
1.278661778965211
 40
1.278661778965211
 40
1.278661778965211
 40
1.278661778965211
 10
14.19505992629007
 20
-9.266088025218199
 30
0.0
 10
14.23931425640234
 20
-9.271436970177131
 30
0.0
 10
14.29710393229394
 20
-9.416273098979222
 30
0.0
 10
14.31692362101645
 20
-9.561342646142432
 30
0.0
 10
14.2832822525498
 20
-9.713445069902065
 30
0.0
 10
14.14049607533283
 20
-9.839879608111067
 30
0.0
 10
13.99221358291186
 20
-9.680398460249918
 30
0.0
 10
14.01332737538626
 20
-9.502064409001557
 30
0.0
 10
14.05687835128277
 20
-9.352383117581066
 30
0.0
 10
14.15903771966523
 20
-9.261734082902345
 30
0.0
 10
14.19505992629007
 20
-9.266088025218199
 30
0.0
  0
SPLINE
  5
2C6
330
1F
100
AcDbEntity
  8
Default
100
AcDbSpline
210
0.0
220
0.0
230
1.0
 70
    11
 71
     3
 72
    16
 73
    12
 74
     0
 42
0.000000001
 43
0.0000000001
 40
0.0
 40
0.0
 40
0.0
 40
0.0
 40
0.1720933593068821
 40
0.3755685002320148
 40
0.5632035803631986
 40
0.7152519584824085
 40
0.9153574529064697
 40
1.107370610585365
 40
1.378082260534848
 40
1.675395336142555
 40
1.976746804910744
 40
1.976746804910744
 40
1.976746804910744
 40
1.976746804910744
 10
13.37910332491446
 20
-7.365030346074376
 30
0.0
 10
13.37196572826062
 20
-7.325122368776114
 30
0.0
 10
13.24301409327172
 20
-7.220339196048052
 30
0.0
 10
13.07553442105322
 20
-7.164961710112466
 30
0.0
 10
12.89023982662189
 20
-7.164925521507678
 30
0.0
 10
12.73504124832474
 20
-6.984810002928109
 30
0.0
 10
12.61521182793253
 20
-7.228224361658409
 30
0.0
 10
12.64353894497242
 20
-7.430092987252057
 30
0.0
 10
12.84284939899538
 20
-7.684131394141485
 30
0.0
 10
13.09997046138372
 20
-7.524364189362636
 30
0.0
 10
13.39160192011751
 20
-7.434912923896299
 30
0.0
 10
13.37910332491446
 20
-7.365030346074377
 30
0.0
  0
SPLINE
  5
2C7
330
1F
100
AcDbEntity
  8
Default
100
AcDbSpline
210
0.0
220
0.0
230
1.0
 70
    11
 71
     3
 72
    16
 73
    12
 74
     0
 42
0.000000001
 43
0.0000000001
 40
0.0
 40
0.0
 40
0.0
 40
0.0
 40
0.1771555542811963
 40
0.3482407264504312
 40
0.4223776343904329
 40
0.5299785868050473
 40
0.6660125182808394
 40
0.830210714430394
 40
0.9762746627746868
 40
1.090331444220845
 40
1.216311276973968
 40
1.216311276973968
 40
1.216311276973968
 40
1.216311276973968
 10
11.41850606144941
 20
-5.40423841250373
 30
0.0
 10
11.44760739885638
 20
-5.362033617251526
 30
0.0
 10
11.61328042859643
 20
-5.402684671280833
 30
0.0
 10
11.71639114482669
 20
-5.40249536829425
 30
0.0
 10
11.88032515721248
 20
-5.37390376251289
 30
0.0
 10
11.77306110786992
 20
-5.518551393915469
 30
0.0
 10
11.64251205415482
 20
-5.519417112317008
 30
0.0
 10
11.62928574084711
 20
-5.801725071812839
 30
0.0
 10
11.53689496295734
 20
-5.576929803162347
 30
0.0
 10
11.41154777230466
 20
-5.552028380082831
 30
0.0
 10
11.39781135823055
 20
-5.434251318781639
 30
0.0
 10
11.41850606144941
 20
-5.40423841250373
 30
0.0
  0
ARC
  5
2C8
330
1F
100
AcDbEntity
  8
Default
100
AcDbCircle
 10
-13.16383966073936
 20
15.99864876890956
 30
0.0
 40
2.246401624357556
100
AcDbArc
 50
264.1111715491294
 51
314.2708999827751
  0
ARC
  5
2C9
330
1F
100
AcDbEntity
  8
Default
100
AcDbCircle
 10
-13.55664777053667
 20
16.52260714759408
 30
0.0
 40
2.897013057389934
100
AcDbArc
 50
312.5998404917009
 51
123.1465001808671
  0
SPLINE
  5
2CA
330
1F
100
AcDbEntity
  8
Default
100
AcDbSpline
210
0.0
220
0.0
230
1.0
 70
    12
 71
     2
 72
     6
 73
     3
 74
     0
 42
0.000000001
 43
0.0000000001
 40
75.74770049619441
 40
75.74770049619441
 40
75.74770049619441
 40
79.12197795092894
 40
79.12197795092894
 40
79.12197795092894
 10
-15.14068137301879
 20
18.94820443504624
 30
0.0
 41
0.9999999430624716
 10
-16.57919234650797
 20
18.13085090446003
 30
0.0
 41
0.8805933487829481
 10
-16.47343993865794
 20
16.08183427137953
 30
0.0
 41
0.9977263804135751
  0
ARC
  5
2CB
330
1F
100
AcDbEntity
  8
Default
100
AcDbCircle
 10
-16.37357286047765
 20
16.08698856044105
 30
0.0
 40
0.0999999999999914
100
AcDbArc
 50
182.9544992702577
 51
223.1826460436899
  0
ARC
  5
2CC
330
1F
100
AcDbEntity
  8
Default
100
AcDbCircle
 10
-16.03528746898233
 20
16.40446692740595
 30
0.0
 40
0.5639283560958835
100
AcDbArc
 50
223.1826460436897
 51
303.5360082843989
  0
ARC
  5
2CD
330
1F
100
AcDbEntity
  8
Default
100
AcDbCircle
 10
-15.55814539122757
 20
16.58977066568919
 30
0.0
 40
0.6759569966512518
100
AcDbArc
 50
208.4303794166718
 51
255.8195456624539
  0
ARC
  5
2CE
330
1F
100
AcDbEntity
  8
Default
100
AcDbCircle
 10
-16.06463982193782
 20
16.31556298226104
 30
0.0
 40
0.100000000000006
100
AcDbArc
 50
120.008253232676
 51
208.4303794166728
  0
ARC
  5
2CF
330
1F
100
AcDbEntity
  8
Default
100
AcDbCircle
 10
-15.85979934446535
 20
15.9608868642679
 30
0.0
 40
0.509578771283181
100
AcDbArc
 50
37.24765349260018
 51
120.0082532326732
  0
ARC
  5
2D0
330
1F
100
AcDbEntity
  8
Default
100
AcDbCircle
 10
-15.41006665588192
 20
16.33771065112286
 30
0.0
 40
0.0813771805639782
100
AcDbArc
 50
237.1902432249601
 51
8.890819856004255
  0
ARC
  5
2D1
330
1F
100
AcDbEntity
  8
Default
100
AcDbCircle
 10
-13.53475707836671
 20
16.84854348744292
 30
0.0
 40
1.862783238640782
100
AcDbArc
 50
165.3242149177383
 51
195.5143211430731
  0
ARC
  5
2D2
330
1F
100
AcDbEntity
  8
Default
100
AcDbCircle
 10
-14.0021473369508
 20
16.81881250121656
 30
0.0
 40
1.425790135197992
100
AcDbArc
 50
120.9894218912944
 51
159.3994359241758
  0
ARC
  5
2D3
330
1F
100
AcDbEntity
  8
Default
100
AcDbCircle
 10
-13.24661885824995
 20
15.46303051900332
 30
0.0
 40
2.97748360843943
100
AcDbArc
 50
91.06235116983541
 51
120.0199384628104
  0
ARC
  5
2D4
330
1F
100
AcDbEntity
  8
Default
100
AcDbCircle
 10
-12.68138109981783
 20
18.22987299202345
 30
0.0
 40
0.6550589456147992
100
AcDbArc
 50
161.2899409027907
 51
171.3567653716238
  0
ARC
  5
2D5
330
1F
100
AcDbEntity
  8
Default
100
AcDbCircle
 10
-12.79359059531322
 20
15.97694687271397
 30
0.0
 40
2.411555838816231
100
AcDbArc
 50
96.31810184751942
 51
102.8276195444329
  0
ARC
  5
2D6
330
1F
100
AcDbEntity
  8
Default
100
AcDbCircle
 10
-12.81100098847456
 20
18.09626399808435
 30
0.0
 40
0.3722227614426044
100
AcDbArc
 50
131.7749695018756
 51
149.1274237961327
  0
ARC
  5
2D7
330
1F
100
AcDbEntity
  8
Default
100
AcDbCircle
 10
-12.91961194701786
 20
16.0416582295567
 30
0.0
 40
2.255483763724142
100
AcDbArc
 50
80.45807190727719
 51
95.36458498656442
  0
ARC
  5
2D8
330
1F
100
AcDbEntity
  8
Default
100
AcDbCircle
 10
-12.98520112663044
 20
16.5019158446065
 30
0.0
 40
1.817941248492397
100
AcDbArc
 50
35.11160705972668
 51
76.01041432266658
  0
ARC
  5
2D9
330
1F
100
AcDbEntity
  8
Default
100
AcDbCircle
 10
-11.12564884236847
 20
17.74527698725096
 30
0.0
 40
0.4216543809878293
100
AcDbArc
 50
207.9660475978924
 51
232.011889402557
  0
ARC
  5
2DA
330
1F
100
AcDbEntity
  8
Default
100
AcDbCircle
 10
-10.6056412677317
 20
17.33871351270881
 30
0.0
 40
0.783062304222197
100
AcDbArc
 50
174.5596679689957
 51
191.5298889193945
  0
ARC
  5
2DB
330
1F
100
AcDbEntity
  8
Default
100
AcDbCircle
 10
-11.6932601352694
 20
16.96253286115109
 30
0.0
 40
0.388434325405185
100
AcDbArc
 50
3.857691195307968
 51
34.43760173266921
  0
ARC
  5
2DC
330
1F
100
AcDbEntity
  8
Default
100
AcDbCircle
 10
-10.75221480133898
 20
16.86413066102928
 30
0.0
 40
0.5673283886668243
100
AcDbArc
 50
167.3196165081798
 51
184.6985572949626
  0
ARC
  5
2DD
330
1F
100
AcDbEntity
  8
Default
100
AcDbCircle
 10
-11.77454412753554
 20
16.53486534568997
 30
0.0
 40
0.5373421708682669
100
AcDbArc
 50
0.862224714550926
 51
31.75458679348163
  0
ARC
  5
2DE
330
1F
100
AcDbEntity
  8
Default
100
AcDbCircle
 10
-11.80268042808089
 20
16.51177377689319
 30
0.0
 40
0.5662765526481487
100
AcDbArc
 50
330.6420023786465
 51
3.156135208479386
  0
ARC
  5
2DF
330
1F
100
AcDbEntity
  8
Default
100
AcDbCircle
 10
-11.22079624475009
 20
15.91517152359492
 30
0.0
 40
0.3309815446891682
100
AcDbArc
 50
105.4787323489972
 51
128.9609253631426
  0
ARC
  5
2E0
330
1F
100
AcDbEntity
  8
Default
100
AcDbCircle
 10
-11.54857076601782
 20
15.82396974131971
 30
0.0
 40
0.3685309657866183
100
AcDbArc
 50
37.49170824390939
 51
71.05349531048907
  0
ARC
  5
2E1
330
1F
100
AcDbEntity
  8
Default
100
AcDbCircle
 10
-11.20470408075996
 20
14.99851231688397
 30
0.0
 40
1.051023039331783
100
AcDbArc
 50
92.80637025178771
 51
110.241073156006
  0
ARC
  5
2E2
330
1F
100
AcDbEntity
  8
Default
100
AcDbCircle
 10
-11.99675095366419
 20
15.82550096055915
 30
0.0
 40
0.4570215033193243
100
AcDbArc
 50
329.0757728714589
 51
20.37643521383686
  0
ARC
  5
2E3
330
1F
100
AcDbEntity
  8
Default
100
AcDbCircle
 10
-11.72969687447068
 20
15.81908542777598
 30
0.0
 40
0.2604120524412952
100
AcDbArc
 50
229.5418767602044
 51
298.6861475737408
  0
ARC
  5
2E4
330
1F
100
AcDbEntity
  8
Default
100
AcDbCircle
 10
-12.23003005697221
 20
15.54400209470364
 30
0.0
 40
0.3401694883690537
100
AcDbArc
 50
336.8818522289998
 51
13.07251165514914
  0
ARC
  5
2E5
330
1F
100
AcDbEntity
  8
Default
100
AcDbCircle
 10
-11.97152386223437
 20
15.28544441073293
 30
0.0
 40
0.136300894002231
100
AcDbArc
 50
66.50143432405166
 51
100.334676365602
  0
ARC
  5
2E6
330
1F
100
AcDbEntity
  8
Default
100
AcDbCircle
 10
-12.25671024112954
 20
15.42332567262228
 30
0.0
 40
0.2607618870113086
100
AcDbArc
 50
310.6569603965419
 51
359.166857481341
  0
ARC
  5
2E7
330
1F
100
AcDbEntity
  8
Default
100
AcDbCircle
 10
-13.34431835349757
 20
15.00786085350687
 30
0.0
 40
1.276197626143968
100
AcDbArc
 50
346.4162742183256
 51
9.819301960203328
  0
ARC
  5
2E8
330
1F
100
AcDbEntity
  8
Default
100
AcDbCircle
 10
-12.20102162042739
 20
14.7316119876309
 30
0.0
 40
0.0999999999999989
100
AcDbArc
 50
274.3996755766608
 51
346.4162742183269
  0
ARC
  5
2E9
330
1F
100
AcDbEntity
  8
Default
100
AcDbCircle
 10
-12.25681395427907
 20
15.45675175334521
 30
0.0
 40
0.8272829327963243
100
AcDbArc
 50
252.2480299332331
 51
274.3996755766615
  0
ARC
  5
2EA
330
1F
100
AcDbEntity
  8
Default
100
AcDbCircle
 10
-11.91874730389148
 20
14.38122520171738
 30
0.0
 40
0.6566513011012987
100
AcDbArc
 50
154.0216030746328
 51
170.8689039709938
  0
ARC
  5
2EB
330
1F
100
AcDbEntity
  8
Default
100
AcDbCircle
 10
-12.80535641674576
 20
14.5711204253979
 30
0.0
 40
0.2532181487301083
100
AcDbArc
 50
262.5776599520817
 51
340.2206681880675
  0
ARC
  5
2EC
330
1F
100
AcDbEntity
  8
Default
100
AcDbCircle
 10
-12.92133007041533
 20
14.10185800091932
 30
0.0
 40
0.2335145290670694
100
AcDbArc
 50
69.11080518750546
 51
95.16656779036425
  0
ARC
  5
2ED
330
1F
100
AcDbEntity
  8
Default
100
AcDbCircle
 10
-13.09852479110988
 20
14.22287636160461
 30
0.0
 40
0.191913447071254
100
AcDbArc
 50
329.4414280520233
 51
35.53767779197642
  0
ARC
  5
2EE
330
1F
100
AcDbEntity
  8
Default
100
AcDbCircle
 10
-13.19862535225896
 20
14.41719897098462
 30
0.0
 40
0.3944846981656965
100
AcDbArc
 50
228.3848759216016
 51
312.273689006092
  0
ARC
  5
2EF
330
1F
100
AcDbEntity
  8
Default
100
AcDbCircle
 10
-12.36998927261791
 20
15.78099780033562
 30
0.0
 40
1.985151145207232
100
AcDbArc
 50
216.1062217606418
 51
236.6748088435901
  0
ARC
  5
2F0
330
1F
100
AcDbEntity
  8
Default
100
AcDbCircle
 10
-14.0094278979522
 20
14.4688453936494
 30
0.0
 40
0.1467149550349355
100
AcDbArc
 50
75.96375653207167
 51
130.2200295966202
  0
ARC
  5
2F1
330
1F
100
AcDbEntity
  8
Default
100
AcDbCircle
 10
-14.24951549183871
 20
14.59702259635619
 30
0.0
 40
0.1462446005120441
100
AcDbArc
 50
305.4091019069905
 51
353.6598082540906
  0
ARC
  5
2F2
330
1F
100
AcDbEntity
  8
Default
100
AcDbCircle
 10
-13.6719424025008
 20
14.46266378897346
 30
0.0
 40
0.4930706502170434
100
AcDbArc
 50
178.2376089763401
 51
216.5983326080656
  0
ARC
  5
2F3
330
1F
100
AcDbEntity
  8
Default
100
AcDbCircle
 10
-12.99708972013918
 20
14.9803557507383
 30
0.0
 40
1.34358017799567
100
AcDbArc
 50
217.1643547997538
 51
236.0112993942423
  0
ARC
  5
2F4
330
1F
100
AcDbEntity
  8
Default
100
AcDbCircle
 10
-13.41277289847498
 20
14.36381785542551
 30
0.0
 40
0.5999999999999972
100
AcDbArc
 50
236.0112993942428
 51
271.7626584299744
  0
ARC
  5
2F5
330
1F
100
AcDbEntity
  8
Default
100
AcDbCircle
 10
30.58741440232678
 20
-18.31060382278826
 30
0.0
 40
1.04931518209214
100
AcDbArc
 50
124.3711283644557
 51
179.9999999999977
  0
POLYLINE
  5
2F6
330
1F
100
AcDbEntity
  8
Default
100
AcDb2dPolyline
 66
     1
 10
0.0
 20
0.0
 30
0.0
  0
VERTEX
  5
2F7
330
2F6
100
AcDbEntity
  8
Default
100
AcDbVertex
100
AcDb2dVertex
 10
29.99502230661164
 20
-17.44450108274913
 30
0.0
  0
VERTEX
  5
2F8
330
2F6
100
AcDbEntity
  8
Default
100
AcDbVertex
100
AcDb2dVertex
 10
32.90958714862979
 20
-18.3106038227884
 30
0.0
  0
SEQEND
  5
2F9
330
2F6
100
AcDbEntity
  8
Default
  0
POLYLINE
  5
2FA
330
1F
100
AcDbEntity
  8
Default
100
AcDb2dPolyline
 66
     1
 10
0.0
 20
0.0
 30
0.0
  0
VERTEX
  5
2FB
330
2FA
100
AcDbEntity
  8
Default
100
AcDbVertex
100
AcDb2dVertex
 10
32.90958714862979
 20
-18.3106038227884
 30
0.0
  0
VERTEX
  5
2FC
330
2FA
100
AcDbEntity
  8
Default
100
AcDbVertex
100
AcDb2dVertex
 10
29.99502230661161
 20
-19.17670656282754
 30
0.0
  0
SEQEND
  5
2FD
330
2FA
100
AcDbEntity
  8
Default
  0
ARC
  5
2FE
330
1F
100
AcDbEntity
  8
Default
100
AcDbCircle
 10
30.58741440232678
 20
-18.31060382278844
 30
0.0
 40
1.049315182092138
100
AcDbArc
 50
179.9999999999876
 51
235.6288716355421
  0
POLYLINE
  5
2FF
330
1F
100
AcDbEntity
  8
Default
100
AcDb2dPolyline
 66
     1
 10
0.0
 20
0.0
 30
0.0
  0
VERTEX
  5
300
330
2FF
100
AcDbEntity
  8
Default
100
AcDbVertex
100
AcDb2dVertex
 10
-20.25429236484514
 20
18.64817938889787
 30
0.0
  0
VERTEX
  5
301
330
2FF
100
AcDbEntity
  8
Default
100
AcDbVertex
100
AcDb2dVertex
 10
-20.79392950559909
 20
19.14313060842932
 30
0.0
  0
SEQEND
  5
302
330
2FF
100
AcDbEntity
  8
Default
  0
ARC
  5
303
330
1F
100
AcDbEntity
  8
Default
100
AcDbCircle
 10
-23.14812083821955
 20
18.73331859455905
 30
0.0
 40
2.389594676362021
100
AcDbArc
 50
345.7255999522164
 51
9.874959154124394
  0
ARC
  5
304
330
1F
100
AcDbEntity
  8
Default
100
AcDbCircle
 10
-23.53819218906816
 20
16.48903022671271
 30
0.0
 40
3.171936318406944
100
AcDbArc
 50
343.233388625371
 51
31.45262760864257
  0
ARC
  5
305
330
1F
100
AcDbEntity
  8
Default
100
AcDbCircle
 10
-20.60488926021826
 20
13.02651536865785
 30
0.0
 40
2.549607406052359
100
AcDbArc
 50
64.3693432843329
 51
87.66700661196715
  0
ARC
  5
306
330
1F
100
AcDbEntity
  8
Default
100
AcDbCircle
 10
-18.91953102478228
 20
14.63256663856102
 30
0.0
 40
0.9050328636199443
100
AcDbArc
 50
47.24344098172902
 51
130.0607844578738
  0
ARC
  5
307
330
1F
100
AcDbEntity
  8
Default
100
AcDbCircle
 10
-17.86932326870034
 20
6.242236916876138
 30
0.0
 40
9.065326366072938
100
AcDbArc
 50
84.24548122354219
 51
92.75542470050273
  0
ARC
  5
308
330
1F
100
AcDbEntity
  8
Default
100
AcDbCircle
 10
-17.02130069911004
 20
15.43450402246673
 30
0.0
 40
0.1830606486896167
100
AcDbArc
 50
289.4400348281761
 51
47.40215010250672
  0
POLYLINE
  5
309
330
1F
100
AcDbEntity
  8
Default
100
AcDb2dPolyline
 66
     1
 10
0.0
 20
0.0
 30
0.0
  0
VERTEX
  5
30A
330
309
100
AcDbEntity
  8
Default
100
AcDbVertex
100
AcDb2dVertex
 10
-16.89739640179824
 20
15.56925908250655
 30
0.0
  0
VERTEX
  5
30B
330
309
100
AcDbEntity
  8
Default
100
AcDbVertex
100
AcDb2dVertex
 10
-19.82316961799849
 20
18.25275677395077
 30
0.0
  0
SEQEND
  5
30C
330
309
100
AcDbEntity
  8
Default
  0
LINE
  5
30D
330
1F
100
AcDbEntity
  8
Default
100
AcDbLine
 10
-19.82316961799849
 20
18.25275677395077
 30
0.0
 11
-19.86804930949608
 21
17.95485305392083
 31
0.0
  0
POLYLINE
  5
30E
330
1F
100
AcDbEntity
  8
Default
100
AcDb2dPolyline
 66
     1
 10
0.0
 20
0.0
 30
0.0
  0
VERTEX
  5
30F
330
30E
100
AcDbEntity
  8
Default
100
AcDbVertex
100
AcDb2dVertex
 10
-19.86804930949608
 20
17.95485305392083
 30
0.0
  0
VERTEX
  5
310
330
30E
100
AcDbEntity
  8
Default
100
AcDbVertex
100
AcDb2dVertex
 10
-20.29917205634273
 20
18.35027566886792
 30
0.0
  0
SEQEND
  5
311
330
30E
100
AcDbEntity
  8
Default
  0
LINE
  5
312
330
1F
100
AcDbEntity
  8
Default
100
AcDbLine
 10
-20.29917205634273
 20
18.35027566886792
 30
0.0
 11
-20.25429236484514
 21
18.64817938889787
 31
0.0
  0
ARC
  5
313
330
1F
100
AcDbEntity
  8
Default
100
AcDbCircle
 10
-12.90506653688006
 20
16.80731616049811
 30
0.0
 40
0.1738183909804314
100
AcDbArc
 50
333.3200013721515
 51
57.17145820858789
  0
ARC
  5
314
330
1F
100
AcDbEntity
  8
Default
100
AcDbCircle
 10
-12.74975490519502
 20
15.73130927316182
 30
0.0
 40
0.997961194909653
100
AcDbArc
 50
90.0000000000001
 51
109.1862685254607
  0
ARC
  5
315
330
1F
100
AcDbEntity
  8
Default
100
AcDbCircle
 10
-13.14476596288656
 20
16.61945455872744
 30
0.0
 40
0.0863256630378633
100
AcDbArc
 50
342.5304714263388
 51
39.04939253878684
  0
ARC
  5
316
330
1F
100
AcDbEntity
  8
Default
100
AcDbCircle
 10
-13.1543485280839
 20
15.88319775581261
 30
0.0
 40
0.7162654589034216
100
AcDbArc
 50
82.62623363867021
 51
99.97767170648827
  0
ARC
  5
317
330
1F
100
AcDbEntity
  8
Default
100
AcDbCircle
 10
-13.38904440003932
 20
16.55545217604184
 30
0.0
 40
0.1154620426185095
100
AcDbArc
 50
339.4824509000153
 51
16.69924423399075
  0
ARC
  5
318
330
1F
100
AcDbEntity
  8
Default
100
AcDbCircle
 10
-12.75861912059695
 20
16.19026105273696
 30
0.0
 40
0.6150031870657144
100
AcDbArc
 50
148.1295056377359
 51
176.4081145784304
  0
ARC
  5
319
330
1F
100
AcDbEntity
  8
Default
100
AcDbCircle
 10
-14.14279782719209
 20
15.64754187449099
 30
0.0
 40
0.9650600429177022
100
AcDbArc
 50
37.03427725861847
 51
60.98075504053841
  0
ARC
  5
31A
330
1F
100
AcDbEntity
  8
Default
100
AcDbCircle
 10
-13.63638256090166
 20
16.32139458457683
 30
0.0
 40
0.1743018879650705
100
AcDbArc
 50
102.6803834918197
 51
171.13792137417
  0
ARC
  5
31B
330
1F
100
AcDbEntity
  8
Default
100
AcDbCircle
 10
-13.88204315070617
 20
16.17280808853945
 30
0.0
 40
0.1901897590866497
100
AcDbArc
 50
67.2855876468329
 51
139.0595191998212
  0
ARC
  5
31C
330
1F
100
AcDbEntity
  8
Default
100
AcDbCircle
 10
-13.82725192451774
 20
16.27262727177733
 30
0.0
 40
0.2000032494663508
100
AcDbArc
 50
172.8749836510977
 51
249.782402084511
  0
ARC
  5
31D
330
1F
100
AcDbEntity
  8
Default
100
AcDbCircle
 10
-14.13079711183086
 20
16.57418533061741
 30
0.0
 40
0.5425036560967131
100
AcDbArc
 50
258.0833592738218
 51
295.6021875514427
  0
ARC
  5
31E
330
1F
100
AcDbEntity
  8
Default
100
AcDbCircle
 10
-14.1632559558453
 20
16.37222879547273
 30
0.0
 40
0.3383432128852346
100
AcDbArc
 50
189.5814348906165
 51
256.3994574833405
  0
ARC
  5
31F
330
1F
100
AcDbEntity
  8
Default
100
AcDbCircle
 10
-14.32895017504113
 20
16.24993966866412
 30
0.0
 40
0.1804231468125406
100
AcDbArc
 50
72.65211142998895
 51
158.5522636728944
  0
ARC
  5
320
330
1F
100
AcDbEntity
  8
Default
100
AcDbCircle
 10
-14.38280115711728
 20
16.77585711122346
 30
0.0
 40
0.3697199288138405
100
AcDbArc
 50
286.9275130641463
 51
348.0515927798506
  0
ARC
  5
321
330
1F
100
AcDbEntity
  8
Default
100
AcDbCircle
 10
-13.90827588999342
 20
17.81336709526393
 30
0.0
 40
1.119751013406276
100
AcDbArc
 50
264.2176076776361
 51
290.4204310735448
  0
ARC
  5
322
330
1F
100
AcDbEntity
  8
Default
100
AcDbCircle
 10
-13.24711127096894
 20
16.82408977334125
 30
0.0
 40
0.2770744491035502
100
AcDbArc
 50
160.5347337730155
 51
192.5288077091525
  0
ARC
  5
323
330
1F
100
AcDbEntity
  8
Default
100
AcDbCircle
 10
-13.41073606838899
 20
17.31574707321728
 30
0.0
 40
0.4110837008236736
100
AcDbArc
 50
256.2637316943778
 51
286.2269968391577
  0
ARC
  5
324
330
1F
100
AcDbEntity
  8
Default
100
AcDbCircle
 10
-12.98438427624378
 20
15.90274954357226
 30
0.0
 40
1.064863179465832
100
AcDbArc
 50
80.6202027131744
 51
107.0079469554071
  0
ARC
  5
325
330
1F
100
AcDbEntity
  8
Default
100
AcDbCircle
 10
-12.54052516507872
 20
15.7367067360969
 30
0.0
 40
0.4283288589800633
100
AcDbArc
 50
237.4259428654273
 51
280.6127571142247
  0
ARC
  5
326
330
1F
100
AcDbEntity
  8
Default
100
AcDbCircle
 10
-8.725028937191283
 20
15.42306105116678
 30
0.0
 40
3.738152722254631
100
AcDbArc
 50
173.4180553448217
 51
181.6457088275211
  0
ARC
  5
327
330
1F
100
AcDbEntity
  8
Default
100
AcDbCircle
 10
-12.55925366993301
 20
16.42060685653865
 30
0.0
 40
0.5817251407086509
100
AcDbArc
 50
260.46161802606
 51
281.9761324442036
  0
ARC
  5
328
330
1F
100
AcDbEntity
  8
Default
100
AcDbCircle
 10
-12.93804213505433
 20
15.89712715885291
 30
0.0
 40
0.2868195713409749
100
AcDbArc
 50
303.3478659854217
 51
349.9194020124584
  0
ARC
  5
329
330
1F
100
AcDbEntity
  8
Default
100
AcDbCircle
 10
-12.53031669792095
 20
15.52469131127582
 30
0.0
 40
0.2831505834329793
100
AcDbArc
 50
152.0205256115201
 51
211.7352292830511
  0
SPLINE
  5
32A
330
1F
100
AcDbEntity
  8
Default
100
AcDbSpline
210
0.0
220
0.0
230
1.0
 70
     8
 71
     3
 72
     8
 73
     4
 74
     0
 42
0.000000001
 43
0.0000000001
 40
2.65574145724915
 40
2.65574145724915
 40
2.65574145724915
 40
2.65574145724915
 40
3.65574145724915
 40
3.65574145724915
 40
3.65574145724915
 40
3.65574145724915
 10
-16.65814651012071
 20
5.191001200730614
 30
0.0
 10
-16.89955418506822
 20
4.397707778638564
 30
0.0
 10
-15.83069785753363
 20
4.193101756293519
 30
0.0
 10
-15.71471387346734
 20
5.036109275309911
 30
0.0
  0
ARC
  5
32B
330
1F
100
AcDbEntity
  8
Default
100
AcDbCircle
 10
-18.77537102598146
 20
5.457205413128214
 30
0.0
 40
3.089489304484049
100
AcDbArc
 50
352.166224177734
 51
49.20193635815964
  0
ARC
  5
32C
330
1F
100
AcDbEntity
  8
Default
100
AcDbCircle
 10
-20.47042374581479
 20
6.351117947062876
 30
0.0
 40
3.984887525001405
100
AcDbArc
 50
343.0744339012797
 51
21.25939546509346
  0
SPLINE
  5
32D
330
1F
100
AcDbEntity
  8
Default
100
AcDbSpline
210
0.0
220
0.0
230
1.0
 70
     8
 71
     3
 72
     8
 73
     4
 74
     0
 42
0.000000001
 43
0.0000000001
 40
5.930723036524927
 40
5.930723036524927
 40
5.930723036524927
 40
5.930723036524927
 40
6.930723036524927
 40
6.930723036524927
 40
6.930723036524927
 40
6.930723036524927
 10
-18.08460561354039
 20
0.0102612322283511
 30
0.0
 10
-18.24395710132141
 20
-0.6237810599117566
 30
0.0
 10
-18.98999053997747
 20
-0.3073058127378886
 30
0.0
 10
-18.8039405736073
 20
0.3249137233357189
 30
0.0
  0
ARC
  5
32E
330
1F
100
AcDbEntity
  8
Default
100
AcDbCircle
 10
-41.10497270280477
 20
6.887675613651846
 30
0.0
 40
23.2466315335466
100
AcDbArc
 50
343.6018650506813
 51
357.5485214477435
  0
ARC
  5
32F
330
1F
100
AcDbEntity
  8
Default
100
AcDbCircle
 10
-31.68899349409838
 20
3.429401368448087
 30
0.0
 40
14.02746908304495
100
AcDbArc
 50
345.8922588928272
 51
10.11654321968516
  0
SPLINE
  5
330
330
1F
100
AcDbEntity
  8
Default
100
AcDbSpline
210
0.0
220
0.0
230
1.0
 70
     8
 71
     3
 72
     8
 73
     4
 74
     0
 42
0.000000001
 43
0.0000000001
 40
9.214674895971491
 40
9.214674895971491
 40
9.214674895971491
 40
9.214674895971491
 40
10.21467489597149
 40
10.21467489597149
 40
10.21467489597149
 40
10.21467489597149
 10
-20.30400908330536
 20
-0.857197600809597
 30
0.0
 10
-20.60066440049554
 20
-1.792742322015104
 30
0.0
 10
-21.7270114660728
 20
-1.069385413761761
 30
0.0
 10
-21.37234427414213
 20
-0.1461720177646715
 30
0.0
  0
ARC
  5
331
330
1F
100
AcDbEntity
  8
Default
100
AcDbCircle
 10
-71.69017277474775
 20
19.18422658318318
 30
0.0
 40
53.90313696889899
100
AcDbArc
 50
338.9849224725813
 51
348.2581883927382
  0
ARC
  5
332
330
1F
100
AcDbEntity
  8
Default
100
AcDbCircle
 10
-48.61401124430288
 20
8.119725127057224
 30
0.0
 40
29.69918120113375
100
AcDbArc
 50
342.4065077662821
 51
0.1834955407519233
  0
SPLINE
  5
333
330
1F
100
AcDbEntity
  8
Default
100
AcDbSpline
210
0.0
220
0.0
230
1.0
 70
     8
 71
     3
 72
     8
 73
     4
 74
     0
 42
0.000000001
 43
0.0000000001
 40
3.738458251059952
 40
3.738458251059952
 40
3.738458251059952
 40
3.738458251059952
 40
4.738458251059952
 40
4.738458251059952
 40
4.738458251059952
 40
4.738458251059952
 10
-22.60157688028917
 20
2.772777165309547
 30
0.0
 10
-23.17504653785477
 20
2.41467490112804
 30
0.0
 10
-23.42614264383253
 20
3.322605329198942
 30
0.0
 10
-22.82687422635565
 20
3.645804381317146
 30
0.0
  0
ARC
  5
334
330
1F
100
AcDbEntity
  8
Default
100
AcDbCircle
 10
-24.99494935259721
 20
7.665800545781686
 30
0.0
 40
4.567375495329562
100
AcDbArc
 50
298.3389918928521
 51
336.9519046211489
  0
ARC
  5
335
330
1F
100
AcDbEntity
  8
Default
100
AcDbCircle
 10
-24.64318171586471
 20
6.042229897248523
 30
0.0
 40
3.85453907374522
100
AcDbArc
 50
301.9826547350321
 51
357.5529513576764
  0
SPLINE
  5
336
330
1F
100
AcDbEntity
  8
Default
100
AcDbSpline
210
0.0
220
0.0
230
1.0
 70
     8
 71
     3
 72
     8
 73
     4
 74
     0
 42
0.000000001
 43
0.0000000001
 40
4.131183446136001
 40
4.131183446136001
 40
4.131183446136001
 40
4.131183446136001
 40
5.131183446136001
 40
5.131183446136001
 40
5.131183446136001
 40
5.131183446136001
 10
-22.45625890293384
 20
7.56030492557033
 30
0.0
 10
-23.12124061718576
 20
7.424439048416533
 30
0.0
 10
-23.26150641256629
 20
8.081429473022366
 30
0.0
 10
-22.62935699358388
 20
8.29577699433512
 30
0.0
  0
ARC
  5
337
330
1F
100
AcDbEntity
  8
Default
100
AcDbCircle
 10
-24.36341493244821
 20
13.40982595474032
 30
0.0
 40
5.400042009536588
100
AcDbArc
 50
288.7306314736825
 51
326.4065525839723
  0
ARC
  5
338
330
1F
100
AcDbEntity
  8
Default
100
AcDbCircle
 10
-23.10900478104354
 20
10.75510322290074
 30
0.0
 40
3.260799494298063
100
AcDbArc
 50
281.5474678367859
 51
354.1368362637021
  0
SPLINE
  5
339
330
1F
100
AcDbEntity
  8
Default
100
AcDbSpline
210
0.0
220
0.0
230
1.0
 70
     8
 71
     3
 72
     8
 73
     4
 74
     0
 42
0.000000001
 43
0.0000000001
 40
2.222420789299891
 40
2.222420789299891
 40
2.222420789299891
 40
2.222420789299891
 40
3.222420789299892
 40
3.222420789299892
 40
3.222420789299892
 40
3.222420789299892
 10
-13.6016711140381
 20
12.39446217998909
 30
0.0
 10
-13.18480835866517
 20
12.3658123158696
 30
0.0
 10
-13.30650625866969
 20
11.87045084303913
 30
0.0
 10
-13.72335949540116
 20
11.89901662729661
 30
0.0
  0
ARC
  5
33A
330
1F
100
AcDbEntity
  8
Default
100
AcDbCircle
 10
-13.61503213345247
 20
13.47981031557316
 30
0.0
 40
1.584501026267185
100
AcDbArc
 50
221.5317707410829
 51
266.0798094864171
  0
SPLINE
  5
33B
330
1F
100
AcDbEntity
  8
Default
100
AcDbSpline
210
0.0
220
0.0
230
1.0
 70
     8
 71
     3
 72
     8
 73
     4
 74
     0
 42
0.000000001
 43
0.0000000001
 40
4.454386105245289
 40
4.454386105245289
 40
4.454386105245289
 40
4.454386105245289
 40
5.454386105245289
 40
5.454386105245289
 40
5.454386105245289
 40
5.454386105245289
 10
-14.80117087318833
 20
12.42923028894997
 30
0.0
 10
-14.91956216518221
 20
12.562897876685
 30
0.0
 10
-14.91688388904356
 20
12.81523446236639
 30
0.0
 10
-14.76640276422745
 20
12.73345124235764
 30
0.0
  0
ARC
  5
33C
330
1F
100
AcDbEntity
  8
Default
100
AcDbCircle
 10
-13.40638818712473
 20
15.23587806422664
 30
0.0
 40
2.848118615637569
100
AcDbArc
 50
241.4768813936879
 51
266.068396519281
  0
CIRCLE
  5
33D
330
1F
100
AcDbEntity
  8
Default
100
AcDbCircle
 10
-15.67951905757925
 20
13.16200308595625
 30
0.0
 40
0.2448664557949796
  0
SPLINE
  5
33E
330
1F
100
AcDbEntity
  8
Default
100
AcDbSpline
210
0.0
220
0.0
230
1.0
 70
     8
 71
     3
 72
     8
 73
     4
 74
     0
 42
0.000000001
 43
0.0000000001
 40
2.699821954561537
 40
2.699821954561537
 40
2.699821954561537
 40
2.699821954561537
 40
3.699821954561537
 40
3.699821954561537
 40
3.699821954561537
 40
3.699821954561537
 10
-19.66998767314354
 20
11.85675821717634
 30
0.0
 10
-19.56025061024051
 20
11.88400141334974
 30
0.0
 10
-19.48424251332902
 20
12.00336181574963
 30
0.0
 10
-19.43440339106651
 20
12.12005829714479
 30
0.0
  0
ARC
  5
33F
330
1F
100
AcDbEntity
  8
Default
100
AcDbCircle
 10
-18.817832035528
 20
11.85673094738355
 30
0.0
 40
0.6704487524060796
100
AcDbArc
 50
97.04830236732835
 51
156.8734796112514
  0
ARC
  5
340
330
1F
100
AcDbEntity
  8
Default
100
AcDbCircle
 10
-18.82739175347481
 20
11.58767372163439
 30
0.0
 40
0.9372638752237951
100
AcDbArc
 50
23.53159162209862
 51
94.44919974661242
  0
ARC
  5
341
330
1F
100
AcDbEntity
  8
Default
100
AcDbCircle
 10
-8.865814006777192
 20
14.96103327720276
 30
0.0
 40
9.583631497585698
100
AcDbArc
 50
198.2368188892787
 51
232.4314079711726
  0
SPLINE
  5
342
330
1F
100
AcDbEntity
  8
Default
100
AcDbSpline
210
0.0
220
0.0
230
1.0
 70
     8
 71
     3
 72
     8
 73
     4
 74
     0
 42
0.000000001
 43
0.0000000001
 40
11.2795524743483
 40
11.2795524743483
 40
11.2795524743483
 40
11.2795524743483
 40
12.2795524743483
 40
12.2795524743483
 40
12.2795524743483
 40
12.2795524743483
 10
-14.70905725887323
 20
7.364817049477885
 30
0.0
 10
-14.4921530898966
 20
7.197967688726624
 30
0.0
 10
-14.75370721409931
 20
6.979042858990137
 30
0.0
 10
-14.97401769905672
 20
7.139600675321927
 30
0.0
  0
ARC
  5
343
330
1F
100
AcDbEntity
  8
Default
100
AcDbCircle
 10
-9.521919139232656
 20
14.62073429555145
 30
0.0
 40
9.257037266305248
100
AcDbArc
 50
197.4639268918428
 51
233.9161927581851
  0
ARC
  5
344
330
1F
100
AcDbEntity
  8
Default
100
AcDbCircle
 10
-18.80857432640261
 20
11.64479349949941
 30
0.0
 40
0.4973593661728442
100
AcDbArc
 50
23.44139991568111
 51
141.0978418220841
  0
ARC
  5
345
330
1F
100
AcDbEntity
  8
Default
100
AcDbCircle
 10
-21.3218529168398
 20
13.68218091469512
 30
0.0
 40
2.73799628790205
100
AcDbArc
 50
304.5439870141565
 51
320.9468630539738
  0
ARC
  5
346
330
1F
100
AcDbEntity
  8
Default
100
AcDbCircle
 10
-19.94996250276408
 20
11.75289052568455
 30
0.0
 40
0.3726877595191368
100
AcDbArc
 50
190.0773503621378
 51
298.9959595141187
  0
ARC
  5
347
330
1F
100
AcDbEntity
  8
Default
100
AcDbCircle
 10
-21.15451072606381
 20
10.52319616533051
 30
0.0
 40
1.434437150829712
100
AcDbArc
 50
54.27260177720035
 51
88.48423948982432
  0
ARC
  5
348
330
1F
100
AcDbEntity
  8
Default
100
AcDbCircle
 10
-22.03526211348717
 20
12.4716005944045
 30
0.0
 40
1.052938313061957
100
AcDbArc
 50
330.7511736634529
 51
20.19117786268227
  0
ARC
  5
349
330
1F
100
AcDbEntity
  8
Default
100
AcDbCircle
 10
-21.12738899514258
 20
12.96093896333116
 30
0.0
 40
0.1493702300088021
100
AcDbArc
 50
250.8564561068389
 51
302.5461959699516
  0
ARC
  5
34A
330
1F
100
AcDbEntity
  8
Default
100
AcDbCircle
 10
-20.45142845313222
 20
13.16348540069007
 30
0.0
 40
0.8022743792329659
100
AcDbArc
 50
120.2088893944078
 51
205.3630708842737
  0
SPLINE
  5
34B
330
1F
100
AcDbEntity
  8
Default
100
AcDbSpline
210
0.0
220
0.0
230
1.0
 70
     8
 71
     3
 72
     8
 73
     4
 74
     0
 42
0.000000001
 43
0.0000000001
 40
23.77482863308196
 40
23.77482863308196
 40
23.77482863308196
 40
23.77482863308196
 40
24.77482863308196
 40
24.77482863308196
 40
24.77482863308196
 40
24.77482863308196
 10
-20.8550960419102
 20
13.85680831055516
 30
0.0
 10
-20.76437331380274
 20
13.90962904441729
 30
0.0
 10
-20.68572311733704
 20
13.95306406364417
 30
0.0
 10
-20.62875035913031
 20
13.88914340809515
 30
0.0
  0
ARC
  5
34C
330
1F
100
AcDbEntity
  8
Default
100
AcDbCircle
 10
-19.60708834209162
 20
14.7997552058905
 30
0.0
 40
1.368578504633049
100
AcDbArc
 50
221.7107573215081
 51
268.2258684368595
  0
ARC
  5
34D
330
1F
100
AcDbEntity
  8
Default
100
AcDbCircle
 10
-21.15673675115395
 20
14.49288990715837
 30
0.0
 40
1.843292984442911
100
AcDbArc
 50
324.8561444444009
 51
6.936645444230863
  0
SPLINE
  5
34E
330
1F
100
AcDbEntity
  8
Default
100
AcDbSpline
210
0.0
220
0.0
230
1.0
 70
     8
 71
     3
 72
     8
 73
     4
 74
     0
 42
0.000000001
 43
0.0000000001
 40
27.2396920957681
 40
27.2396920957681
 40
27.2396920957681
 40
27.2396920957681
 40
28.2396920957681
 40
28.2396920957681
 40
28.2396920957681
 40
28.2396920957681
 10
-19.32693611592943
 20
14.71550765539156
 30
0.0
 10
-19.35112065205458
 20
14.91429180407515
 30
0.0
 10
-19.06173532609281
 20
14.86288176825637
 30
0.0
 10
-19.06643605954007
 20
14.65918331887494
 30
0.0
  0
ARC
  5
34F
330
1F
100
AcDbEntity
  8
Default
100
AcDbCircle
 10
-22.95573506199741
 20
14.74893637277779
 30
0.0
 40
3.890334476777098
100
AcDbArc
 50
321.6627533935537
 51
358.6780243404632
  0
SPLINE
  5
350
330
1F
100
AcDbEntity
  8
Default
100
AcDbSpline
210
0.0
220
0.0
230
1.0
 70
     8
 71
     3
 72
     8
 73
     4
 74
     0
 42
0.000000001
 43
0.0000000001
 40
30.75299736808972
 40
30.75299736808972
 40
30.75299736808972
 40
30.75299736808972
 40
31.75299736808972
 40
31.75299736808972
 40
31.75299736808972
 40
31.75299736808972
 10
-19.90426056522479
 20
12.33580443756438
 30
0.0
 10
-20.07423465555836
 20
12.12086732857488
 30
0.0
 10
-20.50099339511774
 20
12.51259371074336
 30
0.0
 10
-20.2444708629706
 20
12.57896211616744
 30
0.0
  0
ARC
  5
351
330
1F
100
AcDbEntity
  8
Default
100
AcDbCircle
 10
-20.37048045841333
 20
13.06600561662913
 30
0.0
 40
0.5030803012299512
100
AcDbArc
 50
284.5056875346351
 51
2.986636990475286
  0
SPLINE
  5
352
330
1F
100
AcDbEntity
  8
Default
100
AcDbSpline
210
0.0
220
0.0
230
1.0
 70
     8
 71
     3
 72
     8
 73
     4
 74
     0
 42
0.000000001
 43
0.0000000001
 40
32.44209209772931
 40
32.44209209772931
 40
32.44209209772931
 40
32.44209209772931
 40
33.44209209772931
 40
33.44209209772931
 40
33.44209209772931
 40
33.44209209772931
 10
-19.86808348419829
 20
13.09221763267513
 30
0.0
 10
-19.87132196336334
 20
13.15428848333855
 30
0.0
 10
-19.95909055945695
 20
13.16474227203771
 30
0.0
 10
-20.02532486458202
 20
13.21276214325339
 30
0.0
  0
ARC
  5
353
330
1F
100
AcDbEntity
  8
Default
100
AcDbCircle
 10
-20.41222510414197
 20
12.67910664041207
 30
0.0
 40
0.6591509622873664
100
AcDbArc
 50
54.05788812861861
 51
90.57332781826587
  0
ARC
  5
354
330
1F
100
AcDbEntity
  8
Default
100
AcDbCircle
 10
-20.66299757637613
 20
13.14830930166259
 30
0.0
 40
0.3093382275107446
100
AcDbArc
 50
37.87498365109771
 51
139.3971612856968
  0
ARC
  5
355
330
1F
100
AcDbEntity
  8
Default
100
AcDbCircle
 10
-20.68845041317364
 20
13.25141518463972
 30
0.0
 40
0.2312969152657686
100
AcDbArc
 50
154.8728944320218
 51
257.1062559551173
  0
ARC
  5
356
330
1F
100
AcDbEntity
  8
Default
100
AcDbCircle
 10
-19.29904340030892
 20
12.64844723026338
 30
0.0
 40
1.489646146002653
100
AcDbArc
 50
165.3201390240598
 51
194.4346623190115
  0
SPLINE
  5
357
330
1F
100
AcDbEntity
  8
Default
100
AcDbSpline
210
0.0
220
0.0
230
1.0
 70
     8
 71
     3
 72
     8
 73
     4
 74
     0
 42
0.000000001
 43
0.0000000001
 40
35.57995421095701
 40
35.57995421095701
 40
35.57995421095701
 40
35.57995421095701
 40
36.57995421095701
 40
36.57995421095701
 40
36.57995421095701
 40
36.57995421095701
 10
-20.74166519161161
 20
12.27711448519614
 30
0.0
 10
-20.71892519428235
 20
12.18876995830716
 30
0.0
 10
-20.64135978681063
 20
12.08716377881454
 30
0.0
 10
-20.56613180496598
 20
12.03229160382197
 30
0.0
  0
ARC
  5
358
330
1F
100
AcDbEntity
  8
Default
100
AcDbCircle
 10
-19.9300566585408
 20
12.90433011101777
 30
0.0
 40
1.079371460588102
100
AcDbArc
 50
233.8925487082479
 51
283.9423123656923
  0
SPLINE
  5
359
330
1F
100
AcDbEntity
  8
Default
100
AcDbSpline
210
0.0
220
0.0
230
1.0
 70
     8
 71
     3
 72
     8
 73
     4
 74
     0
 42
0.000000001
 43
0.0000000001
 40
1.950069663882834
 40
1.950069663882834
 40
1.950069663882834
 40
1.950069663882834
 40
2.950069663882834
 40
2.950069663882834
 40
2.950069663882834
 40
2.950069663882834
 10
-16.86753894529493
 20
13.64021324496586
 30
0.0
 10
-16.72978871846668
 20
13.61943857856795
 30
0.0
 10
-16.99036267966386
 20
13.44328299873033
 30
0.0
 10
-17.1280390016843
 20
13.46419969335142
 30
0.0
  0
ARC
  5
35A
330
1F
100
AcDbEntity
  8
Default
100
AcDbCircle
 10
-16.89045766523088
 20
15.02799001376965
 30
0.0
 40
1.581734825330961
100
AcDbArc
 50
195.2551187030578
 51
261.3613083646864
  0
SPLINE
  5
35B
330
1F
100
AcDbEntity
  8
Default
100
AcDbSpline
210
0.0
220
0.0
230
1.0
 70
     8
 71
     3
 72
     8
 73
     4
 74
     0
 42
0.000000001
 43
0.0000000001
 40
4.775028906017882
 40
4.775028906017882
 40
4.775028906017882
 40
4.775028906017882
 40
5.775028906017882
 40
5.775028906017882
 40
5.775028906017882
 40
5.775028906017882
 10
-18.41645819950197
 20
14.61180804987754
 30
0.0
 10
-18.46483796382597
 20
14.78920051906552
 30
0.0
 10
-18.43821948629516
 20
14.93643883076799
 30
0.0
 10
-18.26860681614584
 20
14.88638919039606
 30
0.0
  0
ARC
  5
35C
330
1F
100
AcDbEntity
  8
Default
100
AcDbCircle
 10
-18.42030239989717
 20
14.37230971212767
 30
0.0
 40
0.5359937127489008
100
AcDbArc
 50
19.98331900174879
 51
73.55962047831987
  0
ARC
  5
35D
330
1F
100
AcDbEntity
  8
Default
100
AcDbCircle
 10
-16.4756507102903
 20
15.13964411983118
 30
0.0
 40
1.55483753849017
100
AcDbArc
 50
202.0678995624099
 51
235.9470455418318
  0
ARC
  5
35E
330
1F
100
AcDbEntity
  8
Default
100
AcDbCircle
 10
-16.71900621915839
 20
14.62508666362081
 30
0.0
 40
0.9960108541108589
100
AcDbArc
 50
230.9644871012529
 51
261.4236258618326
  0
SPLINE
  5
35F
330
1F
100
AcDbEntity
  8
Default
100
AcDbSpline
210
0.0
220
0.0
230
1.0
 70
     8
 71
     3
 72
     8
 73
     4
 74
     0
 42
0.000000001
 43
0.0000000001
 40
0.3243912484376654
 40
0.3243912484376654
 40
0.3243912484376654
 40
0.3243912484376654
 40
1.324391248437665
 40
1.324391248437665
 40
1.324391248437665
 40
1.324391248437665
 10
-16.33843344636194
 20
14.39336509187522
 30
0.0
 10
-15.99490297506662
 20
14.31400363620453
 30
0.0
 10
-16.05697362862968
 20
14.00403680274324
 30
0.0
 10
-16.39919816057813
 20
13.97929362077052
 30
0.0
  0
ARC
  5
360
330
1F
100
AcDbEntity
  8
Default
100
AcDbCircle
 10
-16.45152790671152
 20
14.70306968551544
 30
0.0
 40
0.7256653458916366
100
AcDbArc
 50
198.2813412029726
 51
274.1353474348805
  0
SPLINE
  5
361
330
1F
100
AcDbEntity
  8
Default
100
AcDbSpline
210
0.0
220
0.0
230
1.0
 70
     8
 71
     3
 72
     8
 73
     4
 74
     0
 42
0.000000001
 43
0.0000000001
 40
2.285101166992408
 40
2.285101166992408
 40
2.285101166992408
 40
2.285101166992408
 40
3.285101166992408
 40
3.285101166992408
 40
3.285101166992408
 40
3.285101166992408
 10
-17.14056723997813
 20
14.4754406200613
 30
0.0
 10
-17.2169481456967
 20
14.70664768602021
 30
0.0
 10
-16.99482831426752
 20
14.95802646664081
 30
0.0
 10
-16.88604953218104
 20
14.74022343818854
 30
0.0
  0
ARC
  5
362
330
1F
100
AcDbEntity
  8
Default
100
AcDbCircle
 10
-16.44294109906569
 20
14.96152796287333
 30
0.0
 40
0.4952986736746838
100
AcDbArc
 50
206.5392163902412
 51
248.7135948863414
  0
ARC
  5
363
330
1F
100
AcDbEntity
  8
Default
100
AcDbCircle
 10
-16.85353661208424
 20
14.49179473760328
 30
0.0
 40
0.2309336825625044
100
AcDbArc
 50
328.2483588630179
 51
2.041124040322188
  0
ARC
  5
364
330
1F
100
AcDbEntity
  8
Default
100
AcDbCircle
 10
-16.46038367214602
 20
13.86548139589048
 30
0.0
 40
0.5417869083461727
100
AcDbArc
 50
76.99189343317528
 51
111.2973540490349
  0
SPLINE
  5
365
330
1F
100
AcDbEntity
  8
Default
100
AcDbSpline
210
0.0
220
0.0
230
1.0
 70
     8
 71
     3
 72
     8
 73
     4
 74
     0
 42
0.000000001
 43
0.0000000001
 40
3.320323554099227
 40
3.320323554099227
 40
3.320323554099227
 40
3.320323554099227
 40
4.320323554099227
 40
4.320323554099227
 40
4.320323554099227
 40
4.320323554099227
 10
-12.29209796617909
 20
11.17411649295624
 30
0.0
 10
-11.99359174688377
 20
11.21438226181276
 30
0.0
 10
-12.0585143378914
 20
10.81854548663082
 30
0.0
 10
-12.35482919597448
 20
10.7692149188224
 30
0.0
  0
ARC
  5
366
330
1F
100
AcDbEntity
  8
Default
100
AcDbCircle
 10
-12.87502954681005
 20
13.8939122410026
 30
0.0
 40
3.167702915402512
100
AcDbArc
 50
215.0403608574223
 51
279.4519289551722
  0
SPLINE
  5
367
330
1F
100
AcDbEntity
  8
Default
100
AcDbSpline
210
0.0
220
0.0
230
1.0
 70
     8
 71
     3
 72
     8
 73
     4
 74
     0
 42
0.000000001
 43
0.0000000001
 40
7.88143597429594
 40
7.88143597429594
 40
7.88143597429594
 40
7.88143597429594
 40
8.88143597429594
 40
8.88143597429594
 40
8.88143597429594
 40
8.88143597429594
 10
-15.4685793294545
 20
12.07516506638086
 30
0.0
 10
-15.58296074527876
 20
12.23827399118855
 30
0.0
 10
-15.44361989509464
 20
12.39620410326479
 30
0.0
 10
-15.30319699635757
 20
12.24625023855009
 30
0.0
  0
ARC
  5
368
330
1F
100
AcDbEntity
  8
Default
100
AcDbCircle
 10
-12.7581966473509
 20
14.62949209079786
 30
0.0
 40
3.486670116708698
100
AcDbArc
 50
223.1200694556606
 51
277.6823078951675
  0
ENDSEC
  0
SECTION
  2
OBJECTS
  0
DICTIONARY
  5
C
330
0
100
AcDbDictionary
281
     1
  3
ACAD_DETAILVIEWSTYLE
350
3AE
  3
ACAD_GROUP
350
D
  3
ACAD_LAYOUT
350
1A
  3
ACAD_MATERIAL
350
43
  3
ACAD_MLEADERSTYLE
350
6B
  3
ACAD_MLINESTYLE
350
17
  3
ACAD_PLOTSETTINGS
350
19
  3
ACAD_PLOTSTYLENAME
350
E
  3
ACAD_SCALELIST
350
47
  3
ACAD_SECTIONVIEWSTYLE
350
3AF
  3
ACAD_TABLESTYLE
350
69
  3
ACAD_VISUALSTYLE
350
2A
  3
ACDB_RECOMPOSE_DATA
350
3AB
  3
AcDbVariableDictionary
350
36B
  0
DICTIONARY
  5
369
330
8
100
AcDbDictionary
280
     1
281
     1
  3
ACAD_XREC_ROUNDTRIP
360
36A
  0
DICTIONARY
  5
3AE
102
{ACAD_REACTORS
330
C
102
}
330
C
100
AcDbDictionary
281
     1
  0
DICTIONARY
  5
D
102
{ACAD_REACTORS
330
C
102
}
330
C
100
AcDbDictionary
281
     1
  0
DICTIONARY
  5
1A
102
{ACAD_REACTORS
330
C
102
}
330
C
100
AcDbDictionary
281
     1
  3
Layout1
350
1E
  3
Layout2
350
26
  3
Model
350
22
  0
DICTIONARY
  5
43
102
{ACAD_REACTORS
330
C
102
}
330
C
100
AcDbDictionary
281
     1
  3
ByBlock
350
45
  3
ByLayer
350
44
  3
Global
350
46
  0
DICTIONARY
  5
6B
102
{ACAD_REACTORS
330
C
102
}
330
C
100
AcDbDictionary
281
     1
  3
Standard
350
6C
  0
DICTIONARY
  5
17
102
{ACAD_REACTORS
330
C
102
}
330
C
100
AcDbDictionary
281
     1
  3
Standard
350
18
  0
DICTIONARY
  5
19
102
{ACAD_REACTORS
330
C
102
}
330
C
100
AcDbDictionary
281
     1
  0
ACDBDICTIONARYWDFLT
  5
E
102
{ACAD_REACTORS
330
C
102
}
330
C
100
AcDbDictionary
281
     1
  3
Normal
350
F
100
AcDbDictionaryWithDefault
340
F
  0
DICTIONARY
  5
47
102
{ACAD_REACTORS
330
C
102
}
330
C
100
AcDbDictionary
281
     1
  3
A0
350
48
  3
A1
350
49
  3
A2
350
4A
  3
A3
350
4B
  3
A4
350
4C
  3
A5
350
4D
  3
A6
350
4E
  3
A7
350
4F
  3
A8
350
50
  3
A9
350
51
  3
B0
350
52
  3
B1
350
53
  3
B2
350
54
  3
B3
350
55
  3
B4
350
56
  3
B5
350
57
  3
B6
350
58
  3
B7
350
59
  3
B8
350
5A
  3
B9
350
5B
  3
C0
350
5C
  3
C1
350
5D
  3
C2
350
5E
  3
C3
350
5F
  3
C4
350
60
  3
C5
350
61
  3
C6
350
62
  3
C7
350
63
  3
C8
350
64
  3
C9
350
65
  3
D0
350
66
  3
D1
350
67
  3
D2
350
68
  0
DICTIONARY
  5
3AF
102
{ACAD_REACTORS
330
C
102
}
330
C
100
AcDbDictionary
281
     1
  0
DICTIONARY
  5
69
102
{ACAD_REACTORS
330
C
102
}
330
C
100
AcDbDictionary
281
     1
  3
Standard
350
6A
  0
DICTIONARY
  5
2A
102
{ACAD_REACTORS
330
C
102
}
330
C
100
AcDbDictionary
281
     1
  3
2dWireframe
350
2F
  3
Basic
350
32
  3
Brighten
350
36
  3
ColorChange
350
3A
  3
Conceptual
350
34
  3
Dim
350
35
  3
EdgeColorOff
350
3D
  3
Facepattern
350
39
  3
Flat
350
2B
  3
FlatWithEdges
350
2C
  3
Gouraud
350
2D
  3
GouraudWithEdges
350
2E
  3
Hidden
350
31
  3
JitterOff
350
3B
  3
Linepattern
350
38
  3
OverhangOff
350
3C
  3
Realistic
350
33
  3
Shaded
350
42
  3
Shaded with edges
350
41
  3
Shades of Gray
350
3E
  3
Sketchy
350
3F
  3
Thicken
350
37
  3
Wireframe
350
30
  3
X-Ray
350
40
  0
XRECORD
  5
3AB
102
{ACAD_REACTORS
330
C
102
}
330
C
100
AcDbXrecord
280
     1
 90
        1
330
6A
  0
DICTIONARY
  5
36B
102
{ACAD_REACTORS
330
C
102
}
330
C
100
AcDbDictionary
281
     1
  3
CANNOSCALE
350
36C
  3
CMLEADERSTYLE
350
3AD
  3
CTABLESTYLE
350
3AC
  3
MSLTSCALE
350
36D
  3
XCLIPFRAME
350
36E
  0
XRECORD
  5
36A
102
{ACAD_REACTORS
330
369
102
}
330
369
100
AcDbXrecord
280
     1
102
VTR_0.000_0.000_1.000_1.000_GRIDDISPLAY
 70
     3
102
VTR_0.000_0.000_1.000_1.000_GRIDMAJOR
 70
     5
102
VTR_0.000_0.000_1.000_1.000_DEFAULTLIGHTING
280
     1
102
VTR_0.000_0.000_1.000_1.000_DEFAULTLIGHTINGTYPE
 70
     1
102
VTR_0.000_0.000_1.000_1.000_BRIGHTNESS
141
0.0
102
VTR_0.000_0.000_1.000_1.000_CONTRAST
142
0.0
  0
LAYOUT
  5
1E
102
{ACAD_REACTORS
330
1A
102
}
330
1A
100
AcDbPlotSettings
  1

  2
none_device
  4

  6

 40
0.0
 41
0.0
 42
0.0
 43
0.0
 44
0.0
 45
0.0
 46
0.0
 47
0.0
 48
0.0
 49
0.0
140
0.0
141
0.0
142
1.0
143
1.0
 70
   688
 72
     0
 73
     0
 74
     5
  7

 75
    16
 76
     0
 77
     2
 78
   300
147
1.0
148
0.0
149
0.0
100
AcDbLayout
  1
Layout1
 70
     1
 71
     1
 10
0.0
 20
0.0
 11
12.0
 21
9.0
 12
0.0
 22
0.0
 32
0.0
 14
1.000000000000000E+20
 24
1.000000000000000E+20
 34
1.000000000000000E+20
 15
-1.000000000000000E+20
 25
-1.000000000000000E+20
 35
-1.000000000000000E+20
146
0.0
 13
0.0
 23
0.0
 33
0.0
 16
1.0
 26
0.0
 36
0.0
 17
0.0
 27
1.0
 37
0.0
 76
     0
330
1B
  0
LAYOUT
  5
26
102
{ACAD_REACTORS
330
1A
102
}
330
1A
100
AcDbPlotSettings
  1

  2
none_device
  4

  6

 40
0.0
 41
0.0
 42
0.0
 43
0.0
 44
0.0
 45
0.0
 46
0.0
 47
0.0
 48
0.0
 49
0.0
140
0.0
141
0.0
142
1.0
143
1.0
 70
   688
 72
     0
 73
     0
 74
     5
  7

 75
    16
 76
     0
 77
     2
 78
   300
147
1.0
148
0.0
149
0.0
100
AcDbLayout
  1
Layout2
 70
     1
 71
     2
 10
0.0
 20
0.0
 11
0.0
 21
0.0
 12
0.0
 22
0.0
 32
0.0
 14
0.0
 24
0.0
 34
0.0
 15
0.0
 25
0.0
 35
0.0
146
0.0
 13
0.0
 23
0.0
 33
0.0
 16
1.0
 26
0.0
 36
0.0
 17
0.0
 27
1.0
 37
0.0
 76
     0
330
23
  0
LAYOUT
  5
22
102
{ACAD_REACTORS
330
1A
102
}
330
1A
100
AcDbPlotSettings
  1

  2
none_device
  4
Letter_(8.50_x_11.00_Inches)
  6

 40
6.35
 41
6.35
 42
6.35000508
 43
6.35000508
 44
215.9
 45
279.4
 46
0.0
 47
0.0
 48
0.0
 49
0.0
140
0.0
141
0.0
142
1.0
143
1.0
 70
  1712
 72
     0
 73
     0
 74
     0
  7

 75
     0
 76
     0
 77
     2
 78
   300
147
1.0
148
0.0
149
0.0
100
AcDbLayout
  1
Model
 70
     1
 71
     0
 10
0.0
 20
0.0
 11
12.0
 21
9.0
 12
0.0
 22
0.0
 32
0.0
 14
-29.16374061904804
 24
-25.20598473660278
 34
0.0
 15
36.15535254087732
 25
23.21562226688947
 35
0.0
146
0.0
 13
0.0
 23
0.0
 33
0.0
 16
1.0
 26
0.0
 36
0.0
 17
0.0
 27
1.0
 37
0.0
 76
     0
330
1F
331
29
  0
MATERIAL
  5
45
102
{ACAD_REACTORS
330
43
102
}
102
{ACAD_XDICTIONARY
360
3A1
102
}
330
43
100
AcDbMaterial
  1
ByBlock
  0
MATERIAL
  5
44
102
{ACAD_REACTORS
330
43
102
}
102
{ACAD_XDICTIONARY
360
39F
102
}
330
43
100
AcDbMaterial
  1
ByLayer
  0
MATERIAL
  5
46
102
{ACAD_REACTORS
330
43
102
}
102
{ACAD_XDICTIONARY
360
3A3
102
}
330
43
100
AcDbMaterial
  1
Global
  0
MLEADERSTYLE
  5
6C
102
{ACAD_REACTORS
330
6B
102
}
102
{ACAD_XDICTIONARY
360
3A9
102
}
330
6B
100
AcDbMLeaderStyle
170
     2
171
     1
172
     0
 90
        2
 40
0.0
 41
0.0
173
     1
 91
-1056964608
340
14
 92
       -2
290
     1
 42
0.09
291
     1
 43
0.36
  3
Standard
341
0
 44
0.18
300

342
11
174
     1
178
     6
175
     1
176
     0
 93
-1056964608
 45
0.18
292
     0
297
     0
 46
0.18
343
0
 94
-1056964608
 47
1.0
 49
1.0
140
1.0
293
     1
141
0.0
294
     1
177
     0
142
1.0
295
     0
296
     0
143
0.125
1001
ACAD_MLEADERVER
1070
     2
  0
MLINESTYLE
  5
18
102
{ACAD_REACTORS
330
17
102
}
330
17
100
AcDbMlineStyle
  2
Standard
 70
     0
  3

 62
   256
 51
90.0
 52
90.0
 71
     2
 49
0.5
 62
   256
  6
BYLAYER
 49
-0.5
 62
   256
  6
BYLAYER
  0
ACDBPLACEHOLDER
  5
F
102
{ACAD_REACTORS
330
E
102
}
330
E
  0
SCALE
  5
48
102
{ACAD_REACTORS
330
47
102
}
330
47
100
AcDbScale
 70
     0
300
1:1
140
1.0
141
1.0
290
     1
  0
SCALE
  5
49
102
{ACAD_REACTORS
330
47
102
}
330
47
100
AcDbScale
 70
     0
300
1:2
140
1.0
141
2.0
290
     0
  0
SCALE
  5
4A
102
{ACAD_REACTORS
330
47
102
}
330
47
100
AcDbScale
 70
     0
300
1:4
140
1.0
141
4.0
290
     0
  0
SCALE
  5
4B
102
{ACAD_REACTORS
330
47
102
}
330
47
100
AcDbScale
 70
     0
300
1:5
140
1.0
141
5.0
290
     0
  0
SCALE
  5
4C
102
{ACAD_REACTORS
330
47
102
}
330
47
100
AcDbScale
 70
     0
300
1:8
140
1.0
141
8.0
290
     0
  0
SCALE
  5
4D
102
{ACAD_REACTORS
330
47
102
}
330
47
100
AcDbScale
 70
     0
300
1:10
140
1.0
141
10.0
290
     0
  0
SCALE
  5
4E
102
{ACAD_REACTORS
330
47
102
}
330
47
100
AcDbScale
 70
     0
300
1:16
140
1.0
141
16.0
290
     0
  0
SCALE
  5
4F
102
{ACAD_REACTORS
330
47
102
}
330
47
100
AcDbScale
 70
     0
300
1:20
140
1.0
141
20.0
290
     0
  0
SCALE
  5
50
102
{ACAD_REACTORS
330
47
102
}
330
47
100
AcDbScale
 70
     0
300
1:30
140
1.0
141
30.0
290
     0
  0
SCALE
  5
51
102
{ACAD_REACTORS
330
47
102
}
330
47
100
AcDbScale
 70
     0
300
1:40
140
1.0
141
40.0
290
     0
  0
SCALE
  5
52
102
{ACAD_REACTORS
330
47
102
}
330
47
100
AcDbScale
 70
     0
300
1:50
140
1.0
141
50.0
290
     0
  0
SCALE
  5
53
102
{ACAD_REACTORS
330
47
102
}
330
47
100
AcDbScale
 70
     0
300
1:100
140
1.0
141
100.0
290
     0
  0
SCALE
  5
54
102
{ACAD_REACTORS
330
47
102
}
330
47
100
AcDbScale
 70
     0
300
2:1
140
2.0
141
1.0
290
     0
  0
SCALE
  5
55
102
{ACAD_REACTORS
330
47
102
}
330
47
100
AcDbScale
 70
     0
300
4:1
140
4.0
141
1.0
290
     0
  0
SCALE
  5
56
102
{ACAD_REACTORS
330
47
102
}
330
47
100
AcDbScale
 70
     0
300
8:1
140
8.0
141
1.0
290
     0
  0
SCALE
  5
57
102
{ACAD_REACTORS
330
47
102
}
330
47
100
AcDbScale
 70
     0
300
10:1
140
10.0
141
1.0
290
     0
  0
SCALE
  5
58
102
{ACAD_REACTORS
330
47
102
}
330
47
100
AcDbScale
 70
     0
300
100:1
140
100.0
141
1.0
290
     0
  0
SCALE
  5
59
102
{ACAD_REACTORS
330
47
102
}
330
47
100
AcDbScale
 70
     0
300
1/128" = 1'-0"
140
0.0078125
141
12.0
290
     0
  0
SCALE
  5
5A
102
{ACAD_REACTORS
330
47
102
}
330
47
100
AcDbScale
 70
     0
300
1/64" = 1'-0"
140
0.015625
141
12.0
290
     0
  0
SCALE
  5
5B
102
{ACAD_REACTORS
330
47
102
}
330
47
100
AcDbScale
 70
     0
300
1/32" = 1'-0"
140
0.03125
141
12.0
290
     0
  0
SCALE
  5
5C
102
{ACAD_REACTORS
330
47
102
}
330
47
100
AcDbScale
 70
     0
300
1/16" = 1'-0"
140
0.0625
141
12.0
290
     0
  0
SCALE
  5
5D
102
{ACAD_REACTORS
330
47
102
}
330
47
100
AcDbScale
 70
     0
300
3/32" = 1'-0"
140
0.09375
141
12.0
290
     0
  0
SCALE
  5
5E
102
{ACAD_REACTORS
330
47
102
}
330
47
100
AcDbScale
 70
     0
300
1/8" = 1'-0"
140
0.125
141
12.0
290
     0
  0
SCALE
  5
5F
102
{ACAD_REACTORS
330
47
102
}
330
47
100
AcDbScale
 70
     0
300
3/16" = 1'-0"
140
0.1875
141
12.0
290
     0
  0
SCALE
  5
60
102
{ACAD_REACTORS
330
47
102
}
330
47
100
AcDbScale
 70
     0
300
1/4" = 1'-0"
140
0.25
141
12.0
290
     0
  0
SCALE
  5
61
102
{ACAD_REACTORS
330
47
102
}
330
47
100
AcDbScale
 70
     0
300
3/8" = 1'-0"
140
0.375
141
12.0
290
     0
  0
SCALE
  5
62
102
{ACAD_REACTORS
330
47
102
}
330
47
100
AcDbScale
 70
     0
300
1/2" = 1'-0"
140
0.5
141
12.0
290
     0
  0
SCALE
  5
63
102
{ACAD_REACTORS
330
47
102
}
330
47
100
AcDbScale
 70
     0
300
3/4" = 1'-0"
140
0.75
141
12.0
290
     0
  0
SCALE
  5
64
102
{ACAD_REACTORS
330
47
102
}
330
47
100
AcDbScale
 70
     0
300
1" = 1'-0"
140
1.0
141
12.0
290
     0
  0
SCALE
  5
65
102
{ACAD_REACTORS
330
47
102
}
330
47
100
AcDbScale
 70
     0
300
1-1/2" = 1'-0"
140
1.5
141
12.0
290
     0
  0
SCALE
  5
66
102
{ACAD_REACTORS
330
47
102
}
330
47
100
AcDbScale
 70
     0
300
3" = 1'-0"
140
3.0
141
12.0
290
     0
  0
SCALE
  5
67
102
{ACAD_REACTORS
330
47
102
}
330
47
100
AcDbScale
 70
     0
300
6" = 1'-0"
140
6.0
141
12.0
290
     0
  0
SCALE
  5
68
102
{ACAD_REACTORS
330
47
102
}
330
47
100
AcDbScale
 70
     0
300
1'-0" = 1'-0"
140
12.0
141
12.0
290
     0
  0
TABLESTYLE
  5
6A
102
{ACAD_REACTORS
330
69
102
}
102
{ACAD_XDICTIONARY
360
3A5
102
}
330
69
100
AcDbTableStyle
  3
Standard
 70
     0
 71
     0
 40
0.06
 41
0.06
280
     0
281
     0
  7
Standard
140
0.18
170
     2
 62
     0
 63
   257
283
     0
274
    -2
284
     1
 64
     0
275
    -2
285
     1
 65
     0
276
    -2
286
     1
 66
     0
277
    -2
287
     1
 67
     0
278
    -2
288
     1
 68
     0
279
    -2
289
     1
 69
     0
  7
Standard
140
0.25
170
     5
 62
     0
 63
   257
283
     0
274
    -2
284
     1
 64
     0
275
    -2
285
     1
 65
     0
276
    -2
286
     1
 66
     0
277
    -2
287
     1
 67
     0
278
    -2
288
     1
 68
     0
279
    -2
289
     1
 69
     0
  7
Standard
140
0.18
170
     5
 62
     0
 63
   257
283
     0
274
    -2
284
     1
 64
     0
275
    -2
285
     1
 65
     0
276
    -2
286
     1
 66
     0
277
    -2
287
     1
 67
     0
278
    -2
288
     1
 68
     0
279
    -2
289
     1
 69
     0
  0
VISUALSTYLE
  5
2F
102
{ACAD_REACTORS
330
2A
102
}
102
{ACAD_XDICTIONARY
360
377
102
}
330
2A
100
AcDbVisualStyle
  2
2dWireframe
 70
     4
 71
     0
 72
     2
 73
     0
 90
        0
 40
0.6
 41
30.0
 62
     5
 63
     7
421
 16777215
 74
     1
 91
        4
 64
     7
 65
   257
 75
     1
175
     1
 42
1.0
 92
        0
 66
   257
 43
1.0
 76
     1
 77
     6
 78
     2
 67
     7
 79
     5
170
     0
171
     0
290
     0
174
     0
 93
        1
 44
0.0
173
     0
291
     0
 45
0.0
1001
ACAD
1000
AcDbSavedByObjectVersion
1070
     0
  0
VISUALSTYLE
  5
32
102
{ACAD_REACTORS
330
2A
102
}
102
{ACAD_XDICTIONARY
360
37D
102
}
330
2A
100
AcDbVisualStyle
  2
Basic
 70
     7
 71
     1
 72
     0
 73
     1
 90
        0
 40
0.6
 41
30.0
 62
     5
 63
     7
421
 16777215
 74
     0
 91
        4
 64
     7
 65
   257
 75
     1
175
     1
 42
1.0
 92
        8
 66
     7
 43
1.0
 76
     1
 77
     6
 78
     2
 67
     7
 79
     5
170
     0
171
     0
290
     0
174
     0
 93
        1
 44
0.0
173
     0
291
     1
 45
0.0
1001
ACAD
1000
AcDbSavedByObjectVersion
1070
     0
  0
VISUALSTYLE
  5
36
102
{ACAD_REACTORS
330
2A
102
}
102
{ACAD_XDICTIONARY
360
385
102
}
330
2A
100
AcDbVisualStyle
  2
Brighten
 70
    12
 71
     2
 72
     2
 73
     0
 90
        0
 40
0.6
 41
30.0
 62
     5
 63
     7
421
 16777215
 74
     1
 91
        4
 64
     7
 65
   257
 75
     1
175
     1
 42
1.0
 92
        8
 66
     7
 43
1.0
 76
     1
 77
     6
 78
     2
 67
     7
 79
     5
170
     0
171
     0
290
     0
174
     0
 93
        1
 44
50.0
173
     0
291
     1
 45
0.0
1001
ACAD
1000
AcDbSavedByObjectVersion
1070
     0
  0
VISUALSTYLE
  5
3A
102
{ACAD_REACTORS
330
2A
102
}
102
{ACAD_XDICTIONARY
360
38D
102
}
330
2A
100
AcDbVisualStyle
  2
ColorChange
 70
    16
 71
     2
 72
     2
 73
     3
 90
        0
 40
0.6
 41
30.0
 62
     5
 63
     8
421
  8421504
 74
     1
 91
        4
 64
     7
 65
   257
 75
     1
175
     1
 42
1.0
 92
        8
 66
     8
424
  8421504
 43
1.0
 76
     1
 77
     6
 78
     2
 67
     7
 79
     5
170
     0
171
     0
290
     0
174
     0
 93
        1
 44
0.0
173
     0
291
     1
 45
0.0
1001
ACAD
1000
AcDbSavedByObjectVersion
1070
     0
  0
VISUALSTYLE
  5
34
102
{ACAD_REACTORS
330
2A
102
}
102
{ACAD_XDICTIONARY
360
381
102
}
330
2A
100
AcDbVisualStyle
  2
Conceptual
 70
     9
 71
     3
 72
     2
 73
     0
 90
        0
 40
0.6
 41
30.0
 62
     5
 63
     7
421
 16777215
 74
     2
 91
        2
 64
     7
 65
   257
 75
     1
175
     1
 42
179.0
 92
        8
 66
     7
 43
1.0
 76
     1
 77
     6
 78
     2
 67
     7
 79
     3
170
     0
171
     0
290
     0
174
     0
 93
        1
 44
0.0
173
     0
291
     0
 45
0.0
1001
ACAD
1000
AcDbSavedByObjectVersion
1070
     0
  0
VISUALSTYLE
  5
35
102
{ACAD_REACTORS
330
2A
102
}
102
{ACAD_XDICTIONARY
360
383
102
}
330
2A
100
AcDbVisualStyle
  2
Dim
 70
    11
 71
     2
 72
     2
 73
     0
 90
        0
 40
0.6
 41
30.0
 62
     5
 63
     7
421
 16777215
 74
     1
 91
        4
 64
     7
 65
   257
 75
     1
175
     1
 42
1.0
 92
        8
 66
     7
 43
1.0
 76
     1
 77
     6
 78
     2
 67
     7
 79
     5
170
     0
171
     0
290
     0
174
     0
 93
        1
 44
-50.0
173
     0
291
     1
 45
0.0
1001
ACAD
1000
AcDbSavedByObjectVersion
1070
     0
  0
VISUALSTYLE
  5
3D
102
{ACAD_REACTORS
330
2A
102
}
102
{ACAD_XDICTIONARY
360
393
102
}
330
2A
100
AcDbVisualStyle
  2
EdgeColorOff
 70
    22
 71
     2
 72
     2
 73
     0
 90
        0
 40
0.6
 41
30.0
 62
     5
 63
     7
421
 16777215
 74
     1
 91
        4
 64
     7
 65
   257
 75
     1
175
     1
 42
1.0
 92
        8
 66
     7
 43
1.0
 76
     1
 77
     6
 78
     2
 67
     7
 79
     5
170
     0
171
     0
290
     0
174
     0
 93
        1
 44
0.0
173
     0
291
     1
 45
0.0
1001
ACAD
1000
AcDbSavedByObjectVersion
1070
     0
  0
VISUALSTYLE
  5
39
102
{ACAD_REACTORS
330
2A
102
}
102
{ACAD_XDICTIONARY
360
38B
102
}
330
2A
100
AcDbVisualStyle
  2
Facepattern
 70
    15
 71
     2
 72
     2
 73
     0
 90
        0
 40
0.6
 41
30.0
 62
     5
 63
     7
421
 16777215
 74
     1
 91
        4
 64
     7
 65
   257
 75
     1
175
     1
 42
1.0
 92
        8
 66
     7
 43
1.0
 76
     1
 77
     6
 78
     2
 67
     7
 79
     5
170
     0
171
     0
290
     0
174
     0
 93
        1
 44
0.0
173
     0
291
     1
 45
0.0
1001
ACAD
1000
AcDbSavedByObjectVersion
1070
     0
  0
VISUALSTYLE
  5
2B
102
{ACAD_REACTORS
330
2A
102
}
102
{ACAD_XDICTIONARY
360
36F
102
}
330
2A
100
AcDbVisualStyle
  2
Flat
 70
     0
 71
     2
 72
     1
 73
     1
 90
        2
 40
0.6
 41
30.0
 62
     5
 63
     7
421
 16777215
 74
     0
 91
        0
 64
     7
 65
   257
 75
     1
175
     1
 42
1.0
 92
        8
 66
     7
 43
1.0
 76
     1
 77
     6
 78
     2
 67
     7
 79
     5
170
     0
171
     0
290
     0
174
     0
 93
       13
 44
0.0
173
     0
291
     1
 45
0.0
1001
ACAD
1000
AcDbSavedByObjectVersion
1070
     0
  0
VISUALSTYLE
  5
2C
102
{ACAD_REACTORS
330
2A
102
}
102
{ACAD_XDICTIONARY
360
371
102
}
330
2A
100
AcDbVisualStyle
  2
FlatWithEdges
 70
     1
 71
     2
 72
     1
 73
     1
 90
        2
 40
0.6
 41
30.0
 62
     5
 63
     7
421
 16777215
 74
     1
 91
        0
 64
     7
 65
   257
 75
     1
175
     1
 42
1.0
 92
        0
 66
   257
 43
1.0
 76
     1
 77
     6
 78
     2
 67
     7
 79
     5
170
     0
171
     0
290
     0
174
     0
 93
       13
 44
0.0
173
     0
291
     1
 45
0.0
1001
ACAD
1000
AcDbSavedByObjectVersion
1070
     0
  0
VISUALSTYLE
  5
2D
102
{ACAD_REACTORS
330
2A
102
}
102
{ACAD_XDICTIONARY
360
373
102
}
330
2A
100
AcDbVisualStyle
  2
Gouraud
 70
     2
 71
     2
 72
     2
 73
     1
 90
        2
 40
0.6
 41
30.0
 62
     5
 63
     7
421
 16777215
 74
     0
 91
        0
 64
     7
 65
   257
 75
     1
175
     1
 42
1.0
 92
        0
 66
     7
 43
1.0
 76
     1
 77
     6
 78
     2
 67
     7
 79
     5
170
     0
171
     0
290
     0
174
     0
 93
       13
 44
0.0
173
     0
291
     1
 45
0.0
1001
ACAD
1000
AcDbSavedByObjectVersion
1070
     0
  0
VISUALSTYLE
  5
2E
102
{ACAD_REACTORS
330
2A
102
}
102
{ACAD_XDICTIONARY
360
375
102
}
330
2A
100
AcDbVisualStyle
  2
GouraudWithEdges
 70
     3
 71
     2
 72
     2
 73
     1
 90
        2
 40
0.6
 41
30.0
 62
     5
 63
     7
421
 16777215
 74
     1
 91
        0
 64
     7
 65
   257
 75
     1
175
     1
 42
1.0
 92
        0
 66
   257
 43
1.0
 76
     1
 77
     6
 78
     2
 67
     7
 79
     5
170
     0
171
     0
290
     0
174
     0
 93
       13
 44
0.0
173
     0
291
     1
 45
0.0
1001
ACAD
1000
AcDbSavedByObjectVersion
1070
     0
  0
VISUALSTYLE
  5
31
102
{ACAD_REACTORS
330
2A
102
}
102
{ACAD_XDICTIONARY
360
37B
102
}
330
2A
100
AcDbVisualStyle
  2
Hidden
 70
     6
 71
     1
 72
     2
 73
     2
 90
        0
 40
0.6
 41
30.0
 62
     5
 63
     7
421
 16777215
 74
     2
 91
        2
 64
     7
 65
   257
 75
     2
175
     1
 42
40.0
 92
        0
 66
   257
 43
1.0
 76
     1
 77
     6
 78
     2
 67
     7
 79
     3
170
     0
171
     0
290
     0
174
     0
 93
        1
 44
0.0
173
     0
291
     0
 45
0.0
1001
ACAD
1000
AcDbSavedByObjectVersion
1070
     0
  0
VISUALSTYLE
  5
3B
102
{ACAD_REACTORS
330
2A
102
}
102
{ACAD_XDICTIONARY
360
38F
102
}
330
2A
100
AcDbVisualStyle
  2
JitterOff
 70
    20
 71
     2
 72
     2
 73
     0
 90
        0
 40
0.6
 41
30.0
 62
     5
 63
     7
421
 16777215
 74
     1
 91
        4
 64
     7
 65
   257
 75
     1
175
     1
 42
1.0
 92
       10
 66
     7
 43
1.0
 76
     1
 77
     6
 78
     2
 67
     7
 79
     5
170
     0
171
     0
290
     0
174
     0
 93
        1
 44
0.0
173
     0
291
     1
 45
0.0
1001
ACAD
1000
AcDbSavedByObjectVersion
1070
     0
  0
VISUALSTYLE
  5
38
102
{ACAD_REACTORS
330
2A
102
}
102
{ACAD_XDICTIONARY
360
389
102
}
330
2A
100
AcDbVisualStyle
  2
Linepattern
 70
    14
 71
     2
 72
     2
 73
     0
 90
        0
 40
0.6
 41
30.0
 62
     5
 63
     7
421
 16777215
 74
     1
 91
        4
 64
     7
 65
   257
 75
     7
175
     7
 42
1.0
 92
        8
 66
     7
 43
1.0
 76
     1
 77
     6
 78
     2
 67
     7
 79
     5
170
     0
171
     0
290
     0
174
     0
 93
        1
 44
0.0
173
     0
291
     1
 45
0.0
1001
ACAD
1000
AcDbSavedByObjectVersion
1070
     0
  0
VISUALSTYLE
  5
3C
102
{ACAD_REACTORS
330
2A
102
}
102
{ACAD_XDICTIONARY
360
391
102
}
330
2A
100
AcDbVisualStyle
  2
OverhangOff
 70
    21
 71
     2
 72
     2
 73
     0
 90
        0
 40
0.6
 41
30.0
 62
     5
 63
     7
421
 16777215
 74
     1
 91
        4
 64
     7
 65
   257
 75
     1
175
     1
 42
1.0
 92
        9
 66
     7
 43
1.0
 76
     1
 77
     6
 78
     2
 67
     7
 79
     5
170
     0
171
     0
290
     0
174
     0
 93
        1
 44
0.0
173
     0
291
     1
 45
0.0
1001
ACAD
1000
AcDbSavedByObjectVersion
1070
     0
  0
VISUALSTYLE
  5
33
102
{ACAD_REACTORS
330
2A
102
}
102
{ACAD_XDICTIONARY
360
37F
102
}
330
2A
100
AcDbVisualStyle
  2
Realistic
 70
     8
 71
     2
 72
     3
 73
     0
 90
        2
 40
0.6
 41
30.0
 62
     5
 63
     7
421
 16777215
 74
     0
 91
        0
 64
     7
 65
   257
 75
     1
175
     1
 42
1.0
 92
        8
 66
   257
 43
1.0
 76
     1
 77
     6
 78
     2
 67
     7
 79
     3
170
     0
171
     0
290
     0
174
     0
 93
       13
 44
0.0
173
     0
291
     0
 45
0.0
1001
ACAD
1000
AcDbSavedByObjectVersion
1070
     0
  0
VISUALSTYLE
  5
42
102
{ACAD_REACTORS
330
2A
102
}
102
{ACAD_XDICTIONARY
360
39D
102
}
330
2A
100
AcDbVisualStyle
  2
Shaded
 70
    27
 71
     2
 72
     2
 73
     1
 90
        2
 40
0.6
 41
30.0
 62
     5
 63
     7
421
 16777215
 74
     0
 91
        4
 64
     7
 65
   257
 75
     1
175
     1
 42
1.0
 92
        8
 66
   257
 43
1.0
 76
     1
 77
     6
 78
     2
 67
     8
425
  7895160
 79
     3
170
     0
171
     0
290
     0
174
     0
 93
        5
 44
0.0
173
     0
291
     0
 45
0.0
1001
ACAD
1000
AcDbSavedByObjectVersion
1070
     0
  0
VISUALSTYLE
  5
41
102
{ACAD_REACTORS
330
2A
102
}
102
{ACAD_XDICTIONARY
360
39B
102
}
330
2A
100
AcDbVisualStyle
  2
Shaded with edges
 70
    26
 71
     2
 72
     2
 73
     1
 90
        2
 40
0.6
 41
30.0
 62
     5
 63
     7
421
 16777215
 74
     1
 91
       10
 64
     7
 65
   257
 75
     2
175
     1
 42
1.0
 92
        8
 66
   257
 43
1.0
 76
     1
 77
     6
 78
     2
 67
     7
 79
     3
170
     0
171
     0
290
     0
174
     0
 93
        5
 44
0.0
173
     0
291
     0
 45
0.0
1001
ACAD
1000
AcDbSavedByObjectVersion
1070
     0
  0
VISUALSTYLE
  5
3E
102
{ACAD_REACTORS
330
2A
102
}
102
{ACAD_XDICTIONARY
360
395
102
}
330
2A
100
AcDbVisualStyle
  2
Shades of Gray
 70
    23
 71
     2
 72
     2
 73
     3
 90
        0
 40
0.6
 41
30.0
 62
     5
 63
     7
421
 16777215
 74
     2
 91
        2
 64
     7
 65
     7
 75
     1
175
     1
 42
40.0
 92
        8
 66
     7
 43
1.0
 76
     1
 77
     6
 78
     2
 67
     7
 79
     3
170
     0
171
     0
290
     0
174
     0
 93
        1
 44
0.0
173
     0
291
     0
 45
0.0
1001
ACAD
1000
AcDbSavedByObjectVersion
1070
     0
  0
VISUALSTYLE
  5
3F
102
{ACAD_REACTORS
330
2A
102
}
102
{ACAD_XDICTIONARY
360
397
102
}
330
2A
100
AcDbVisualStyle
  2
Sketchy
 70
    24
 71
     1
 72
     2
 73
     2
 90
        0
 40
0.6
 41
30.0
 62
     5
 63
     7
421
 16777215
 74
     2
 91
        2
 64
     7
 65
     7
 75
     1
175
     1
 42
40.0
 92
       11
 66
     7
 43
1.0
 76
     1
 77
     6
 78
     2
 67
     7
 79
     6
170
     0
171
     0
290
     0
174
     0
 93
        1
 44
0.0
173
     0
291
     0
 45
0.0
1001
ACAD
1000
AcDbSavedByObjectVersion
1070
     0
  0
VISUALSTYLE
  5
37
102
{ACAD_REACTORS
330
2A
102
}
102
{ACAD_XDICTIONARY
360
387
102
}
330
2A
100
AcDbVisualStyle
  2
Thicken
 70
    13
 71
     2
 72
     2
 73
     0
 90
        0
 40
0.6
 41
30.0
 62
     5
 63
     7
421
 16777215
 74
     1
 91
        4
 64
     7
 65
   257
 75
     1
175
     1
 42
1.0
 92
       12
 66
     7
 43
1.0
 76
     1
 77
     6
 78
     2
 67
     7
 79
     5
170
     0
171
     0
290
     0
174
     0
 93
        1
 44
0.0
173
     0
291
     1
 45
0.0
1001
ACAD
1000
AcDbSavedByObjectVersion
1070
     0
  0
VISUALSTYLE
  5
30
102
{ACAD_REACTORS
330
2A
102
}
102
{ACAD_XDICTIONARY
360
379
102
}
330
2A
100
AcDbVisualStyle
  2
Wireframe
 70
     5
 71
     0
 72
     2
 73
     0
 90
        0
 40
0.6
 41
30.0
 62
     5
 63
     7
421
 16777215
 74
     1
 91
        4
 64
     7
 65
   257
 75
     1
175
     1
 42
1.0
 92
        0
 66
   257
 43
1.0
 76
     1
 77
     6
 78
     2
 67
     7
 79
     3
170
     0
171
     0
290
     0
174
     0
 93
        1
 44
0.0
173
     0
291
     0
 45
0.0
1001
ACAD
1000
AcDbSavedByObjectVersion
1070
     0
  0
VISUALSTYLE
  5
40
102
{ACAD_REACTORS
330
2A
102
}
102
{ACAD_XDICTIONARY
360
399
102
}
330
2A
100
AcDbVisualStyle
  2
X-Ray
 70
    25
 71
     2
 72
     2
 73
     1
 90
        1
 40
0.5
 41
30.0
 62
     5
 63
     7
421
 16777215
 74
     1
 91
        0
 64
     7
 65
   257
 75
     1
175
     1
 42
1.0
 92
        8
 66
     7
 43
1.0
 76
     1
 77
     6
 78
     2
 67
     7
 79
     3
170
     0
171
     0
290
     0
174
     0
 93
       13
 44
0.0
173
     0
291
     0
 45
0.0
1001
ACAD
1000
AcDbSavedByObjectVersion
1070
     0
  0
DICTIONARYVAR
  5
36C
102
{ACAD_REACTORS
330
36B
102
}
330
36B
100
DictionaryVariables
280
     0
  1
1:1
  0
DICTIONARYVAR
  5
3AD
102
{ACAD_REACTORS
330
36B
102
}
330
36B
100
DictionaryVariables
280
     0
  1
Standard
  0
DICTIONARYVAR
  5
3AC
102
{ACAD_REACTORS
330
36B
102
}
330
36B
100
DictionaryVariables
280
     0
  1
Standard
  0
DICTIONARYVAR
  5
36D
102
{ACAD_REACTORS
330
36B
102
}
330
36B
100
DictionaryVariables
280
     0
  1
1
  0
DICTIONARYVAR
  5
36E
102
{ACAD_REACTORS
330
36B
102
}
330
36B
100
DictionaryVariables
280
     0
  1
2
  0
DICTIONARY
  5
3A1
330
45
100
AcDbDictionary
280
     1
281
     1
  3
ACAD_XREC_ROUNDTRIP
360
3A2
  0
DICTIONARY
  5
39F
330
44
100
AcDbDictionary
280
     1
281
     1
  3
ACAD_XREC_ROUNDTRIP
360
3A0
  0
DICTIONARY
  5
3A3
330
46
100
AcDbDictionary
280
     1
281
     1
  3
ACAD_XREC_ROUNDTRIP
360
3A4
  0
DICTIONARY
  5
3A9
330
6C
100
AcDbDictionary
280
     1
281
     1
  3
ACAD_XREC_ROUNDTRIP
360
3AA
  0
DICTIONARY
  5
3A5
330
6A
100
AcDbDictionary
280
     1
281
     1
  3
ACAD_ROUNDTRIP_2008_TABLESTYLE_CELLSTYLEMAP
360
3A7
  3
ACAD_XREC_ROUNDTRIP
360
3A6
  0
DICTIONARY
  5
377
330
2F
100
AcDbDictionary
280
     1
281
     1
  3
ACAD_XREC_ROUNDTRIP
360
378
  0
DICTIONARY
  5
37D
330
32
100
AcDbDictionary
280
     1
281
     1
  3
ACAD_XREC_ROUNDTRIP
360
37E
  0
DICTIONARY
  5
385
330
36
100
AcDbDictionary
280
     1
281
     1
  3
ACAD_XREC_ROUNDTRIP
360
386
  0
DICTIONARY
  5
38D
330
3A
100
AcDbDictionary
280
     1
281
     1
  3
ACAD_XREC_ROUNDTRIP
360
38E
  0
DICTIONARY
  5
381
330
34
100
AcDbDictionary
280
     1
281
     1
  3
ACAD_XREC_ROUNDTRIP
360
382
  0
DICTIONARY
  5
383
330
35
100
AcDbDictionary
280
     1
281
     1
  3
ACAD_XREC_ROUNDTRIP
360
384
  0
DICTIONARY
  5
393
330
3D
100
AcDbDictionary
280
     1
281
     1
  3
ACAD_XREC_ROUNDTRIP
360
394
  0
DICTIONARY
  5
38B
330
39
100
AcDbDictionary
280
     1
281
     1
  3
ACAD_XREC_ROUNDTRIP
360
38C
  0
DICTIONARY
  5
36F
330
2B
100
AcDbDictionary
280
     1
281
     1
  3
ACAD_XREC_ROUNDTRIP
360
370
  0
DICTIONARY
  5
371
330
2C
100
AcDbDictionary
280
     1
281
     1
  3
ACAD_XREC_ROUNDTRIP
360
372
  0
DICTIONARY
  5
373
330
2D
100
AcDbDictionary
280
     1
281
     1
  3
ACAD_XREC_ROUNDTRIP
360
374
  0
DICTIONARY
  5
375
330
2E
100
AcDbDictionary
280
     1
281
     1
  3
ACAD_XREC_ROUNDTRIP
360
376
  0
DICTIONARY
  5
37B
330
31
100
AcDbDictionary
280
     1
281
     1
  3
ACAD_XREC_ROUNDTRIP
360
37C
  0
DICTIONARY
  5
38F
330
3B
100
AcDbDictionary
280
     1
281
     1
  3
ACAD_XREC_ROUNDTRIP
360
390
  0
DICTIONARY
  5
389
330
38
100
AcDbDictionary
280
     1
281
     1
  3
ACAD_XREC_ROUNDTRIP
360
38A
  0
DICTIONARY
  5
391
330
3C
100
AcDbDictionary
280
     1
281
     1
  3
ACAD_XREC_ROUNDTRIP
360
392
  0
DICTIONARY
  5
37F
330
33
100
AcDbDictionary
280
     1
281
     1
  3
ACAD_XREC_ROUNDTRIP
360
380
  0
DICTIONARY
  5
39D
330
42
100
AcDbDictionary
280
     1
281
     1
  3
ACAD_XREC_ROUNDTRIP
360
39E
  0
DICTIONARY
  5
39B
330
41
100
AcDbDictionary
280
     1
281
     1
  3
ACAD_XREC_ROUNDTRIP
360
39C
  0
DICTIONARY
  5
395
330
3E
100
AcDbDictionary
280
     1
281
     1
  3
ACAD_XREC_ROUNDTRIP
360
396
  0
DICTIONARY
  5
397
330
3F
100
AcDbDictionary
280
     1
281
     1
  3
ACAD_XREC_ROUNDTRIP
360
398
  0
DICTIONARY
  5
387
330
37
100
AcDbDictionary
280
     1
281
     1
  3
ACAD_XREC_ROUNDTRIP
360
388
  0
DICTIONARY
  5
379
330
30
100
AcDbDictionary
280
     1
281
     1
  3
ACAD_XREC_ROUNDTRIP
360
37A
  0
DICTIONARY
  5
399
330
40
100
AcDbDictionary
280
     1
281
     1
  3
ACAD_XREC_ROUNDTRIP
360
39A
  0
XRECORD
  5
3A2
102
{ACAD_REACTORS
330
3A1
102
}
330
3A1
100
AcDbXrecord
280
     1
102
MATERIAL
148
0.0
149
0.0
149
0.0
 93
        0
 94
      127
282
     0
 72
     1
 77
     1
171
     1
175
     1
179
     1
273
     0
  0
XRECORD
  5
3A0
102
{ACAD_REACTORS
330
39F
102
}
330
39F
100
AcDbXrecord
280
     1
102
MATERIAL
148
0.0
149
0.0
149
0.0
 93
        0
 94
      127
282
     0
 72
     1
 77
     1
171
     1
175
     1
179
     1
273
     0
  0
XRECORD
  5
3A4
102
{ACAD_REACTORS
330
3A3
102
}
330
3A3
100
AcDbXrecord
280
     1
102
MATERIAL
148
0.0
149
0.0
149
0.0
 93
        0
 94
      127
282
     0
 72
     1
 77
     1
171
     1
175
     1
179
     1
273
     0
  0
XRECORD
  5
3AA
102
{ACAD_REACTORS
330
3A9
102
}
330
3A9
100
AcDbXrecord
280
     1
102
ACAD_ROUNDTRIP_2010_MLEADER_STYLE
  0
CELLSTYLEMAP
  5
3A7
102
{ACAD_REACTORS
330
3A5
102
}
330
3A5
100
AcDbCellStyleMap
 90
        3
300
CELLSTYLE
  1
TABLEFORMAT_BEGIN
 90
        5
170
     1
 91
        0
 92
    32768
 62
   257
 93
        1
300
CONTENTFORMAT
  1
CONTENTFORMAT_BEGIN
 90
        0
 91
        0
 92
        4
 93
        0
300

 40
0.0
140
1.0
 94
        5
 62
     0
340
11
144
0.25
309
CONTENTFORMAT_END
171
     1
301
MARGIN
  1
CELLMARGIN_BEGIN
 40
0.06
 40
0.06
 40
0.06
 40
0.06
 40
0.06
 40
0.06
309
CELLMARGIN_END
 94
        6
 95
        1
302
GRIDFORMAT
  1
GRIDFORMAT_BEGIN
 90
        0
 91
        1
 62
     0
 92
       -2
340
14
 93
        0
 40
0.045
309
GRIDFORMAT_END
 95
        2
302
GRIDFORMAT
  1
GRIDFORMAT_BEGIN
 90
        0
 91
        1
 62
     0
 92
       -2
340
14
 93
        0
 40
0.045
309
GRIDFORMAT_END
 95
        4
302
GRIDFORMAT
  1
GRIDFORMAT_BEGIN
 90
        0
 91
        1
 62
     0
 92
       -2
340
14
 93
        0
 40
0.045
309
GRIDFORMAT_END
 95
        8
302
GRIDFORMAT
  1
GRIDFORMAT_BEGIN
 90
        0
 91
        1
 62
     0
 92
       -2
340
14
 93
        0
 40
0.045
309
GRIDFORMAT_END
 95
       16
302
GRIDFORMAT
  1
GRIDFORMAT_BEGIN
 90
        0
 91
        1
 62
     0
 92
       -2
340
14
 93
        0
 40
0.045
309
GRIDFORMAT_END
 95
       32
302
GRIDFORMAT
  1
GRIDFORMAT_BEGIN
 90
        0
 91
        1
 62
     0
 92
       -2
340
14
 93
        0
 40
0.045
309
GRIDFORMAT_END
309
TABLEFORMAT_END
  1
CELLSTYLE_BEGIN
 90
        1
 91
        1
300
_TITLE
309
CELLSTYLE_END
300
CELLSTYLE
  1
TABLEFORMAT_BEGIN
 90
        5
170
     1
 91
        0
 92
        0
 62
   257
 93
        1
300
CONTENTFORMAT
  1
CONTENTFORMAT_BEGIN
 90
        0
 91
        0
 92
        4
 93
        0
300

 40
0.0
140
1.0
 94
        5
 62
     0
340
11
144
0.18
309
CONTENTFORMAT_END
171
     1
301
MARGIN
  1
CELLMARGIN_BEGIN
 40
0.06
 40
0.06
 40
0.06
 40
0.06
 40
0.06
 40
0.06
309
CELLMARGIN_END
 94
        6
 95
        1
302
GRIDFORMAT
  1
GRIDFORMAT_BEGIN
 90
        0
 91
        1
 62
     0
 92
       -2
340
14
 93
        0
 40
0.045
309
GRIDFORMAT_END
 95
        2
302
GRIDFORMAT
  1
GRIDFORMAT_BEGIN
 90
        0
 91
        1
 62
     0
 92
       -2
340
14
 93
        0
 40
0.045
309
GRIDFORMAT_END
 95
        4
302
GRIDFORMAT
  1
GRIDFORMAT_BEGIN
 90
        0
 91
        1
 62
     0
 92
       -2
340
14
 93
        0
 40
0.045
309
GRIDFORMAT_END
 95
        8
302
GRIDFORMAT
  1
GRIDFORMAT_BEGIN
 90
        0
 91
        1
 62
     0
 92
       -2
340
14
 93
        0
 40
0.045
309
GRIDFORMAT_END
 95
       16
302
GRIDFORMAT
  1
GRIDFORMAT_BEGIN
 90
        0
 91
        1
 62
     0
 92
       -2
340
14
 93
        0
 40
0.045
309
GRIDFORMAT_END
 95
       32
302
GRIDFORMAT
  1
GRIDFORMAT_BEGIN
 90
        0
 91
        1
 62
     0
 92
       -2
340
14
 93
        0
 40
0.045
309
GRIDFORMAT_END
309
TABLEFORMAT_END
  1
CELLSTYLE_BEGIN
 90
        2
 91
        1
300
_HEADER
309
CELLSTYLE_END
300
CELLSTYLE
  1
TABLEFORMAT_BEGIN
 90
        5
170
     1
 91
        0
 92
        0
 62
   257
 93
        1
300
CONTENTFORMAT
  1
CONTENTFORMAT_BEGIN
 90
        0
 91
        0
 92
        4
 93
        0
300

 40
0.0
140
1.0
 94
        2
 62
     0
340
11
144
0.18
309
CONTENTFORMAT_END
171
     1
301
MARGIN
  1
CELLMARGIN_BEGIN
 40
0.06
 40
0.06
 40
0.06
 40
0.06
 40
0.06
 40
0.06
309
CELLMARGIN_END
 94
        6
 95
        1
302
GRIDFORMAT
  1
GRIDFORMAT_BEGIN
 90
        0
 91
        1
 62
     0
 92
       -2
340
14
 93
        0
 40
0.045
309
GRIDFORMAT_END
 95
        2
302
GRIDFORMAT
  1
GRIDFORMAT_BEGIN
 90
        0
 91
        1
 62
     0
 92
       -2
340
14
 93
        0
 40
0.045
309
GRIDFORMAT_END
 95
        4
302
GRIDFORMAT
  1
GRIDFORMAT_BEGIN
 90
        0
 91
        1
 62
     0
 92
       -2
340
14
 93
        0
 40
0.045
309
GRIDFORMAT_END
 95
        8
302
GRIDFORMAT
  1
GRIDFORMAT_BEGIN
 90
        0
 91
        1
 62
     0
 92
       -2
340
14
 93
        0
 40
0.045
309
GRIDFORMAT_END
 95
       16
302
GRIDFORMAT
  1
GRIDFORMAT_BEGIN
 90
        0
 91
        1
 62
     0
 92
       -2
340
14
 93
        0
 40
0.045
309
GRIDFORMAT_END
 95
       32
302
GRIDFORMAT
  1
GRIDFORMAT_BEGIN
 90
        0
 91
        1
 62
     0
 92
       -2
340
14
 93
        0
 40
0.045
309
GRIDFORMAT_END
309
TABLEFORMAT_END
  1
CELLSTYLE_BEGIN
 90
        3
 91
        2
300
_DATA
309
CELLSTYLE_END
  0
XRECORD
  5
3A6
102
{ACAD_REACTORS
330
3A5
102
}
330
3A5
100
AcDbXrecord
280
     1
102
ACAD_ROUNDTRIP_PRE2007_TABLESTYLE
 90
        4
 91
        0
  1

 92
        4
 93
        0
  2

 94
        4
 95
        0
  3

  0
XRECORD
  5
378
102
{ACAD_REACTORS
330
377
102
}
330
377
100
AcDbXrecord
280
     1
102
RTVSPropertyOp0
 70
     1
102
RTVSPropertyOp1
 70
     1
102
RTVSPropertyOp2
 70
     1
102
RTVSPropertyOp3
 70
     1
102
RTVSPropertyOp4
 70
     1
102
RTVSPropertyOp5
 70
     1
102
RTVSPropertyOp6
 70
     1
102
RTVSPropertyOp7
 70
     1
102
RTVSPropertyOp8
 70
     1
102
RTVSPropertyOp9
 70
     1
102
RTVSPropertyOp10
 70
     1
102
RTVSPropertyOp11
 70
     1
102
RTVSPropertyOp12
 70
     1
102
RTVSPropertyOp13
 70
     1
102
RTVSPropertyOp14
 70
     1
102
RTVSPropertyOp15
 70
     1
102
RTVSPropertyOp16
 70
     1
102
RTVSPropertyOp17
 70
     1
102
RTVSPropertyOp18
 70
     1
102
RTVSPropertyOp19
 70
     1
102
RTVSPropertyOp20
 70
     1
102
RTVSPropertyOp21
 70
     1
102
RTVSPropertyOp22
 70
     1
102
RTVSPropertyOp23
 70
     1
102
RTVSPropertyOp24
 70
     1
102
RTVSPropertyOp25
 70
     1
102
RTVSPropertyOp26
 70
     1
102
RTVSPropertyOp27
 70
     1
102
RTVSPropertyOp28
 70
     1
102
RTVSPropertyOp29
 70
     1
102
RTVSPropertyOp30
 70
     1
102
RTVSPropertyOp31
 70
     1
102
RTVSPropertyOp32
 70
     1
102
RTVSPropertyOp33
 70
     1
102
RTVSPropertyOp34
 70
     1
102
RTVSPropertyOp35
 70
     1
102
RTVSPropertyOp36
 70
     1
102
RTVSPropertyOp37
 70
     1
102
RTVSPropertyOp38
 70
     1
102
RTVSPropertyOp39
 70
     1
102
RTVSPropertyOp40
 70
     1
102
RTVSPropertyOp41
 70
     1
102
RTVSPropertyOp42
 70
     1
102
RTVSPropertyOp43
 70
     1
102
RTVSPropertyOp44
 70
     1
102
RTVSPropertyOp45
 70
     1
102
RTVSPropertyOp46
 70
     1
102
RTVSPropertyOp47
 70
     1
102
RTVSPropertyOp48
 70
     1
102
RTVSPropertyOp49
 70
     1
102
RTVSPropertyOp50
 70
     1
102
RTVSPropertyOp51
 70
     0
102
RTVSPropertyOp52
 70
     0
102
RTVSPropertyOp53
 70
     1
102
RTVSPropertyOp54
 70
     1
102
RTVSPropertyOp55
 70
     1
102
RTVSPropertyOp56
 70
     1
102
RTVSPropertyOp57
 70
     1
102
RTVSPost2010Prop28
280
     1
102
RTVSPost2010PropOp28
 70
     1
102
RTVSPost2010Prop29
280
     1
102
RTVSPost2010PropOp29
 70
     1
102
RTVSPost2010Prop30
280
     0
102
RTVSPost2010PropOp30
 70
     1
102
RTVSPost2010Prop31
280
     0
102
RTVSPost2010PropOp31
 70
     1
102
RTVSPost2010Prop32
280
     0
102
RTVSPost2010PropOp32
 70
     1
102
RTVSPost2010Prop33
280
     0
102
RTVSPost2010PropOp33
 70
     1
102
RTVSPost2010Prop34
280
     0
102
RTVSPost2010PropOp34
 70
     1
102
RTVSPost2010Prop35
280
     0
102
RTVSPost2010PropOp35
 70
     1
102
RTVSPost2010Prop36
280
     0
102
RTVSPost2010PropOp36
 70
     1
102
RTVSPost2010Prop37
 90
       50
102
RTVSPost2010PropOp37
 70
     1
102
RTVSPost2010Prop38
140
0.0
102
RTVSPost2010PropOp38
 70
     1
102
RTVSPost2010Prop39
140
1.0
102
RTVSPost2010PropOp39
 70
     1
102
RTVSPost2010Prop40
 90
        0
102
RTVSPost2010PropOp40
 70
     1
102
RTVSPost2010Prop41ColorIndex
 90
       18
102
RTVSPost2010Prop41ColorRGB
 90
        0
102
RTVSPost2010PropOp41
 70
     1
102
RTVSPost2010Prop42
 90
       50
102
RTVSPost2010PropOp42
 70
     1
102
RTVSPost2010Prop43
 90
        3
102
RTVSPost2010PropOp43
 70
     1
102
RTVSPost2010Prop44ColorIndex
 90
        5
102
RTVSPost2010Prop44ColorRGB
 90
      255
102
RTVSPost2010PropOp44
 70
     1
102
RTVSPost2010Prop45
280
     0
102
RTVSPost2010PropOp45
 70
     1
102
RTVSPost2010Prop46
 90
       50
102
RTVSPost2010PropOp46
 70
     1
102
RTVSPost2010Prop47
 90
       50
102
RTVSPost2010PropOp47
 70
     1
102
RTVSPost2010Prop48
 90
       50
102
RTVSPost2010PropOp48
 70
     1
102
RTVSPost2010Prop49
280
     0
102
RTVSPost2010PropOp49
 70
     1
102
RTVSPost2010Prop50
 90
       50
102
RTVSPost2010PropOp50
 70
     1
102
RTVSPost2010Prop51ColorIndex
 90
      256
102
RTVSPost2010Prop51ColorRGB
 90
-16777216
102
RTVSPost2010PropOp51
 70
     0
102
RTVSPost2010Prop52
140
1.0
102
RTVSPost2010PropOp52
 70
     0
102
RTVSPost2010Prop53
 90
        2
102
RTVSPost2010PropOp53
 70
     1
102
RTVSPost2010Prop54
  1
strokes_ogs.tif
102
RTVSPost2010PropOp54
 70
     1
102
RTVSPost2010Prop55
280
     0
102
RTVSPost2010PropOp55
 70
     1
102
RTVSPost2010Prop56
140
1.0
102
RTVSPost2010PropOp56
 70
     1
102
RTVSPost2010Prop57
140
1.0
102
RTVSPost2010PropOp57
 70
     1
  0
XRECORD
  5
37E
102
{ACAD_REACTORS
330
37D
102
}
330
37D
100
AcDbXrecord
280
     1
102
RTVSPropertyOp0
 70
     1
102
RTVSPropertyOp1
 70
     1
102
RTVSPropertyOp2
 70
     1
102
RTVSPropertyOp3
 70
     1
102
RTVSPropertyOp4
 70
     1
102
RTVSPropertyOp5
 70
     1
102
RTVSPropertyOp6
 70
     1
102
RTVSPropertyOp7
 70
     1
102
RTVSPropertyOp8
 70
     1
102
RTVSPropertyOp9
 70
     1
102
RTVSPropertyOp10
 70
     1
102
RTVSPropertyOp11
 70
     1
102
RTVSPropertyOp12
 70
     1
102
RTVSPropertyOp13
 70
     1
102
RTVSPropertyOp14
 70
     1
102
RTVSPropertyOp15
 70
     1
102
RTVSPropertyOp16
 70
     1
102
RTVSPropertyOp17
 70
     1
102
RTVSPropertyOp18
 70
     1
102
RTVSPropertyOp19
 70
     1
102
RTVSPropertyOp20
 70
     1
102
RTVSPropertyOp21
 70
     1
102
RTVSPropertyOp22
 70
     1
102
RTVSPropertyOp23
 70
     1
102
RTVSPropertyOp24
 70
     1
102
RTVSPropertyOp25
 70
     1
102
RTVSPropertyOp26
 70
     1
102
RTVSPropertyOp27
 70
     1
102
RTVSPropertyOp28
 70
     1
102
RTVSPropertyOp29
 70
     1
102
RTVSPropertyOp30
 70
     1
102
RTVSPropertyOp31
 70
     1
102
RTVSPropertyOp32
 70
     1
102
RTVSPropertyOp33
 70
     1
102
RTVSPropertyOp34
 70
     1
102
RTVSPropertyOp35
 70
     1
102
RTVSPropertyOp36
 70
     1
102
RTVSPropertyOp37
 70
     1
102
RTVSPropertyOp38
 70
     1
102
RTVSPropertyOp39
 70
     1
102
RTVSPropertyOp40
 70
     1
102
RTVSPropertyOp41
 70
     1
102
RTVSPropertyOp42
 70
     1
102
RTVSPropertyOp43
 70
     1
102
RTVSPropertyOp44
 70
     1
102
RTVSPropertyOp45
 70
     1
102
RTVSPropertyOp46
 70
     1
102
RTVSPropertyOp47
 70
     1
102
RTVSPropertyOp48
 70
     1
102
RTVSPropertyOp49
 70
     1
102
RTVSPropertyOp50
 70
     1
102
RTVSPropertyOp51
 70
     0
102
RTVSPropertyOp52
 70
     0
102
RTVSPropertyOp53
 70
     1
102
RTVSPropertyOp54
 70
     1
102
RTVSPropertyOp55
 70
     1
102
RTVSPropertyOp56
 70
     1
102
RTVSPropertyOp57
 70
     1
102
RTVSPost2010Prop28
280
     0
102
RTVSPost2010PropOp28
 70
     1
102
RTVSPost2010Prop29
280
     1
102
RTVSPost2010PropOp29
 70
     1
102
RTVSPost2010Prop30
280
     1
102
RTVSPost2010PropOp30
 70
     1
102
RTVSPost2010Prop31
280
     0
102
RTVSPost2010PropOp31
 70
     1
102
RTVSPost2010Prop32
280
     0
102
RTVSPost2010PropOp32
 70
     1
102
RTVSPost2010Prop33
280
     0
102
RTVSPost2010PropOp33
 70
     1
102
RTVSPost2010Prop34
280
     0
102
RTVSPost2010PropOp34
 70
     1
102
RTVSPost2010Prop35
280
     0
102
RTVSPost2010PropOp35
 70
     1
102
RTVSPost2010Prop36
280
     0
102
RTVSPost2010PropOp36
 70
     1
102
RTVSPost2010Prop37
 90
       50
102
RTVSPost2010PropOp37
 70
     1
102
RTVSPost2010Prop38
140
0.0
102
RTVSPost2010PropOp38
 70
     1
102
RTVSPost2010Prop39
140
1.0
102
RTVSPost2010PropOp39
 70
     1
102
RTVSPost2010Prop40
 90
        0
102
RTVSPost2010PropOp40
 70
     1
102
RTVSPost2010Prop41ColorIndex
 90
       18
102
RTVSPost2010Prop41ColorRGB
 90
        0
102
RTVSPost2010PropOp41
 70
     1
102
RTVSPost2010Prop42
 90
       50
102
RTVSPost2010PropOp42
 70
     1
102
RTVSPost2010Prop43
 90
        3
102
RTVSPost2010PropOp43
 70
     1
102
RTVSPost2010Prop44ColorIndex
 90
        5
102
RTVSPost2010Prop44ColorRGB
 90
      255
102
RTVSPost2010PropOp44
 70
     1
102
RTVSPost2010Prop45
280
     0
102
RTVSPost2010PropOp45
 70
     1
102
RTVSPost2010Prop46
 90
       50
102
RTVSPost2010PropOp46
 70
     1
102
RTVSPost2010Prop47
 90
       50
102
RTVSPost2010PropOp47
 70
     1
102
RTVSPost2010Prop48
 90
       50
102
RTVSPost2010PropOp48
 70
     1
102
RTVSPost2010Prop49
280
     0
102
RTVSPost2010PropOp49
 70
     1
102
RTVSPost2010Prop50
 90
       50
102
RTVSPost2010PropOp50
 70
     1
102
RTVSPost2010Prop51ColorIndex
 90
      256
102
RTVSPost2010Prop51ColorRGB
 90
-16777216
102
RTVSPost2010PropOp51
 70
     0
102
RTVSPost2010Prop52
140
1.0
102
RTVSPost2010PropOp52
 70
     0
102
RTVSPost2010Prop53
 90
        2
102
RTVSPost2010PropOp53
 70
     1
102
RTVSPost2010Prop54
  1
strokes_ogs.tif
102
RTVSPost2010PropOp54
 70
     1
102
RTVSPost2010Prop55
280
     0
102
RTVSPost2010PropOp55
 70
     1
102
RTVSPost2010Prop56
140
1.0
102
RTVSPost2010PropOp56
 70
     1
102
RTVSPost2010Prop57
140
1.0
102
RTVSPost2010PropOp57
 70
     1
  0
XRECORD
  5
386
102
{ACAD_REACTORS
330
385
102
}
330
385
100
AcDbXrecord
280
     1
102
RTVSPropertyOp0
 70
     1
102
RTVSPropertyOp1
 70
     1
102
RTVSPropertyOp2
 70
     1
102
RTVSPropertyOp3
 70
     1
102
RTVSPropertyOp4
 70
     1
102
RTVSPropertyOp5
 70
     1
102
RTVSPropertyOp6
 70
     1
102
RTVSPropertyOp7
 70
     1
102
RTVSPropertyOp8
 70
     1
102
RTVSPropertyOp9
 70
     1
102
RTVSPropertyOp10
 70
     1
102
RTVSPropertyOp11
 70
     1
102
RTVSPropertyOp12
 70
     1
102
RTVSPropertyOp13
 70
     1
102
RTVSPropertyOp14
 70
     1
102
RTVSPropertyOp15
 70
     1
102
RTVSPropertyOp16
 70
     1
102
RTVSPropertyOp17
 70
     1
102
RTVSPropertyOp18
 70
     1
102
RTVSPropertyOp19
 70
     1
102
RTVSPropertyOp20
 70
     1
102
RTVSPropertyOp21
 70
     1
102
RTVSPropertyOp22
 70
     1
102
RTVSPropertyOp23
 70
     1
102
RTVSPropertyOp24
 70
     1
102
RTVSPropertyOp25
 70
     1
102
RTVSPropertyOp26
 70
     1
102
RTVSPropertyOp27
 70
     1
102
RTVSPropertyOp28
 70
     1
102
RTVSPropertyOp29
 70
     1
102
RTVSPropertyOp30
 70
     1
102
RTVSPropertyOp31
 70
     1
102
RTVSPropertyOp32
 70
     1
102
RTVSPropertyOp33
 70
     1
102
RTVSPropertyOp34
 70
     1
102
RTVSPropertyOp35
 70
     1
102
RTVSPropertyOp36
 70
     1
102
RTVSPropertyOp37
 70
     1
102
RTVSPropertyOp38
 70
     1
102
RTVSPropertyOp39
 70
     1
102
RTVSPropertyOp40
 70
     1
102
RTVSPropertyOp41
 70
     1
102
RTVSPropertyOp42
 70
     1
102
RTVSPropertyOp43
 70
     1
102
RTVSPropertyOp44
 70
     1
102
RTVSPropertyOp45
 70
     1
102
RTVSPropertyOp46
 70
     1
102
RTVSPropertyOp47
 70
     1
102
RTVSPropertyOp48
 70
     1
102
RTVSPropertyOp49
 70
     1
102
RTVSPropertyOp50
 70
     1
102
RTVSPropertyOp51
 70
     0
102
RTVSPropertyOp52
 70
     0
102
RTVSPropertyOp53
 70
     1
102
RTVSPropertyOp54
 70
     1
102
RTVSPropertyOp55
 70
     1
102
RTVSPropertyOp56
 70
     1
102
RTVSPropertyOp57
 70
     1
102
RTVSPost2010Prop28
280
     0
102
RTVSPost2010PropOp28
 70
     1
102
RTVSPost2010Prop29
280
     1
102
RTVSPost2010PropOp29
 70
     1
102
RTVSPost2010Prop30
280
     1
102
RTVSPost2010PropOp30
 70
     1
102
RTVSPost2010Prop31
280
     0
102
RTVSPost2010PropOp31
 70
     1
102
RTVSPost2010Prop32
280
     0
102
RTVSPost2010PropOp32
 70
     1
102
RTVSPost2010Prop33
280
     0
102
RTVSPost2010PropOp33
 70
     1
102
RTVSPost2010Prop34
280
     0
102
RTVSPost2010PropOp34
 70
     1
102
RTVSPost2010Prop35
280
     0
102
RTVSPost2010PropOp35
 70
     1
102
RTVSPost2010Prop36
280
     0
102
RTVSPost2010PropOp36
 70
     1
102
RTVSPost2010Prop37
 90
       50
102
RTVSPost2010PropOp37
 70
     1
102
RTVSPost2010Prop38
140
0.0
102
RTVSPost2010PropOp38
 70
     1
102
RTVSPost2010Prop39
140
1.0
102
RTVSPost2010PropOp39
 70
     1
102
RTVSPost2010Prop40
 90
        0
102
RTVSPost2010PropOp40
 70
     1
102
RTVSPost2010Prop41ColorIndex
 90
       18
102
RTVSPost2010Prop41ColorRGB
 90
        0
102
RTVSPost2010PropOp41
 70
     1
102
RTVSPost2010Prop42
 90
       50
102
RTVSPost2010PropOp42
 70
     1
102
RTVSPost2010Prop43
 90
        3
102
RTVSPost2010PropOp43
 70
     1
102
RTVSPost2010Prop44ColorIndex
 90
        5
102
RTVSPost2010Prop44ColorRGB
 90
      255
102
RTVSPost2010PropOp44
 70
     1
102
RTVSPost2010Prop45
280
     0
102
RTVSPost2010PropOp45
 70
     1
102
RTVSPost2010Prop46
 90
       50
102
RTVSPost2010PropOp46
 70
     1
102
RTVSPost2010Prop47
 90
       50
102
RTVSPost2010PropOp47
 70
     1
102
RTVSPost2010Prop48
 90
       50
102
RTVSPost2010PropOp48
 70
     1
102
RTVSPost2010Prop49
280
     0
102
RTVSPost2010PropOp49
 70
     1
102
RTVSPost2010Prop50
 90
       50
102
RTVSPost2010PropOp50
 70
     1
102
RTVSPost2010Prop51ColorIndex
 90
      256
102
RTVSPost2010Prop51ColorRGB
 90
-16777216
102
RTVSPost2010PropOp51
 70
     0
102
RTVSPost2010Prop52
140
1.0
102
RTVSPost2010PropOp52
 70
     0
102
RTVSPost2010Prop53
 90
        2
102
RTVSPost2010PropOp53
 70
     1
102
RTVSPost2010Prop54
  1
strokes_ogs.tif
102
RTVSPost2010PropOp54
 70
     1
102
RTVSPost2010Prop55
280
     0
102
RTVSPost2010PropOp55
 70
     1
102
RTVSPost2010Prop56
140
1.0
102
RTVSPost2010PropOp56
 70
     1
102
RTVSPost2010Prop57
140
1.0
102
RTVSPost2010PropOp57
 70
     1
  0
XRECORD
  5
38E
102
{ACAD_REACTORS
330
38D
102
}
330
38D
100
AcDbXrecord
280
     1
102
RTVSPropertyOp0
 70
     1
102
RTVSPropertyOp1
 70
     1
102
RTVSPropertyOp2
 70
     1
102
RTVSPropertyOp3
 70
     1
102
RTVSPropertyOp4
 70
     1
102
RTVSPropertyOp5
 70
     1
102
RTVSPropertyOp6
 70
     1
102
RTVSPropertyOp7
 70
     1
102
RTVSPropertyOp8
 70
     1
102
RTVSPropertyOp9
 70
     1
102
RTVSPropertyOp10
 70
     1
102
RTVSPropertyOp11
 70
     1
102
RTVSPropertyOp12
 70
     1
102
RTVSPropertyOp13
 70
     1
102
RTVSPropertyOp14
 70
     1
102
RTVSPropertyOp15
 70
     1
102
RTVSPropertyOp16
 70
     1
102
RTVSPropertyOp17
 70
     1
102
RTVSPropertyOp18
 70
     1
102
RTVSPropertyOp19
 70
     1
102
RTVSPropertyOp20
 70
     1
102
RTVSPropertyOp21
 70
     1
102
RTVSPropertyOp22
 70
     1
102
RTVSPropertyOp23
 70
     1
102
RTVSPropertyOp24
 70
     1
102
RTVSPropertyOp25
 70
     1
102
RTVSPropertyOp26
 70
     1
102
RTVSPropertyOp27
 70
     1
102
RTVSPropertyOp28
 70
     1
102
RTVSPropertyOp29
 70
     1
102
RTVSPropertyOp30
 70
     1
102
RTVSPropertyOp31
 70
     1
102
RTVSPropertyOp32
 70
     1
102
RTVSPropertyOp33
 70
     1
102
RTVSPropertyOp34
 70
     1
102
RTVSPropertyOp35
 70
     1
102
RTVSPropertyOp36
 70
     1
102
RTVSPropertyOp37
 70
     1
102
RTVSPropertyOp38
 70
     1
102
RTVSPropertyOp39
 70
     1
102
RTVSPropertyOp40
 70
     1
102
RTVSPropertyOp41
 70
     1
102
RTVSPropertyOp42
 70
     1
102
RTVSPropertyOp43
 70
     1
102
RTVSPropertyOp44
 70
     1
102
RTVSPropertyOp45
 70
     1
102
RTVSPropertyOp46
 70
     1
102
RTVSPropertyOp47
 70
     1
102
RTVSPropertyOp48
 70
     1
102
RTVSPropertyOp49
 70
     1
102
RTVSPropertyOp50
 70
     1
102
RTVSPropertyOp51
 70
     0
102
RTVSPropertyOp52
 70
     0
102
RTVSPropertyOp53
 70
     1
102
RTVSPropertyOp54
 70
     1
102
RTVSPropertyOp55
 70
     1
102
RTVSPropertyOp56
 70
     1
102
RTVSPropertyOp57
 70
     1
102
RTVSPost2010Prop28
280
     0
102
RTVSPost2010PropOp28
 70
     1
102
RTVSPost2010Prop29
280
     1
102
RTVSPost2010PropOp29
 70
     1
102
RTVSPost2010Prop30
280
     1
102
RTVSPost2010PropOp30
 70
     1
102
RTVSPost2010Prop31
280
     0
102
RTVSPost2010PropOp31
 70
     1
102
RTVSPost2010Prop32
280
     0
102
RTVSPost2010PropOp32
 70
     1
102
RTVSPost2010Prop33
280
     0
102
RTVSPost2010PropOp33
 70
     1
102
RTVSPost2010Prop34
280
     0
102
RTVSPost2010PropOp34
 70
     1
102
RTVSPost2010Prop35
280
     0
102
RTVSPost2010PropOp35
 70
     1
102
RTVSPost2010Prop36
280
     0
102
RTVSPost2010PropOp36
 70
     1
102
RTVSPost2010Prop37
 90
       50
102
RTVSPost2010PropOp37
 70
     1
102
RTVSPost2010Prop38
140
0.0
102
RTVSPost2010PropOp38
 70
     1
102
RTVSPost2010Prop39
140
1.0
102
RTVSPost2010PropOp39
 70
     1
102
RTVSPost2010Prop40
 90
        0
102
RTVSPost2010PropOp40
 70
     1
102
RTVSPost2010Prop41ColorIndex
 90
       18
102
RTVSPost2010Prop41ColorRGB
 90
        0
102
RTVSPost2010PropOp41
 70
     1
102
RTVSPost2010Prop42
 90
       50
102
RTVSPost2010PropOp42
 70
     1
102
RTVSPost2010Prop43
 90
        3
102
RTVSPost2010PropOp43
 70
     1
102
RTVSPost2010Prop44ColorIndex
 90
        5
102
RTVSPost2010Prop44ColorRGB
 90
      255
102
RTVSPost2010PropOp44
 70
     1
102
RTVSPost2010Prop45
280
     0
102
RTVSPost2010PropOp45
 70
     1
102
RTVSPost2010Prop46
 90
       50
102
RTVSPost2010PropOp46
 70
     1
102
RTVSPost2010Prop47
 90
       50
102
RTVSPost2010PropOp47
 70
     1
102
RTVSPost2010Prop48
 90
       50
102
RTVSPost2010PropOp48
 70
     1
102
RTVSPost2010Prop49
280
     0
102
RTVSPost2010PropOp49
 70
     1
102
RTVSPost2010Prop50
 90
       50
102
RTVSPost2010PropOp50
 70
     1
102
RTVSPost2010Prop51ColorIndex
 90
      256
102
RTVSPost2010Prop51ColorRGB
 90
-16777216
102
RTVSPost2010PropOp51
 70
     0
102
RTVSPost2010Prop52
140
1.0
102
RTVSPost2010PropOp52
 70
     0
102
RTVSPost2010Prop53
 90
        2
102
RTVSPost2010PropOp53
 70
     1
102
RTVSPost2010Prop54
  1
strokes_ogs.tif
102
RTVSPost2010PropOp54
 70
     1
102
RTVSPost2010Prop55
280
     0
102
RTVSPost2010PropOp55
 70
     1
102
RTVSPost2010Prop56
140
1.0
102
RTVSPost2010PropOp56
 70
     1
102
RTVSPost2010Prop57
140
1.0
102
RTVSPost2010PropOp57
 70
     1
  0
XRECORD
  5
382
102
{ACAD_REACTORS
330
381
102
}
330
381
100
AcDbXrecord
280
     1
102
RTVSPropertyOp0
 70
     1
102
RTVSPropertyOp1
 70
     1
102
RTVSPropertyOp2
 70
     1
102
RTVSPropertyOp3
 70
     1
102
RTVSPropertyOp4
 70
     1
102
RTVSPropertyOp5
 70
     1
102
RTVSPropertyOp6
 70
     1
102
RTVSPropertyOp7
 70
     1
102
RTVSPropertyOp8
 70
     1
102
RTVSPropertyOp9
 70
     1
102
RTVSPropertyOp10
 70
     1
102
RTVSPropertyOp11
 70
     1
102
RTVSPropertyOp12
 70
     1
102
RTVSPropertyOp13
 70
     1
102
RTVSPropertyOp14
 70
     1
102
RTVSPropertyOp15
 70
     1
102
RTVSPropertyOp16
 70
     1
102
RTVSPropertyOp17
 70
     1
102
RTVSPropertyOp18
 70
     1
102
RTVSPropertyOp19
 70
     1
102
RTVSPropertyOp20
 70
     1
102
RTVSPropertyOp21
 70
     1
102
RTVSPropertyOp22
 70
     1
102
RTVSPropertyOp23
 70
     1
102
RTVSPropertyOp24
 70
     1
102
RTVSPropertyOp25
 70
     1
102
RTVSPropertyOp26
 70
     1
102
RTVSPropertyOp27
 70
     1
102
RTVSPropertyOp28
 70
     1
102
RTVSPropertyOp29
 70
     1
102
RTVSPropertyOp30
 70
     1
102
RTVSPropertyOp31
 70
     1
102
RTVSPropertyOp32
 70
     1
102
RTVSPropertyOp33
 70
     1
102
RTVSPropertyOp34
 70
     1
102
RTVSPropertyOp35
 70
     1
102
RTVSPropertyOp36
 70
     1
102
RTVSPropertyOp37
 70
     1
102
RTVSPropertyOp38
 70
     1
102
RTVSPropertyOp39
 70
     1
102
RTVSPropertyOp40
 70
     1
102
RTVSPropertyOp41
 70
     1
102
RTVSPropertyOp42
 70
     1
102
RTVSPropertyOp43
 70
     1
102
RTVSPropertyOp44
 70
     1
102
RTVSPropertyOp45
 70
     1
102
RTVSPropertyOp46
 70
     1
102
RTVSPropertyOp47
 70
     1
102
RTVSPropertyOp48
 70
     1
102
RTVSPropertyOp49
 70
     1
102
RTVSPropertyOp50
 70
     1
102
RTVSPropertyOp51
 70
     0
102
RTVSPropertyOp52
 70
     0
102
RTVSPropertyOp53
 70
     1
102
RTVSPropertyOp54
 70
     1
102
RTVSPropertyOp55
 70
     1
102
RTVSPropertyOp56
 70
     1
102
RTVSPropertyOp57
 70
     1
102
RTVSPost2010Prop28
280
     0
102
RTVSPost2010PropOp28
 70
     1
102
RTVSPost2010Prop29
280
     1
102
RTVSPost2010PropOp29
 70
     1
102
RTVSPost2010Prop30
280
     1
102
RTVSPost2010PropOp30
 70
     1
102
RTVSPost2010Prop31
280
     0
102
RTVSPost2010PropOp31
 70
     1
102
RTVSPost2010Prop32
280
     0
102
RTVSPost2010PropOp32
 70
     1
102
RTVSPost2010Prop33
280
     0
102
RTVSPost2010PropOp33
 70
     1
102
RTVSPost2010Prop34
280
     0
102
RTVSPost2010PropOp34
 70
     1
102
RTVSPost2010Prop35
280
     0
102
RTVSPost2010PropOp35
 70
     1
102
RTVSPost2010Prop36
280
     0
102
RTVSPost2010PropOp36
 70
     1
102
RTVSPost2010Prop37
 90
       50
102
RTVSPost2010PropOp37
 70
     1
102
RTVSPost2010Prop38
140
0.0
102
RTVSPost2010PropOp38
 70
     1
102
RTVSPost2010Prop39
140
1.0
102
RTVSPost2010PropOp39
 70
     1
102
RTVSPost2010Prop40
 90
        0
102
RTVSPost2010PropOp40
 70
     1
102
RTVSPost2010Prop41ColorIndex
 90
       18
102
RTVSPost2010Prop41ColorRGB
 90
        0
102
RTVSPost2010PropOp41
 70
     1
102
RTVSPost2010Prop42
 90
       50
102
RTVSPost2010PropOp42
 70
     1
102
RTVSPost2010Prop43
 90
        3
102
RTVSPost2010PropOp43
 70
     1
102
RTVSPost2010Prop44ColorIndex
 90
        5
102
RTVSPost2010Prop44ColorRGB
 90
      255
102
RTVSPost2010PropOp44
 70
     1
102
RTVSPost2010Prop45
280
     0
102
RTVSPost2010PropOp45
 70
     1
102
RTVSPost2010Prop46
 90
       50
102
RTVSPost2010PropOp46
 70
     1
102
RTVSPost2010Prop47
 90
       50
102
RTVSPost2010PropOp47
 70
     1
102
RTVSPost2010Prop48
 90
       50
102
RTVSPost2010PropOp48
 70
     1
102
RTVSPost2010Prop49
280
     0
102
RTVSPost2010PropOp49
 70
     1
102
RTVSPost2010Prop50
 90
       50
102
RTVSPost2010PropOp50
 70
     1
102
RTVSPost2010Prop51ColorIndex
 90
      256
102
RTVSPost2010Prop51ColorRGB
 90
-16777216
102
RTVSPost2010PropOp51
 70
     0
102
RTVSPost2010Prop52
140
1.0
102
RTVSPost2010PropOp52
 70
     0
102
RTVSPost2010Prop53
 90
        2
102
RTVSPost2010PropOp53
 70
     1
102
RTVSPost2010Prop54
  1
strokes_ogs.tif
102
RTVSPost2010PropOp54
 70
     1
102
RTVSPost2010Prop55
280
     0
102
RTVSPost2010PropOp55
 70
     1
102
RTVSPost2010Prop56
140
1.0
102
RTVSPost2010PropOp56
 70
     1
102
RTVSPost2010Prop57
140
1.0
102
RTVSPost2010PropOp57
 70
     1
  0
XRECORD
  5
384
102
{ACAD_REACTORS
330
383
102
}
330
383
100
AcDbXrecord
280
     1
102
RTVSPropertyOp0
 70
     1
102
RTVSPropertyOp1
 70
     1
102
RTVSPropertyOp2
 70
     1
102
RTVSPropertyOp3
 70
     1
102
RTVSPropertyOp4
 70
     1
102
RTVSPropertyOp5
 70
     1
102
RTVSPropertyOp6
 70
     1
102
RTVSPropertyOp7
 70
     1
102
RTVSPropertyOp8
 70
     1
102
RTVSPropertyOp9
 70
     1
102
RTVSPropertyOp10
 70
     1
102
RTVSPropertyOp11
 70
     1
102
RTVSPropertyOp12
 70
     1
102
RTVSPropertyOp13
 70
     1
102
RTVSPropertyOp14
 70
     1
102
RTVSPropertyOp15
 70
     1
102
RTVSPropertyOp16
 70
     1
102
RTVSPropertyOp17
 70
     1
102
RTVSPropertyOp18
 70
     1
102
RTVSPropertyOp19
 70
     1
102
RTVSPropertyOp20
 70
     1
102
RTVSPropertyOp21
 70
     1
102
RTVSPropertyOp22
 70
     1
102
RTVSPropertyOp23
 70
     1
102
RTVSPropertyOp24
 70
     1
102
RTVSPropertyOp25
 70
     1
102
RTVSPropertyOp26
 70
     1
102
RTVSPropertyOp27
 70
     1
102
RTVSPropertyOp28
 70
     1
102
RTVSPropertyOp29
 70
     1
102
RTVSPropertyOp30
 70
     1
102
RTVSPropertyOp31
 70
     1
102
RTVSPropertyOp32
 70
     1
102
RTVSPropertyOp33
 70
     1
102
RTVSPropertyOp34
 70
     1
102
RTVSPropertyOp35
 70
     1
102
RTVSPropertyOp36
 70
     1
102
RTVSPropertyOp37
 70
     1
102
RTVSPropertyOp38
 70
     1
102
RTVSPropertyOp39
 70
     1
102
RTVSPropertyOp40
 70
     1
102
RTVSPropertyOp41
 70
     1
102
RTVSPropertyOp42
 70
     1
102
RTVSPropertyOp43
 70
     1
102
RTVSPropertyOp44
 70
     1
102
RTVSPropertyOp45
 70
     1
102
RTVSPropertyOp46
 70
     1
102
RTVSPropertyOp47
 70
     1
102
RTVSPropertyOp48
 70
     1
102
RTVSPropertyOp49
 70
     1
102
RTVSPropertyOp50
 70
     1
102
RTVSPropertyOp51
 70
     0
102
RTVSPropertyOp52
 70
     0
102
RTVSPropertyOp53
 70
     1
102
RTVSPropertyOp54
 70
     1
102
RTVSPropertyOp55
 70
     1
102
RTVSPropertyOp56
 70
     1
102
RTVSPropertyOp57
 70
     1
102
RTVSPost2010Prop28
280
     0
102
RTVSPost2010PropOp28
 70
     1
102
RTVSPost2010Prop29
280
     1
102
RTVSPost2010PropOp29
 70
     1
102
RTVSPost2010Prop30
280
     1
102
RTVSPost2010PropOp30
 70
     1
102
RTVSPost2010Prop31
280
     0
102
RTVSPost2010PropOp31
 70
     1
102
RTVSPost2010Prop32
280
     0
102
RTVSPost2010PropOp32
 70
     1
102
RTVSPost2010Prop33
280
     0
102
RTVSPost2010PropOp33
 70
     1
102
RTVSPost2010Prop34
280
     0
102
RTVSPost2010PropOp34
 70
     1
102
RTVSPost2010Prop35
280
     0
102
RTVSPost2010PropOp35
 70
     1
102
RTVSPost2010Prop36
280
     0
102
RTVSPost2010PropOp36
 70
     1
102
RTVSPost2010Prop37
 90
       50
102
RTVSPost2010PropOp37
 70
     1
102
RTVSPost2010Prop38
140
0.0
102
RTVSPost2010PropOp38
 70
     1
102
RTVSPost2010Prop39
140
1.0
102
RTVSPost2010PropOp39
 70
     1
102
RTVSPost2010Prop40
 90
        0
102
RTVSPost2010PropOp40
 70
     1
102
RTVSPost2010Prop41ColorIndex
 90
       18
102
RTVSPost2010Prop41ColorRGB
 90
        0
102
RTVSPost2010PropOp41
 70
     1
102
RTVSPost2010Prop42
 90
       50
102
RTVSPost2010PropOp42
 70
     1
102
RTVSPost2010Prop43
 90
        3
102
RTVSPost2010PropOp43
 70
     1
102
RTVSPost2010Prop44ColorIndex
 90
        5
102
RTVSPost2010Prop44ColorRGB
 90
      255
102
RTVSPost2010PropOp44
 70
     1
102
RTVSPost2010Prop45
280
     0
102
RTVSPost2010PropOp45
 70
     1
102
RTVSPost2010Prop46
 90
       50
102
RTVSPost2010PropOp46
 70
     1
102
RTVSPost2010Prop47
 90
       50
102
RTVSPost2010PropOp47
 70
     1
102
RTVSPost2010Prop48
 90
       50
102
RTVSPost2010PropOp48
 70
     1
102
RTVSPost2010Prop49
280
     0
102
RTVSPost2010PropOp49
 70
     1
102
RTVSPost2010Prop50
 90
       50
102
RTVSPost2010PropOp50
 70
     1
102
RTVSPost2010Prop51ColorIndex
 90
      256
102
RTVSPost2010Prop51ColorRGB
 90
-16777216
102
RTVSPost2010PropOp51
 70
     0
102
RTVSPost2010Prop52
140
1.0
102
RTVSPost2010PropOp52
 70
     0
102
RTVSPost2010Prop53
 90
        2
102
RTVSPost2010PropOp53
 70
     1
102
RTVSPost2010Prop54
  1
strokes_ogs.tif
102
RTVSPost2010PropOp54
 70
     1
102
RTVSPost2010Prop55
280
     0
102
RTVSPost2010PropOp55
 70
     1
102
RTVSPost2010Prop56
140
1.0
102
RTVSPost2010PropOp56
 70
     1
102
RTVSPost2010Prop57
140
1.0
102
RTVSPost2010PropOp57
 70
     1
  0
XRECORD
  5
394
102
{ACAD_REACTORS
330
393
102
}
330
393
100
AcDbXrecord
280
     1
102
RTVSPropertyOp0
 70
     0
102
RTVSPropertyOp1
 70
     0
102
RTVSPropertyOp2
 70
     0
102
RTVSPropertyOp3
 70
     0
102
RTVSPropertyOp4
 70
     0
102
RTVSPropertyOp5
 70
     0
102
RTVSPropertyOp6
 70
     0
102
RTVSPropertyOp7
 70
     0
102
RTVSPropertyOp8
 70
     0
102
RTVSPropertyOp9
 70
     0
102
RTVSPropertyOp10
 70
     0
102
RTVSPropertyOp11
 70
     0
102
RTVSPropertyOp12
 70
     0
102
RTVSPropertyOp13
 70
     0
102
RTVSPropertyOp14
 70
     2
102
RTVSPropertyOp15
 70
     0
102
RTVSPropertyOp16
 70
     0
102
RTVSPropertyOp17
 70
     0
102
RTVSPropertyOp18
 70
     0
102
RTVSPropertyOp19
 70
     0
102
RTVSPropertyOp20
 70
     0
102
RTVSPropertyOp21
 70
     0
102
RTVSPropertyOp22
 70
     0
102
RTVSPropertyOp23
 70
     0
102
RTVSPropertyOp24
 70
     0
102
RTVSPropertyOp25
 70
     0
102
RTVSPropertyOp26
 70
     0
102
RTVSPropertyOp27
 70
     0
102
RTVSPropertyOp28
 70
     0
102
RTVSPropertyOp29
 70
     0
102
RTVSPropertyOp30
 70
     0
102
RTVSPropertyOp31
 70
     0
102
RTVSPropertyOp32
 70
     0
102
RTVSPropertyOp33
 70
     0
102
RTVSPropertyOp34
 70
     0
102
RTVSPropertyOp35
 70
     0
102
RTVSPropertyOp36
 70
     0
102
RTVSPropertyOp37
 70
     0
102
RTVSPropertyOp38
 70
     0
102
RTVSPropertyOp39
 70
     0
102
RTVSPropertyOp40
 70
     0
102
RTVSPropertyOp41
 70
     0
102
RTVSPropertyOp42
 70
     0
102
RTVSPropertyOp43
 70
     0
102
RTVSPropertyOp44
 70
     0
102
RTVSPropertyOp45
 70
     0
102
RTVSPropertyOp46
 70
     0
102
RTVSPropertyOp47
 70
     0
102
RTVSPropertyOp48
 70
     0
102
RTVSPropertyOp49
 70
     0
102
RTVSPropertyOp50
 70
     0
102
RTVSPropertyOp51
 70
     0
102
RTVSPropertyOp52
 70
     0
102
RTVSPropertyOp53
 70
     0
102
RTVSPropertyOp54
 70
     0
102
RTVSPropertyOp55
 70
     0
102
RTVSPropertyOp56
 70
     0
102
RTVSPropertyOp57
 70
     0
102
RTVSPost2010Prop28
280
     0
102
RTVSPost2010PropOp28
 70
     0
102
RTVSPost2010Prop29
280
     1
102
RTVSPost2010PropOp29
 70
     0
102
RTVSPost2010Prop30
280
     1
102
RTVSPost2010PropOp30
 70
     0
102
RTVSPost2010Prop31
280
     0
102
RTVSPost2010PropOp31
 70
     0
102
RTVSPost2010Prop32
280
     0
102
RTVSPost2010PropOp32
 70
     0
102
RTVSPost2010Prop33
280
     0
102
RTVSPost2010PropOp33
 70
     0
102
RTVSPost2010Prop34
280
     0
102
RTVSPost2010PropOp34
 70
     0
102
RTVSPost2010Prop35
280
     0
102
RTVSPost2010PropOp35
 70
     0
102
RTVSPost2010Prop36
280
     0
102
RTVSPost2010PropOp36
 70
     0
102
RTVSPost2010Prop37
 90
       50
102
RTVSPost2010PropOp37
 70
     0
102
RTVSPost2010Prop38
140
0.0
102
RTVSPost2010PropOp38
 70
     0
102
RTVSPost2010Prop39
140
1.0
102
RTVSPost2010PropOp39
 70
     0
102
RTVSPost2010Prop40
 90
        0
102
RTVSPost2010PropOp40
 70
     0
102
RTVSPost2010Prop41ColorIndex
 90
       18
102
RTVSPost2010Prop41ColorRGB
 90
        0
102
RTVSPost2010PropOp41
 70
     0
102
RTVSPost2010Prop42
 90
       50
102
RTVSPost2010PropOp42
 70
     0
102
RTVSPost2010Prop43
 90
        3
102
RTVSPost2010PropOp43
 70
     0
102
RTVSPost2010Prop44ColorIndex
 90
        5
102
RTVSPost2010Prop44ColorRGB
 90
      255
102
RTVSPost2010PropOp44
 70
     0
102
RTVSPost2010Prop45
280
     0
102
RTVSPost2010PropOp45
 70
     0
102
RTVSPost2010Prop46
 90
       50
102
RTVSPost2010PropOp46
 70
     0
102
RTVSPost2010Prop47
 90
       50
102
RTVSPost2010PropOp47
 70
     0
102
RTVSPost2010Prop48
 90
       50
102
RTVSPost2010PropOp48
 70
     0
102
RTVSPost2010Prop49
280
     0
102
RTVSPost2010PropOp49
 70
     0
102
RTVSPost2010Prop50
 90
       50
102
RTVSPost2010PropOp50
 70
     0
102
RTVSPost2010Prop51ColorIndex
 90
      256
102
RTVSPost2010Prop51ColorRGB
 90
-16777216
102
RTVSPost2010PropOp51
 70
     0
102
RTVSPost2010Prop52
140
1.0
102
RTVSPost2010PropOp52
 70
     0
102
RTVSPost2010Prop53
 90
        2
102
RTVSPost2010PropOp53
 70
     0
102
RTVSPost2010Prop54
  1
strokes_ogs.tif
102
RTVSPost2010PropOp54
 70
     0
102
RTVSPost2010Prop55
280
     0
102
RTVSPost2010PropOp55
 70
     0
102
RTVSPost2010Prop56
140
1.0
102
RTVSPost2010PropOp56
 70
     0
102
RTVSPost2010Prop57
140
1.0
102
RTVSPost2010PropOp57
 70
     0
  0
XRECORD
  5
38C
102
{ACAD_REACTORS
330
38B
102
}
330
38B
100
AcDbXrecord
280
     1
102
RTVSPropertyOp0
 70
     1
102
RTVSPropertyOp1
 70
     1
102
RTVSPropertyOp2
 70
     1
102
RTVSPropertyOp3
 70
     1
102
RTVSPropertyOp4
 70
     1
102
RTVSPropertyOp5
 70
     1
102
RTVSPropertyOp6
 70
     1
102
RTVSPropertyOp7
 70
     1
102
RTVSPropertyOp8
 70
     1
102
RTVSPropertyOp9
 70
     1
102
RTVSPropertyOp10
 70
     1
102
RTVSPropertyOp11
 70
     1
102
RTVSPropertyOp12
 70
     1
102
RTVSPropertyOp13
 70
     1
102
RTVSPropertyOp14
 70
     1
102
RTVSPropertyOp15
 70
     1
102
RTVSPropertyOp16
 70
     1
102
RTVSPropertyOp17
 70
     1
102
RTVSPropertyOp18
 70
     1
102
RTVSPropertyOp19
 70
     1
102
RTVSPropertyOp20
 70
     1
102
RTVSPropertyOp21
 70
     1
102
RTVSPropertyOp22
 70
     1
102
RTVSPropertyOp23
 70
     1
102
RTVSPropertyOp24
 70
     1
102
RTVSPropertyOp25
 70
     1
102
RTVSPropertyOp26
 70
     1
102
RTVSPropertyOp27
 70
     1
102
RTVSPropertyOp28
 70
     1
102
RTVSPropertyOp29
 70
     1
102
RTVSPropertyOp30
 70
     1
102
RTVSPropertyOp31
 70
     1
102
RTVSPropertyOp32
 70
     1
102
RTVSPropertyOp33
 70
     1
102
RTVSPropertyOp34
 70
     1
102
RTVSPropertyOp35
 70
     1
102
RTVSPropertyOp36
 70
     1
102
RTVSPropertyOp37
 70
     1
102
RTVSPropertyOp38
 70
     1
102
RTVSPropertyOp39
 70
     1
102
RTVSPropertyOp40
 70
     1
102
RTVSPropertyOp41
 70
     1
102
RTVSPropertyOp42
 70
     1
102
RTVSPropertyOp43
 70
     1
102
RTVSPropertyOp44
 70
     1
102
RTVSPropertyOp45
 70
     1
102
RTVSPropertyOp46
 70
     1
102
RTVSPropertyOp47
 70
     1
102
RTVSPropertyOp48
 70
     1
102
RTVSPropertyOp49
 70
     1
102
RTVSPropertyOp50
 70
     1
102
RTVSPropertyOp51
 70
     0
102
RTVSPropertyOp52
 70
     0
102
RTVSPropertyOp53
 70
     1
102
RTVSPropertyOp54
 70
     1
102
RTVSPropertyOp55
 70
     1
102
RTVSPropertyOp56
 70
     1
102
RTVSPropertyOp57
 70
     1
102
RTVSPost2010Prop28
280
     0
102
RTVSPost2010PropOp28
 70
     1
102
RTVSPost2010Prop29
280
     1
102
RTVSPost2010PropOp29
 70
     1
102
RTVSPost2010Prop30
280
     1
102
RTVSPost2010PropOp30
 70
     1
102
RTVSPost2010Prop31
280
     0
102
RTVSPost2010PropOp31
 70
     1
102
RTVSPost2010Prop32
280
     0
102
RTVSPost2010PropOp32
 70
     1
102
RTVSPost2010Prop33
280
     0
102
RTVSPost2010PropOp33
 70
     1
102
RTVSPost2010Prop34
280
     0
102
RTVSPost2010PropOp34
 70
     1
102
RTVSPost2010Prop35
280
     0
102
RTVSPost2010PropOp35
 70
     1
102
RTVSPost2010Prop36
280
     0
102
RTVSPost2010PropOp36
 70
     1
102
RTVSPost2010Prop37
 90
       50
102
RTVSPost2010PropOp37
 70
     1
102
RTVSPost2010Prop38
140
0.0
102
RTVSPost2010PropOp38
 70
     1
102
RTVSPost2010Prop39
140
1.0
102
RTVSPost2010PropOp39
 70
     1
102
RTVSPost2010Prop40
 90
        0
102
RTVSPost2010PropOp40
 70
     1
102
RTVSPost2010Prop41ColorIndex
 90
       18
102
RTVSPost2010Prop41ColorRGB
 90
        0
102
RTVSPost2010PropOp41
 70
     1
102
RTVSPost2010Prop42
 90
       50
102
RTVSPost2010PropOp42
 70
     1
102
RTVSPost2010Prop43
 90
        3
102
RTVSPost2010PropOp43
 70
     1
102
RTVSPost2010Prop44ColorIndex
 90
        5
102
RTVSPost2010Prop44ColorRGB
 90
      255
102
RTVSPost2010PropOp44
 70
     1
102
RTVSPost2010Prop45
280
     0
102
RTVSPost2010PropOp45
 70
     1
102
RTVSPost2010Prop46
 90
       50
102
RTVSPost2010PropOp46
 70
     1
102
RTVSPost2010Prop47
 90
       50
102
RTVSPost2010PropOp47
 70
     1
102
RTVSPost2010Prop48
 90
       50
102
RTVSPost2010PropOp48
 70
     1
102
RTVSPost2010Prop49
280
     0
102
RTVSPost2010PropOp49
 70
     1
102
RTVSPost2010Prop50
 90
       50
102
RTVSPost2010PropOp50
 70
     1
102
RTVSPost2010Prop51ColorIndex
 90
      256
102
RTVSPost2010Prop51ColorRGB
 90
-16777216
102
RTVSPost2010PropOp51
 70
     0
102
RTVSPost2010Prop52
140
1.0
102
RTVSPost2010PropOp52
 70
     0
102
RTVSPost2010Prop53
 90
        2
102
RTVSPost2010PropOp53
 70
     1
102
RTVSPost2010Prop54
  1
strokes_ogs.tif
102
RTVSPost2010PropOp54
 70
     1
102
RTVSPost2010Prop55
280
     0
102
RTVSPost2010PropOp55
 70
     1
102
RTVSPost2010Prop56
140
1.0
102
RTVSPost2010PropOp56
 70
     1
102
RTVSPost2010Prop57
140
1.0
102
RTVSPost2010PropOp57
 70
     1
  0
XRECORD
  5
370
102
{ACAD_REACTORS
330
36F
102
}
330
36F
100
AcDbXrecord
280
     1
102
RTVSPropertyOp0
 70
     1
102
RTVSPropertyOp1
 70
     1
102
RTVSPropertyOp2
 70
     1
102
RTVSPropertyOp3
 70
     1
102
RTVSPropertyOp4
 70
     1
102
RTVSPropertyOp5
 70
     1
102
RTVSPropertyOp6
 70
     1
102
RTVSPropertyOp7
 70
     1
102
RTVSPropertyOp8
 70
     1
102
RTVSPropertyOp9
 70
     1
102
RTVSPropertyOp10
 70
     1
102
RTVSPropertyOp11
 70
     1
102
RTVSPropertyOp12
 70
     1
102
RTVSPropertyOp13
 70
     1
102
RTVSPropertyOp14
 70
     1
102
RTVSPropertyOp15
 70
     1
102
RTVSPropertyOp16
 70
     1
102
RTVSPropertyOp17
 70
     1
102
RTVSPropertyOp18
 70
     1
102
RTVSPropertyOp19
 70
     1
102
RTVSPropertyOp20
 70
     1
102
RTVSPropertyOp21
 70
     1
102
RTVSPropertyOp22
 70
     1
102
RTVSPropertyOp23
 70
     1
102
RTVSPropertyOp24
 70
     1
102
RTVSPropertyOp25
 70
     1
102
RTVSPropertyOp26
 70
     1
102
RTVSPropertyOp27
 70
     1
102
RTVSPropertyOp28
 70
     1
102
RTVSPropertyOp29
 70
     1
102
RTVSPropertyOp30
 70
     1
102
RTVSPropertyOp31
 70
     1
102
RTVSPropertyOp32
 70
     1
102
RTVSPropertyOp33
 70
     1
102
RTVSPropertyOp34
 70
     1
102
RTVSPropertyOp35
 70
     1
102
RTVSPropertyOp36
 70
     1
102
RTVSPropertyOp37
 70
     1
102
RTVSPropertyOp38
 70
     1
102
RTVSPropertyOp39
 70
     1
102
RTVSPropertyOp40
 70
     1
102
RTVSPropertyOp41
 70
     1
102
RTVSPropertyOp42
 70
     1
102
RTVSPropertyOp43
 70
     1
102
RTVSPropertyOp44
 70
     1
102
RTVSPropertyOp45
 70
     1
102
RTVSPropertyOp46
 70
     1
102
RTVSPropertyOp47
 70
     1
102
RTVSPropertyOp48
 70
     1
102
RTVSPropertyOp49
 70
     1
102
RTVSPropertyOp50
 70
     1
102
RTVSPropertyOp51
 70
     0
102
RTVSPropertyOp52
 70
     0
102
RTVSPropertyOp53
 70
     1
102
RTVSPropertyOp54
 70
     1
102
RTVSPropertyOp55
 70
     1
102
RTVSPropertyOp56
 70
     1
102
RTVSPropertyOp57
 70
     1
102
RTVSPost2010Prop28
280
     0
102
RTVSPost2010PropOp28
 70
     1
102
RTVSPost2010Prop29
280
     1
102
RTVSPost2010PropOp29
 70
     1
102
RTVSPost2010Prop30
280
     1
102
RTVSPost2010PropOp30
 70
     1
102
RTVSPost2010Prop31
280
     0
102
RTVSPost2010PropOp31
 70
     1
102
RTVSPost2010Prop32
280
     0
102
RTVSPost2010PropOp32
 70
     1
102
RTVSPost2010Prop33
280
     0
102
RTVSPost2010PropOp33
 70
     1
102
RTVSPost2010Prop34
280
     0
102
RTVSPost2010PropOp34
 70
     1
102
RTVSPost2010Prop35
280
     0
102
RTVSPost2010PropOp35
 70
     1
102
RTVSPost2010Prop36
280
     0
102
RTVSPost2010PropOp36
 70
     1
102
RTVSPost2010Prop37
 90
       50
102
RTVSPost2010PropOp37
 70
     1
102
RTVSPost2010Prop38
140
0.0
102
RTVSPost2010PropOp38
 70
     1
102
RTVSPost2010Prop39
140
1.0
102
RTVSPost2010PropOp39
 70
     1
102
RTVSPost2010Prop40
 90
        0
102
RTVSPost2010PropOp40
 70
     1
102
RTVSPost2010Prop41ColorIndex
 90
       18
102
RTVSPost2010Prop41ColorRGB
 90
        0
102
RTVSPost2010PropOp41
 70
     1
102
RTVSPost2010Prop42
 90
       50
102
RTVSPost2010PropOp42
 70
     1
102
RTVSPost2010Prop43
 90
        3
102
RTVSPost2010PropOp43
 70
     1
102
RTVSPost2010Prop44ColorIndex
 90
        5
102
RTVSPost2010Prop44ColorRGB
 90
      255
102
RTVSPost2010PropOp44
 70
     1
102
RTVSPost2010Prop45
280
     0
102
RTVSPost2010PropOp45
 70
     1
102
RTVSPost2010Prop46
 90
       50
102
RTVSPost2010PropOp46
 70
     1
102
RTVSPost2010Prop47
 90
       50
102
RTVSPost2010PropOp47
 70
     1
102
RTVSPost2010Prop48
 90
       50
102
RTVSPost2010PropOp48
 70
     1
102
RTVSPost2010Prop49
280
     0
102
RTVSPost2010PropOp49
 70
     1
102
RTVSPost2010Prop50
 90
       50
102
RTVSPost2010PropOp50
 70
     1
102
RTVSPost2010Prop51ColorIndex
 90
      256
102
RTVSPost2010Prop51ColorRGB
 90
-16777216
102
RTVSPost2010PropOp51
 70
     0
102
RTVSPost2010Prop52
140
1.0
102
RTVSPost2010PropOp52
 70
     0
102
RTVSPost2010Prop53
 90
        2
102
RTVSPost2010PropOp53
 70
     1
102
RTVSPost2010Prop54
  1
strokes_ogs.tif
102
RTVSPost2010PropOp54
 70
     1
102
RTVSPost2010Prop55
280
     0
102
RTVSPost2010PropOp55
 70
     1
102
RTVSPost2010Prop56
140
1.0
102
RTVSPost2010PropOp56
 70
     1
102
RTVSPost2010Prop57
140
1.0
102
RTVSPost2010PropOp57
 70
     1
  0
XRECORD
  5
372
102
{ACAD_REACTORS
330
371
102
}
330
371
100
AcDbXrecord
280
     1
102
RTVSPropertyOp0
 70
     1
102
RTVSPropertyOp1
 70
     1
102
RTVSPropertyOp2
 70
     1
102
RTVSPropertyOp3
 70
     1
102
RTVSPropertyOp4
 70
     1
102
RTVSPropertyOp5
 70
     1
102
RTVSPropertyOp6
 70
     1
102
RTVSPropertyOp7
 70
     1
102
RTVSPropertyOp8
 70
     1
102
RTVSPropertyOp9
 70
     1
102
RTVSPropertyOp10
 70
     1
102
RTVSPropertyOp11
 70
     1
102
RTVSPropertyOp12
 70
     1
102
RTVSPropertyOp13
 70
     1
102
RTVSPropertyOp14
 70
     1
102
RTVSPropertyOp15
 70
     1
102
RTVSPropertyOp16
 70
     1
102
RTVSPropertyOp17
 70
     1
102
RTVSPropertyOp18
 70
     1
102
RTVSPropertyOp19
 70
     1
102
RTVSPropertyOp20
 70
     1
102
RTVSPropertyOp21
 70
     1
102
RTVSPropertyOp22
 70
     1
102
RTVSPropertyOp23
 70
     1
102
RTVSPropertyOp24
 70
     1
102
RTVSPropertyOp25
 70
     1
102
RTVSPropertyOp26
 70
     1
102
RTVSPropertyOp27
 70
     1
102
RTVSPropertyOp28
 70
     1
102
RTVSPropertyOp29
 70
     1
102
RTVSPropertyOp30
 70
     1
102
RTVSPropertyOp31
 70
     1
102
RTVSPropertyOp32
 70
     1
102
RTVSPropertyOp33
 70
     1
102
RTVSPropertyOp34
 70
     1
102
RTVSPropertyOp35
 70
     1
102
RTVSPropertyOp36
 70
     1
102
RTVSPropertyOp37
 70
     1
102
RTVSPropertyOp38
 70
     1
102
RTVSPropertyOp39
 70
     1
102
RTVSPropertyOp40
 70
     1
102
RTVSPropertyOp41
 70
     1
102
RTVSPropertyOp42
 70
     1
102
RTVSPropertyOp43
 70
     1
102
RTVSPropertyOp44
 70
     1
102
RTVSPropertyOp45
 70
     1
102
RTVSPropertyOp46
 70
     1
102
RTVSPropertyOp47
 70
     1
102
RTVSPropertyOp48
 70
     1
102
RTVSPropertyOp49
 70
     1
102
RTVSPropertyOp50
 70
     1
102
RTVSPropertyOp51
 70
     0
102
RTVSPropertyOp52
 70
     0
102
RTVSPropertyOp53
 70
     1
102
RTVSPropertyOp54
 70
     1
102
RTVSPropertyOp55
 70
     1
102
RTVSPropertyOp56
 70
     1
102
RTVSPropertyOp57
 70
     1
102
RTVSPost2010Prop28
280
     0
102
RTVSPost2010PropOp28
 70
     1
102
RTVSPost2010Prop29
280
     1
102
RTVSPost2010PropOp29
 70
     1
102
RTVSPost2010Prop30
280
     1
102
RTVSPost2010PropOp30
 70
     1
102
RTVSPost2010Prop31
280
     0
102
RTVSPost2010PropOp31
 70
     1
102
RTVSPost2010Prop32
280
     0
102
RTVSPost2010PropOp32
 70
     1
102
RTVSPost2010Prop33
280
     0
102
RTVSPost2010PropOp33
 70
     1
102
RTVSPost2010Prop34
280
     0
102
RTVSPost2010PropOp34
 70
     1
102
RTVSPost2010Prop35
280
     0
102
RTVSPost2010PropOp35
 70
     1
102
RTVSPost2010Prop36
280
     0
102
RTVSPost2010PropOp36
 70
     1
102
RTVSPost2010Prop37
 90
       50
102
RTVSPost2010PropOp37
 70
     1
102
RTVSPost2010Prop38
140
0.0
102
RTVSPost2010PropOp38
 70
     1
102
RTVSPost2010Prop39
140
1.0
102
RTVSPost2010PropOp39
 70
     1
102
RTVSPost2010Prop40
 90
        0
102
RTVSPost2010PropOp40
 70
     1
102
RTVSPost2010Prop41ColorIndex
 90
       18
102
RTVSPost2010Prop41ColorRGB
 90
        0
102
RTVSPost2010PropOp41
 70
     1
102
RTVSPost2010Prop42
 90
       50
102
RTVSPost2010PropOp42
 70
     1
102
RTVSPost2010Prop43
 90
        3
102
RTVSPost2010PropOp43
 70
     1
102
RTVSPost2010Prop44ColorIndex
 90
        5
102
RTVSPost2010Prop44ColorRGB
 90
      255
102
RTVSPost2010PropOp44
 70
     1
102
RTVSPost2010Prop45
280
     0
102
RTVSPost2010PropOp45
 70
     1
102
RTVSPost2010Prop46
 90
       50
102
RTVSPost2010PropOp46
 70
     1
102
RTVSPost2010Prop47
 90
       50
102
RTVSPost2010PropOp47
 70
     1
102
RTVSPost2010Prop48
 90
       50
102
RTVSPost2010PropOp48
 70
     1
102
RTVSPost2010Prop49
280
     0
102
RTVSPost2010PropOp49
 70
     1
102
RTVSPost2010Prop50
 90
       50
102
RTVSPost2010PropOp50
 70
     1
102
RTVSPost2010Prop51ColorIndex
 90
      256
102
RTVSPost2010Prop51ColorRGB
 90
-16777216
102
RTVSPost2010PropOp51
 70
     0
102
RTVSPost2010Prop52
140
1.0
102
RTVSPost2010PropOp52
 70
     0
102
RTVSPost2010Prop53
 90
        2
102
RTVSPost2010PropOp53
 70
     1
102
RTVSPost2010Prop54
  1
strokes_ogs.tif
102
RTVSPost2010PropOp54
 70
     1
102
RTVSPost2010Prop55
280
     0
102
RTVSPost2010PropOp55
 70
     1
102
RTVSPost2010Prop56
140
1.0
102
RTVSPost2010PropOp56
 70
     1
102
RTVSPost2010Prop57
140
1.0
102
RTVSPost2010PropOp57
 70
     1
  0
XRECORD
  5
374
102
{ACAD_REACTORS
330
373
102
}
330
373
100
AcDbXrecord
280
     1
102
RTVSPropertyOp0
 70
     1
102
RTVSPropertyOp1
 70
     1
102
RTVSPropertyOp2
 70
     1
102
RTVSPropertyOp3
 70
     1
102
RTVSPropertyOp4
 70
     1
102
RTVSPropertyOp5
 70
     1
102
RTVSPropertyOp6
 70
     1
102
RTVSPropertyOp7
 70
     1
102
RTVSPropertyOp8
 70
     1
102
RTVSPropertyOp9
 70
     1
102
RTVSPropertyOp10
 70
     1
102
RTVSPropertyOp11
 70
     1
102
RTVSPropertyOp12
 70
     1
102
RTVSPropertyOp13
 70
     1
102
RTVSPropertyOp14
 70
     1
102
RTVSPropertyOp15
 70
     1
102
RTVSPropertyOp16
 70
     1
102
RTVSPropertyOp17
 70
     1
102
RTVSPropertyOp18
 70
     1
102
RTVSPropertyOp19
 70
     1
102
RTVSPropertyOp20
 70
     1
102
RTVSPropertyOp21
 70
     1
102
RTVSPropertyOp22
 70
     1
102
RTVSPropertyOp23
 70
     1
102
RTVSPropertyOp24
 70
     1
102
RTVSPropertyOp25
 70
     1
102
RTVSPropertyOp26
 70
     1
102
RTVSPropertyOp27
 70
     1
102
RTVSPropertyOp28
 70
     1
102
RTVSPropertyOp29
 70
     1
102
RTVSPropertyOp30
 70
     1
102
RTVSPropertyOp31
 70
     1
102
RTVSPropertyOp32
 70
     1
102
RTVSPropertyOp33
 70
     1
102
RTVSPropertyOp34
 70
     1
102
RTVSPropertyOp35
 70
     1
102
RTVSPropertyOp36
 70
     1
102
RTVSPropertyOp37
 70
     1
102
RTVSPropertyOp38
 70
     1
102
RTVSPropertyOp39
 70
     1
102
RTVSPropertyOp40
 70
     1
102
RTVSPropertyOp41
 70
     1
102
RTVSPropertyOp42
 70
     1
102
RTVSPropertyOp43
 70
     1
102
RTVSPropertyOp44
 70
     1
102
RTVSPropertyOp45
 70
     1
102
RTVSPropertyOp46
 70
     1
102
RTVSPropertyOp47
 70
     1
102
RTVSPropertyOp48
 70
     1
102
RTVSPropertyOp49
 70
     1
102
RTVSPropertyOp50
 70
     1
102
RTVSPropertyOp51
 70
     0
102
RTVSPropertyOp52
 70
     0
102
RTVSPropertyOp53
 70
     1
102
RTVSPropertyOp54
 70
     1
102
RTVSPropertyOp55
 70
     1
102
RTVSPropertyOp56
 70
     1
102
RTVSPropertyOp57
 70
     1
102
RTVSPost2010Prop28
280
     0
102
RTVSPost2010PropOp28
 70
     1
102
RTVSPost2010Prop29
280
     1
102
RTVSPost2010PropOp29
 70
     1
102
RTVSPost2010Prop30
280
     1
102
RTVSPost2010PropOp30
 70
     1
102
RTVSPost2010Prop31
280
     0
102
RTVSPost2010PropOp31
 70
     1
102
RTVSPost2010Prop32
280
     0
102
RTVSPost2010PropOp32
 70
     1
102
RTVSPost2010Prop33
280
     0
102
RTVSPost2010PropOp33
 70
     1
102
RTVSPost2010Prop34
280
     0
102
RTVSPost2010PropOp34
 70
     1
102
RTVSPost2010Prop35
280
     0
102
RTVSPost2010PropOp35
 70
     1
102
RTVSPost2010Prop36
280
     0
102
RTVSPost2010PropOp36
 70
     1
102
RTVSPost2010Prop37
 90
       50
102
RTVSPost2010PropOp37
 70
     1
102
RTVSPost2010Prop38
140
0.0
102
RTVSPost2010PropOp38
 70
     1
102
RTVSPost2010Prop39
140
1.0
102
RTVSPost2010PropOp39
 70
     1
102
RTVSPost2010Prop40
 90
        0
102
RTVSPost2010PropOp40
 70
     1
102
RTVSPost2010Prop41ColorIndex
 90
       18
102
RTVSPost2010Prop41ColorRGB
 90
        0
102
RTVSPost2010PropOp41
 70
     1
102
RTVSPost2010Prop42
 90
       50
102
RTVSPost2010PropOp42
 70
     1
102
RTVSPost2010Prop43
 90
        3
102
RTVSPost2010PropOp43
 70
     1
102
RTVSPost2010Prop44ColorIndex
 90
        5
102
RTVSPost2010Prop44ColorRGB
 90
      255
102
RTVSPost2010PropOp44
 70
     1
102
RTVSPost2010Prop45
280
     0
102
RTVSPost2010PropOp45
 70
     1
102
RTVSPost2010Prop46
 90
       50
102
RTVSPost2010PropOp46
 70
     1
102
RTVSPost2010Prop47
 90
       50
102
RTVSPost2010PropOp47
 70
     1
102
RTVSPost2010Prop48
 90
       50
102
RTVSPost2010PropOp48
 70
     1
102
RTVSPost2010Prop49
280
     0
102
RTVSPost2010PropOp49
 70
     1
102
RTVSPost2010Prop50
 90
       50
102
RTVSPost2010PropOp50
 70
     1
102
RTVSPost2010Prop51ColorIndex
 90
      256
102
RTVSPost2010Prop51ColorRGB
 90
-16777216
102
RTVSPost2010PropOp51
 70
     0
102
RTVSPost2010Prop52
140
1.0
102
RTVSPost2010PropOp52
 70
     0
102
RTVSPost2010Prop53
 90
        2
102
RTVSPost2010PropOp53
 70
     1
102
RTVSPost2010Prop54
  1
strokes_ogs.tif
102
RTVSPost2010PropOp54
 70
     1
102
RTVSPost2010Prop55
280
     0
102
RTVSPost2010PropOp55
 70
     1
102
RTVSPost2010Prop56
140
1.0
102
RTVSPost2010PropOp56
 70
     1
102
RTVSPost2010Prop57
140
1.0
102
RTVSPost2010PropOp57
 70
     1
  0
XRECORD
  5
376
102
{ACAD_REACTORS
330
375
102
}
330
375
100
AcDbXrecord
280
     1
102
RTVSPropertyOp0
 70
     1
102
RTVSPropertyOp1
 70
     1
102
RTVSPropertyOp2
 70
     1
102
RTVSPropertyOp3
 70
     1
102
RTVSPropertyOp4
 70
     1
102
RTVSPropertyOp5
 70
     1
102
RTVSPropertyOp6
 70
     1
102
RTVSPropertyOp7
 70
     1
102
RTVSPropertyOp8
 70
     1
102
RTVSPropertyOp9
 70
     1
102
RTVSPropertyOp10
 70
     1
102
RTVSPropertyOp11
 70
     1
102
RTVSPropertyOp12
 70
     1
102
RTVSPropertyOp13
 70
     1
102
RTVSPropertyOp14
 70
     1
102
RTVSPropertyOp15
 70
     1
102
RTVSPropertyOp16
 70
     1
102
RTVSPropertyOp17
 70
     1
102
RTVSPropertyOp18
 70
     1
102
RTVSPropertyOp19
 70
     1
102
RTVSPropertyOp20
 70
     1
102
RTVSPropertyOp21
 70
     1
102
RTVSPropertyOp22
 70
     1
102
RTVSPropertyOp23
 70
     1
102
RTVSPropertyOp24
 70
     1
102
RTVSPropertyOp25
 70
     1
102
RTVSPropertyOp26
 70
     1
102
RTVSPropertyOp27
 70
     1
102
RTVSPropertyOp28
 70
     1
102
RTVSPropertyOp29
 70
     1
102
RTVSPropertyOp30
 70
     1
102
RTVSPropertyOp31
 70
     1
102
RTVSPropertyOp32
 70
     1
102
RTVSPropertyOp33
 70
     1
102
RTVSPropertyOp34
 70
     1
102
RTVSPropertyOp35
 70
     1
102
RTVSPropertyOp36
 70
     1
102
RTVSPropertyOp37
 70
     1
102
RTVSPropertyOp38
 70
     1
102
RTVSPropertyOp39
 70
     1
102
RTVSPropertyOp40
 70
     1
102
RTVSPropertyOp41
 70
     1
102
RTVSPropertyOp42
 70
     1
102
RTVSPropertyOp43
 70
     1
102
RTVSPropertyOp44
 70
     1
102
RTVSPropertyOp45
 70
     1
102
RTVSPropertyOp46
 70
     1
102
RTVSPropertyOp47
 70
     1
102
RTVSPropertyOp48
 70
     1
102
RTVSPropertyOp49
 70
     1
102
RTVSPropertyOp50
 70
     1
102
RTVSPropertyOp51
 70
     0
102
RTVSPropertyOp52
 70
     0
102
RTVSPropertyOp53
 70
     1
102
RTVSPropertyOp54
 70
     1
102
RTVSPropertyOp55
 70
     1
102
RTVSPropertyOp56
 70
     1
102
RTVSPropertyOp57
 70
     1
102
RTVSPost2010Prop28
280
     0
102
RTVSPost2010PropOp28
 70
     1
102
RTVSPost2010Prop29
280
     1
102
RTVSPost2010PropOp29
 70
     1
102
RTVSPost2010Prop30
280
     1
102
RTVSPost2010PropOp30
 70
     1
102
RTVSPost2010Prop31
280
     0
102
RTVSPost2010PropOp31
 70
     1
102
RTVSPost2010Prop32
280
     0
102
RTVSPost2010PropOp32
 70
     1
102
RTVSPost2010Prop33
280
     0
102
RTVSPost2010PropOp33
 70
     1
102
RTVSPost2010Prop34
280
     0
102
RTVSPost2010PropOp34
 70
     1
102
RTVSPost2010Prop35
280
     0
102
RTVSPost2010PropOp35
 70
     1
102
RTVSPost2010Prop36
280
     0
102
RTVSPost2010PropOp36
 70
     1
102
RTVSPost2010Prop37
 90
       50
102
RTVSPost2010PropOp37
 70
     1
102
RTVSPost2010Prop38
140
0.0
102
RTVSPost2010PropOp38
 70
     1
102
RTVSPost2010Prop39
140
1.0
102
RTVSPost2010PropOp39
 70
     1
102
RTVSPost2010Prop40
 90
        0
102
RTVSPost2010PropOp40
 70
     1
102
RTVSPost2010Prop41ColorIndex
 90
       18
102
RTVSPost2010Prop41ColorRGB
 90
        0
102
RTVSPost2010PropOp41
 70
     1
102
RTVSPost2010Prop42
 90
       50
102
RTVSPost2010PropOp42
 70
     1
102
RTVSPost2010Prop43
 90
        3
102
RTVSPost2010PropOp43
 70
     1
102
RTVSPost2010Prop44ColorIndex
 90
        5
102
RTVSPost2010Prop44ColorRGB
 90
      255
102
RTVSPost2010PropOp44
 70
     1
102
RTVSPost2010Prop45
280
     0
102
RTVSPost2010PropOp45
 70
     1
102
RTVSPost2010Prop46
 90
       50
102
RTVSPost2010PropOp46
 70
     1
102
RTVSPost2010Prop47
 90
       50
102
RTVSPost2010PropOp47
 70
     1
102
RTVSPost2010Prop48
 90
       50
102
RTVSPost2010PropOp48
 70
     1
102
RTVSPost2010Prop49
280
     0
102
RTVSPost2010PropOp49
 70
     1
102
RTVSPost2010Prop50
 90
       50
102
RTVSPost2010PropOp50
 70
     1
102
RTVSPost2010Prop51ColorIndex
 90
      256
102
RTVSPost2010Prop51ColorRGB
 90
-16777216
102
RTVSPost2010PropOp51
 70
     0
102
RTVSPost2010Prop52
140
1.0
102
RTVSPost2010PropOp52
 70
     0
102
RTVSPost2010Prop53
 90
        2
102
RTVSPost2010PropOp53
 70
     1
102
RTVSPost2010Prop54
  1
strokes_ogs.tif
102
RTVSPost2010PropOp54
 70
     1
102
RTVSPost2010Prop55
280
     0
102
RTVSPost2010PropOp55
 70
     1
102
RTVSPost2010Prop56
140
1.0
102
RTVSPost2010PropOp56
 70
     1
102
RTVSPost2010Prop57
140
1.0
102
RTVSPost2010PropOp57
 70
     1
  0
XRECORD
  5
37C
102
{ACAD_REACTORS
330
37B
102
}
330
37B
100
AcDbXrecord
280
     1
102
RTVSPropertyOp0
 70
     1
102
RTVSPropertyOp1
 70
     1
102
RTVSPropertyOp2
 70
     1
102
RTVSPropertyOp3
 70
     1
102
RTVSPropertyOp4
 70
     1
102
RTVSPropertyOp5
 70
     1
102
RTVSPropertyOp6
 70
     1
102
RTVSPropertyOp7
 70
     1
102
RTVSPropertyOp8
 70
     1
102
RTVSPropertyOp9
 70
     1
102
RTVSPropertyOp10
 70
     1
102
RTVSPropertyOp11
 70
     1
102
RTVSPropertyOp12
 70
     1
102
RTVSPropertyOp13
 70
     1
102
RTVSPropertyOp14
 70
     1
102
RTVSPropertyOp15
 70
     1
102
RTVSPropertyOp16
 70
     1
102
RTVSPropertyOp17
 70
     1
102
RTVSPropertyOp18
 70
     1
102
RTVSPropertyOp19
 70
     1
102
RTVSPropertyOp20
 70
     1
102
RTVSPropertyOp21
 70
     1
102
RTVSPropertyOp22
 70
     1
102
RTVSPropertyOp23
 70
     1
102
RTVSPropertyOp24
 70
     1
102
RTVSPropertyOp25
 70
     1
102
RTVSPropertyOp26
 70
     1
102
RTVSPropertyOp27
 70
     1
102
RTVSPropertyOp28
 70
     1
102
RTVSPropertyOp29
 70
     1
102
RTVSPropertyOp30
 70
     1
102
RTVSPropertyOp31
 70
     1
102
RTVSPropertyOp32
 70
     1
102
RTVSPropertyOp33
 70
     1
102
RTVSPropertyOp34
 70
     1
102
RTVSPropertyOp35
 70
     1
102
RTVSPropertyOp36
 70
     1
102
RTVSPropertyOp37
 70
     1
102
RTVSPropertyOp38
 70
     1
102
RTVSPropertyOp39
 70
     1
102
RTVSPropertyOp40
 70
     1
102
RTVSPropertyOp41
 70
     1
102
RTVSPropertyOp42
 70
     1
102
RTVSPropertyOp43
 70
     1
102
RTVSPropertyOp44
 70
     1
102
RTVSPropertyOp45
 70
     1
102
RTVSPropertyOp46
 70
     1
102
RTVSPropertyOp47
 70
     1
102
RTVSPropertyOp48
 70
     1
102
RTVSPropertyOp49
 70
     1
102
RTVSPropertyOp50
 70
     1
102
RTVSPropertyOp51
 70
     0
102
RTVSPropertyOp52
 70
     0
102
RTVSPropertyOp53
 70
     1
102
RTVSPropertyOp54
 70
     1
102
RTVSPropertyOp55
 70
     1
102
RTVSPropertyOp56
 70
     1
102
RTVSPropertyOp57
 70
     1
102
RTVSPost2010Prop28
280
     0
102
RTVSPost2010PropOp28
 70
     1
102
RTVSPost2010Prop29
280
     1
102
RTVSPost2010PropOp29
 70
     1
102
RTVSPost2010Prop30
280
     1
102
RTVSPost2010PropOp30
 70
     1
102
RTVSPost2010Prop31
280
     0
102
RTVSPost2010PropOp31
 70
     1
102
RTVSPost2010Prop32
280
     0
102
RTVSPost2010PropOp32
 70
     1
102
RTVSPost2010Prop33
280
     0
102
RTVSPost2010PropOp33
 70
     1
102
RTVSPost2010Prop34
280
     0
102
RTVSPost2010PropOp34
 70
     1
102
RTVSPost2010Prop35
280
     0
102
RTVSPost2010PropOp35
 70
     1
102
RTVSPost2010Prop36
280
     0
102
RTVSPost2010PropOp36
 70
     1
102
RTVSPost2010Prop37
 90
       50
102
RTVSPost2010PropOp37
 70
     1
102
RTVSPost2010Prop38
140
0.0
102
RTVSPost2010PropOp38
 70
     1
102
RTVSPost2010Prop39
140
1.0
102
RTVSPost2010PropOp39
 70
     1
102
RTVSPost2010Prop40
 90
        0
102
RTVSPost2010PropOp40
 70
     1
102
RTVSPost2010Prop41ColorIndex
 90
       18
102
RTVSPost2010Prop41ColorRGB
 90
        0
102
RTVSPost2010PropOp41
 70
     1
102
RTVSPost2010Prop42
 90
       50
102
RTVSPost2010PropOp42
 70
     1
102
RTVSPost2010Prop43
 90
        3
102
RTVSPost2010PropOp43
 70
     1
102
RTVSPost2010Prop44ColorIndex
 90
        5
102
RTVSPost2010Prop44ColorRGB
 90
      255
102
RTVSPost2010PropOp44
 70
     1
102
RTVSPost2010Prop45
280
     0
102
RTVSPost2010PropOp45
 70
     1
102
RTVSPost2010Prop46
 90
       50
102
RTVSPost2010PropOp46
 70
     1
102
RTVSPost2010Prop47
 90
       50
102
RTVSPost2010PropOp47
 70
     1
102
RTVSPost2010Prop48
 90
       50
102
RTVSPost2010PropOp48
 70
     1
102
RTVSPost2010Prop49
280
     0
102
RTVSPost2010PropOp49
 70
     1
102
RTVSPost2010Prop50
 90
       50
102
RTVSPost2010PropOp50
 70
     1
102
RTVSPost2010Prop51ColorIndex
 90
      256
102
RTVSPost2010Prop51ColorRGB
 90
-16777216
102
RTVSPost2010PropOp51
 70
     0
102
RTVSPost2010Prop52
140
1.0
102
RTVSPost2010PropOp52
 70
     0
102
RTVSPost2010Prop53
 90
        2
102
RTVSPost2010PropOp53
 70
     1
102
RTVSPost2010Prop54
  1
strokes_ogs.tif
102
RTVSPost2010PropOp54
 70
     1
102
RTVSPost2010Prop55
280
     0
102
RTVSPost2010PropOp55
 70
     1
102
RTVSPost2010Prop56
140
1.0
102
RTVSPost2010PropOp56
 70
     1
102
RTVSPost2010Prop57
140
1.0
102
RTVSPost2010PropOp57
 70
     1
  0
XRECORD
  5
390
102
{ACAD_REACTORS
330
38F
102
}
330
38F
100
AcDbXrecord
280
     1
102
RTVSPropertyOp0
 70
     0
102
RTVSPropertyOp1
 70
     0
102
RTVSPropertyOp2
 70
     0
102
RTVSPropertyOp3
 70
     0
102
RTVSPropertyOp4
 70
     0
102
RTVSPropertyOp5
 70
     0
102
RTVSPropertyOp6
 70
     0
102
RTVSPropertyOp7
 70
     0
102
RTVSPropertyOp8
 70
     0
102
RTVSPropertyOp9
 70
     0
102
RTVSPropertyOp10
 70
     0
102
RTVSPropertyOp11
 70
     0
102
RTVSPropertyOp12
 70
     0
102
RTVSPropertyOp13
 70
     0
102
RTVSPropertyOp14
 70
     2
102
RTVSPropertyOp15
 70
     0
102
RTVSPropertyOp16
 70
     0
102
RTVSPropertyOp17
 70
     0
102
RTVSPropertyOp18
 70
     0
102
RTVSPropertyOp19
 70
     0
102
RTVSPropertyOp20
 70
     0
102
RTVSPropertyOp21
 70
     0
102
RTVSPropertyOp22
 70
     0
102
RTVSPropertyOp23
 70
     0
102
RTVSPropertyOp24
 70
     0
102
RTVSPropertyOp25
 70
     0
102
RTVSPropertyOp26
 70
     0
102
RTVSPropertyOp27
 70
     0
102
RTVSPropertyOp28
 70
     0
102
RTVSPropertyOp29
 70
     0
102
RTVSPropertyOp30
 70
     0
102
RTVSPropertyOp31
 70
     0
102
RTVSPropertyOp32
 70
     0
102
RTVSPropertyOp33
 70
     0
102
RTVSPropertyOp34
 70
     0
102
RTVSPropertyOp35
 70
     0
102
RTVSPropertyOp36
 70
     0
102
RTVSPropertyOp37
 70
     0
102
RTVSPropertyOp38
 70
     0
102
RTVSPropertyOp39
 70
     0
102
RTVSPropertyOp40
 70
     0
102
RTVSPropertyOp41
 70
     0
102
RTVSPropertyOp42
 70
     0
102
RTVSPropertyOp43
 70
     0
102
RTVSPropertyOp44
 70
     0
102
RTVSPropertyOp45
 70
     0
102
RTVSPropertyOp46
 70
     0
102
RTVSPropertyOp47
 70
     0
102
RTVSPropertyOp48
 70
     0
102
RTVSPropertyOp49
 70
     0
102
RTVSPropertyOp50
 70
     0
102
RTVSPropertyOp51
 70
     0
102
RTVSPropertyOp52
 70
     0
102
RTVSPropertyOp53
 70
     0
102
RTVSPropertyOp54
 70
     0
102
RTVSPropertyOp55
 70
     0
102
RTVSPropertyOp56
 70
     0
102
RTVSPropertyOp57
 70
     0
102
RTVSPost2010Prop28
280
     0
102
RTVSPost2010PropOp28
 70
     0
102
RTVSPost2010Prop29
280
     1
102
RTVSPost2010PropOp29
 70
     0
102
RTVSPost2010Prop30
280
     1
102
RTVSPost2010PropOp30
 70
     0
102
RTVSPost2010Prop31
280
     0
102
RTVSPost2010PropOp31
 70
     0
102
RTVSPost2010Prop32
280
     0
102
RTVSPost2010PropOp32
 70
     0
102
RTVSPost2010Prop33
280
     0
102
RTVSPost2010PropOp33
 70
     0
102
RTVSPost2010Prop34
280
     0
102
RTVSPost2010PropOp34
 70
     0
102
RTVSPost2010Prop35
280
     0
102
RTVSPost2010PropOp35
 70
     0
102
RTVSPost2010Prop36
280
     0
102
RTVSPost2010PropOp36
 70
     0
102
RTVSPost2010Prop37
 90
       50
102
RTVSPost2010PropOp37
 70
     0
102
RTVSPost2010Prop38
140
0.0
102
RTVSPost2010PropOp38
 70
     0
102
RTVSPost2010Prop39
140
1.0
102
RTVSPost2010PropOp39
 70
     0
102
RTVSPost2010Prop40
 90
        0
102
RTVSPost2010PropOp40
 70
     0
102
RTVSPost2010Prop41ColorIndex
 90
       18
102
RTVSPost2010Prop41ColorRGB
 90
        0
102
RTVSPost2010PropOp41
 70
     0
102
RTVSPost2010Prop42
 90
       50
102
RTVSPost2010PropOp42
 70
     0
102
RTVSPost2010Prop43
 90
        3
102
RTVSPost2010PropOp43
 70
     0
102
RTVSPost2010Prop44ColorIndex
 90
        5
102
RTVSPost2010Prop44ColorRGB
 90
      255
102
RTVSPost2010PropOp44
 70
     0
102
RTVSPost2010Prop45
280
     0
102
RTVSPost2010PropOp45
 70
     0
102
RTVSPost2010Prop46
 90
       50
102
RTVSPost2010PropOp46
 70
     0
102
RTVSPost2010Prop47
 90
       50
102
RTVSPost2010PropOp47
 70
     0
102
RTVSPost2010Prop48
 90
       50
102
RTVSPost2010PropOp48
 70
     0
102
RTVSPost2010Prop49
280
     0
102
RTVSPost2010PropOp49
 70
     0
102
RTVSPost2010Prop50
 90
       50
102
RTVSPost2010PropOp50
 70
     0
102
RTVSPost2010Prop51ColorIndex
 90
      256
102
RTVSPost2010Prop51ColorRGB
 90
-16777216
102
RTVSPost2010PropOp51
 70
     0
102
RTVSPost2010Prop52
140
1.0
102
RTVSPost2010PropOp52
 70
     0
102
RTVSPost2010Prop53
 90
        2
102
RTVSPost2010PropOp53
 70
     0
102
RTVSPost2010Prop54
  1
strokes_ogs.tif
102
RTVSPost2010PropOp54
 70
     0
102
RTVSPost2010Prop55
280
     0
102
RTVSPost2010PropOp55
 70
     0
102
RTVSPost2010Prop56
140
1.0
102
RTVSPost2010PropOp56
 70
     0
102
RTVSPost2010Prop57
140
1.0
102
RTVSPost2010PropOp57
 70
     0
  0
XRECORD
  5
38A
102
{ACAD_REACTORS
330
389
102
}
330
389
100
AcDbXrecord
280
     1
102
RTVSPropertyOp0
 70
     1
102
RTVSPropertyOp1
 70
     1
102
RTVSPropertyOp2
 70
     1
102
RTVSPropertyOp3
 70
     1
102
RTVSPropertyOp4
 70
     1
102
RTVSPropertyOp5
 70
     1
102
RTVSPropertyOp6
 70
     1
102
RTVSPropertyOp7
 70
     1
102
RTVSPropertyOp8
 70
     1
102
RTVSPropertyOp9
 70
     1
102
RTVSPropertyOp10
 70
     1
102
RTVSPropertyOp11
 70
     1
102
RTVSPropertyOp12
 70
     1
102
RTVSPropertyOp13
 70
     1
102
RTVSPropertyOp14
 70
     1
102
RTVSPropertyOp15
 70
     1
102
RTVSPropertyOp16
 70
     1
102
RTVSPropertyOp17
 70
     1
102
RTVSPropertyOp18
 70
     1
102
RTVSPropertyOp19
 70
     1
102
RTVSPropertyOp20
 70
     1
102
RTVSPropertyOp21
 70
     1
102
RTVSPropertyOp22
 70
     1
102
RTVSPropertyOp23
 70
     1
102
RTVSPropertyOp24
 70
     1
102
RTVSPropertyOp25
 70
     1
102
RTVSPropertyOp26
 70
     1
102
RTVSPropertyOp27
 70
     1
102
RTVSPropertyOp28
 70
     1
102
RTVSPropertyOp29
 70
     1
102
RTVSPropertyOp30
 70
     1
102
RTVSPropertyOp31
 70
     1
102
RTVSPropertyOp32
 70
     1
102
RTVSPropertyOp33
 70
     1
102
RTVSPropertyOp34
 70
     1
102
RTVSPropertyOp35
 70
     1
102
RTVSPropertyOp36
 70
     1
102
RTVSPropertyOp37
 70
     1
102
RTVSPropertyOp38
 70
     1
102
RTVSPropertyOp39
 70
     1
102
RTVSPropertyOp40
 70
     1
102
RTVSPropertyOp41
 70
     1
102
RTVSPropertyOp42
 70
     1
102
RTVSPropertyOp43
 70
     1
102
RTVSPropertyOp44
 70
     1
102
RTVSPropertyOp45
 70
     1
102
RTVSPropertyOp46
 70
     1
102
RTVSPropertyOp47
 70
     1
102
RTVSPropertyOp48
 70
     1
102
RTVSPropertyOp49
 70
     1
102
RTVSPropertyOp50
 70
     1
102
RTVSPropertyOp51
 70
     0
102
RTVSPropertyOp52
 70
     0
102
RTVSPropertyOp53
 70
     1
102
RTVSPropertyOp54
 70
     1
102
RTVSPropertyOp55
 70
     1
102
RTVSPropertyOp56
 70
     1
102
RTVSPropertyOp57
 70
     1
102
RTVSPost2010Prop28
280
     0
102
RTVSPost2010PropOp28
 70
     1
102
RTVSPost2010Prop29
280
     1
102
RTVSPost2010PropOp29
 70
     1
102
RTVSPost2010Prop30
280
     1
102
RTVSPost2010PropOp30
 70
     1
102
RTVSPost2010Prop31
280
     0
102
RTVSPost2010PropOp31
 70
     1
102
RTVSPost2010Prop32
280
     0
102
RTVSPost2010PropOp32
 70
     1
102
RTVSPost2010Prop33
280
     0
102
RTVSPost2010PropOp33
 70
     1
102
RTVSPost2010Prop34
280
     0
102
RTVSPost2010PropOp34
 70
     1
102
RTVSPost2010Prop35
280
     0
102
RTVSPost2010PropOp35
 70
     1
102
RTVSPost2010Prop36
280
     0
102
RTVSPost2010PropOp36
 70
     1
102
RTVSPost2010Prop37
 90
       50
102
RTVSPost2010PropOp37
 70
     1
102
RTVSPost2010Prop38
140
0.0
102
RTVSPost2010PropOp38
 70
     1
102
RTVSPost2010Prop39
140
1.0
102
RTVSPost2010PropOp39
 70
     1
102
RTVSPost2010Prop40
 90
        0
102
RTVSPost2010PropOp40
 70
     1
102
RTVSPost2010Prop41ColorIndex
 90
       18
102
RTVSPost2010Prop41ColorRGB
 90
        0
102
RTVSPost2010PropOp41
 70
     1
102
RTVSPost2010Prop42
 90
       50
102
RTVSPost2010PropOp42
 70
     1
102
RTVSPost2010Prop43
 90
        3
102
RTVSPost2010PropOp43
 70
     1
102
RTVSPost2010Prop44ColorIndex
 90
        5
102
RTVSPost2010Prop44ColorRGB
 90
      255
102
RTVSPost2010PropOp44
 70
     1
102
RTVSPost2010Prop45
280
     0
102
RTVSPost2010PropOp45
 70
     1
102
RTVSPost2010Prop46
 90
       50
102
RTVSPost2010PropOp46
 70
     1
102
RTVSPost2010Prop47
 90
       50
102
RTVSPost2010PropOp47
 70
     1
102
RTVSPost2010Prop48
 90
       50
102
RTVSPost2010PropOp48
 70
     1
102
RTVSPost2010Prop49
280
     0
102
RTVSPost2010PropOp49
 70
     1
102
RTVSPost2010Prop50
 90
       50
102
RTVSPost2010PropOp50
 70
     1
102
RTVSPost2010Prop51ColorIndex
 90
      256
102
RTVSPost2010Prop51ColorRGB
 90
-16777216
102
RTVSPost2010PropOp51
 70
     0
102
RTVSPost2010Prop52
140
1.0
102
RTVSPost2010PropOp52
 70
     0
102
RTVSPost2010Prop53
 90
        2
102
RTVSPost2010PropOp53
 70
     1
102
RTVSPost2010Prop54
  1
strokes_ogs.tif
102
RTVSPost2010PropOp54
 70
     1
102
RTVSPost2010Prop55
280
     0
102
RTVSPost2010PropOp55
 70
     1
102
RTVSPost2010Prop56
140
1.0
102
RTVSPost2010PropOp56
 70
     1
102
RTVSPost2010Prop57
140
1.0
102
RTVSPost2010PropOp57
 70
     1
  0
XRECORD
  5
392
102
{ACAD_REACTORS
330
391
102
}
330
391
100
AcDbXrecord
280
     1
102
RTVSPropertyOp0
 70
     0
102
RTVSPropertyOp1
 70
     0
102
RTVSPropertyOp2
 70
     0
102
RTVSPropertyOp3
 70
     0
102
RTVSPropertyOp4
 70
     0
102
RTVSPropertyOp5
 70
     0
102
RTVSPropertyOp6
 70
     0
102
RTVSPropertyOp7
 70
     0
102
RTVSPropertyOp8
 70
     0
102
RTVSPropertyOp9
 70
     0
102
RTVSPropertyOp10
 70
     0
102
RTVSPropertyOp11
 70
     0
102
RTVSPropertyOp12
 70
     0
102
RTVSPropertyOp13
 70
     0
102
RTVSPropertyOp14
 70
     2
102
RTVSPropertyOp15
 70
     0
102
RTVSPropertyOp16
 70
     0
102
RTVSPropertyOp17
 70
     0
102
RTVSPropertyOp18
 70
     0
102
RTVSPropertyOp19
 70
     0
102
RTVSPropertyOp20
 70
     0
102
RTVSPropertyOp21
 70
     0
102
RTVSPropertyOp22
 70
     0
102
RTVSPropertyOp23
 70
     0
102
RTVSPropertyOp24
 70
     0
102
RTVSPropertyOp25
 70
     0
102
RTVSPropertyOp26
 70
     0
102
RTVSPropertyOp27
 70
     0
102
RTVSPropertyOp28
 70
     0
102
RTVSPropertyOp29
 70
     0
102
RTVSPropertyOp30
 70
     0
102
RTVSPropertyOp31
 70
     0
102
RTVSPropertyOp32
 70
     0
102
RTVSPropertyOp33
 70
     0
102
RTVSPropertyOp34
 70
     0
102
RTVSPropertyOp35
 70
     0
102
RTVSPropertyOp36
 70
     0
102
RTVSPropertyOp37
 70
     0
102
RTVSPropertyOp38
 70
     0
102
RTVSPropertyOp39
 70
     0
102
RTVSPropertyOp40
 70
     0
102
RTVSPropertyOp41
 70
     0
102
RTVSPropertyOp42
 70
     0
102
RTVSPropertyOp43
 70
     0
102
RTVSPropertyOp44
 70
     0
102
RTVSPropertyOp45
 70
     0
102
RTVSPropertyOp46
 70
     0
102
RTVSPropertyOp47
 70
     0
102
RTVSPropertyOp48
 70
     0
102
RTVSPropertyOp49
 70
     0
102
RTVSPropertyOp50
 70
     0
102
RTVSPropertyOp51
 70
     0
102
RTVSPropertyOp52
 70
     0
102
RTVSPropertyOp53
 70
     0
102
RTVSPropertyOp54
 70
     0
102
RTVSPropertyOp55
 70
     0
102
RTVSPropertyOp56
 70
     0
102
RTVSPropertyOp57
 70
     0
102
RTVSPost2010Prop28
280
     0
102
RTVSPost2010PropOp28
 70
     0
102
RTVSPost2010Prop29
280
     1
102
RTVSPost2010PropOp29
 70
     0
102
RTVSPost2010Prop30
280
     1
102
RTVSPost2010PropOp30
 70
     0
102
RTVSPost2010Prop31
280
     0
102
RTVSPost2010PropOp31
 70
     0
102
RTVSPost2010Prop32
280
     0
102
RTVSPost2010PropOp32
 70
     0
102
RTVSPost2010Prop33
280
     0
102
RTVSPost2010PropOp33
 70
     0
102
RTVSPost2010Prop34
280
     0
102
RTVSPost2010PropOp34
 70
     0
102
RTVSPost2010Prop35
280
     0
102
RTVSPost2010PropOp35
 70
     0
102
RTVSPost2010Prop36
280
     0
102
RTVSPost2010PropOp36
 70
     0
102
RTVSPost2010Prop37
 90
       50
102
RTVSPost2010PropOp37
 70
     0
102
RTVSPost2010Prop38
140
0.0
102
RTVSPost2010PropOp38
 70
     0
102
RTVSPost2010Prop39
140
1.0
102
RTVSPost2010PropOp39
 70
     0
102
RTVSPost2010Prop40
 90
        0
102
RTVSPost2010PropOp40
 70
     0
102
RTVSPost2010Prop41ColorIndex
 90
       18
102
RTVSPost2010Prop41ColorRGB
 90
        0
102
RTVSPost2010PropOp41
 70
     0
102
RTVSPost2010Prop42
 90
       50
102
RTVSPost2010PropOp42
 70
     0
102
RTVSPost2010Prop43
 90
        3
102
RTVSPost2010PropOp43
 70
     0
102
RTVSPost2010Prop44ColorIndex
 90
        5
102
RTVSPost2010Prop44ColorRGB
 90
      255
102
RTVSPost2010PropOp44
 70
     0
102
RTVSPost2010Prop45
280
     0
102
RTVSPost2010PropOp45
 70
     0
102
RTVSPost2010Prop46
 90
       50
102
RTVSPost2010PropOp46
 70
     0
102
RTVSPost2010Prop47
 90
       50
102
RTVSPost2010PropOp47
 70
     0
102
RTVSPost2010Prop48
 90
       50
102
RTVSPost2010PropOp48
 70
     0
102
RTVSPost2010Prop49
280
     0
102
RTVSPost2010PropOp49
 70
     0
102
RTVSPost2010Prop50
 90
       50
102
RTVSPost2010PropOp50
 70
     0
102
RTVSPost2010Prop51ColorIndex
 90
      256
102
RTVSPost2010Prop51ColorRGB
 90
-16777216
102
RTVSPost2010PropOp51
 70
     0
102
RTVSPost2010Prop52
140
1.0
102
RTVSPost2010PropOp52
 70
     0
102
RTVSPost2010Prop53
 90
        2
102
RTVSPost2010PropOp53
 70
     0
102
RTVSPost2010Prop54
  1
strokes_ogs.tif
102
RTVSPost2010PropOp54
 70
     0
102
RTVSPost2010Prop55
280
     0
102
RTVSPost2010PropOp55
 70
     0
102
RTVSPost2010Prop56
140
1.0
102
RTVSPost2010PropOp56
 70
     0
102
RTVSPost2010Prop57
140
1.0
102
RTVSPost2010PropOp57
 70
     0
  0
XRECORD
  5
380
102
{ACAD_REACTORS
330
37F
102
}
330
37F
100
AcDbXrecord
280
     1
102
RTVSPropertyOp0
 70
     1
102
RTVSPropertyOp1
 70
     1
102
RTVSPropertyOp2
 70
     1
102
RTVSPropertyOp3
 70
     1
102
RTVSPropertyOp4
 70
     1
102
RTVSPropertyOp5
 70
     1
102
RTVSPropertyOp6
 70
     1
102
RTVSPropertyOp7
 70
     1
102
RTVSPropertyOp8
 70
     1
102
RTVSPropertyOp9
 70
     1
102
RTVSPropertyOp10
 70
     1
102
RTVSPropertyOp11
 70
     1
102
RTVSPropertyOp12
 70
     1
102
RTVSPropertyOp13
 70
     1
102
RTVSPropertyOp14
 70
     1
102
RTVSPropertyOp15
 70
     1
102
RTVSPropertyOp16
 70
     1
102
RTVSPropertyOp17
 70
     1
102
RTVSPropertyOp18
 70
     1
102
RTVSPropertyOp19
 70
     1
102
RTVSPropertyOp20
 70
     1
102
RTVSPropertyOp21
 70
     1
102
RTVSPropertyOp22
 70
     1
102
RTVSPropertyOp23
 70
     1
102
RTVSPropertyOp24
 70
     1
102
RTVSPropertyOp25
 70
     1
102
RTVSPropertyOp26
 70
     1
102
RTVSPropertyOp27
 70
     1
102
RTVSPropertyOp28
 70
     1
102
RTVSPropertyOp29
 70
     1
102
RTVSPropertyOp30
 70
     1
102
RTVSPropertyOp31
 70
     1
102
RTVSPropertyOp32
 70
     1
102
RTVSPropertyOp33
 70
     1
102
RTVSPropertyOp34
 70
     1
102
RTVSPropertyOp35
 70
     1
102
RTVSPropertyOp36
 70
     1
102
RTVSPropertyOp37
 70
     1
102
RTVSPropertyOp38
 70
     1
102
RTVSPropertyOp39
 70
     1
102
RTVSPropertyOp40
 70
     1
102
RTVSPropertyOp41
 70
     1
102
RTVSPropertyOp42
 70
     1
102
RTVSPropertyOp43
 70
     1
102
RTVSPropertyOp44
 70
     1
102
RTVSPropertyOp45
 70
     1
102
RTVSPropertyOp46
 70
     1
102
RTVSPropertyOp47
 70
     1
102
RTVSPropertyOp48
 70
     1
102
RTVSPropertyOp49
 70
     1
102
RTVSPropertyOp50
 70
     1
102
RTVSPropertyOp51
 70
     0
102
RTVSPropertyOp52
 70
     0
102
RTVSPropertyOp53
 70
     1
102
RTVSPropertyOp54
 70
     1
102
RTVSPropertyOp55
 70
     1
102
RTVSPropertyOp56
 70
     1
102
RTVSPropertyOp57
 70
     1
102
RTVSPost2010Prop28
280
     0
102
RTVSPost2010PropOp28
 70
     1
102
RTVSPost2010Prop29
280
     1
102
RTVSPost2010PropOp29
 70
     1
102
RTVSPost2010Prop30
280
     1
102
RTVSPost2010PropOp30
 70
     1
102
RTVSPost2010Prop31
280
     0
102
RTVSPost2010PropOp31
 70
     1
102
RTVSPost2010Prop32
280
     0
102
RTVSPost2010PropOp32
 70
     1
102
RTVSPost2010Prop33
280
     0
102
RTVSPost2010PropOp33
 70
     1
102
RTVSPost2010Prop34
280
     0
102
RTVSPost2010PropOp34
 70
     1
102
RTVSPost2010Prop35
280
     0
102
RTVSPost2010PropOp35
 70
     1
102
RTVSPost2010Prop36
280
     0
102
RTVSPost2010PropOp36
 70
     1
102
RTVSPost2010Prop37
 90
       50
102
RTVSPost2010PropOp37
 70
     1
102
RTVSPost2010Prop38
140
0.0
102
RTVSPost2010PropOp38
 70
     1
102
RTVSPost2010Prop39
140
1.0
102
RTVSPost2010PropOp39
 70
     1
102
RTVSPost2010Prop40
 90
        0
102
RTVSPost2010PropOp40
 70
     1
102
RTVSPost2010Prop41ColorIndex
 90
       18
102
RTVSPost2010Prop41ColorRGB
 90
        0
102
RTVSPost2010PropOp41
 70
     1
102
RTVSPost2010Prop42
 90
       50
102
RTVSPost2010PropOp42
 70
     1
102
RTVSPost2010Prop43
 90
        3
102
RTVSPost2010PropOp43
 70
     1
102
RTVSPost2010Prop44ColorIndex
 90
        5
102
RTVSPost2010Prop44ColorRGB
 90
      255
102
RTVSPost2010PropOp44
 70
     1
102
RTVSPost2010Prop45
280
     0
102
RTVSPost2010PropOp45
 70
     1
102
RTVSPost2010Prop46
 90
       50
102
RTVSPost2010PropOp46
 70
     1
102
RTVSPost2010Prop47
 90
       50
102
RTVSPost2010PropOp47
 70
     1
102
RTVSPost2010Prop48
 90
       50
102
RTVSPost2010PropOp48
 70
     1
102
RTVSPost2010Prop49
280
     0
102
RTVSPost2010PropOp49
 70
     1
102
RTVSPost2010Prop50
 90
       50
102
RTVSPost2010PropOp50
 70
     1
102
RTVSPost2010Prop51ColorIndex
 90
      256
102
RTVSPost2010Prop51ColorRGB
 90
-16777216
102
RTVSPost2010PropOp51
 70
     0
102
RTVSPost2010Prop52
140
1.0
102
RTVSPost2010PropOp52
 70
     0
102
RTVSPost2010Prop53
 90
        2
102
RTVSPost2010PropOp53
 70
     1
102
RTVSPost2010Prop54
  1
strokes_ogs.tif
102
RTVSPost2010PropOp54
 70
     1
102
RTVSPost2010Prop55
280
     0
102
RTVSPost2010PropOp55
 70
     1
102
RTVSPost2010Prop56
140
1.0
102
RTVSPost2010PropOp56
 70
     1
102
RTVSPost2010Prop57
140
1.0
102
RTVSPost2010PropOp57
 70
     1
  0
XRECORD
  5
39E
102
{ACAD_REACTORS
330
39D
102
}
330
39D
100
AcDbXrecord
280
     1
102
RTVSPropertyOp0
 70
     1
102
RTVSPropertyOp1
 70
     1
102
RTVSPropertyOp2
 70
     1
102
RTVSPropertyOp3
 70
     1
102
RTVSPropertyOp4
 70
     1
102
RTVSPropertyOp5
 70
     1
102
RTVSPropertyOp6
 70
     1
102
RTVSPropertyOp7
 70
     1
102
RTVSPropertyOp8
 70
     1
102
RTVSPropertyOp9
 70
     1
102
RTVSPropertyOp10
 70
     1
102
RTVSPropertyOp11
 70
     1
102
RTVSPropertyOp12
 70
     1
102
RTVSPropertyOp13
 70
     1
102
RTVSPropertyOp14
 70
     1
102
RTVSPropertyOp15
 70
     1
102
RTVSPropertyOp16
 70
     1
102
RTVSPropertyOp17
 70
     1
102
RTVSPropertyOp18
 70
     1
102
RTVSPropertyOp19
 70
     1
102
RTVSPropertyOp20
 70
     1
102
RTVSPropertyOp21
 70
     1
102
RTVSPropertyOp22
 70
     1
102
RTVSPropertyOp23
 70
     1
102
RTVSPropertyOp24
 70
     1
102
RTVSPropertyOp25
 70
     1
102
RTVSPropertyOp26
 70
     1
102
RTVSPropertyOp27
 70
     1
102
RTVSPropertyOp28
 70
     1
102
RTVSPropertyOp29
 70
     1
102
RTVSPropertyOp30
 70
     1
102
RTVSPropertyOp31
 70
     1
102
RTVSPropertyOp32
 70
     1
102
RTVSPropertyOp33
 70
     1
102
RTVSPropertyOp34
 70
     1
102
RTVSPropertyOp35
 70
     1
102
RTVSPropertyOp36
 70
     1
102
RTVSPropertyOp37
 70
     1
102
RTVSPropertyOp38
 70
     1
102
RTVSPropertyOp39
 70
     1
102
RTVSPropertyOp40
 70
     1
102
RTVSPropertyOp41
 70
     1
102
RTVSPropertyOp42
 70
     1
102
RTVSPropertyOp43
 70
     1
102
RTVSPropertyOp44
 70
     1
102
RTVSPropertyOp45
 70
     1
102
RTVSPropertyOp46
 70
     1
102
RTVSPropertyOp47
 70
     1
102
RTVSPropertyOp48
 70
     1
102
RTVSPropertyOp49
 70
     1
102
RTVSPropertyOp50
 70
     1
102
RTVSPropertyOp51
 70
     0
102
RTVSPropertyOp52
 70
     0
102
RTVSPropertyOp53
 70
     1
102
RTVSPropertyOp54
 70
     1
102
RTVSPropertyOp55
 70
     1
102
RTVSPropertyOp56
 70
     1
102
RTVSPropertyOp57
 70
     1
102
RTVSPost2010Prop28
280
     0
102
RTVSPost2010PropOp28
 70
     1
102
RTVSPost2010Prop29
280
     1
102
RTVSPost2010PropOp29
 70
     1
102
RTVSPost2010Prop30
280
     1
102
RTVSPost2010PropOp30
 70
     1
102
RTVSPost2010Prop31
280
     0
102
RTVSPost2010PropOp31
 70
     1
102
RTVSPost2010Prop32
280
     0
102
RTVSPost2010PropOp32
 70
     1
102
RTVSPost2010Prop33
280
     0
102
RTVSPost2010PropOp33
 70
     1
102
RTVSPost2010Prop34
280
     0
102
RTVSPost2010PropOp34
 70
     1
102
RTVSPost2010Prop35
280
     0
102
RTVSPost2010PropOp35
 70
     1
102
RTVSPost2010Prop36
280
     0
102
RTVSPost2010PropOp36
 70
     1
102
RTVSPost2010Prop37
 90
       50
102
RTVSPost2010PropOp37
 70
     1
102
RTVSPost2010Prop38
140
0.0
102
RTVSPost2010PropOp38
 70
     1
102
RTVSPost2010Prop39
140
1.0
102
RTVSPost2010PropOp39
 70
     1
102
RTVSPost2010Prop40
 90
        0
102
RTVSPost2010PropOp40
 70
     1
102
RTVSPost2010Prop41ColorIndex
 90
       18
102
RTVSPost2010Prop41ColorRGB
 90
        0
102
RTVSPost2010PropOp41
 70
     1
102
RTVSPost2010Prop42
 90
       50
102
RTVSPost2010PropOp42
 70
     1
102
RTVSPost2010Prop43
 90
        3
102
RTVSPost2010PropOp43
 70
     1
102
RTVSPost2010Prop44ColorIndex
 90
        5
102
RTVSPost2010Prop44ColorRGB
 90
      255
102
RTVSPost2010PropOp44
 70
     1
102
RTVSPost2010Prop45
280
     0
102
RTVSPost2010PropOp45
 70
     1
102
RTVSPost2010Prop46
 90
       50
102
RTVSPost2010PropOp46
 70
     1
102
RTVSPost2010Prop47
 90
       50
102
RTVSPost2010PropOp47
 70
     1
102
RTVSPost2010Prop48
 90
       50
102
RTVSPost2010PropOp48
 70
     1
102
RTVSPost2010Prop49
280
     0
102
RTVSPost2010PropOp49
 70
     1
102
RTVSPost2010Prop50
 90
       50
102
RTVSPost2010PropOp50
 70
     1
102
RTVSPost2010Prop51ColorIndex
 90
      256
102
RTVSPost2010Prop51ColorRGB
 90
-16777216
102
RTVSPost2010PropOp51
 70
     0
102
RTVSPost2010Prop52
140
1.0
102
RTVSPost2010PropOp52
 70
     0
102
RTVSPost2010Prop53
 90
        2
102
RTVSPost2010PropOp53
 70
     1
102
RTVSPost2010Prop54
  1
strokes_ogs.tif
102
RTVSPost2010PropOp54
 70
     1
102
RTVSPost2010Prop55
280
     0
102
RTVSPost2010PropOp55
 70
     1
102
RTVSPost2010Prop56
140
1.0
102
RTVSPost2010PropOp56
 70
     1
102
RTVSPost2010Prop57
140
1.0
102
RTVSPost2010PropOp57
 70
     1
  0
XRECORD
  5
39C
102
{ACAD_REACTORS
330
39B
102
}
330
39B
100
AcDbXrecord
280
     1
102
RTVSPropertyOp0
 70
     1
102
RTVSPropertyOp1
 70
     1
102
RTVSPropertyOp2
 70
     1
102
RTVSPropertyOp3
 70
     1
102
RTVSPropertyOp4
 70
     1
102
RTVSPropertyOp5
 70
     1
102
RTVSPropertyOp6
 70
     1
102
RTVSPropertyOp7
 70
     1
102
RTVSPropertyOp8
 70
     1
102
RTVSPropertyOp9
 70
     1
102
RTVSPropertyOp10
 70
     1
102
RTVSPropertyOp11
 70
     1
102
RTVSPropertyOp12
 70
     1
102
RTVSPropertyOp13
 70
     1
102
RTVSPropertyOp14
 70
     1
102
RTVSPropertyOp15
 70
     1
102
RTVSPropertyOp16
 70
     1
102
RTVSPropertyOp17
 70
     1
102
RTVSPropertyOp18
 70
     1
102
RTVSPropertyOp19
 70
     1
102
RTVSPropertyOp20
 70
     1
102
RTVSPropertyOp21
 70
     1
102
RTVSPropertyOp22
 70
     1
102
RTVSPropertyOp23
 70
     1
102
RTVSPropertyOp24
 70
     1
102
RTVSPropertyOp25
 70
     1
102
RTVSPropertyOp26
 70
     1
102
RTVSPropertyOp27
 70
     1
102
RTVSPropertyOp28
 70
     1
102
RTVSPropertyOp29
 70
     1
102
RTVSPropertyOp30
 70
     1
102
RTVSPropertyOp31
 70
     1
102
RTVSPropertyOp32
 70
     1
102
RTVSPropertyOp33
 70
     1
102
RTVSPropertyOp34
 70
     1
102
RTVSPropertyOp35
 70
     1
102
RTVSPropertyOp36
 70
     1
102
RTVSPropertyOp37
 70
     1
102
RTVSPropertyOp38
 70
     1
102
RTVSPropertyOp39
 70
     1
102
RTVSPropertyOp40
 70
     1
102
RTVSPropertyOp41
 70
     1
102
RTVSPropertyOp42
 70
     1
102
RTVSPropertyOp43
 70
     1
102
RTVSPropertyOp44
 70
     1
102
RTVSPropertyOp45
 70
     1
102
RTVSPropertyOp46
 70
     1
102
RTVSPropertyOp47
 70
     1
102
RTVSPropertyOp48
 70
     1
102
RTVSPropertyOp49
 70
     1
102
RTVSPropertyOp50
 70
     1
102
RTVSPropertyOp51
 70
     0
102
RTVSPropertyOp52
 70
     0
102
RTVSPropertyOp53
 70
     1
102
RTVSPropertyOp54
 70
     1
102
RTVSPropertyOp55
 70
     1
102
RTVSPropertyOp56
 70
     1
102
RTVSPropertyOp57
 70
     1
102
RTVSPost2010Prop28
280
     0
102
RTVSPost2010PropOp28
 70
     1
102
RTVSPost2010Prop29
280
     1
102
RTVSPost2010PropOp29
 70
     1
102
RTVSPost2010Prop30
280
     1
102
RTVSPost2010PropOp30
 70
     1
102
RTVSPost2010Prop31
280
     0
102
RTVSPost2010PropOp31
 70
     1
102
RTVSPost2010Prop32
280
     0
102
RTVSPost2010PropOp32
 70
     1
102
RTVSPost2010Prop33
280
     0
102
RTVSPost2010PropOp33
 70
     1
102
RTVSPost2010Prop34
280
     0
102
RTVSPost2010PropOp34
 70
     1
102
RTVSPost2010Prop35
280
     0
102
RTVSPost2010PropOp35
 70
     1
102
RTVSPost2010Prop36
280
     0
102
RTVSPost2010PropOp36
 70
     1
102
RTVSPost2010Prop37
 90
       50
102
RTVSPost2010PropOp37
 70
     1
102
RTVSPost2010Prop38
140
0.0
102
RTVSPost2010PropOp38
 70
     1
102
RTVSPost2010Prop39
140
1.0
102
RTVSPost2010PropOp39
 70
     1
102
RTVSPost2010Prop40
 90
        0
102
RTVSPost2010PropOp40
 70
     1
102
RTVSPost2010Prop41ColorIndex
 90
       18
102
RTVSPost2010Prop41ColorRGB
 90
        0
102
RTVSPost2010PropOp41
 70
     1
102
RTVSPost2010Prop42
 90
       50
102
RTVSPost2010PropOp42
 70
     1
102
RTVSPost2010Prop43
 90
        3
102
RTVSPost2010PropOp43
 70
     1
102
RTVSPost2010Prop44ColorIndex
 90
        5
102
RTVSPost2010Prop44ColorRGB
 90
      255
102
RTVSPost2010PropOp44
 70
     1
102
RTVSPost2010Prop45
280
     0
102
RTVSPost2010PropOp45
 70
     1
102
RTVSPost2010Prop46
 90
       50
102
RTVSPost2010PropOp46
 70
     1
102
RTVSPost2010Prop47
 90
       50
102
RTVSPost2010PropOp47
 70
     1
102
RTVSPost2010Prop48
 90
       50
102
RTVSPost2010PropOp48
 70
     1
102
RTVSPost2010Prop49
280
     0
102
RTVSPost2010PropOp49
 70
     1
102
RTVSPost2010Prop50
 90
       50
102
RTVSPost2010PropOp50
 70
     1
102
RTVSPost2010Prop51ColorIndex
 90
      256
102
RTVSPost2010Prop51ColorRGB
 90
-16777216
102
RTVSPost2010PropOp51
 70
     0
102
RTVSPost2010Prop52
140
1.0
102
RTVSPost2010PropOp52
 70
     0
102
RTVSPost2010Prop53
 90
        2
102
RTVSPost2010PropOp53
 70
     1
102
RTVSPost2010Prop54
  1
strokes_ogs.tif
102
RTVSPost2010PropOp54
 70
     1
102
RTVSPost2010Prop55
280
     0
102
RTVSPost2010PropOp55
 70
     1
102
RTVSPost2010Prop56
140
1.0
102
RTVSPost2010PropOp56
 70
     1
102
RTVSPost2010Prop57
140
1.0
102
RTVSPost2010PropOp57
 70
     1
  0
XRECORD
  5
396
102
{ACAD_REACTORS
330
395
102
}
330
395
100
AcDbXrecord
280
     1
102
RTVSPropertyOp0
 70
     1
102
RTVSPropertyOp1
 70
     1
102
RTVSPropertyOp2
 70
     1
102
RTVSPropertyOp3
 70
     1
102
RTVSPropertyOp4
 70
     1
102
RTVSPropertyOp5
 70
     1
102
RTVSPropertyOp6
 70
     1
102
RTVSPropertyOp7
 70
     1
102
RTVSPropertyOp8
 70
     1
102
RTVSPropertyOp9
 70
     1
102
RTVSPropertyOp10
 70
     1
102
RTVSPropertyOp11
 70
     1
102
RTVSPropertyOp12
 70
     1
102
RTVSPropertyOp13
 70
     1
102
RTVSPropertyOp14
 70
     1
102
RTVSPropertyOp15
 70
     1
102
RTVSPropertyOp16
 70
     1
102
RTVSPropertyOp17
 70
     1
102
RTVSPropertyOp18
 70
     1
102
RTVSPropertyOp19
 70
     1
102
RTVSPropertyOp20
 70
     1
102
RTVSPropertyOp21
 70
     1
102
RTVSPropertyOp22
 70
     1
102
RTVSPropertyOp23
 70
     1
102
RTVSPropertyOp24
 70
     1
102
RTVSPropertyOp25
 70
     1
102
RTVSPropertyOp26
 70
     1
102
RTVSPropertyOp27
 70
     1
102
RTVSPropertyOp28
 70
     1
102
RTVSPropertyOp29
 70
     1
102
RTVSPropertyOp30
 70
     1
102
RTVSPropertyOp31
 70
     1
102
RTVSPropertyOp32
 70
     1
102
RTVSPropertyOp33
 70
     1
102
RTVSPropertyOp34
 70
     1
102
RTVSPropertyOp35
 70
     1
102
RTVSPropertyOp36
 70
     1
102
RTVSPropertyOp37
 70
     1
102
RTVSPropertyOp38
 70
     1
102
RTVSPropertyOp39
 70
     1
102
RTVSPropertyOp40
 70
     1
102
RTVSPropertyOp41
 70
     1
102
RTVSPropertyOp42
 70
     1
102
RTVSPropertyOp43
 70
     1
102
RTVSPropertyOp44
 70
     1
102
RTVSPropertyOp45
 70
     1
102
RTVSPropertyOp46
 70
     1
102
RTVSPropertyOp47
 70
     1
102
RTVSPropertyOp48
 70
     1
102
RTVSPropertyOp49
 70
     1
102
RTVSPropertyOp50
 70
     1
102
RTVSPropertyOp51
 70
     0
102
RTVSPropertyOp52
 70
     0
102
RTVSPropertyOp53
 70
     1
102
RTVSPropertyOp54
 70
     1
102
RTVSPropertyOp55
 70
     1
102
RTVSPropertyOp56
 70
     1
102
RTVSPropertyOp57
 70
     1
102
RTVSPost2010Prop28
280
     0
102
RTVSPost2010PropOp28
 70
     1
102
RTVSPost2010Prop29
280
     1
102
RTVSPost2010PropOp29
 70
     1
102
RTVSPost2010Prop30
280
     1
102
RTVSPost2010PropOp30
 70
     1
102
RTVSPost2010Prop31
280
     0
102
RTVSPost2010PropOp31
 70
     1
102
RTVSPost2010Prop32
280
     0
102
RTVSPost2010PropOp32
 70
     1
102
RTVSPost2010Prop33
280
     0
102
RTVSPost2010PropOp33
 70
     1
102
RTVSPost2010Prop34
280
     0
102
RTVSPost2010PropOp34
 70
     1
102
RTVSPost2010Prop35
280
     0
102
RTVSPost2010PropOp35
 70
     1
102
RTVSPost2010Prop36
280
     0
102
RTVSPost2010PropOp36
 70
     1
102
RTVSPost2010Prop37
 90
       50
102
RTVSPost2010PropOp37
 70
     1
102
RTVSPost2010Prop38
140
0.0
102
RTVSPost2010PropOp38
 70
     1
102
RTVSPost2010Prop39
140
1.0
102
RTVSPost2010PropOp39
 70
     1
102
RTVSPost2010Prop40
 90
        0
102
RTVSPost2010PropOp40
 70
     1
102
RTVSPost2010Prop41ColorIndex
 90
       18
102
RTVSPost2010Prop41ColorRGB
 90
        0
102
RTVSPost2010PropOp41
 70
     1
102
RTVSPost2010Prop42
 90
       50
102
RTVSPost2010PropOp42
 70
     1
102
RTVSPost2010Prop43
 90
        3
102
RTVSPost2010PropOp43
 70
     1
102
RTVSPost2010Prop44ColorIndex
 90
        5
102
RTVSPost2010Prop44ColorRGB
 90
      255
102
RTVSPost2010PropOp44
 70
     1
102
RTVSPost2010Prop45
280
     0
102
RTVSPost2010PropOp45
 70
     1
102
RTVSPost2010Prop46
 90
       50
102
RTVSPost2010PropOp46
 70
     1
102
RTVSPost2010Prop47
 90
       50
102
RTVSPost2010PropOp47
 70
     1
102
RTVSPost2010Prop48
 90
       50
102
RTVSPost2010PropOp48
 70
     1
102
RTVSPost2010Prop49
280
     0
102
RTVSPost2010PropOp49
 70
     1
102
RTVSPost2010Prop50
 90
       50
102
RTVSPost2010PropOp50
 70
     1
102
RTVSPost2010Prop51ColorIndex
 90
      256
102
RTVSPost2010Prop51ColorRGB
 90
-16777216
102
RTVSPost2010PropOp51
 70
     0
102
RTVSPost2010Prop52
140
1.0
102
RTVSPost2010PropOp52
 70
     0
102
RTVSPost2010Prop53
 90
        2
102
RTVSPost2010PropOp53
 70
     1
102
RTVSPost2010Prop54
  1
strokes_ogs.tif
102
RTVSPost2010PropOp54
 70
     1
102
RTVSPost2010Prop55
280
     0
102
RTVSPost2010PropOp55
 70
     1
102
RTVSPost2010Prop56
140
1.0
102
RTVSPost2010PropOp56
 70
     1
102
RTVSPost2010Prop57
140
1.0
102
RTVSPost2010PropOp57
 70
     1
  0
XRECORD
  5
398
102
{ACAD_REACTORS
330
397
102
}
330
397
100
AcDbXrecord
280
     1
102
RTVSPropertyOp0
 70
     1
102
RTVSPropertyOp1
 70
     1
102
RTVSPropertyOp2
 70
     1
102
RTVSPropertyOp3
 70
     1
102
RTVSPropertyOp4
 70
     1
102
RTVSPropertyOp5
 70
     1
102
RTVSPropertyOp6
 70
     1
102
RTVSPropertyOp7
 70
     1
102
RTVSPropertyOp8
 70
     1
102
RTVSPropertyOp9
 70
     1
102
RTVSPropertyOp10
 70
     1
102
RTVSPropertyOp11
 70
     1
102
RTVSPropertyOp12
 70
     1
102
RTVSPropertyOp13
 70
     1
102
RTVSPropertyOp14
 70
     1
102
RTVSPropertyOp15
 70
     1
102
RTVSPropertyOp16
 70
     1
102
RTVSPropertyOp17
 70
     1
102
RTVSPropertyOp18
 70
     1
102
RTVSPropertyOp19
 70
     1
102
RTVSPropertyOp20
 70
     1
102
RTVSPropertyOp21
 70
     1
102
RTVSPropertyOp22
 70
     1
102
RTVSPropertyOp23
 70
     1
102
RTVSPropertyOp24
 70
     1
102
RTVSPropertyOp25
 70
     1
102
RTVSPropertyOp26
 70
     1
102
RTVSPropertyOp27
 70
     1
102
RTVSPropertyOp28
 70
     1
102
RTVSPropertyOp29
 70
     1
102
RTVSPropertyOp30
 70
     1
102
RTVSPropertyOp31
 70
     1
102
RTVSPropertyOp32
 70
     1
102
RTVSPropertyOp33
 70
     1
102
RTVSPropertyOp34
 70
     1
102
RTVSPropertyOp35
 70
     1
102
RTVSPropertyOp36
 70
     1
102
RTVSPropertyOp37
 70
     1
102
RTVSPropertyOp38
 70
     1
102
RTVSPropertyOp39
 70
     1
102
RTVSPropertyOp40
 70
     1
102
RTVSPropertyOp41
 70
     1
102
RTVSPropertyOp42
 70
     1
102
RTVSPropertyOp43
 70
     1
102
RTVSPropertyOp44
 70
     1
102
RTVSPropertyOp45
 70
     1
102
RTVSPropertyOp46
 70
     1
102
RTVSPropertyOp47
 70
     1
102
RTVSPropertyOp48
 70
     1
102
RTVSPropertyOp49
 70
     1
102
RTVSPropertyOp50
 70
     1
102
RTVSPropertyOp51
 70
     0
102
RTVSPropertyOp52
 70
     0
102
RTVSPropertyOp53
 70
     1
102
RTVSPropertyOp54
 70
     1
102
RTVSPropertyOp55
 70
     1
102
RTVSPropertyOp56
 70
     1
102
RTVSPropertyOp57
 70
     1
102
RTVSPost2010Prop28
280
     0
102
RTVSPost2010PropOp28
 70
     1
102
RTVSPost2010Prop29
280
     1
102
RTVSPost2010PropOp29
 70
     1
102
RTVSPost2010Prop30
280
     1
102
RTVSPost2010PropOp30
 70
     1
102
RTVSPost2010Prop31
280
     0
102
RTVSPost2010PropOp31
 70
     1
102
RTVSPost2010Prop32
280
     0
102
RTVSPost2010PropOp32
 70
     1
102
RTVSPost2010Prop33
280
     0
102
RTVSPost2010PropOp33
 70
     1
102
RTVSPost2010Prop34
280
     0
102
RTVSPost2010PropOp34
 70
     1
102
RTVSPost2010Prop35
280
     0
102
RTVSPost2010PropOp35
 70
     1
102
RTVSPost2010Prop36
280
     0
102
RTVSPost2010PropOp36
 70
     1
102
RTVSPost2010Prop37
 90
       50
102
RTVSPost2010PropOp37
 70
     1
102
RTVSPost2010Prop38
140
0.0
102
RTVSPost2010PropOp38
 70
     1
102
RTVSPost2010Prop39
140
1.0
102
RTVSPost2010PropOp39
 70
     1
102
RTVSPost2010Prop40
 90
        0
102
RTVSPost2010PropOp40
 70
     1
102
RTVSPost2010Prop41ColorIndex
 90
       18
102
RTVSPost2010Prop41ColorRGB
 90
        0
102
RTVSPost2010PropOp41
 70
     1
102
RTVSPost2010Prop42
 90
       50
102
RTVSPost2010PropOp42
 70
     1
102
RTVSPost2010Prop43
 90
        3
102
RTVSPost2010PropOp43
 70
     1
102
RTVSPost2010Prop44ColorIndex
 90
        5
102
RTVSPost2010Prop44ColorRGB
 90
      255
102
RTVSPost2010PropOp44
 70
     1
102
RTVSPost2010Prop45
280
     0
102
RTVSPost2010PropOp45
 70
     1
102
RTVSPost2010Prop46
 90
       50
102
RTVSPost2010PropOp46
 70
     1
102
RTVSPost2010Prop47
 90
       50
102
RTVSPost2010PropOp47
 70
     1
102
RTVSPost2010Prop48
 90
       50
102
RTVSPost2010PropOp48
 70
     1
102
RTVSPost2010Prop49
280
     0
102
RTVSPost2010PropOp49
 70
     1
102
RTVSPost2010Prop50
 90
       50
102
RTVSPost2010PropOp50
 70
     1
102
RTVSPost2010Prop51ColorIndex
 90
      256
102
RTVSPost2010Prop51ColorRGB
 90
-16777216
102
RTVSPost2010PropOp51
 70
     0
102
RTVSPost2010Prop52
140
1.0
102
RTVSPost2010PropOp52
 70
     0
102
RTVSPost2010Prop53
 90
        2
102
RTVSPost2010PropOp53
 70
     1
102
RTVSPost2010Prop54
  1
strokes_ogs.tif
102
RTVSPost2010PropOp54
 70
     1
102
RTVSPost2010Prop55
280
     0
102
RTVSPost2010PropOp55
 70
     1
102
RTVSPost2010Prop56
140
1.0
102
RTVSPost2010PropOp56
 70
     1
102
RTVSPost2010Prop57
140
1.0
102
RTVSPost2010PropOp57
 70
     1
  0
XRECORD
  5
388
102
{ACAD_REACTORS
330
387
102
}
330
387
100
AcDbXrecord
280
     1
102
RTVSPropertyOp0
 70
     1
102
RTVSPropertyOp1
 70
     1
102
RTVSPropertyOp2
 70
     1
102
RTVSPropertyOp3
 70
     1
102
RTVSPropertyOp4
 70
     1
102
RTVSPropertyOp5
 70
     1
102
RTVSPropertyOp6
 70
     1
102
RTVSPropertyOp7
 70
     1
102
RTVSPropertyOp8
 70
     1
102
RTVSPropertyOp9
 70
     1
102
RTVSPropertyOp10
 70
     1
102
RTVSPropertyOp11
 70
     1
102
RTVSPropertyOp12
 70
     1
102
RTVSPropertyOp13
 70
     1
102
RTVSPropertyOp14
 70
     1
102
RTVSPropertyOp15
 70
     1
102
RTVSPropertyOp16
 70
     1
102
RTVSPropertyOp17
 70
     1
102
RTVSPropertyOp18
 70
     1
102
RTVSPropertyOp19
 70
     1
102
RTVSPropertyOp20
 70
     1
102
RTVSPropertyOp21
 70
     1
102
RTVSPropertyOp22
 70
     1
102
RTVSPropertyOp23
 70
     1
102
RTVSPropertyOp24
 70
     1
102
RTVSPropertyOp25
 70
     1
102
RTVSPropertyOp26
 70
     1
102
RTVSPropertyOp27
 70
     1
102
RTVSPropertyOp28
 70
     1
102
RTVSPropertyOp29
 70
     1
102
RTVSPropertyOp30
 70
     1
102
RTVSPropertyOp31
 70
     1
102
RTVSPropertyOp32
 70
     1
102
RTVSPropertyOp33
 70
     1
102
RTVSPropertyOp34
 70
     1
102
RTVSPropertyOp35
 70
     1
102
RTVSPropertyOp36
 70
     1
102
RTVSPropertyOp37
 70
     1
102
RTVSPropertyOp38
 70
     1
102
RTVSPropertyOp39
 70
     1
102
RTVSPropertyOp40
 70
     1
102
RTVSPropertyOp41
 70
     1
102
RTVSPropertyOp42
 70
     1
102
RTVSPropertyOp43
 70
     1
102
RTVSPropertyOp44
 70
     1
102
RTVSPropertyOp45
 70
     1
102
RTVSPropertyOp46
 70
     1
102
RTVSPropertyOp47
 70
     1
102
RTVSPropertyOp48
 70
     1
102
RTVSPropertyOp49
 70
     1
102
RTVSPropertyOp50
 70
     1
102
RTVSPropertyOp51
 70
     0
102
RTVSPropertyOp52
 70
     0
102
RTVSPropertyOp53
 70
     1
102
RTVSPropertyOp54
 70
     1
102
RTVSPropertyOp55
 70
     1
102
RTVSPropertyOp56
 70
     1
102
RTVSPropertyOp57
 70
     1
102
RTVSPost2010Prop28
280
     0
102
RTVSPost2010PropOp28
 70
     1
102
RTVSPost2010Prop29
280
     1
102
RTVSPost2010PropOp29
 70
     1
102
RTVSPost2010Prop30
280
     1
102
RTVSPost2010PropOp30
 70
     1
102
RTVSPost2010Prop31
280
     0
102
RTVSPost2010PropOp31
 70
     1
102
RTVSPost2010Prop32
280
     0
102
RTVSPost2010PropOp32
 70
     1
102
RTVSPost2010Prop33
280
     0
102
RTVSPost2010PropOp33
 70
     1
102
RTVSPost2010Prop34
280
     0
102
RTVSPost2010PropOp34
 70
     1
102
RTVSPost2010Prop35
280
     0
102
RTVSPost2010PropOp35
 70
     1
102
RTVSPost2010Prop36
280
     0
102
RTVSPost2010PropOp36
 70
     1
102
RTVSPost2010Prop37
 90
       50
102
RTVSPost2010PropOp37
 70
     1
102
RTVSPost2010Prop38
140
0.0
102
RTVSPost2010PropOp38
 70
     1
102
RTVSPost2010Prop39
140
1.0
102
RTVSPost2010PropOp39
 70
     1
102
RTVSPost2010Prop40
 90
        0
102
RTVSPost2010PropOp40
 70
     1
102
RTVSPost2010Prop41ColorIndex
 90
       18
102
RTVSPost2010Prop41ColorRGB
 90
        0
102
RTVSPost2010PropOp41
 70
     1
102
RTVSPost2010Prop42
 90
       50
102
RTVSPost2010PropOp42
 70
     1
102
RTVSPost2010Prop43
 90
        3
102
RTVSPost2010PropOp43
 70
     1
102
RTVSPost2010Prop44ColorIndex
 90
        5
102
RTVSPost2010Prop44ColorRGB
 90
      255
102
RTVSPost2010PropOp44
 70
     1
102
RTVSPost2010Prop45
280
     0
102
RTVSPost2010PropOp45
 70
     1
102
RTVSPost2010Prop46
 90
       50
102
RTVSPost2010PropOp46
 70
     1
102
RTVSPost2010Prop47
 90
       50
102
RTVSPost2010PropOp47
 70
     1
102
RTVSPost2010Prop48
 90
       50
102
RTVSPost2010PropOp48
 70
     1
102
RTVSPost2010Prop49
280
     0
102
RTVSPost2010PropOp49
 70
     1
102
RTVSPost2010Prop50
 90
       50
102
RTVSPost2010PropOp50
 70
     1
102
RTVSPost2010Prop51ColorIndex
 90
      256
102
RTVSPost2010Prop51ColorRGB
 90
-16777216
102
RTVSPost2010PropOp51
 70
     0
102
RTVSPost2010Prop52
140
1.0
102
RTVSPost2010PropOp52
 70
     0
102
RTVSPost2010Prop53
 90
        2
102
RTVSPost2010PropOp53
 70
     1
102
RTVSPost2010Prop54
  1
strokes_ogs.tif
102
RTVSPost2010PropOp54
 70
     1
102
RTVSPost2010Prop55
280
     0
102
RTVSPost2010PropOp55
 70
     1
102
RTVSPost2010Prop56
140
1.0
102
RTVSPost2010PropOp56
 70
     1
102
RTVSPost2010Prop57
140
1.0
102
RTVSPost2010PropOp57
 70
     1
  0
XRECORD
  5
37A
102
{ACAD_REACTORS
330
379
102
}
330
379
100
AcDbXrecord
280
     1
102
RTVSPropertyOp0
 70
     1
102
RTVSPropertyOp1
 70
     1
102
RTVSPropertyOp2
 70
     1
102
RTVSPropertyOp3
 70
     1
102
RTVSPropertyOp4
 70
     1
102
RTVSPropertyOp5
 70
     1
102
RTVSPropertyOp6
 70
     1
102
RTVSPropertyOp7
 70
     1
102
RTVSPropertyOp8
 70
     1
102
RTVSPropertyOp9
 70
     1
102
RTVSPropertyOp10
 70
     1
102
RTVSPropertyOp11
 70
     1
102
RTVSPropertyOp12
 70
     1
102
RTVSPropertyOp13
 70
     1
102
RTVSPropertyOp14
 70
     1
102
RTVSPropertyOp15
 70
     1
102
RTVSPropertyOp16
 70
     1
102
RTVSPropertyOp17
 70
     1
102
RTVSPropertyOp18
 70
     1
102
RTVSPropertyOp19
 70
     1
102
RTVSPropertyOp20
 70
     1
102
RTVSPropertyOp21
 70
     1
102
RTVSPropertyOp22
 70
     1
102
RTVSPropertyOp23
 70
     1
102
RTVSPropertyOp24
 70
     1
102
RTVSPropertyOp25
 70
     1
102
RTVSPropertyOp26
 70
     1
102
RTVSPropertyOp27
 70
     1
102
RTVSPropertyOp28
 70
     1
102
RTVSPropertyOp29
 70
     1
102
RTVSPropertyOp30
 70
     1
102
RTVSPropertyOp31
 70
     1
102
RTVSPropertyOp32
 70
     1
102
RTVSPropertyOp33
 70
     1
102
RTVSPropertyOp34
 70
     1
102
RTVSPropertyOp35
 70
     1
102
RTVSPropertyOp36
 70
     1
102
RTVSPropertyOp37
 70
     1
102
RTVSPropertyOp38
 70
     1
102
RTVSPropertyOp39
 70
     1
102
RTVSPropertyOp40
 70
     1
102
RTVSPropertyOp41
 70
     1
102
RTVSPropertyOp42
 70
     1
102
RTVSPropertyOp43
 70
     1
102
RTVSPropertyOp44
 70
     1
102
RTVSPropertyOp45
 70
     1
102
RTVSPropertyOp46
 70
     1
102
RTVSPropertyOp47
 70
     1
102
RTVSPropertyOp48
 70
     1
102
RTVSPropertyOp49
 70
     1
102
RTVSPropertyOp50
 70
     1
102
RTVSPropertyOp51
 70
     0
102
RTVSPropertyOp52
 70
     0
102
RTVSPropertyOp53
 70
     1
102
RTVSPropertyOp54
 70
     1
102
RTVSPropertyOp55
 70
     1
102
RTVSPropertyOp56
 70
     1
102
RTVSPropertyOp57
 70
     1
102
RTVSPost2010Prop28
280
     0
102
RTVSPost2010PropOp28
 70
     1
102
RTVSPost2010Prop29
280
     1
102
RTVSPost2010PropOp29
 70
     1
102
RTVSPost2010Prop30
280
     1
102
RTVSPost2010PropOp30
 70
     1
102
RTVSPost2010Prop31
280
     0
102
RTVSPost2010PropOp31
 70
     1
102
RTVSPost2010Prop32
280
     0
102
RTVSPost2010PropOp32
 70
     1
102
RTVSPost2010Prop33
280
     0
102
RTVSPost2010PropOp33
 70
     1
102
RTVSPost2010Prop34
280
     0
102
RTVSPost2010PropOp34
 70
     1
102
RTVSPost2010Prop35
280
     0
102
RTVSPost2010PropOp35
 70
     1
102
RTVSPost2010Prop36
280
     0
102
RTVSPost2010PropOp36
 70
     1
102
RTVSPost2010Prop37
 90
       50
102
RTVSPost2010PropOp37
 70
     1
102
RTVSPost2010Prop38
140
0.0
102
RTVSPost2010PropOp38
 70
     1
102
RTVSPost2010Prop39
140
1.0
102
RTVSPost2010PropOp39
 70
     1
102
RTVSPost2010Prop40
 90
        0
102
RTVSPost2010PropOp40
 70
     1
102
RTVSPost2010Prop41ColorIndex
 90
       18
102
RTVSPost2010Prop41ColorRGB
 90
        0
102
RTVSPost2010PropOp41
 70
     1
102
RTVSPost2010Prop42
 90
       50
102
RTVSPost2010PropOp42
 70
     1
102
RTVSPost2010Prop43
 90
        3
102
RTVSPost2010PropOp43
 70
     1
102
RTVSPost2010Prop44ColorIndex
 90
        5
102
RTVSPost2010Prop44ColorRGB
 90
      255
102
RTVSPost2010PropOp44
 70
     1
102
RTVSPost2010Prop45
280
     0
102
RTVSPost2010PropOp45
 70
     1
102
RTVSPost2010Prop46
 90
       50
102
RTVSPost2010PropOp46
 70
     1
102
RTVSPost2010Prop47
 90
       50
102
RTVSPost2010PropOp47
 70
     1
102
RTVSPost2010Prop48
 90
       50
102
RTVSPost2010PropOp48
 70
     1
102
RTVSPost2010Prop49
280
     0
102
RTVSPost2010PropOp49
 70
     1
102
RTVSPost2010Prop50
 90
       50
102
RTVSPost2010PropOp50
 70
     1
102
RTVSPost2010Prop51ColorIndex
 90
      256
102
RTVSPost2010Prop51ColorRGB
 90
-16777216
102
RTVSPost2010PropOp51
 70
     0
102
RTVSPost2010Prop52
140
1.0
102
RTVSPost2010PropOp52
 70
     0
102
RTVSPost2010Prop53
 90
        2
102
RTVSPost2010PropOp53
 70
     1
102
RTVSPost2010Prop54
  1
strokes_ogs.tif
102
RTVSPost2010PropOp54
 70
     1
102
RTVSPost2010Prop55
280
     0
102
RTVSPost2010PropOp55
 70
     1
102
RTVSPost2010Prop56
140
1.0
102
RTVSPost2010PropOp56
 70
     1
102
RTVSPost2010Prop57
140
1.0
102
RTVSPost2010PropOp57
 70
     1
  0
XRECORD
  5
39A
102
{ACAD_REACTORS
330
399
102
}
330
399
100
AcDbXrecord
280
     1
102
RTVSPropertyOp0
 70
     1
102
RTVSPropertyOp1
 70
     1
102
RTVSPropertyOp2
 70
     1
102
RTVSPropertyOp3
 70
     1
102
RTVSPropertyOp4
 70
     1
102
RTVSPropertyOp5
 70
     1
102
RTVSPropertyOp6
 70
     1
102
RTVSPropertyOp7
 70
     1
102
RTVSPropertyOp8
 70
     1
102
RTVSPropertyOp9
 70
     1
102
RTVSPropertyOp10
 70
     1
102
RTVSPropertyOp11
 70
     1
102
RTVSPropertyOp12
 70
     1
102
RTVSPropertyOp13
 70
     1
102
RTVSPropertyOp14
 70
     1
102
RTVSPropertyOp15
 70
     1
102
RTVSPropertyOp16
 70
     1
102
RTVSPropertyOp17
 70
     1
102
RTVSPropertyOp18
 70
     1
102
RTVSPropertyOp19
 70
     1
102
RTVSPropertyOp20
 70
     1
102
RTVSPropertyOp21
 70
     1
102
RTVSPropertyOp22
 70
     1
102
RTVSPropertyOp23
 70
     1
102
RTVSPropertyOp24
 70
     1
102
RTVSPropertyOp25
 70
     1
102
RTVSPropertyOp26
 70
     1
102
RTVSPropertyOp27
 70
     1
102
RTVSPropertyOp28
 70
     1
102
RTVSPropertyOp29
 70
     1
102
RTVSPropertyOp30
 70
     1
102
RTVSPropertyOp31
 70
     1
102
RTVSPropertyOp32
 70
     1
102
RTVSPropertyOp33
 70
     1
102
RTVSPropertyOp34
 70
     1
102
RTVSPropertyOp35
 70
     1
102
RTVSPropertyOp36
 70
     1
102
RTVSPropertyOp37
 70
     1
102
RTVSPropertyOp38
 70
     1
102
RTVSPropertyOp39
 70
     1
102
RTVSPropertyOp40
 70
     1
102
RTVSPropertyOp41
 70
     1
102
RTVSPropertyOp42
 70
     1
102
RTVSPropertyOp43
 70
     1
102
RTVSPropertyOp44
 70
     1
102
RTVSPropertyOp45
 70
     1
102
RTVSPropertyOp46
 70
     1
102
RTVSPropertyOp47
 70
     1
102
RTVSPropertyOp48
 70
     1
102
RTVSPropertyOp49
 70
     1
102
RTVSPropertyOp50
 70
     1
102
RTVSPropertyOp51
 70
     0
102
RTVSPropertyOp52
 70
     0
102
RTVSPropertyOp53
 70
     1
102
RTVSPropertyOp54
 70
     1
102
RTVSPropertyOp55
 70
     1
102
RTVSPropertyOp56
 70
     1
102
RTVSPropertyOp57
 70
     1
102
RTVSPost2010Prop28
280
     0
102
RTVSPost2010PropOp28
 70
     1
102
RTVSPost2010Prop29
280
     1
102
RTVSPost2010PropOp29
 70
     1
102
RTVSPost2010Prop30
280
     1
102
RTVSPost2010PropOp30
 70
     1
102
RTVSPost2010Prop31
280
     0
102
RTVSPost2010PropOp31
 70
     1
102
RTVSPost2010Prop32
280
     0
102
RTVSPost2010PropOp32
 70
     1
102
RTVSPost2010Prop33
280
     0
102
RTVSPost2010PropOp33
 70
     1
102
RTVSPost2010Prop34
280
     0
102
RTVSPost2010PropOp34
 70
     1
102
RTVSPost2010Prop35
280
     0
102
RTVSPost2010PropOp35
 70
     1
102
RTVSPost2010Prop36
280
     0
102
RTVSPost2010PropOp36
 70
     1
102
RTVSPost2010Prop37
 90
       50
102
RTVSPost2010PropOp37
 70
     1
102
RTVSPost2010Prop38
140
0.0
102
RTVSPost2010PropOp38
 70
     1
102
RTVSPost2010Prop39
140
1.0
102
RTVSPost2010PropOp39
 70
     1
102
RTVSPost2010Prop40
 90
        0
102
RTVSPost2010PropOp40
 70
     1
102
RTVSPost2010Prop41ColorIndex
 90
       18
102
RTVSPost2010Prop41ColorRGB
 90
        0
102
RTVSPost2010PropOp41
 70
     1
102
RTVSPost2010Prop42
 90
       50
102
RTVSPost2010PropOp42
 70
     1
102
RTVSPost2010Prop43
 90
        3
102
RTVSPost2010PropOp43
 70
     1
102
RTVSPost2010Prop44ColorIndex
 90
        5
102
RTVSPost2010Prop44ColorRGB
 90
      255
102
RTVSPost2010PropOp44
 70
     1
102
RTVSPost2010Prop45
280
     0
102
RTVSPost2010PropOp45
 70
     1
102
RTVSPost2010Prop46
 90
       50
102
RTVSPost2010PropOp46
 70
     1
102
RTVSPost2010Prop47
 90
       50
102
RTVSPost2010PropOp47
 70
     1
102
RTVSPost2010Prop48
 90
       50
102
RTVSPost2010PropOp48
 70
     1
102
RTVSPost2010Prop49
280
     0
102
RTVSPost2010PropOp49
 70
     1
102
RTVSPost2010Prop50
 90
       50
102
RTVSPost2010PropOp50
 70
     1
102
RTVSPost2010Prop51ColorIndex
 90
      256
102
RTVSPost2010Prop51ColorRGB
 90
-16777216
102
RTVSPost2010PropOp51
 70
     0
102
RTVSPost2010Prop52
140
1.0
102
RTVSPost2010PropOp52
 70
     0
102
RTVSPost2010Prop53
 90
        2
102
RTVSPost2010PropOp53
 70
     1
102
RTVSPost2010Prop54
  1
strokes_ogs.tif
102
RTVSPost2010PropOp54
 70
     1
102
RTVSPost2010Prop55
280
     0
102
RTVSPost2010PropOp55
 70
     1
102
RTVSPost2010Prop56
140
1.0
102
RTVSPost2010PropOp56
 70
     1
102
RTVSPost2010Prop57
140
1.0
102
RTVSPost2010PropOp57
 70
     1
  0
ENDSEC
  0
EOF
