  0
SECTION
  2
HEADER
  9
$ACADVER
  1
AC1027
  9
$ACADMAINTVER
 70
   105
  9
$DWGCODEPAGE
  3
ANSI_1251
  9
$REQUIREDVERSIONS
160
                 0
  9
$INSBASE
 10
0.0
 20
0.0
 30
0.0
  9
$EXTMIN
 10
69.14248763059888
 20
99.02451136441094
 30
0.0
  9
$EXTMAX
 10
261.1628817413329
 20
839.7185162002796
 30
0.0
  9
$LIMMIN
 10
0.0
 20
0.0
  9
$LIMMAX
 10
420.0
 20
297.0
  9
$ORTHOMODE
 70
     0
  9
$REGENMODE
 70
     1
  9
$FILLMODE
 70
     1
  9
$QTEXTMODE
 70
     0
  9
$MIRRTEXT
 70
     1
  9
$LTSCALE
 40
1.0
  9
$ATTMODE
 70
     1
  9
$TEXTSIZE
 40
2.5
  9
$TRACEWID
 40
1.0
  9
$TEXTSTYLE
  7
Standard
  9
$CLAYER
  8
0
  9
$CELTYPE
  6
ByLayer
  9
$CECOLOR
 62
   256
  9
$CELTSCALE
 40
1.0
  9
$DISPSILH
 70
     0
  9
$DIMSCALE
 40
1.0
  9
$DIMASZ
 40
2.5
  9
$DIMEXO
 40
0.625
  9
$DIMDLI
 40
3.75
  9
$DIMRND
 40
0.0
  9
$DIMDLE
 40
0.0
  9
$DIMEXE
 40
1.25
  9
$DIMTP
 40
0.0
  9
$DIMTM
 40
0.0
  9
$DIMTXT
 40
2.5
  9
$DIMCEN
 40
2.5
  9
$DIMTSZ
 40
0.0
  9
$DIMTOL
 70
     0
  9
$DIMLIM
 70
     0
  9
$DIMTIH
 70
     0
  9
$DIMTOH
 70
     0
  9
$DIMSE1
 70
     0
  9
$DIMSE2
 70
     0
  9
$DIMTAD
 70
     1
  9
$DIMZIN
 70
     8
  9
$DIMBLK
  1

  9
$DIMASO
 70
     1
  9
$DIMSHO
 70
     1
  9
$DIMPOST
  1

  9
$DIMAPOST
  1

  9
$DIMALT
 70
     0
  9
$DIMALTD
 70
     3
  9
$DIMALTF
 40
0.03937007874016
  9
$DIMLFAC
 40
1.0
  9
$DIMTOFL
 70
     1
  9
$DIMTVP
 40
0.0
  9
$DIMTIX
 70
     0
  9
$DIMSOXD
 70
     0
  9
$DIMSAH
 70
     0
  9
$DIMBLK1
  1

  9
$DIMBLK2
  1

  9
$DIMSTYLE
  2
ISO-25
  9
$DIMCLRD
 70
     0
  9
$DIMCLRE
 70
     0
  9
$DIMCLRT
 70
     0
  9
$DIMTFAC
 40
1.0
  9
$DIMGAP
 40
0.625
  9
$DIMJUST
 70
     0
  9
$DIMSD1
 70
     0
  9
$DIMSD2
 70
     0
  9
$DIMTOLJ
 70
     0
  9
$DIMTZIN
 70
     8
  9
$DIMALTZ
 70
     0
  9
$DIMALTTZ
 70
     0
  9
$DIMUPT
 70
     0
  9
$DIMDEC
 70
     2
  9
$DIMTDEC
 70
     2
  9
$DIMALTU
 70
     2
  9
$DIMALTTD
 70
     3
  9
$DIMTXSTY
  7
Standard
  9
$DIMAUNIT
 70
     0
  9
$DIMADEC
 70
     0
  9
$DIMALTRND
 40
0.0
  9
$DIMAZIN
 70
     0
  9
$DIMDSEP
 70
    44
  9
$DIMATFIT
 70
     3
  9
$DIMFRAC
 70
     0
  9
$DIMLDRBLK
  1

  9
$DIMLUNIT
 70
     2
  9
$DIMLWD
 70
    -2
  9
$DIMLWE
 70
    -2
  9
$DIMTMOVE
 70
     0
  9
$DIMFXL
 40
1.0
  9
$DIMFXLON
 70
     0
  9
$DIMJOGANG
 40
0.7853981633974483
  9
$DIMTFILL
 70
     0
  9
$DIMTFILLCLR
 70
     0
  9
$DIMARCSYM
 70
     0
  9
$DIMLTYPE
  6

  9
$DIMLTEX1
  6

  9
$DIMLTEX2
  6

  9
$DIMTXTDIRECTION
 70
     0
  9
$LUNITS
 70
     2
  9
$LUPREC
 70
     4
  9
$SKETCHINC
 40
1.0
  9
$FILLETRAD
 40
10.0
  9
$AUNITS
 70
     0
  9
$AUPREC
 70
     0
  9
$MENU
  1
.
  9
$ELEVATION
 40
0.0
  9
$PELEVATION
 40
0.0
  9
$THICKNESS
 40
0.0
  9
$LIMCHECK
 70
     0
  9
$CHAMFERA
 40
0.0
  9
$CHAMFERB
 40
0.0
  9
$CHAMFERC
 40
0.0
  9
$CHAMFERD
 40
0.0
  9
$SKPOLY
 70
     0
  9
$TDCREATE
 40
2459024.927690845
  9
$TDUCREATE
 40
2459024.802690845
  9
$TDUPDATE
 40
2459024.927692569
  9
$TDUUPDATE
 40
2459024.802692569
  9
$TDINDWG
 40
0.0000000116
  9
$TDUSRTIMER
 40
0.0000000116
  9
$USRTIMER
 70
     1
  9
$ANGBASE
 50
0.0
  9
$ANGDIR
 70
     0
  9
$PDMODE
 70
     0
  9
$PDSIZE
 40
0.0
  9
$PLINEWID
 40
0.0
  9
$SPLFRAME
 70
     0
  9
$SPLINETYPE
 70
     6
  9
$SPLINESEGS
 70
     8
  9
$HANDSEED
  5
91
  9
$SURFTAB1
 70
     6
  9
$SURFTAB2
 70
     6
  9
$SURFTYPE
 70
     6
  9
$SURFU
 70
     6
  9
$SURFV
 70
     6
  9
$UCSBASE
  2

  9
$UCSNAME
  2

  9
$UCSORG
 10
0.0
 20
0.0
 30
0.0
  9
$UCSXDIR
 10
1.0
 20
0.0
 30
0.0
  9
$UCSYDIR
 10
0.0
 20
1.0
 30
0.0
  9
$UCSORTHOREF
  2

  9
$UCSORTHOVIEW
 70
     0
  9
$UCSORGTOP
 10
0.0
 20
0.0
 30
0.0
  9
$UCSORGBOTTOM
 10
0.0
 20
0.0
 30
0.0
  9
$UCSORGLEFT
 10
0.0
 20
0.0
 30
0.0
  9
$UCSORGRIGHT
 10
0.0
 20
0.0
 30
0.0
  9
$UCSORGFRONT
 10
0.0
 20
0.0
 30
0.0
  9
$UCSORGBACK
 10
0.0
 20
0.0
 30
0.0
  9
$PUCSBASE
  2

  9
$PUCSNAME
  2

  9
$PUCSORG
 10
0.0
 20
0.0
 30
0.0
  9
$PUCSXDIR
 10
1.0
 20
0.0
 30
0.0
  9
$PUCSYDIR
 10
0.0
 20
1.0
 30
0.0
  9
$PUCSORTHOREF
  2

  9
$PUCSORTHOVIEW
 70
     0
  9
$PUCSORGTOP
 10
0.0
 20
0.0
 30
0.0
  9
$PUCSORGBOTTOM
 10
0.0
 20
0.0
 30
0.0
  9
$PUCSORGLEFT
 10
0.0
 20
0.0
 30
0.0
  9
$PUCSORGRIGHT
 10
0.0
 20
0.0
 30
0.0
  9
$PUCSORGFRONT
 10
0.0
 20
0.0
 30
0.0
  9
$PUCSORGBACK
 10
0.0
 20
0.0
 30
0.0
  9
$USERI1
 70
     0
  9
$USERI2
 70
     0
  9
$USERI3
 70
     0
  9
$USERI4
 70
     0
  9
$USERI5
 70
     0
  9
$USERR1
 40
0.0
  9
$USERR2
 40
0.0
  9
$USERR3
 40
0.0
  9
$USERR4
 40
0.0
  9
$USERR5
 40
0.0
  9
$WORLDVIEW
 70
     1
  9
$SHADEDGE
 70
     3
  9
$SHADEDIF
 70
    70
  9
$TILEMODE
 70
     1
  9
$MAXACTVP
 70
    64
  9
$PINSBASE
 10
0.0
 20
0.0
 30
0.0
  9
$PLIMCHECK
 70
     0
  9
$PEXTMIN
 10
1.000000000000000E+20
 20
1.000000000000000E+20
 30
1.000000000000000E+20
  9
$PEXTMAX
 10
-1.000000000000000E+20
 20
-1.000000000000000E+20
 30
-1.000000000000000E+20
  9
$PLIMMIN
 10
0.0
 20
0.0
  9
$PLIMMAX
 10
420.0
 20
297.0
  9
$UNITMODE
 70
     0
  9
$VISRETAIN
 70
     1
  9
$PLINEGEN
 70
     0
  9
$PSLTSCALE
 70
     1
  9
$TREEDEPTH
 70
  3020
  9
$CMLSTYLE
  2
Standard
  9
$CMLJUST
 70
     0
  9
$CMLSCALE
 40
20.0
  9
$PROXYGRAPHICS
 70
     1
  9
$MEASUREMENT
 70
     1
  9
$CELWEIGHT
370
    -1
  9
$ENDCAPS
280
     0
  9
$JOINSTYLE
280
     0
  9
$LWDISPLAY
290
     0
  9
$INSUNITS
 70
     4
  9
$HYPERLINKBASE
  1

  9
$STYLESHEET
  1

  9
$XEDIT
290
     1
  9
$CEPSNTYPE
380
     0
  9
$PSTYLEMODE
290
     1
  9
$FINGERPRINTGUID
  2
{9D168BF6-09AF-4EFF-94AE-CD5BFC8AE12F}
  9
$VERSIONGUID
  2
{FAEB1C32-E019-11D5-929B-00C0DF256EC4}
  9
$EXTNAMES
290
     1
  9
$PSVPSCALE
 40
0.0
  9
$OLESTARTUP
290
     0
  9
$SORTENTS
280
   127
  9
$INDEXCTL
280
     0
  9
$HIDETEXT
280
     1
  9
$XCLIPFRAME
280
     2
  9
$HALOGAP
280
     0
  9
$OBSCOLOR
 70
   257
  9
$OBSLTYPE
280
     0
  9
$INTERSECTIONDISPLAY
280
     0
  9
$INTERSECTIONCOLOR
 70
   257
  9
$DIMASSOC
280
     2
  9
$PROJECTNAME
  1

  9
$CAMERADISPLAY
290
     0
  9
$LENSLENGTH
 40
50.0
  9
$CAMERAHEIGHT
 40
0.0
  9
$STEPSPERSEC
 40
2.0
  9
$STEPSIZE
 40
6.0
  9
$3DDWFPREC
 40
2.0
  9
$PSOLWIDTH
 40
5.0
  9
$PSOLHEIGHT
 40
80.0
  9
$LOFTANG1
 40
1.570796326794897
  9
$LOFTANG2
 40
1.570796326794897
  9
$LOFTMAG1
 40
0.0
  9
$LOFTMAG2
 40
0.0
  9
$LOFTPARAM
 70
     7
  9
$LOFTNORMALS
280
     1
  9
$LATITUDE
 40
37.795
  9
$LONGITUDE
 40
-122.394
  9
$NORTHDIRECTION
 40
0.0
  9
$TIMEZONE
 70
 -8000
  9
$LIGHTGLYPHDISPLAY
280
     1
  9
$TILEMODELIGHTSYNCH
280
     1
  9
$CMATERIAL
347
44
  9
$SOLIDHIST
280
     0
  9
$SHOWHIST
280
     1
  9
$DWFFRAME
280
     2
  9
$DGNFRAME
280
     2
  9
$REALWORLDSCALE
290
     1
  9
$INTERFERECOLOR
 62
   256
  9
$CSHADOW
280
     0
  9
$SHADOWPLANELOCATION
 40
0.0
  0
ENDSEC
  0
SECTION
  2
CLASSES
  0
CLASS
  1
ACDBDICTIONARYWDFLT
  2
AcDbDictionaryWithDefault
  3
ObjectDBX Classes
 90
        0
 91
        3
280
     0
281
     0
  0
CLASS
  1
VISUALSTYLE
  2
AcDbVisualStyle
  3
ObjectDBX Classes
 90
     4095
 91
        3
280
     0
281
     0
  0
CLASS
  1
MATERIAL
  2
AcDbMaterial
  3
ObjectDBX Classes
 90
     1153
 91
        3
280
     0
281
     0
  0
CLASS
  1
SCALE
  2
AcDbScale
  3
ObjectDBX Classes
 90
     1153
 91
        3
280
     0
281
     0
  0
CLASS
  1
TABLESTYLE
  2
AcDbTableStyle
  3
ObjectDBX Classes
 90
     4095
 91
        3
280
     0
281
     0
  0
CLASS
  1
MLEADERSTYLE
  2
AcDbMLeaderStyle
  3
ACDB_MLEADERSTYLE_CLASS
 90
     4095
 91
        3
280
     0
281
     0
  0
CLASS
  1
SUN
  2
AcDbSun
  3
SCENEOE
 90
     1153
 91
        3
280
     0
281
     0
  0
CLASS
  1
DICTIONARYVAR
  2
AcDbDictionaryVar
  3
ObjectDBX Classes
 90
        0
 91
        3
280
     0
281
     0
  0
CLASS
  1
CELLSTYLEMAP
  2
AcDbCellStyleMap
  3
ObjectDBX Classes
 90
     1152
 91
        3
280
     0
281
     0
  0
ENDSEC
  0
SECTION
  2
TABLES
  0
TABLE
  2
VPORT
  5
8
330
0
100
AcDbSymbolTable
 70
     1
  0
VPORT
  5
29
330
8
100
AcDbSymbolTableRecord
100
AcDbViewportTableRecord
  2
*Active
 70
     0
 10
0.0
 20
0.0
 11
1.0
 21
1.0
 12
165.1526846859659
 22
469.3715137823453
 13
0.0
 23
0.0
 14
10.0
 24
10.0
 15
10.0
 25
10.0
 16
0.0
 26
0.0
 36
1.0
 17
0.0
 27
0.0
 37
0.0
 40
755.5078849325861
 41
0.2592438886464109
 42
50.0
 43
0.0
 44
0.0
 50
0.0
 51
0.0
 71
     0
 72
   100
 73
     1
 74
     3
 75
     0
 76
     0
 77
     0
 78
     0
281
     0
 65
     1
110
0.0
120
0.0
130
0.0
111
1.0
121
0.0
131
0.0
112
0.0
122
1.0
132
0.0
 79
     0
146
0.0
348
2F
 60
     3
 61
     5
292
     1
282
     1
141
0.0
142
0.0
 63
   250
361
6D
  0
ENDTAB
  0
TABLE
  2
LTYPE
  5
5
330
0
100
AcDbSymbolTable
 70
     2
  0
LTYPE
  5
14
330
5
100
AcDbSymbolTableRecord
100
AcDbLinetypeTableRecord
  2
ByBlock
 70
     0
  3

 72
    65
 73
     0
 40
0.0
  0
LTYPE
  5
15
330
5
100
AcDbSymbolTableRecord
100
AcDbLinetypeTableRecord
  2
ByLayer
 70
     0
  3

 72
    65
 73
     0
 40
0.0
  0
LTYPE
  5
16
330
5
100
AcDbSymbolTableRecord
100
AcDbLinetypeTableRecord
  2
Continuous
 70
     0
  3
Solid line
 72
    65
 73
     0
 40
0.0
  0
LTYPE
  5
72
330
5
100
AcDbSymbolTableRecord
100
AcDbLinetypeTableRecord
  2
K5LT_BASIC
 70
     0
  3

 72
    65
 73
     0
 40
0.0
  0
ENDTAB
  0
TABLE
  2
LAYER
  5
2
330
0
100
AcDbSymbolTable
 70
     4
  0
LAYER
  5
10
330
2
100
AcDbSymbolTableRecord
100
AcDbLayerTableRecord
  2
0
 70
     0
 62
     7
  6
Continuous
370
    -3
390
F
347
46
348
0
  0
LAYER
  5
6F
330
2
100
AcDbSymbolTableRecord
100
AcDbLayerTableRecord
  2
0 (1)
 70
     0
 62
     7
  6
Continuous
370
    -3
390
F
347
46
348
0
  0
LAYER
  5
70
330
2
100
AcDbSymbolTableRecord
100
AcDbLayerTableRecord
  2
0 (1) (1)
 70
     0
 62
     7
  6
Continuous
370
    -3
390
F
347
46
348
0
  0
LAYER
  5
71
330
2
100
AcDbSymbolTableRecord
100
AcDbLayerTableRecord
  2
layer 1
 70
     0
 62
     7
  6
Continuous
370
    -3
390
F
347
46
348
0
  0
ENDTAB
  0
TABLE
  2
STYLE
  5
3
330
0
100
AcDbSymbolTable
 70
     1
  0
STYLE
  5
11
330
3
100
AcDbSymbolTableRecord
100
AcDbTextStyleTableRecord
  2
Standard
 70
     0
 40
0.0
 41
1.0
 50
0.0
 71
     0
 42
2.5
  3
txt
  4

  0
ENDTAB
  0
TABLE
  2
VIEW
  5
6
330
0
100
AcDbSymbolTable
 70
     0
  0
ENDTAB
  0
TABLE
  2
UCS
  5
7
330
0
100
AcDbSymbolTable
 70
     0
  0
ENDTAB
  0
TABLE
  2
APPID
  5
9
330
0
100
AcDbSymbolTable
 70
     2
  0
APPID
  5
12
330
9
100
AcDbSymbolTableRecord
100
AcDbRegAppTableRecord
  2
ACAD
 70
     0
  0
APPID
  5
6E
330
9
100
AcDbSymbolTableRecord
100
AcDbRegAppTableRecord
  2
KOMPAS
 70
     0
  0
ENDTAB
  0
TABLE
  2
DIMSTYLE
  5
A
330
0
100
AcDbSymbolTable
 70
     1
100
AcDbDimStyleTable
  0
DIMSTYLE
105
27
330
A
100
AcDbSymbolTableRecord
100
AcDbDimStyleTableRecord
  2
ISO-25
 70
     0
 41
2.5
 42
0.625
 43
3.75
 44
1.25
 73
     0
 74
     0
 77
     1
 78
     8
140
2.5
141
2.5
143
0.03937007874016
147
0.625
171
     3
172
     1
178
     0
271
     2
272
     2
274
     3
278
    44
283
     0
284
     8
340
11
  0
ENDTAB
  0
TABLE
  2
BLOCK_RECORD
  5
1
330
0
100
AcDbSymbolTable
 70
     1
  0
BLOCK_RECORD
  5
1F
330
1
100
AcDbSymbolTableRecord
100
AcDbBlockTableRecord
  2
*Model_Space
340
22
 70
     0
280
     1
281
     0
  0
BLOCK_RECORD
  5
1B
330
1
100
AcDbSymbolTableRecord
100
AcDbBlockTableRecord
  2
*Paper_Space
340
1E
 70
     0
280
     1
281
     0
  0
BLOCK_RECORD
  5
23
330
1
100
AcDbSymbolTableRecord
100
AcDbBlockTableRecord
  2
*Paper_Space0
340
26
 70
     0
280
     1
281
     0
  0
ENDTAB
  0
ENDSEC
  0
SECTION
  2
BLOCKS
  0
BLOCK
  5
20
330
1F
100
AcDbEntity
  8
0
100
AcDbBlockBegin
  2
*Model_Space
 70
     0
 10
0.0
 20
0.0
 30
0.0
  3
*Model_Space
  1

  0
ENDBLK
  5
21
330
1F
100
AcDbEntity
  8
0
100
AcDbBlockEnd
  0
BLOCK
  5
1C
330
1B
100
AcDbEntity
 67
     1
  8
0
100
AcDbBlockBegin
  2
*Paper_Space
 70
     0
 10
0.0
 20
0.0
 30
0.0
  3
*Paper_Space
  1

  0
ENDBLK
  5
1D
330
1B
100
AcDbEntity
 67
     1
  8
0
100
AcDbBlockEnd
  0
BLOCK
  5
24
330
23
100
AcDbEntity
  8
0
100
AcDbBlockBegin
  2
*Paper_Space0
 70
     0
 10
0.0
 20
0.0
 30
0.0
  3
*Paper_Space0
  1

  0
ENDBLK
  5
25
330
23
100
AcDbEntity
  8
0
100
AcDbBlockEnd
  0
ENDSEC
  0
SECTION
  2
ENTITIES
  0
SPLINE
  5
73
330
1F
100
AcDbEntity
  8
layer 1
  6
K5LT_BASIC
 62
   143
420
  3386570
370
    60
100
AcDbSpline
210
0.0
220
0.0
230
1.0
 70
    11
 71
     3
 72
    26
 73
    22
 74
     0
 42
0.000000001
 43
0.0
 40
0.0
 40
0.0
 40
0.0
 40
0.0
 40
0.1111111111111111
 40
0.1111111111111111
 40
0.1111111111111111
 40
0.2222222222222222
 40
0.2222222222222222
 40
0.3333333333333333
 40
0.3333333333333333
 40
0.3333333333333333
 40
0.4444444444444444
 40
0.4444444444444444
 40
0.5555555555555556
 40
0.5555555555555556
 40
0.5555555555555556
 40
0.6666666666666666
 40
0.6666666666666666
 40
0.7777777777777778
 40
0.7777777777777778
 40
0.7777777777777778
 40
1.0
 40
1.0
 40
1.0
 40
1.0
 10
211.2474
 20
434.9823
 30
0.0
 10
213.4346
 20
429.9731
 30
0.0
 10
215.0097
 20
428.2264
 30
0.0
 10
219.8324
 20
431.7459
 30
0.0
 10
221.7327
 20
433.1327
 30
0.0
 10
222.9083000000001
 20
434.9737
 30
0.0
 10
222.9083000000001
 20
438.9055
 30
0.0
 10
221.7327
 20
440.7465
 30
0.0
 10
219.8324
 20
442.1333
 30
0.0
 10
217.6605
 20
443.7183
 30
0.0
 10
214.5998
 20
444.6987
 30
0.0
 10
207.7308
 20
444.6987
 30
0.0
 10
204.6701
 20
443.7183
 30
0.0
 10
202.4982
 20
442.1333
 30
0.0
 10
200.5979
 20
440.7465
 30
0.0
 10
199.4223
 20
438.9055
 30
0.0
 10
199.4223
 20
434.9737
 30
0.0
 10
200.5979
 20
433.1327
 30
0.0
 10
202.4982
 20
431.7459
 30
0.0
 10
207.3874
 20
428.178
 30
0.0
 10
209.0312
 20
429.9079
 30
0.0
 10
211.2474
 20
434.9823
 30
0.0
  0
SPLINE
  5
74
330
1F
100
AcDbEntity
  8
layer 1
  6
K5LT_BASIC
 62
   143
420
  3386570
370
    60
100
AcDbSpline
210
0.0
220
0.0
230
1.0
 70
    11
 71
     3
 72
    41
 73
    37
 74
     0
 42
0.000000001
 43
0.0
 40
0.0
 40
0.0
 40
0.0
 40
0.0
 40
0.0769230769230769
 40
0.0769230769230769
 40
0.0769230769230769
 40
0.1538461538461539
 40
0.1538461538461539
 40
0.1538461538461539
 40
0.2307692307692308
 40
0.2307692307692308
 40
0.2307692307692308
 40
0.3076923076923077
 40
0.3076923076923077
 40
0.3076923076923077
 40
0.3846153846153846
 40
0.3846153846153846
 40
0.3846153846153846
 40
0.4615384615384616
 40
0.4615384615384616
 40
0.4615384615384616
 40
0.5384615384615384
 40
0.5384615384615384
 40
0.5384615384615384
 40
0.6153846153846154
 40
0.6153846153846154
 40
0.6153846153846154
 40
0.6923076923076923
 40
0.6923076923076923
 40
0.6923076923076923
 40
0.7692307692307693
 40
0.7692307692307693
 40
0.7692307692307693
 40
0.8461538461538461
 40
0.8461538461538461
 40
0.8461538461538461
 40
1.0
 40
1.0
 40
1.0
 40
1.0
 10
211.1653
 20
405.35
 30
0.0
 10
214.5566
 20
397.5825
 30
0.0
 10
219.5631
 20
399.599
 30
0.0
 10
225.3354
 20
404.6151
 30
0.0
 10
228.8182
 20
407.6417
 30
0.0
 10
230.9725
 20
411.7985
 30
0.0
 10
230.9725
 20
416.3678
 30
0.0
 10
230.9725
 20
419.0684
 30
0.0
 10
230.2305
 20
421.6118
 30
0.0
 10
228.9151000000001
 20
423.852
 30
0.0
 10
227.9298
 20
425.53
 30
0.0
 10
226.6215999999999
 20
427.0513
 30
0.0
 10
225.0588
 20
428.3569
 30
0.0
 10
224.5334
 20
427.8465
 30
0.0
 10
223.9617
 20
427.3656
 30
0.0
 10
223.348
 20
426.9177
 30
0.0
 10
217.706
 20
422.8002
 30
0.0
 10
214.7805
 20
425.4689
 30
0.0
 10
211.2474
 20
417.3791
 30
0.0
 10
207.6864
 20
425.5344
 30
0.0
 10
204.7034
 20
422.7429999999999
 30
0.0
 10
198.9826
 20
426.9177
 30
0.0
 10
198.3689000000001
 20
427.3656
 30
0.0
 10
197.7972
 20
427.8465
 30
0.0
 10
197.2718
 20
428.3569
 30
0.0
 10
195.7089999999999
 20
427.0513
 30
0.0
 10
194.4008
 20
425.53
 30
0.0
 10
193.4155
 20
423.852
 30
0.0
 10
192.1001
 20
421.6118
 30
0.0
 10
191.3581
 20
419.0684
 30
0.0
 10
191.3581
 20
416.3678
 30
0.0
 10
191.3581
 20
411.7985
 30
0.0
 10
193.5124
 20
407.6417
 30
0.0
 10
196.9952
 20
404.6151
 30
0.0
 10
202.7683
 20
399.5982
 30
0.0
 10
207.7732
 20
397.583
 30
0.0
 10
211.1653
 20
405.35
 30
0.0
  0
SPLINE
  5
75
330
1F
100
AcDbEntity
  8
layer 1
  6
K5LT_BASIC
 62
   143
420
  3386570
370
    60
100
AcDbSpline
210
0.0
220
0.0
230
1.0
 70
    11
 71
     3
 72
    41
 73
    37
 74
     0
 42
0.000000001
 43
0.0
 40
0.0
 40
0.0
 40
0.0
 40
0.0
 40
0.0769230769230769
 40
0.0769230769230769
 40
0.0769230769230769
 40
0.1538461538461539
 40
0.1538461538461539
 40
0.1538461538461539
 40
0.2307692307692308
 40
0.2307692307692308
 40
0.2307692307692308
 40
0.3076923076923077
 40
0.3076923076923077
 40
0.3076923076923077
 40
0.3846153846153846
 40
0.3846153846153846
 40
0.3846153846153846
 40
0.4615384615384617
 40
0.4615384615384617
 40
0.4615384615384617
 40
0.5384615384615384
 40
0.5384615384615384
 40
0.5384615384615384
 40
0.6153846153846154
 40
0.6153846153846154
 40
0.6153846153846154
 40
0.6923076923076924
 40
0.6923076923076924
 40
0.6923076923076924
 40
0.7692307692307694
 40
0.7692307692307694
 40
0.7692307692307694
 40
0.8461538461538463
 40
0.8461538461538463
 40
0.8461538461538463
 40
1.0
 40
1.0
 40
1.0
 40
1.0
 10
211.1653
 20
375.718
 30
0.0
 10
215.4161
 20
365.9831
 30
0.0
 10
225.1839
 20
372.1553
 30
0.0
 10
230.9556
 20
377.5547
 30
0.0
 10
235.9485
 20
382.2254
 30
0.0
 10
239.0368
 20
388.675
 30
0.0
 10
239.0368
 20
395.7959
 30
0.0
 10
239.0368
 20
399.0866
 30
0.0
 10
238.3812
 20
402.2247
 30
0.0
 10
237.1862
 20
405.102
 30
0.0
 10
236.6882000000001
 20
406.3012
 30
0.0
 10
236.0975
 20
407.4567
 30
0.0
 10
235.4226
 20
408.5608999999999
 30
0.0
 10
234.0948
 20
405.3377
 30
0.0
 10
231.9677
 20
402.4539
 30
0.0
 10
229.2494
 20
400.0916999999999
 30
0.0
 10
221.4544
 20
393.3177000000001
 30
0.0
 10
215.1548
 20
396.8817
 30
0.0
 10
211.1653
 20
387.7468
 30
0.0
 10
207.1768
 20
396.8812
 30
0.0
 10
200.8758
 20
393.3181
 30
0.0
 10
193.0812
 20
400.0916999999999
 30
0.0
 10
190.3629
 20
402.4539
 30
0.0
 10
188.2358
 20
405.3377
 30
0.0
 10
186.908
 20
408.5608999999999
 30
0.0
 10
186.2331
 20
407.4567
 30
0.0
 10
185.6424
 20
406.3012
 30
0.0
 10
185.1444
 20
405.102
 30
0.0
 10
183.9494
 20
402.2247
 30
0.0
 10
183.2938
 20
399.0866
 30
0.0
 10
183.2938
 20
395.7959
 30
0.0
 10
183.2938
 20
388.675
 30
0.0
 10
186.3821
 20
382.2254
 30
0.0
 10
191.375
 20
377.5547
 30
0.0
 10
197.1473999999999
 20
372.1547
 30
0.0
 10
206.9136999999999
 20
365.9835
 30
0.0
 10
211.1653
 20
375.718
 30
0.0
  0
SPLINE
  5
76
330
1F
100
AcDbEntity
  8
layer 1
  6
K5LT_BASIC
 62
   143
420
  3386570
370
    60
100
AcDbSpline
210
0.0
220
0.0
230
1.0
 70
    11
 71
     3
 72
    26
 73
    22
 74
     0
 42
0.000000001
 43
0.0
 40
0.0
 40
0.0
 40
0.0
 40
0.0
 40
0.125
 40
0.125
 40
0.125
 40
0.25
 40
0.25
 40
0.25
 40
0.375
 40
0.375
 40
0.375
 40
0.5
 40
0.5
 40
0.5
 40
0.625
 40
0.625
 40
0.625
 40
0.75
 40
0.75
 40
0.75
 40
1.0
 40
1.0
 40
1.0
 40
1.0
 10
175.2296
 20
375.2241
 30
0.0
 10
175.2296
 20
369.7856
 30
0.0
 10
176.5014
 20
364.6426
 30
0.0
 10
178.7696999999999
 20
360.0624
 30
0.0
 10
182.1949
 20
364.1293000000001
 30
0.0
 10
186.4074000000001
 20
367.5396
 30
0.0
 10
191.1787
 20
370.0715
 30
0.0
 10
189.8024
 20
371.0211
 30
0.0
 10
188.5045
 20
372.0655
 30
0.0
 10
187.2968
 20
373.1953
 30
0.0
 10
182.7681
 20
377.4317
 30
0.0
 10
179.5056
 20
382.8543
 30
0.0
 10
178.0851
 20
388.9236
 30
0.0
 10
177.7456
 20
388.1484
 30
0.0
 10
177.4338
 20
387.3586
 30
0.0
 10
177.1511
 20
386.5554
 30
0.0
 10
177.1511
 20
386.5554
 30
0.0
 10
177.1511
 20
386.5436999999999
 30
0.0
 10
177.1511
 20
386.5436999999999
 30
0.0
 10
175.9057
 20
383.0058
 30
0.0
 10
175.2296
 20
379.1982
 30
0.0
 10
175.2296
 20
375.2241
 30
0.0
  0
SPLINE
  5
77
330
1F
100
AcDbEntity
  8
layer 1
  6
K5LT_BASIC
 62
   143
420
  3386570
370
    60
100
AcDbSpline
210
0.0
220
0.0
230
1.0
 70
     8
 71
     3
 72
    29
 73
    25
 74
     0
 42
0.000000001
 43
0.0
 40
0.0
 40
0.0
 40
0.0
 40
0.0
 40
0.2423910431715779
 40
0.2423910431715779
 40
0.2423910431715779
 40
0.3686590912766633
 40
0.3686590912766633
 40
0.3686590912766633
 40
0.4949271393817489
 40
0.4949271393817489
 40
0.4949271393817489
 40
0.6211951874868344
 40
0.6211951874868344
 40
0.6211951874868344
 40
0.7474632355919199
 40
0.7474632355919199
 40
0.7474632355919199
 40
0.8737312836970055
 40
0.8737312836970055
 40
0.8737312836970055
 40
0.999999331802091
 40
0.999999331802091
 40
0.999999331802091
 40
1.0
 40
1.0
 40
1.0
 40
1.0
 10
245.1795
 20
386.5553448711337
 30
0.0
 10
245.1795
 20
386.5544788411535
 30
0.0
 10
245.1795
 20
386.5436999999999
 30
0.0
 10
245.1795
 20
386.5436999999999
 30
0.0
 10
246.4249
 20
383.0058
 30
0.0
 10
247.1010000000001
 20
379.1982
 30
0.0
 10
247.1010000000001
 20
375.2241
 30
0.0
 10
247.1010000000001
 20
369.7856
 30
0.0
 10
245.8292
 20
364.6426
 30
0.0
 10
243.5608999999999
 20
360.0624
 30
0.0
 10
240.1357
 20
364.1293000000001
 30
0.0
 10
235.9232
 20
367.5396
 30
0.0
 10
231.1519
 20
370.0715
 30
0.0
 10
232.5282
 20
371.0211
 30
0.0
 10
233.8261
 20
372.0655
 30
0.0
 10
235.0338
 20
373.1953
 30
0.0
 10
239.5625
 20
377.4317
 30
0.0
 10
242.825
 20
382.8543
 30
0.0
 10
244.2455
 20
388.9236
 30
0.0
 10
244.585
 20
388.1484
 30
0.0
 10
244.8968
 20
387.3586
 30
0.0
 10
245.1795
 20
386.5554
 30
0.0
 10
245.1795
 20
386.555349721508
 30
0.0
 10
245.1795
 20
386.5553542609389
 30
0.0
 10
245.1795
 20
386.5553584857911
 30
0.0
  0
SPLINE
  5
78
330
1F
100
AcDbEntity
  8
layer 1
  6
K5LT_BASIC
 62
   143
420
  3386570
370
    60
100
AcDbSpline
210
0.0
220
0.0
230
1.0
 70
    11
 71
     3
 72
    23
 73
    19
 74
     0
 42
0.000000001
 43
0.0
 40
0.0
 40
0.0
 40
0.0
 40
0.0
 40
0.1428571428571428
 40
0.1428571428571428
 40
0.1428571428571428
 40
0.2857142857142858
 40
0.2857142857142858
 40
0.2857142857142858
 40
0.4285714285714286
 40
0.4285714285714286
 40
0.4285714285714286
 40
0.5714285714285715
 40
0.5714285714285715
 40
0.5714285714285715
 40
0.7142857142857143
 40
0.7142857142857143
 40
0.7142857142857143
 40
1.0
 40
1.0
 40
1.0
 40
1.0
 10
253.1115
 20
368.0219
 30
0.0
 10
252.9708000000001
 20
368.4639
 30
0.0
 10
252.8231000000001
 20
368.9028
 30
0.0
 10
252.6687999999999
 20
369.3388
 30
0.0
 10
251.8866
 20
364.0537
 30
0.0
 10
250.0671
 20
359.0907
 30
0.0
 10
247.4173000000001
 20
354.6522
 30
0.0
 10
250.0671
 20
350.2137
 30
0.0
 10
251.8866
 20
345.2507000000001
 30
0.0
 10
252.6687999999999
 20
339.9656
 30
0.0
 10
252.8231000000001
 20
340.4016
 30
0.0
 10
252.9708000000001
 20
340.8405
 30
0.0
 10
253.1115
 20
341.2825
 30
0.0
 10
254.4454000000001
 20
345.4726000000001
 30
0.0
 10
255.1652999999999
 20
349.9637
 30
0.0
 10
255.1652999999999
 20
354.6522
 30
0.0
 10
255.1652999999999
 20
359.3407
 30
0.0
 10
254.4454000000001
 20
363.8318
 30
0.0
 10
253.1115
 20
368.0219
 30
0.0
  0
SPLINE
  5
79
330
1F
100
AcDbEntity
  8
layer 1
  6
K5LT_BASIC
 62
   143
420
  3386570
370
    60
100
AcDbSpline
210
0.0
220
0.0
230
1.0
 70
    11
 71
     3
 72
    23
 73
    19
 74
     0
 42
0.000000001
 43
0.0
 40
0.0
 40
0.0
 40
0.0
 40
0.0
 40
0.1428571428571428
 40
0.1428571428571428
 40
0.1428571428571428
 40
0.2857142857142856
 40
0.2857142857142856
 40
0.2857142857142856
 40
0.4285714285714286
 40
0.4285714285714286
 40
0.4285714285714286
 40
0.5714285714285714
 40
0.5714285714285714
 40
0.5714285714285714
 40
0.7142857142857143
 40
0.7142857142857143
 40
0.7142857142857143
 40
1.0
 40
1.0
 40
1.0
 40
1.0
 10
169.2191
 20
341.2825
 30
0.0
 10
169.3598
 20
340.8405
 30
0.0
 10
169.5075000000001
 20
340.4016
 30
0.0
 10
169.6618
 20
339.9656
 30
0.0
 10
170.444
 20
345.2507000000001
 30
0.0
 10
172.2635
 20
350.2137
 30
0.0
 10
174.9133
 20
354.6522
 30
0.0
 10
172.2635
 20
359.0907
 30
0.0
 10
170.444
 20
364.0537
 30
0.0
 10
169.6618
 20
369.3388
 30
0.0
 10
169.5075000000001
 20
368.9028
 30
0.0
 10
169.3598
 20
368.4639
 30
0.0
 10
169.2191
 20
368.0219
 30
0.0
 10
167.8852000000001
 20
363.8318
 30
0.0
 10
167.1653
 20
359.3407
 30
0.0
 10
167.1653
 20
354.6522
 30
0.0
 10
167.1653
 20
349.9637
 30
0.0
 10
167.8852000000001
 20
345.4726000000001
 30
0.0
 10
169.2191
 20
341.2825
 30
0.0
  0
SPLINE
  5
7A
330
1F
100
AcDbEntity
  8
layer 1
  6
K5LT_BASIC
 62
   143
420
  3386570
370
    60
100
AcDbSpline
210
0.0
220
0.0
230
1.0
 70
    11
 71
     3
 72
    26
 73
    22
 74
     0
 42
0.000000001
 43
0.0
 40
0.0
 40
0.0
 40
0.0
 40
0.0
 40
0.125
 40
0.125
 40
0.125
 40
0.25
 40
0.25
 40
0.25
 40
0.375
 40
0.375
 40
0.375
 40
0.5
 40
0.5
 40
0.5
 40
0.625
 40
0.625
 40
0.625
 40
0.75
 40
0.75
 40
0.75
 40
1.0
 40
1.0
 40
1.0
 40
1.0
 10
191.1787
 20
339.2329
 30
0.0
 10
186.4074000000001
 20
341.7648
 30
0.0
 10
182.1949
 20
345.1751
 30
0.0
 10
178.7696999999999
 20
349.242
 30
0.0
 10
176.5014
 20
344.6618
 30
0.0
 10
175.2296
 20
339.5188000000001
 30
0.0
 10
175.2296
 20
334.0803
 30
0.0
 10
175.2296
 20
330.1061999999999
 30
0.0
 10
175.9057
 20
326.2986
 30
0.0
 10
177.1511
 20
322.7607
 30
0.0
 10
177.1511
 20
322.7607
 30
0.0
 10
177.1511
 20
322.749
 30
0.0
 10
177.1511
 20
322.749
 30
0.0
 10
177.4338
 20
321.9458
 30
0.0
 10
177.7456
 20
321.1559999999999
 30
0.0
 10
178.0851
 20
320.3809
 30
0.0
 10
179.5056
 20
326.4501
 30
0.0
 10
182.7681
 20
331.8727
 30
0.0
 10
187.2968
 20
336.1091
 30
0.0
 10
188.5045
 20
337.2389000000001
 30
0.0
 10
189.8024
 20
338.2833000000001
 30
0.0
 10
191.1787
 20
339.2329
 30
0.0
  0
SPLINE
  5
7B
330
1F
100
AcDbEntity
  8
layer 1
  6
K5LT_BASIC
 62
   143
420
  3386570
370
    60
100
AcDbSpline
210
0.0
220
0.0
230
1.0
 70
    11
 71
     3
 72
    26
 73
    22
 74
     0
 42
0.000000001
 43
0.0
 40
0.0
 40
0.0
 40
0.0
 40
0.0
 40
0.125
 40
0.125
 40
0.125
 40
0.25
 40
0.25
 40
0.25
 40
0.375
 40
0.375
 40
0.375
 40
0.5
 40
0.5
 40
0.5
 40
0.625
 40
0.625
 40
0.625
 40
0.75
 40
0.75
 40
0.75
 40
1.0
 40
1.0
 40
1.0
 40
1.0
 10
243.5608999999999
 20
349.242
 30
0.0
 10
240.1357
 20
345.1751
 30
0.0
 10
235.9232
 20
341.7648
 30
0.0
 10
231.1519
 20
339.2329
 30
0.0
 10
232.5282
 20
338.2833000000001
 30
0.0
 10
233.8261
 20
337.2389000000001
 30
0.0
 10
235.0338
 20
336.1091
 30
0.0
 10
239.5625
 20
331.8727
 30
0.0
 10
242.825
 20
326.4501
 30
0.0
 10
244.2455
 20
320.3808
 30
0.0
 10
244.585
 20
321.1559999999999
 30
0.0
 10
244.8968
 20
321.9458
 30
0.0
 10
245.1795
 20
322.749
 30
0.0
 10
245.1795
 20
322.749
 30
0.0
 10
245.1795
 20
322.7607
 30
0.0
 10
245.1795
 20
322.7607
 30
0.0
 10
246.4249
 20
326.2986
 30
0.0
 10
247.1010000000001
 20
330.1061999999999
 30
0.0
 10
247.1010000000001
 20
334.0803
 30
0.0
 10
247.1010000000001
 20
339.5188000000001
 30
0.0
 10
245.8292
 20
344.6618
 30
0.0
 10
243.5608999999999
 20
349.242
 30
0.0
  0
SPLINE
  5
7C
330
1F
100
AcDbEntity
  8
layer 1
  6
K5LT_BASIC
 62
   143
420
  3386570
370
    60
100
AcDbSpline
210
0.0
220
0.0
230
1.0
 70
    11
 71
     3
 72
    29
 73
    25
 74
     0
 42
0.000000001
 43
0.0
 40
0.0
 40
0.0
 40
0.0
 40
0.0
 40
0.1111111111111111
 40
0.1111111111111111
 40
0.1111111111111111
 40
0.2222222222222222
 40
0.2222222222222222
 40
0.2222222222222222
 40
0.3333333333333334
 40
0.3333333333333334
 40
0.3333333333333334
 40
0.4444444444444445
 40
0.4444444444444445
 40
0.4444444444444445
 40
0.5555555555555556
 40
0.5555555555555556
 40
0.5555555555555556
 40
0.6666666666666667
 40
0.6666666666666667
 40
0.6666666666666667
 40
0.7777777777777778
 40
0.7777777777777778
 40
0.7777777777777778
 40
1.0
 40
1.0
 40
1.0
 40
1.0
 10
211.1653
 20
351.1896
 30
0.0
 10
214.6353
 20
343.242
 30
0.0
 10
217.6288
 20
345.6088999999999
 30
0.0
 10
224.5636
 20
342.7874
 30
0.0
 10
230.8661
 20
345.2495
 30
0.0
 10
236.2841
 20
349.3956000000001
 30
0.0
 10
240.2283
 20
354.6522
 30
0.0
 10
236.2841
 20
359.9088
 30
0.0
 10
230.8661
 20
364.0549
 30
0.0
 10
224.5636
 20
366.5170000000001
 30
0.0
 10
217.6274
 20
363.6949
 30
0.0
 10
214.6369
 20
366.0633
 30
0.0
 10
211.1653
 20
358.1148000000001
 30
0.0
 10
207.6953
 20
366.0624
 30
0.0
 10
204.7018
 20
363.6955
 30
0.0
 10
197.7670000000001
 20
366.5170000000001
 30
0.0
 10
191.4645
 20
364.0549
 30
0.0
 10
186.0465
 20
359.9088
 30
0.0
 10
182.1023
 20
354.6522
 30
0.0
 10
186.0465
 20
349.3956000000001
 30
0.0
 10
191.4645
 20
345.2495
 30
0.0
 10
197.7670000000001
 20
342.7874
 30
0.0
 10
204.7032
 20
345.6094000000001
 30
0.0
 10
207.6938
 20
343.2412
 30
0.0
 10
211.1653
 20
351.1896
 30
0.0
  0
SPLINE
  5
7D
330
1F
100
AcDbEntity
  8
layer 1
  6
K5LT_BASIC
 62
   143
420
  3386570
370
    60
100
AcDbSpline
210
0.0
220
0.0
230
1.0
 70
    11
 71
     3
 72
    41
 73
    37
 74
     0
 42
0.000000001
 43
0.0
 40
0.0
 40
0.0
 40
0.0
 40
0.0
 40
0.0769230769230769
 40
0.0769230769230769
 40
0.0769230769230769
 40
0.1538461538461539
 40
0.1538461538461539
 40
0.1538461538461539
 40
0.2307692307692308
 40
0.2307692307692308
 40
0.2307692307692308
 40
0.3076923076923077
 40
0.3076923076923077
 40
0.3076923076923077
 40
0.3846153846153846
 40
0.3846153846153846
 40
0.3846153846153846
 40
0.4615384615384617
 40
0.4615384615384617
 40
0.4615384615384617
 40
0.5384615384615384
 40
0.5384615384615384
 40
0.5384615384615384
 40
0.6153846153846154
 40
0.6153846153846154
 40
0.6153846153846154
 40
0.6923076923076923
 40
0.6923076923076923
 40
0.6923076923076923
 40
0.7692307692307694
 40
0.7692307692307694
 40
0.7692307692307694
 40
0.8461538461538461
 40
0.8461538461538461
 40
0.8461538461538461
 40
1.0
 40
1.0
 40
1.0
 40
1.0
 10
211.1653
 20
321.5576
 30
0.0
 10
215.1538
 20
312.4232
 30
0.0
 10
221.4548
 20
315.9863
 30
0.0
 10
229.2494
 20
309.2127
 30
0.0
 10
231.9677
 20
306.8505
 30
0.0
 10
234.0948
 20
303.9666999999999
 30
0.0
 10
235.4226
 20
300.7435
 30
0.0
 10
236.0975
 20
301.8477
 30
0.0
 10
236.6882000000001
 20
303.0032
 30
0.0
 10
237.1862
 20
304.2024
 30
0.0
 10
238.3812
 20
307.0797
 30
0.0
 10
239.0368
 20
310.2178
 30
0.0
 10
239.0368
 20
313.5085
 30
0.0
 10
239.0368
 20
320.6294
 30
0.0
 10
235.9485
 20
327.079
 30
0.0
 10
230.9556
 20
331.7497
 30
0.0
 10
225.1832000000001
 20
337.1497000000001
 30
0.0
 10
215.4169000000001
 20
343.3209000000001
 30
0.0
 10
211.1653
 20
333.5864
 30
0.0
 10
206.9145
 20
343.3213
 30
0.0
 10
197.1467
 20
337.1491
 30
0.0
 10
191.375
 20
331.7497
 30
0.0
 10
186.3821
 20
327.079
 30
0.0
 10
183.2938
 20
320.6294
 30
0.0
 10
183.2938
 20
313.5085
 30
0.0
 10
183.2938
 20
310.2178
 30
0.0
 10
183.9494
 20
307.0797
 30
0.0
 10
185.1444
 20
304.2024
 30
0.0
 10
185.6424
 20
303.0032
 30
0.0
 10
186.2331
 20
301.8477
 30
0.0
 10
186.908
 20
300.7435
 30
0.0
 10
188.2358
 20
303.9666999999999
 30
0.0
 10
190.3629
 20
306.8505
 30
0.0
 10
193.0812
 20
309.2127
 30
0.0
 10
200.8762
 20
315.9867
 30
0.0
 10
207.1758
 20
312.4227
 30
0.0
 10
211.1653
 20
321.5576
 30
0.0
  0
SPLINE
  5
7E
330
1F
100
AcDbEntity
  8
layer 1
  6
K5LT_BASIC
 62
   143
420
  3386570
370
    60
100
AcDbSpline
210
0.0
220
0.0
230
1.0
 70
    11
 71
     3
 72
    41
 73
    37
 74
     0
 42
0.000000001
 43
0.0
 40
0.0
 40
0.0
 40
0.0
 40
0.0
 40
0.0769230769230769
 40
0.0769230769230769
 40
0.0769230769230769
 40
0.1538461538461539
 40
0.1538461538461539
 40
0.1538461538461539
 40
0.2307692307692308
 40
0.2307692307692308
 40
0.2307692307692308
 40
0.3076923076923077
 40
0.3076923076923077
 40
0.3076923076923077
 40
0.3846153846153846
 40
0.3846153846153846
 40
0.3846153846153846
 40
0.4615384615384616
 40
0.4615384615384616
 40
0.4615384615384616
 40
0.5384615384615384
 40
0.5384615384615384
 40
0.5384615384615384
 40
0.6153846153846154
 40
0.6153846153846154
 40
0.6153846153846154
 40
0.6923076923076923
 40
0.6923076923076923
 40
0.6923076923076923
 40
0.7692307692307693
 40
0.7692307692307693
 40
0.7692307692307693
 40
0.8461538461538461
 40
0.8461538461538461
 40
0.8461538461538461
 40
1.0
 40
1.0
 40
1.0
 40
1.0
 10
211.1653
 20
291.9255
 30
0.0
 10
214.7114
 20
283.8036
 30
0.0
 10
217.6674
 20
286.5322
 30
0.0
 10
223.348
 20
282.3867
 30
0.0
 10
223.9617
 20
281.9388
 30
0.0
 10
224.5334
 20
281.4579
 30
0.0
 10
225.0588
 20
280.9475
 30
0.0
 10
226.6215999999999
 20
282.2531
 30
0.0
 10
227.9298
 20
283.7744
 30
0.0
 10
228.9151000000001
 20
285.4524
 30
0.0
 10
230.2305
 20
287.6926
 30
0.0
 10
230.9725
 20
290.236
 30
0.0
 10
230.9725
 20
292.9366
 30
0.0
 10
230.9725
 20
297.5059
 30
0.0
 10
228.8182
 20
301.6627
 30
0.0
 10
225.3354
 20
304.6893
 30
0.0
 10
219.5623000000001
 20
309.7062
 30
0.0
 10
214.5574
 20
311.7214
 30
0.0
 10
211.1653
 20
303.9544
 30
0.0
 10
207.774
 20
311.7219
 30
0.0
 10
202.7675
 20
309.7054000000001
 30
0.0
 10
196.9952
 20
304.6893
 30
0.0
 10
193.5124
 20
301.6627
 30
0.0
 10
191.3581
 20
297.5059
 30
0.0
 10
191.3581
 20
292.9366
 30
0.0
 10
191.3581
 20
290.236
 30
0.0
 10
192.1001
 20
287.6926
 30
0.0
 10
193.4155
 20
285.4524
 30
0.0
 10
194.4008
 20
283.7744
 30
0.0
 10
195.7089999999999
 20
282.2531
 30
0.0
 10
197.2718
 20
280.9475
 30
0.0
 10
197.7972
 20
281.4579
 30
0.0
 10
198.3689000000001
 20
281.9388
 30
0.0
 10
198.9826
 20
282.3867
 30
0.0
 10
204.664
 20
286.5328
 30
0.0
 10
207.6178
 20
283.8026
 30
0.0
 10
211.1653
 20
291.9255
 30
0.0
  0
SPLINE
  5
7F
330
1F
100
AcDbEntity
  8
layer 1
  6
K5LT_BASIC
 62
   143
420
  3386570
370
    60
100
AcDbSpline
210
0.0
220
0.0
230
1.0
 70
    11
 71
     3
 72
    26
 73
    22
 74
     0
 42
0.000000001
 43
0.0
 40
0.0
 40
0.0
 40
0.0
 40
0.0
 40
0.1111111111111111
 40
0.1111111111111111
 40
0.1111111111111111
 40
0.2222222222222222
 40
0.2222222222222222
 40
0.3333333333333334
 40
0.3333333333333334
 40
0.3333333333333334
 40
0.4444444444444445
 40
0.4444444444444445
 40
0.5555555555555556
 40
0.5555555555555556
 40
0.5555555555555556
 40
0.6666666666666667
 40
0.6666666666666667
 40
0.7777777777777778
 40
0.7777777777777778
 40
0.7777777777777778
 40
1.0
 40
1.0
 40
1.0
 40
1.0
 10
211.1653
 20
274.3223
 30
0.0
 10
208.9639
 20
279.3645
 30
0.0
 10
207.3541
 20
281.1023
 30
0.0
 10
202.4982
 20
277.5585
 30
0.0
 10
200.5979
 20
276.1717
 30
0.0
 10
199.4223
 20
274.3307
 30
0.0
 10
199.4223
 20
270.3989
 30
0.0
 10
200.5979
 20
268.5579
 30
0.0
 10
202.4982
 20
267.1711
 30
0.0
 10
204.6701
 20
265.5861
 30
0.0
 10
207.7308
 20
264.6057
 30
0.0
 10
214.5998
 20
264.6057
 30
0.0
 10
217.6605
 20
265.5861
 30
0.0
 10
219.8324
 20
267.1711
 30
0.0
 10
221.7327
 20
268.5579
 30
0.0
 10
222.9083000000001
 20
270.3989
 30
0.0
 10
222.9083000000001
 20
274.3307
 30
0.0
 10
221.7327
 20
276.1717
 30
0.0
 10
219.8324
 20
277.5585
 30
0.0
 10
214.9761999999999
 20
281.1026
 30
0.0
 10
213.3672
 20
279.3642
 30
0.0
 10
211.1653
 20
274.3223
 30
0.0
  0
SPLINE
  5
80
330
1F
100
AcDbEntity
  8
layer 1
  6
K5LT_BASIC
 62
   143
420
  3386570
370
    60
100
AcDbSpline
210
0.0
220
0.0
230
1.0
 70
    11
 71
     3
 72
   158
 73
   154
 74
     0
 42
0.000000001
 43
0.0
 40
0.0
 40
0.0
 40
0.0
 40
0.0
 40
0.0181818181818182
 40
0.0181818181818182
 40
0.0181818181818182
 40
0.0363636363636364
 40
0.0363636363636364
 40
0.0363636363636364
 40
0.0545454545454545
 40
0.0545454545454545
 40
0.0545454545454545
 40
0.0727272727272727
 40
0.0727272727272727
 40
0.0727272727272727
 40
0.0909090909090909
 40
0.0909090909090909
 40
0.0909090909090909
 40
0.1090909090909091
 40
0.1090909090909091
 40
0.1090909090909091
 40
0.1272727272727273
 40
0.1272727272727273
 40
0.1272727272727273
 40
0.1454545454545454
 40
0.1454545454545454
 40
0.1454545454545454
 40
0.1636363636363636
 40
0.1636363636363636
 40
0.1636363636363636
 40
0.1818181818181818
 40
0.1818181818181818
 40
0.1818181818181818
 40
0.2
 40
0.2
 40
0.2
 40
0.2181818181818182
 40
0.2181818181818182
 40
0.2363636363636364
 40
0.2363636363636364
 40
0.2363636363636364
 40
0.2545454545454545
 40
0.2545454545454545
 40
0.2545454545454545
 40
0.2727272727272727
 40
0.2727272727272727
 40
0.2727272727272727
 40
0.2909090909090909
 40
0.2909090909090909
 40
0.2909090909090909
 40
0.3090909090909091
 40
0.3090909090909091
 40
0.3090909090909091
 40
0.3272727272727273
 40
0.3272727272727273
 40
0.3272727272727273
 40
0.3454545454545455
 40
0.3454545454545455
 40
0.3454545454545455
 40
0.3636363636363636
 40
0.3636363636363636
 40
0.3636363636363636
 40
0.3818181818181818
 40
0.3818181818181818
 40
0.3818181818181818
 40
0.4
 40
0.4
 40
0.4
 40
0.4181818181818182
 40
0.4181818181818182
 40
0.4181818181818182
 40
0.4363636363636363
 40
0.4363636363636363
 40
0.4545454545454545
 40
0.4545454545454545
 40
0.4727272727272727
 40
0.4727272727272727
 40
0.4909090909090909
 40
0.4909090909090909
 40
0.509090909090909
 40
0.509090909090909
 40
0.509090909090909
 40
0.5272727272727272
 40
0.5272727272727272
 40
0.5272727272727272
 40
0.5454545454545454
 40
0.5454545454545454
 40
0.5454545454545454
 40
0.5636363636363635
 40
0.5636363636363635
 40
0.5636363636363635
 40
0.5818181818181818
 40
0.5818181818181818
 40
0.5818181818181818
 40
0.6
 40
0.6
 40
0.6
 40
0.6181818181818182
 40
0.6181818181818182
 40
0.6181818181818182
 40
0.6363636363636364
 40
0.6363636363636364
 40
0.6363636363636364
 40
0.6545454545454544
 40
0.6545454545454544
 40
0.6545454545454544
 40
0.6727272727272727
 40
0.6727272727272727
 40
0.6727272727272727
 40
0.6909090909090909
 40
0.6909090909090909
 40
0.6909090909090909
 40
0.7090909090909091
 40
0.7090909090909091
 40
0.7272727272727273
 40
0.7272727272727273
 40
0.7272727272727273
 40
0.7454545454545454
 40
0.7454545454545454
 40
0.7454545454545454
 40
0.7636363636363637
 40
0.7636363636363637
 40
0.7636363636363637
 40
0.7818181818181819
 40
0.7818181818181819
 40
0.7818181818181819
 40
0.8
 40
0.8
 40
0.8
 40
0.8181818181818182
 40
0.8181818181818182
 40
0.8181818181818182
 40
0.8363636363636362
 40
0.8363636363636362
 40
0.8363636363636362
 40
0.8545454545454545
 40
0.8545454545454545
 40
0.8545454545454545
 40
0.8727272727272727
 40
0.8727272727272727
 40
0.8727272727272727
 40
0.8909090909090909
 40
0.8909090909090909
 40
0.8909090909090909
 40
0.9090909090909091
 40
0.9090909090909091
 40
0.9090909090909091
 40
0.9272727272727271
 40
0.9272727272727271
 40
0.9454545454545454
 40
0.9454545454545454
 40
0.9636363636363636
 40
0.9636363636363636
 40
1.0
 40
1.0
 40
1.0
 40
1.0
 10
215.1653000000001
 20
449.6987
 30
0.0
 10
215.1653
 20
449.6987
 30
0.0
 10
217.8268
 20
449.6987
 30
0.0
 10
217.8268
 20
449.6987
 30
0.0
 10
219.8920000000001
 20
449.053
 30
0.0
 10
221.7637999999999
 20
448.1176
 30
0.0
 10
223.348
 20
446.9615
 30
0.0
 10
226.7833000000001
 20
444.4545000000001
 30
0.0
 10
228.9083000000001
 20
440.9155000000001
 30
0.0
 10
228.9083000000001
 20
436.9396
 30
0.0
 10
228.9083000000001
 20
435.7146
 30
0.0
 10
228.7063000000001
 20
434.5313
 30
0.0
 10
228.3267
 20
433.4067
 30
0.0
 10
230.6602
 20
431.5677000000001
 30
0.0
 10
232.6146
 20
429.3561999999999
 30
0.0
 10
234.0713
 20
426.8754
 30
0.0
 10
235.9154
 20
423.7348
 30
0.0
 10
236.96
 20
420.1865
 30
0.0
 10
236.9722
 20
416.4340999999999
 30
0.0
 10
239.3874
 20
413.7612
 30
0.0
 10
241.3407999999999
 20
410.7136
 30
0.0
 10
242.7174
 20
407.3987999999999
 30
0.0
 10
243.7343
 20
404.9503
 30
0.0
 10
244.4394
 20
402.3601
 30
0.0
 10
244.7874
 20
399.6713
 30
0.0
 10
247.3543999999999
 20
396.3128
 30
0.0
 10
249.4048
 20
392.5633
 30
0.0
 10
250.826
 20
388.5353
 30
0.0
 10
251.4583
 20
386.7452
 30
0.0
 10
251.9652000000001
 20
384.9007
 30
0.0
 10
252.3390999999999
 20
383.0122
 30
0.0
 10
255.1001000000001
 20
379.0098
 30
0.0
 10
257.2951
 20
374.5757
 30
0.0
 10
258.8069
 20
369.8265
 30
0.0
 10
260.3386
 20
365.0149
 30
0.0
 10
261.1652999999999
 20
359.9152
 30
0.0
 10
261.1652999999999
 20
349.3892
 30
0.0
 10
260.3386
 20
344.2895
 30
0.0
 10
258.8069
 20
339.4779
 30
0.0
 10
257.2951
 20
334.7287
 30
0.0
 10
255.1001000000001
 20
330.2945999999999
 30
0.0
 10
252.3390999999999
 20
326.2922
 30
0.0
 10
251.9652000000001
 20
324.4037
 30
0.0
 10
251.4583
 20
322.5592
 30
0.0
 10
250.826
 20
320.7692
 30
0.0
 10
249.4048
 20
316.7411
 30
0.0
 10
247.3543999999999
 20
312.9915999999999
 30
0.0
 10
244.7874
 20
309.6331
 30
0.0
 10
244.4394
 20
306.9443
 30
0.0
 10
243.7343
 20
304.3541
 30
0.0
 10
242.7174
 20
301.9056
 30
0.0
 10
241.3407999999999
 20
298.5907999999999
 30
0.0
 10
239.3874
 20
295.5432
 30
0.0
 10
236.9722
 20
292.8703
 30
0.0
 10
236.96
 20
289.1179
 30
0.0
 10
235.9154
 20
285.5696
 30
0.0
 10
234.0713
 20
282.429
 30
0.0
 10
232.6146
 20
279.9482
 30
0.0
 10
230.6602
 20
277.7367
 30
0.0
 10
228.3267
 20
275.8977
 30
0.0
 10
228.7063000000001
 20
274.7731
 30
0.0
 10
228.9083000000001
 20
273.5897
 30
0.0
 10
228.9083000000001
 20
272.3648
 30
0.0
 10
228.9083000000001
 20
268.3888
 30
0.0
 10
226.7833000000001
 20
264.8499
 30
0.0
 10
223.348
 20
262.3429
 30
0.0
 10
221.7637999999999
 20
261.1868
 30
0.0
 10
219.8919
 20
260.2514
 30
0.0
 10
217.8267
 20
259.6057
 30
0.0
 10
217.8267
 20
259.6057
 30
0.0
 10
215.1653
 20
259.6057
 30
0.0
 10
215.1653
 20
259.6057
 30
0.0
 10
215.1653
 20
251.6057
 30
0.0
 10
215.1653
 20
251.6057
 30
0.0
 10
207.1653
 20
251.6057
 30
0.0
 10
207.1653
 20
251.6057
 30
0.0
 10
207.1653
 20
259.6057
 30
0.0
 10
207.1653
 20
259.6057
 30
0.0
 10
204.5038
 20
259.6057
 30
0.0
 10
204.5038
 20
259.6057
 30
0.0
 10
202.4386
 20
260.2514
 30
0.0
 10
200.5667999999999
 20
261.1868
 30
0.0
 10
198.9826
 20
262.3429
 30
0.0
 10
195.5473
 20
264.8499
 30
0.0
 10
193.4223
 20
268.3888
 30
0.0
 10
193.4223
 20
272.3648
 30
0.0
 10
193.4223
 20
273.5897
 30
0.0
 10
193.6242999999999
 20
274.7731
 30
0.0
 10
194.0039
 20
275.8977
 30
0.0
 10
191.6704
 20
277.7367
 30
0.0
 10
189.7161
 20
279.9481
 30
0.0
 10
188.2593000000001
 20
282.429
 30
0.0
 10
186.4152
 20
285.5696
 30
0.0
 10
185.3706
 20
289.1179
 30
0.0
 10
185.3584
 20
292.8703
 30
0.0
 10
182.9433
 20
295.5432
 30
0.0
 10
180.9897999999999
 20
298.5907999999999
 30
0.0
 10
179.6132
 20
301.9056
 30
0.0
 10
178.5963
 20
304.3541
 30
0.0
 10
177.8912
 20
306.9443
 30
0.0
 10
177.5432
 20
309.6331
 30
0.0
 10
174.9761999999999
 20
312.9915999999999
 30
0.0
 10
172.9258
 20
316.7411
 30
0.0
 10
171.5045
 20
320.7692
 30
0.0
 10
170.8723
 20
322.5592
 30
0.0
 10
170.3654
 20
324.4037
 30
0.0
 10
169.9915
 20
326.2922
 30
0.0
 10
167.2305
 20
330.2945999999999
 30
0.0
 10
165.0356
 20
334.7287
 30
0.0
 10
163.5237
 20
339.4779
 30
0.0
 10
161.992
 20
344.2895
 30
0.0
 10
161.1653
 20
349.3892
 30
0.0
 10
161.1653
 20
359.9152
 30
0.0
 10
161.992
 20
365.0149
 30
0.0
 10
163.5237
 20
369.8265
 30
0.0
 10
165.0356
 20
374.5757
 30
0.0
 10
167.2305
 20
379.0098
 30
0.0
 10
169.9915
 20
383.0122
 30
0.0
 10
170.3654
 20
384.9007
 30
0.0
 10
170.8723
 20
386.7452
 30
0.0
 10
171.5045
 20
388.5353
 30
0.0
 10
172.9258
 20
392.5633
 30
0.0
 10
174.9761999999999
 20
396.3128
 30
0.0
 10
177.5432
 20
399.6713
 30
0.0
 10
177.8912
 20
402.3601
 30
0.0
 10
178.5963
 20
404.9503
 30
0.0
 10
179.6132
 20
407.3987999999999
 30
0.0
 10
180.9897999999999
 20
410.7136
 30
0.0
 10
182.9433
 20
413.7612
 30
0.0
 10
185.3584
 20
416.4340999999999
 30
0.0
 10
185.3706
 20
420.1865
 30
0.0
 10
186.4152
 20
423.7348
 30
0.0
 10
188.2593000000001
 20
426.8754
 30
0.0
 10
189.716
 20
429.3561999999999
 30
0.0
 10
191.6704
 20
431.5677000000001
 30
0.0
 10
194.0039
 20
433.4067
 30
0.0
 10
193.6242999999999
 20
434.5313
 30
0.0
 10
193.4223
 20
435.7146
 30
0.0
 10
193.4223
 20
436.9396
 30
0.0
 10
193.4223
 20
440.9155000000001
 30
0.0
 10
195.5473
 20
444.4545000000001
 30
0.0
 10
198.9826
 20
446.9615
 30
0.0
 10
200.5667999999999
 20
448.1176
 30
0.0
 10
202.4387
 20
449.053
 30
0.0
 10
204.5039
 20
449.6987
 30
0.0
 10
204.5039
 20
449.6987
 30
0.0
 10
207.1653
 20
449.6987
 30
0.0
 10
207.1653
 20
449.6987
 30
0.0
 10
207.1653
 20
457.6987
 30
0.0
 10
207.1653
 20
457.6987
 30
0.0
 10
215.1653
 20
457.6987
 30
0.0
 10
215.1653
 20
457.6987
 30
0.0
 10
215.1653000000001
 20
449.6987
 30
0.0
 10
215.1653000000001
 20
449.6987
 30
0.0
  0
SPLINE
  5
81
330
1F
100
AcDbEntity
  8
layer 1
  6
K5LT_BASIC
 62
   143
420
  3386570
370
    60
100
AcDbSpline
210
0.0
220
0.0
230
1.0
 70
     8
 71
     3
 72
     8
 73
     4
 74
     0
 42
0.000000001
 43
0.0
 40
0.3465088535388644
 40
0.3465088535388644
 40
0.3465088535388644
 40
0.3465088535388644
 40
0.3465121100965299
 40
0.3465121100965299
 40
0.3465121100965299
 40
0.3465121100965299
 10
153.0410810770232
 20
200.5838720162801
 30
0.0
 10
153.0357427085099
 20
200.5854268443089
 30
0.0
 10
153.0304038327165
 20
200.5869804693278
 30
0.0
 10
153.0250644498828
 20
200.5885328910142
 30
0.0
  0
SPLINE
  5
82
330
1F
100
AcDbEntity
  8
layer 1
  6
K5LT_BASIC
 62
   143
420
  3386570
370
    60
100
AcDbSpline
210
0.0
220
0.0
230
1.0
 70
    11
 71
     3
 72
   168
 73
   164
 74
     0
 42
0.000000001
 43
0.0
 40
0.0
 40
0.0
 40
0.0
 40
0.0
 40
0.0037609585990064
 40
0.0037609585990064
 40
0.0037609585990064
 40
0.060200234833941
 40
0.060200234833941
 40
0.060200234833941
 40
0.1283852530463027
 40
0.1283852530463027
 40
0.1283852530463027
 40
0.1965702712586641
 40
0.1965702712586641
 40
0.1965702712586641
 40
0.2647552894710258
 40
0.2647552894710258
 40
0.2647552894710258
 40
0.3318025965991745
 40
0.3318025965991745
 40
0.3318025965991745
 40
0.3325618519170477
 40
0.3325618519170477
 40
0.3325618519170477
 40
0.354186832076069
 40
0.354186832076069
 40
0.354186832076069
 40
0.3546657300983306
 40
0.3546657300983306
 40
0.3546657300983306
 40
2.059953225560505
 40
2.059953225560505
 40
2.059953225560505
 40
2.197158945995096
 40
2.197158945995096
 40
2.197158945995096
 40
2.198029726826819
 40
2.198029726826819
 40
2.198029726826819
 40
2.335235447261409
 40
2.335235447261409
 40
2.335235447261409
 40
4.040522942723585
 40
4.040522942723585
 40
4.040522942723585
 40
4.041001840745844
 40
4.041001840745844
 40
4.041001840745844
 40
4.062626820904899
 40
4.062626820904899
 40
4.062626820904899
 40
4.063386076222774
 40
4.063386076222774
 40
4.063386076222774
 40
4.114390179576104
 40
4.114390179576104
 40
4.114390179576104
 40
4.166259760399132
 40
4.166259760399132
 40
4.166259760399132
 40
4.218129341222161
 40
4.218129341222161
 40
4.218129341222161
 40
4.26999892204519
 40
4.26999892204519
 40
4.26999892204519
 40
4.321868502868218
 40
4.321868502868218
 40
4.321868502868218
 40
4.373738083691246
 40
4.373738083691246
 40
4.373738083691246
 40
4.425607664514276
 40
4.425607664514276
 40
4.425607664514276
 40
4.477477245337305
 40
4.477477245337305
 40
4.477477245337305
 40
4.529346826160332
 40
4.529346826160332
 40
4.529346826160332
 40
4.58121640698336
 40
4.58121640698336
 40
4.58121640698336
 40
4.633085987806389
 40
4.633085987806389
 40
4.633085987806389
 40
4.684955568629418
 40
4.684955568629418
 40
4.712027846295821
 40
4.712027846295821
 40
4.712027846295821
 40
4.718867191248268
 40
4.718867191248268
 40
4.718867191248268
 40
4.74281290071581
 40
4.74281290071581
 40
4.74281290071581
 40
4.749652245665311
 40
4.749652245665311
 40
4.749652245665311
 40
4.78141724231185
 40
4.78141724231185
 40
4.842277916181517
 40
4.842277916181517
 40
4.842277916181517
 40
4.903138590051183
 40
4.903138590051183
 40
4.903138590051183
 40
4.963999263920851
 40
4.963999263920851
 40
4.963999263920851
 40
5.085720611660185
 40
5.085720611660185
 40
5.085720611660185
 40
5.146581285529853
 40
5.146581285529853
 40
5.146581285529853
 40
5.207441959399519
 40
5.207441959399519
 40
5.207441959399519
 40
5.268302633269187
 40
5.268302633269187
 40
5.268302633269187
 40
5.329163307138854
 40
5.329163307138854
 40
5.329163307138854
 40
5.390023981008521
 40
5.390023981008521
 40
5.390023981008521
 40
5.450884654878188
 40
5.450884654878188
 40
5.450884654878188
 40
5.511745328747856
 40
5.511745328747856
 40
5.511745328747856
 40
5.572606002617523
 40
5.572606002617523
 40
5.572606002617523
 40
5.62087736309909
 40
5.62087736309909
 40
5.62087736309909
 40
5.626706589888228
 40
5.626706589888228
 40
5.626706589888228
 40
5.68067902297904
 40
5.68067902297904
 40
5.68067902297904
 40
5.764258531215702
 40
5.764258531215702
 40
5.764258531215702
 40
5.847838039452363
 40
5.847838039452363
 40
5.847838039452363
 40
5.931417547689025
 40
5.931417547689025
 40
5.931417547689025
 40
6.014997055925687
 40
6.014997055925687
 40
6.014997055925687
 40
6.091103364091063
 40
6.091103364091063
 40
6.091103364091063
 40
6.091153478624954
 40
6.091153478624954
 40
6.091153478624954
 40
6.091153478624954
 10
153.0250636459851
 20
200.5885331409437
 30
0.0
 10
152.4154841666994
 20
200.7780302066822
 30
0.0
 10
152.4775473679602
 20
201.4133603874064
 30
0.0
 10
153.1122754671013
 20
201.4813053625733
 30
0.0
 10
161.1689531081465
 20
200.8540457029888
 30
0.0
 10
169.403575715005
 20
198.5094652852853
 30
0.0
 10
177.8162
 20
194.4466
 30
0.0
 10
180.0684999999999
 20
199.6037
 30
0.0
 10
183.7727
 20
203.3079
 30
0.0
 10
188.9288000000001
 20
205.5592
 30
0.0
 10
183.7717
 20
207.8115
 30
0.0
 10
180.0675000000001
 20
211.5157
 30
0.0
 10
177.8162
 20
216.6718
 30
0.0
 10
163.3099999999999
 20
209.666
 30
0.0
 10
149.3330000000001
 20
207.7688
 30
0.0
 10
135.8852000000002
 20
210.9779
 30
0.0
 10
135.8238411843175
 20
220.770727650344
 30
0.0
 10
137.8884210502063
 20
231.8598876745374
 30
0.0
 10
142.6823956324014
 20
235.513569961653
 30
0.0
 10
142.7743034329122
 20
235.5836166206494
 30
0.0
 10
142.7373384645131
 20
235.6931025528167
 30
0.0
 10
142.6217807809567
 20
235.6931040935858
 30
0.0
 10
140.2574534095266
 20
235.6931356179545
 30
0.0
 10
137.8931260380966
 20
235.6931671423195
 30
0.0
 10
135.5287986666666
 20
235.6931986666844
 30
0.0
 10
135.4702206421953
 20
235.6931994477247
 30
0.0
 10
135.4287999999999
 20
235.7346206421991
 30
0.0
 10
135.4287999999999
 20
235.7931986666755
 30
0.0
 10
135.4287999999999
 20
422.2376657777836
 30
0.0
 10
135.4287999999999
 20
608.6821328888918
 30
0.0
 10
135.4287999999999
 20
795.1266
 30
0.0
 10
133.2951277684425
 20
809.9752189681283
 30
0.0
 10
131.1614555368849
 20
824.8238379362566
 30
0.0
 10
129.0277833053275
 20
839.6724569043851
 30
0.0
 10
129.0058617070407
 20
839.8250133539265
 30
0.0
 10
128.8517382929592
 20
839.8250133539265
 30
0.0
 10
128.8298166946725
 20
839.6724569043851
 30
0.0
 10
126.6961444631149
 20
824.8238379362566
 30
0.0
 10
124.5624722315574
 20
809.9752189681283
 30
0.0
 10
122.4287999999999
 20
795.1266
 30
0.0
 10
122.4287999999999
 20
608.6821328888918
 30
0.0
 10
122.4287999999999
 20
422.2376657777837
 30
0.0
 10
122.4287999999999
 20
235.7931986666755
 30
0.0
 10
122.4287999999999
 20
235.734620642199
 30
0.0
 10
122.3873793578045
 20
235.6931994477247
 30
0.0
 10
122.3288013333332
 20
235.6931986666844
 30
0.0
 10
119.9644739618997
 20
235.6931671423195
 30
0.0
 10
117.6001465904662
 20
235.6931356179545
 30
0.0
 10
115.2358192190326
 20
235.6931040935896
 30
0.0
 10
115.1202615354759
 20
235.6931025528204
 30
0.0
 10
115.0832965670769
 20
235.5836166206527
 30
0.0
 10
115.1752043675904
 20
235.5135699616594
 30
0.0
 10
119.9691789497914
 20
231.8598876745504
 30
0.0
 10
122.0337588156824
 20
220.7707276503498
 30
0.0
 10
121.9724000000001
 20
210.9779
 30
0.0
 10
108.5246
 20
207.7688
 30
0.0
 10
94.54759999999987
 20
209.666
 30
0.0
 10
80.04140000000007
 20
216.6718
 30
0.0
 10
77.78909999999996
 20
211.5147
 30
0.0
 10
74.08489999999983
 20
207.8105
 30
0.0
 10
68.92880000000014
 20
205.5592
 30
0.0
 10
74.08590000000004
 20
203.3069
 30
0.0
 10
77.79010000000017
 20
199.6027
 30
0.0
 10
80.04140000000007
 20
194.4466
 30
0.0
 10
93.45640000000003
 20
200.9254
 30
0.0
 10
106.4189000000001
 20
203.0362
 30
0.0
 10
118.9288000000001
 20
200.7792
 30
0.0
 10
116.8761
 20
195.7599
 30
0.0
 10
117.1414
 20
189.3951
 30
0.0
 10
119.5954000000002
 20
184.783
 30
0.0
 10
117.5428000000002
 20
179.7637
 30
0.0
 10
117.8081
 20
173.3989
 30
0.0
 10
120.2622000000001
 20
168.787
 30
0.0
 10
118.2094999999999
 20
163.7676
 30
0.0
 10
118.4747
 20
157.4029
 30
0.0
 10
120.9288000000001
 20
152.7908
 30
0.0
 10
118.8761
 20
147.7714
 30
0.0
 10
119.1415
 20
141.4067
 30
0.0
 10
121.5954999999999
 20
136.7948
 30
0.0
 10
119.5428000000002
 20
131.7754
 30
0.0
 10
119.8081
 20
125.4107
 30
0.0
 10
122.2620999999999
 20
120.7986
 30
0.0
 10
120.9949000000001
 20
117.7
 30
0.0
 10
120.6112000000001
 20
114.0885
 30
0.0
 10
121.0804000000001
 20
110.6932
 30
0.0
 10
121.0804000000001
 20
110.6932
 30
0.0
 10
122.9290999999998
 20
110.6932
 30
0.0
 10
122.9290999999998
 20
110.6932
 30
0.0
 10
122.9290999999998
 20
109.6035573189159
 30
0.0
 10
122.9290999999998
 20
108.5617058342305
 30
0.0
 10
122.929099999852
 20
107.6244475337174
 30
0.0
 10
123.5918416999019
 20
106.9617058337349
 30
0.0
 10
124.5291000004151
 20
106.9617058339781
 30
0.0
 10
127.4622333337484
 20
106.961705834725
 30
0.0
 10
130.3953666670818
 20
106.9617058354862
 30
0.0
 10
133.3285000004152
 20
106.9617058362473
 30
0.0
 10
134.2657583004254
 20
106.9617058364906
 30
0.0
 10
134.9285
 20
107.6244475362371
 30
0.0
 10
134.9285
 20
108.5617058362473
 30
0.0
 10
134.9285
 20
109.6035573203221
 30
0.0
 10
134.9285
 20
110.6932
 30
0.0
 10
134.9285
 20
110.6932
 30
0.0
 10
136.7772
 20
110.6932
 30
0.0
 10
136.7772
 20
110.6932
 30
0.0
 10
137.2464
 20
114.0883
 30
0.0
 10
136.8627000000001
 20
117.7
 30
0.0
 10
135.5954999999999
 20
120.7986
 30
0.0
 10
138.0495000000001
 20
125.4106
 30
0.0
 10
138.3148000000001
 20
131.7754
 30
0.0
 10
136.2620999999999
 20
136.7948
 30
0.0
 10
138.7161999999998
 20
141.4067
 30
0.0
 10
138.9814000000001
 20
147.7715
 30
0.0
 10
136.9288000000001
 20
152.7908
 30
0.0
 10
139.3829000000001
 20
157.4029
 30
0.0
 10
139.6480999999999
 20
163.7676
 30
0.0
 10
137.5954999999999
 20
168.787
 30
0.0
 10
140.0495000000001
 20
173.3989
 30
0.0
 10
140.3148000000001
 20
179.7637
 30
0.0
 10
138.2620999999999
 20
184.783
 30
0.0
 10
139.7483
 20
187.5761
 30
0.0
 10
140.4315000000001
 20
191.0118
 30
0.0
 10
140.2835
 20
194.4024
 30
0.0
 10
147.3197
 20
193.3484
 30
0.0
 10
155.5255999999999
 20
193.7254
 30
0.0
 10
164.0406
 20
184.6594
 30
0.0
 10
175.2728
 20
172.7003
 30
0.0
 10
175.9340999999999
 20
153.6075
 30
0.0
 10
165.5987
 20
140.8087
 30
0.0
 10
157.7732999999998
 20
131.1183
 30
0.0
 10
151.6188999999999
 20
132.6552
 30
0.0
 10
144.6808999999998
 20
125.7172
 30
0.0
 10
134.8451
 20
115.8814
 30
0.0
 10
141.2341999999999
 20
98.67869999999999
 30
0.0
 10
154.2757999999999
 20
98.88999999999999
 30
0.0
 10
161.3271999999999
 20
99.00420000000003
 30
0.0
 10
167.8172
 20
102.7901
 30
0.0
 10
168.8573000000001
 20
108.6473
 30
0.0
 10
170.4228102919589
 20
117.4643795985361
 30
0.0
 10
162.4331684467534
 20
122.6792868068306
 30
0.0
 10
156.3811738116488
 20
119.1895438315062
 30
0.0
 10
155.7686145874353
 20
118.5926961523387
 30
0.0
 10
156.0752478919533
 20
117.7943027832173
 30
0.0
 10
156.9298487783899
 20
117.7609369294349
 30
0.0
 10
160.0515756990335
 20
118.102200091338
 30
0.0
 10
163.2115342420883
 20
115.9362577239733
 30
0.0
 10
163.8757000000001
 20
113.3443
 30
0.0
 10
165.2973
 20
107.7969
 30
0.0
 10
160.4058
 20
103.7602
 30
0.0
 10
154.6835000000001
 20
103.6762
 30
0.0
 10
145.9000999999998
 20
103.5472
 30
0.0
 10
142.9554000000001
 20
115.5073
 30
0.0
 10
148.9231
 20
121.475
 30
0.0
 10
154.0682000000002
 20
126.2232
 30
0.0
 10
162.2242000000001
 20
125.8065
 30
0.0
 10
171.8175000000001
 20
135.8087
 30
0.0
 10
178.0669
 20
142.3245
 30
0.0
 10
180.9288000000001
 20
151.9387
 30
0.0
 10
180.9288000000001
 20
161.8404
 30
0.0
 10
180.9288000000001
 20
179.8496004861937
 30
0.0
 10
169.3531397554276
 20
195.8328987421421
 30
0.0
 10
153.0410811106426
 20
200.5838720064882
 30
0.0
 10
153.0357139287088
 20
200.5853283959643
 30
0.0
 10
153.0303741955444
 20
200.5868822757273
 30
0.0
 10
153.0250636459851
 20
200.5885331409437
 30
0.0
  0
LWPOLYLINE
  5
83
330
1F
100
AcDbEntity
  8
layer 1
  6
K5LT_BASIC
 62
   143
420
  3386570
370
    60
100
AcDbPolyline
 90
        8
 70
     1
 43
0.0
 10
132.8288
 20
233.4932000000732
 10
125.0288
 20
233.4932000000732
 42
-0.414213562373095
 10
124.9288
 20
233.5932000000732
 10
124.9288
 20
235.5931999999999
 42
-0.414213562373095
 10
125.0288
 20
235.6931999999999
 10
132.8288
 20
235.6931999999999
 42
-0.414213562373095
 10
132.9288
 20
235.5931999999999
 10
132.9288
 20
233.5932000000732
 42
-0.414213562373095
  0
LWPOLYLINE
  5
84
330
1F
100
AcDbEntity
  8
layer 1
  6
K5LT_BASIC
 62
   143
420
  3386570
370
    60
100
AcDbPolyline
 90
        8
 70
     1
 43
0.0
 10
132.8288
 20
110.6932
 10
125.0288
 20
110.6932
 42
-0.414213562373095
 10
124.9288
 20
110.7932
 10
124.9288
 20
112.7931999986058
 42
-0.414213562373095
 10
125.0288
 20
112.8931999986059
 10
132.8288
 20
112.8931999986058
 42
-0.414213562373095
 10
132.9288
 20
112.7931999986058
 10
132.9288
 20
110.7932
 42
-0.414213562373095
  0
ENDSEC
  0
SECTION
  2
OBJECTS
  0
DICTIONARY
  5
C
330
0
100
AcDbDictionary
281
     1
  3
ACAD_DETAILVIEWSTYLE
350
8C
  3
ACAD_GROUP
350
D
  3
ACAD_LAYOUT
350
1A
  3
ACAD_MATERIAL
350
43
  3
ACAD_MLEADERSTYLE
350
6B
  3
ACAD_MLINESTYLE
350
17
  3
ACAD_PLOTSETTINGS
350
19
  3
ACAD_PLOTSTYLENAME
350
E
  3
ACAD_SCALELIST
350
47
  3
ACAD_SECTIONVIEWSTYLE
350
8D
  3
ACAD_TABLESTYLE
350
69
  3
ACAD_VISUALSTYLE
350
2A
  3
ACDB_RECOMPOSE_DATA
350
89
  3
AcDbVariableDictionary
350
85
  0
SUN
  5
6D
330
29
100
AcDbSun
 90
        1
290
     0
 63
     7
421
 16777215
 40
1.0
291
     1
 91
  2455826
 92
 54000000
292
     0
 70
     2
 71
   256
280
     1
  0
DICTIONARY
  5
8C
102
{ACAD_REACTORS
330
C
102
}
330
C
100
AcDbDictionary
281
     1
  0
DICTIONARY
  5
D
102
{ACAD_REACTORS
330
C
102
}
330
C
100
AcDbDictionary
281
     1
  0
DICTIONARY
  5
1A
102
{ACAD_REACTORS
330
C
102
}
330
C
100
AcDbDictionary
281
     1
  3
Layout1
350
1E
  3
Layout2
350
26
  3
Model
350
22
  0
DICTIONARY
  5
43
102
{ACAD_REACTORS
330
C
102
}
330
C
100
AcDbDictionary
281
     1
  3
ByBlock
350
45
  3
ByLayer
350
44
  3
Global
350
46
  0
DICTIONARY
  5
6B
102
{ACAD_REACTORS
330
C
102
}
330
C
100
AcDbDictionary
281
     1
  3
Standard
350
6C
  0
DICTIONARY
  5
17
102
{ACAD_REACTORS
330
C
102
}
330
C
100
AcDbDictionary
281
     1
  3
Standard
350
18
  0
DICTIONARY
  5
19
102
{ACAD_REACTORS
330
C
102
}
330
C
100
AcDbDictionary
281
     1
  0
ACDBDICTIONARYWDFLT
  5
E
102
{ACAD_REACTORS
330
C
102
}
330
C
100
AcDbDictionary
281
     1
  3
Normal
350
F
100
AcDbDictionaryWithDefault
340
F
  0
DICTIONARY
  5
47
102
{ACAD_REACTORS
330
C
102
}
330
C
100
AcDbDictionary
281
     1
  3
A0
350
48
  3
A1
350
49
  3
A2
350
4A
  3
A3
350
4B
  3
A4
350
4C
  3
A5
350
4D
  3
A6
350
4E
  3
A7
350
4F
  3
A8
350
50
  3
A9
350
51
  3
B0
350
52
  3
B1
350
53
  3
B2
350
54
  3
B3
350
55
  3
B4
350
56
  3
B5
350
57
  3
B6
350
58
  3
B7
350
59
  3
B8
350
5A
  3
B9
350
5B
  3
C0
350
5C
  3
C1
350
5D
  3
C2
350
5E
  3
C3
350
5F
  3
C4
350
60
  3
C5
350
61
  3
C6
350
62
  3
C7
350
63
  3
C8
350
64
  3
C9
350
65
  3
D0
350
66
  3
D1
350
67
  3
D2
350
68
  0
DICTIONARY
  5
8D
102
{ACAD_REACTORS
330
C
102
}
330
C
100
AcDbDictionary
281
     1
  0
DICTIONARY
  5
69
102
{ACAD_REACTORS
330
C
102
}
330
C
100
AcDbDictionary
281
     1
  3
Standard
350
6A
  0
DICTIONARY
  5
2A
102
{ACAD_REACTORS
330
C
102
}
330
C
100
AcDbDictionary
281
     1
  3
2dWireframe
350
2F
  3
Basic
350
32
  3
Brighten
350
36
  3
ColorChange
350
3A
  3
Conceptual
350
34
  3
Dim
350
35
  3
EdgeColorOff
350
3D
  3
Facepattern
350
39
  3
Flat
350
2B
  3
FlatWithEdges
350
2C
  3
Gouraud
350
2D
  3
GouraudWithEdges
350
2E
  3
Hidden
350
31
  3
JitterOff
350
3B
  3
Linepattern
350
38
  3
OverhangOff
350
3C
  3
Realistic
350
33
  3
Shaded
350
42
  3
Shaded with edges
350
41
  3
Shades of Gray
350
3E
  3
Sketchy
350
3F
  3
Thicken
350
37
  3
Wireframe
350
30
  3
X-Ray
350
40
  0
XRECORD
  5
89
102
{ACAD_REACTORS
330
C
102
}
330
C
100
AcDbXrecord
280
     1
 90
        1
330
6A
  0
DICTIONARY
  5
85
102
{ACAD_REACTORS
330
C
102
}
330
C
100
AcDbDictionary
281
     1
  3
CANNOSCALE
350
86
  3
CENTEREXE
350
8F
  3
CENTERLTYPEFILE
350
90
  3
CMLEADERSTYLE
350
8B
  3
CTABLESTYLE
350
8A
  3
WIPEOUTFRAME
350
8E
  0
LAYOUT
  5
1E
102
{ACAD_REACTORS
330
1A
102
}
330
1A
100
AcDbPlotSettings
  1

  2
none_device
  4

  6

 40
0.0
 41
0.0
 42
0.0
 43
0.0
 44
0.0
 45
0.0
 46
0.0
 47
0.0
 48
0.0
 49
0.0
140
0.0
141
0.0
142
1.0
143
1.0
 70
   688
 72
     1
 73
     0
 74
     5
  7

 75
    16
 76
     0
 77
     2
 78
   300
147
1.0
148
0.0
149
0.0
100
AcDbLayout
  1
Layout1
 70
     1
 71
     1
 10
0.0
 20
0.0
 11
420.0
 21
297.0
 12
0.0
 22
0.0
 32
0.0
 14
1.000000000000000E+20
 24
1.000000000000000E+20
 34
1.000000000000000E+20
 15
-1.000000000000000E+20
 25
-1.000000000000000E+20
 35
-1.000000000000000E+20
146
0.0
 13
0.0
 23
0.0
 33
0.0
 16
1.0
 26
0.0
 36
0.0
 17
0.0
 27
1.0
 37
0.0
 76
     0
330
1B
  0
LAYOUT
  5
26
102
{ACAD_REACTORS
330
1A
102
}
330
1A
100
AcDbPlotSettings
  1

  2
none_device
  4

  6

 40
0.0
 41
0.0
 42
0.0
 43
0.0
 44
0.0
 45
0.0
 46
0.0
 47
0.0
 48
0.0
 49
0.0
140
0.0
141
0.0
142
1.0
143
1.0
 70
   688
 72
     1
 73
     0
 74
     5
  7

 75
    16
 76
     0
 77
     2
 78
   300
147
1.0
148
0.0
149
0.0
100
AcDbLayout
  1
Layout2
 70
     1
 71
     2
 10
0.0
 20
0.0
 11
0.0
 21
0.0
 12
0.0
 22
0.0
 32
0.0
 14
0.0
 24
0.0
 34
0.0
 15
0.0
 25
0.0
 35
0.0
146
0.0
 13
0.0
 23
0.0
 33
0.0
 16
1.0
 26
0.0
 36
0.0
 17
0.0
 27
1.0
 37
0.0
 76
     0
330
23
  0
LAYOUT
  5
22
102
{ACAD_REACTORS
330
1A
102
}
330
1A
100
AcDbPlotSettings
  1

  2
none_device
  4
Letter_(8.50_x_11.00_Inches)
  6

 40
6.35
 41
6.35
 42
6.35000508
 43
6.35000508
 44
215.9
 45
279.4
 46
0.0
 47
0.0
 48
0.0
 49
0.0
140
0.0
141
0.0
142
1.0
143
1.0
 70
  1712
 72
     1
 73
     0
 74
     0
  7

 75
     0
 76
     0
 77
     2
 78
   300
147
1.0
148
0.0
149
0.0
100
AcDbLayout
  1
Model
 70
     1
 71
     0
 10
0.0
 20
0.0
 11
420.0
 21
297.0
 12
0.0
 22
0.0
 32
0.0
 14
69.14248763059888
 24
99.02451136441094
 34
0.0
 15
261.1628817413329
 25
839.7185162002796
 35
0.0
146
0.0
 13
0.0
 23
0.0
 33
0.0
 16
1.0
 26
0.0
 36
0.0
 17
0.0
 27
1.0
 37
0.0
 76
     0
330
1F
331
29
  0
MATERIAL
  5
45
102
{ACAD_REACTORS
330
43
102
}
330
43
100
AcDbMaterial
  1
ByBlock
 72
     1
 94
      127
  0
MATERIAL
  5
44
102
{ACAD_REACTORS
330
43
102
}
330
43
100
AcDbMaterial
  1
ByLayer
 72
     1
 94
      127
  0
MATERIAL
  5
46
102
{ACAD_REACTORS
330
43
102
}
330
43
100
AcDbMaterial
  1
Global
 72
     1
 94
      127
  0
MLEADERSTYLE
  5
6C
102
{ACAD_REACTORS
330
6B
102
}
330
6B
100
AcDbMLeaderStyle
179
     2
170
     2
171
     1
172
     0
 90
        2
 40
0.0
 41
0.0
173
     1
 91
-1056964608
340
14
 92
       -2
290
     1
 42
2.0
291
     1
 43
8.0
  3
Standard
341
0
 44
4.0
300

342
11
174
     1
178
     6
175
     1
176
     0
 93
-1056964608
 45
4.0
292
     0
297
     0
 46
4.0
343
0
 94
-1056964608
 47
1.0
 49
1.0
140
1.0
293
     1
141
0.0
294
     1
177
     0
142
1.0
295
     0
296
     0
143
3.75
271
     0
272
     9
273
     9
298
     0
  0
MLINESTYLE
  5
18
102
{ACAD_REACTORS
330
17
102
}
330
17
100
AcDbMlineStyle
  2
Standard
 70
     0
  3

 62
   256
 51
90.0
 52
90.0
 71
     2
 49
0.5
 62
   256
  6
BYLAYER
 49
-0.5
 62
   256
  6
BYLAYER
  0
ACDBPLACEHOLDER
  5
F
102
{ACAD_REACTORS
330
E
102
}
330
E
  0
SCALE
  5
48
102
{ACAD_REACTORS
330
47
102
}
330
47
100
AcDbScale
 70
     0
300
1:1
140
1.0
141
1.0
290
     1
  0
SCALE
  5
49
102
{ACAD_REACTORS
330
47
102
}
330
47
100
AcDbScale
 70
     0
300
1:2
140
1.0
141
2.0
290
     0
  0
SCALE
  5
4A
102
{ACAD_REACTORS
330
47
102
}
330
47
100
AcDbScale
 70
     0
300
1:4
140
1.0
141
4.0
290
     0
  0
SCALE
  5
4B
102
{ACAD_REACTORS
330
47
102
}
330
47
100
AcDbScale
 70
     0
300
1:5
140
1.0
141
5.0
290
     0
  0
SCALE
  5
4C
102
{ACAD_REACTORS
330
47
102
}
330
47
100
AcDbScale
 70
     0
300
1:8
140
1.0
141
8.0
290
     0
  0
SCALE
  5
4D
102
{ACAD_REACTORS
330
47
102
}
330
47
100
AcDbScale
 70
     0
300
1:10
140
1.0
141
10.0
290
     0
  0
SCALE
  5
4E
102
{ACAD_REACTORS
330
47
102
}
330
47
100
AcDbScale
 70
     0
300
1:16
140
1.0
141
16.0
290
     0
  0
SCALE
  5
4F
102
{ACAD_REACTORS
330
47
102
}
330
47
100
AcDbScale
 70
     0
300
1:20
140
1.0
141
20.0
290
     0
  0
SCALE
  5
50
102
{ACAD_REACTORS
330
47
102
}
330
47
100
AcDbScale
 70
     0
300
1:30
140
1.0
141
30.0
290
     0
  0
SCALE
  5
51
102
{ACAD_REACTORS
330
47
102
}
330
47
100
AcDbScale
 70
     0
300
1:40
140
1.0
141
40.0
290
     0
  0
SCALE
  5
52
102
{ACAD_REACTORS
330
47
102
}
330
47
100
AcDbScale
 70
     0
300
1:50
140
1.0
141
50.0
290
     0
  0
SCALE
  5
53
102
{ACAD_REACTORS
330
47
102
}
330
47
100
AcDbScale
 70
     0
300
1:100
140
1.0
141
100.0
290
     0
  0
SCALE
  5
54
102
{ACAD_REACTORS
330
47
102
}
330
47
100
AcDbScale
 70
     0
300
2:1
140
2.0
141
1.0
290
     0
  0
SCALE
  5
55
102
{ACAD_REACTORS
330
47
102
}
330
47
100
AcDbScale
 70
     0
300
4:1
140
4.0
141
1.0
290
     0
  0
SCALE
  5
56
102
{ACAD_REACTORS
330
47
102
}
330
47
100
AcDbScale
 70
     0
300
8:1
140
8.0
141
1.0
290
     0
  0
SCALE
  5
57
102
{ACAD_REACTORS
330
47
102
}
330
47
100
AcDbScale
 70
     0
300
10:1
140
10.0
141
1.0
290
     0
  0
SCALE
  5
58
102
{ACAD_REACTORS
330
47
102
}
330
47
100
AcDbScale
 70
     0
300
100:1
140
100.0
141
1.0
290
     0
  0
SCALE
  5
59
102
{ACAD_REACTORS
330
47
102
}
330
47
100
AcDbScale
 70
     0
300
1/128" = 1'-0"
140
0.0078125
141
12.0
290
     0
  0
SCALE
  5
5A
102
{ACAD_REACTORS
330
47
102
}
330
47
100
AcDbScale
 70
     0
300
1/64" = 1'-0"
140
0.015625
141
12.0
290
     0
  0
SCALE
  5
5B
102
{ACAD_REACTORS
330
47
102
}
330
47
100
AcDbScale
 70
     0
300
1/32" = 1'-0"
140
0.03125
141
12.0
290
     0
  0
SCALE
  5
5C
102
{ACAD_REACTORS
330
47
102
}
330
47
100
AcDbScale
 70
     0
300
1/16" = 1'-0"
140
0.0625
141
12.0
290
     0
  0
SCALE
  5
5D
102
{ACAD_REACTORS
330
47
102
}
330
47
100
AcDbScale
 70
     0
300
3/32" = 1'-0"
140
0.09375
141
12.0
290
     0
  0
SCALE
  5
5E
102
{ACAD_REACTORS
330
47
102
}
330
47
100
AcDbScale
 70
     0
300
1/8" = 1'-0"
140
0.125
141
12.0
290
     0
  0
SCALE
  5
5F
102
{ACAD_REACTORS
330
47
102
}
330
47
100
AcDbScale
 70
     0
300
3/16" = 1'-0"
140
0.1875
141
12.0
290
     0
  0
SCALE
  5
60
102
{ACAD_REACTORS
330
47
102
}
330
47
100
AcDbScale
 70
     0
300
1/4" = 1'-0"
140
0.25
141
12.0
290
     0
  0
SCALE
  5
61
102
{ACAD_REACTORS
330
47
102
}
330
47
100
AcDbScale
 70
     0
300
3/8" = 1'-0"
140
0.375
141
12.0
290
     0
  0
SCALE
  5
62
102
{ACAD_REACTORS
330
47
102
}
330
47
100
AcDbScale
 70
     0
300
1/2" = 1'-0"
140
0.5
141
12.0
290
     0
  0
SCALE
  5
63
102
{ACAD_REACTORS
330
47
102
}
330
47
100
AcDbScale
 70
     0
300
3/4" = 1'-0"
140
0.75
141
12.0
290
     0
  0
SCALE
  5
64
102
{ACAD_REACTORS
330
47
102
}
330
47
100
AcDbScale
 70
     0
300
1" = 1'-0"
140
1.0
141
12.0
290
     0
  0
SCALE
  5
65
102
{ACAD_REACTORS
330
47
102
}
330
47
100
AcDbScale
 70
     0
300
1-1/2" = 1'-0"
140
1.5
141
12.0
290
     0
  0
SCALE
  5
66
102
{ACAD_REACTORS
330
47
102
}
330
47
100
AcDbScale
 70
     0
300
3" = 1'-0"
140
3.0
141
12.0
290
     0
  0
SCALE
  5
67
102
{ACAD_REACTORS
330
47
102
}
330
47
100
AcDbScale
 70
     0
300
6" = 1'-0"
140
6.0
141
12.0
290
     0
  0
SCALE
  5
68
102
{ACAD_REACTORS
330
47
102
}
330
47
100
AcDbScale
 70
     0
300
1'-0" = 1'-0"
140
12.0
141
12.0
290
     0
  0
TABLESTYLE
  5
6A
102
{ACAD_REACTORS
330
69
102
}
102
{ACAD_XDICTIONARY
360
87
102
}
330
69
100
AcDbTableStyle
  3
Standard
 70
     0
 71
     0
 40
0.06
 41
0.06
280
     0
281
     0
  7
Standard
140
4.5
170
     2
 62
     0
 63
   257
283
     0
 90
        4
 91
        0
  1

274
    -2
284
     1
 64
     0
275
    -2
285
     1
 65
     0
276
    -2
286
     1
 66
     0
277
    -2
287
     1
 67
     0
278
    -2
288
     1
 68
     0
279
    -2
289
     1
 69
     0
  7
Standard
140
6.0
170
     5
 62
     0
 63
   257
283
     0
 90
        4
 91
        0
  1

274
    -2
284
     1
 64
     0
275
    -2
285
     1
 65
     0
276
    -2
286
     1
 66
     0
277
    -2
287
     1
 67
     0
278
    -2
288
     1
 68
     0
279
    -2
289
     1
 69
     0
  7
Standard
140
4.5
170
     5
 62
     0
 63
   257
283
     0
 90
        4
 91
        0
  1

274
    -2
284
     1
 64
     0
275
    -2
285
     1
 65
     0
276
    -2
286
     1
 66
     0
277
    -2
287
     1
 67
     0
278
    -2
288
     1
 68
     0
279
    -2
289
     1
 69
     0
  0
VISUALSTYLE
  5
2F
102
{ACAD_REACTORS
330
2A
102
}
330
2A
100
AcDbVisualStyle
  2
2dWireframe
 70
     4
177
     3
291
     0
 70
    58
 90
        0
176
     1
 90
        2
176
     1
 90
        0
176
     1
 90
        0
176
     1
 40
0.6
176
     1
 40
30.0
176
     1
 62
     7
420
 16777215
176
     1
 90
        1
176
     1
 90
        4
176
     1
 62
     7
176
     1
 62
   257
176
     1
 90
        1
176
     1
 90
        1
176
     1
 40
1.0
176
     1
 90
        0
176
     1
 62
   257
176
     1
 40
1.0
176
     1
 90
        1
176
     1
 90
        6
176
     1
 90
        2
176
     1
 62
     7
176
     1
 90
        5
176
     1
 90
        0
176
     1
 90
        0
176
     1
290
     0
176
     1
 90
        1
176
     1
 40
0.0
176
     1
 90
        0
176
     1
290
     1
176
     1
290
     1
176
     1
290
     0
176
     1
290
     0
176
     1
290
     0
176
     1
290
     0
176
     1
290
     0
176
     1
290
     0
176
     1
290
     0
176
     1
 90
       50
176
     1
 40
0.0
176
     1
 40
1.0
176
     1
 90
        0
176
     1
 62
    18
420
        0
176
     1
 90
       50
176
     1
 90
        3
176
     1
 62
     5
420
      255
176
     1
290
     0
176
     1
 90
       50
176
     1
 90
       50
176
     1
 90
       50
176
     1
290
     0
176
     1
 90
       50
176
     1
 62
   256
176
     0
 40
1.0
176
     0
 90
        2
176
     1
  1
strokes_ogs.tif
176
     1
290
     0
176
     1
 40
1.0
176
     1
 40
1.0
176
     1
  0
VISUALSTYLE
  5
32
102
{ACAD_REACTORS
330
2A
102
}
330
2A
100
AcDbVisualStyle
  2
Basic
 70
     7
177
     3
291
     1
 70
    58
 90
        1
176
     1
 90
        0
176
     1
 90
        1
176
     1
 90
        0
176
     1
 40
0.6
176
     1
 40
30.0
176
     1
 62
     7
420
 16777215
176
     1
 90
        0
176
     1
 90
        4
176
     1
 62
     7
176
     1
 62
   257
176
     1
 90
        1
176
     1
 90
        1
176
     1
 40
1.0
176
     1
 90
        8
176
     1
 62
     7
176
     1
 40
1.0
176
     1
 90
        1
176
     1
 90
        6
176
     1
 90
        2
176
     1
 62
     7
176
     1
 90
        5
176
     1
 90
        0
176
     1
 90
        0
176
     1
290
     0
176
     1
 90
        1
176
     1
 40
0.0
176
     1
 90
        0
176
     1
290
     0
176
     1
290
     1
176
     1
290
     1
176
     1
290
     0
176
     1
290
     0
176
     1
290
     0
176
     1
290
     0
176
     1
290
     0
176
     1
290
     0
176
     1
 90
       50
176
     1
 40
0.0
176
     1
 40
1.0
176
     1
 90
        0
176
     1
 62
    18
420
        0
176
     1
 90
       50
176
     1
 90
        3
176
     1
 62
     5
420
      255
176
     1
290
     0
176
     1
 90
       50
176
     1
 90
       50
176
     1
 90
       50
176
     1
290
     0
176
     1
 90
       50
176
     1
 62
   256
176
     0
 40
1.0
176
     0
 90
        2
176
     1
  1
strokes_ogs.tif
176
     1
290
     0
176
     1
 40
1.0
176
     1
 40
1.0
176
     1
  0
VISUALSTYLE
  5
36
102
{ACAD_REACTORS
330
2A
102
}
330
2A
100
AcDbVisualStyle
  2
Brighten
 70
    12
177
     3
291
     1
 70
    58
 90
        2
176
     1
 90
        2
176
     1
 90
        0
176
     1
 90
        0
176
     1
 40
0.6
176
     1
 40
30.0
176
     1
 62
     7
420
 16777215
176
     1
 90
        1
176
     1
 90
        4
176
     1
 62
     7
176
     1
 62
   257
176
     1
 90
        1
176
     1
 90
        1
176
     1
 40
1.0
176
     1
 90
        8
176
     1
 62
     7
176
     1
 40
1.0
176
     1
 90
        1
176
     1
 90
        6
176
     1
 90
        2
176
     1
 62
     7
176
     1
 90
        5
176
     1
 90
        0
176
     1
 90
        0
176
     1
290
     0
176
     1
 90
        1
176
     1
 40
50.0
176
     1
 90
        0
176
     1
290
     0
176
     1
290
     1
176
     1
290
     1
176
     1
290
     0
176
     1
290
     0
176
     1
290
     0
176
     1
290
     0
176
     1
290
     0
176
     1
290
     0
176
     1
 90
       50
176
     1
 40
0.0
176
     1
 40
1.0
176
     1
 90
        0
176
     1
 62
    18
420
        0
176
     1
 90
       50
176
     1
 90
        3
176
     1
 62
     5
420
      255
176
     1
290
     0
176
     1
 90
       50
176
     1
 90
       50
176
     1
 90
       50
176
     1
290
     0
176
     1
 90
       50
176
     1
 62
   256
176
     0
 40
1.0
176
     0
 90
        2
176
     1
  1
strokes_ogs.tif
176
     1
290
     0
176
     1
 40
1.0
176
     1
 40
1.0
176
     1
  0
VISUALSTYLE
  5
3A
102
{ACAD_REACTORS
330
2A
102
}
330
2A
100
AcDbVisualStyle
  2
ColorChange
 70
    16
177
     3
291
     1
 70
    58
 90
        2
176
     1
 90
        2
176
     1
 90
        3
176
     1
 90
        0
176
     1
 40
0.6
176
     1
 40
30.0
176
     1
 62
     8
420
  8421504
176
     1
 90
        1
176
     1
 90
        4
176
     1
 62
     7
176
     1
 62
   257
176
     1
 90
        1
176
     1
 90
        1
176
     1
 40
1.0
176
     1
 90
        8
176
     1
 62
     8
420
  8421504
176
     1
 40
1.0
176
     1
 90
        1
176
     1
 90
        6
176
     1
 90
        2
176
     1
 62
     7
176
     1
 90
        5
176
     1
 90
        0
176
     1
 90
        0
176
     1
290
     0
176
     1
 90
        1
176
     1
 40
0.0
176
     1
 90
        0
176
     1
290
     0
176
     1
290
     1
176
     1
290
     1
176
     1
290
     0
176
     1
290
     0
176
     1
290
     0
176
     1
290
     0
176
     1
290
     0
176
     1
290
     0
176
     1
 90
       50
176
     1
 40
0.0
176
     1
 40
1.0
176
     1
 90
        0
176
     1
 62
    18
420
        0
176
     1
 90
       50
176
     1
 90
        3
176
     1
 62
     5
420
      255
176
     1
290
     0
176
     1
 90
       50
176
     1
 90
       50
176
     1
 90
       50
176
     1
290
     0
176
     1
 90
       50
176
     1
 62
   256
176
     0
 40
1.0
176
     0
 90
        2
176
     1
  1
strokes_ogs.tif
176
     1
290
     0
176
     1
 40
1.0
176
     1
 40
1.0
176
     1
  0
VISUALSTYLE
  5
34
102
{ACAD_REACTORS
330
2A
102
}
330
2A
100
AcDbVisualStyle
  2
Conceptual
 70
     9
177
     3
291
     0
 70
    58
 90
        3
176
     1
 90
        2
176
     1
 90
        0
176
     1
 90
        0
176
     1
 40
0.6
176
     1
 40
30.0
176
     1
 62
     7
420
 16777215
176
     1
 90
        2
176
     1
 90
        2
176
     1
 62
     7
176
     1
 62
   257
176
     1
 90
        1
176
     1
 90
        1
176
     1
 40
179.0
176
     1
 90
        8
176
     1
 62
     7
176
     1
 40
1.0
176
     1
 90
        1
176
     1
 90
        6
176
     1
 90
        2
176
     1
 62
     7
176
     1
 90
        3
176
     1
 90
        0
176
     1
 90
        0
176
     1
290
     0
176
     1
 90
        1
176
     1
 40
0.0
176
     1
 90
        0
176
     1
290
     0
176
     1
290
     1
176
     1
290
     1
176
     1
290
     0
176
     1
290
     0
176
     1
290
     0
176
     1
290
     0
176
     1
290
     0
176
     1
290
     0
176
     1
 90
       50
176
     1
 40
0.0
176
     1
 40
1.0
176
     1
 90
        0
176
     1
 62
    18
420
        0
176
     1
 90
       50
176
     1
 90
        3
176
     1
 62
     5
420
      255
176
     1
290
     0
176
     1
 90
       50
176
     1
 90
       50
176
     1
 90
       50
176
     1
290
     0
176
     1
 90
       50
176
     1
 62
   256
176
     0
 40
1.0
176
     0
 90
        2
176
     1
  1
strokes_ogs.tif
176
     1
290
     0
176
     1
 40
1.0
176
     1
 40
1.0
176
     1
  0
VISUALSTYLE
  5
35
102
{ACAD_REACTORS
330
2A
102
}
330
2A
100
AcDbVisualStyle
  2
Dim
 70
    11
177
     3
291
     1
 70
    58
 90
        2
176
     1
 90
        2
176
     1
 90
        0
176
     1
 90
        0
176
     1
 40
0.6
176
     1
 40
30.0
176
     1
 62
     7
420
 16777215
176
     1
 90
        1
176
     1
 90
        4
176
     1
 62
     7
176
     1
 62
   257
176
     1
 90
        1
176
     1
 90
        1
176
     1
 40
1.0
176
     1
 90
        8
176
     1
 62
     7
176
     1
 40
1.0
176
     1
 90
        1
176
     1
 90
        6
176
     1
 90
        2
176
     1
 62
     7
176
     1
 90
        5
176
     1
 90
        0
176
     1
 90
        0
176
     1
290
     0
176
     1
 90
        1
176
     1
 40
-50.0
176
     1
 90
        0
176
     1
290
     0
176
     1
290
     1
176
     1
290
     1
176
     1
290
     0
176
     1
290
     0
176
     1
290
     0
176
     1
290
     0
176
     1
290
     0
176
     1
290
     0
176
     1
 90
       50
176
     1
 40
0.0
176
     1
 40
1.0
176
     1
 90
        0
176
     1
 62
    18
420
        0
176
     1
 90
       50
176
     1
 90
        3
176
     1
 62
     5
420
      255
176
     1
290
     0
176
     1
 90
       50
176
     1
 90
       50
176
     1
 90
       50
176
     1
290
     0
176
     1
 90
       50
176
     1
 62
   256
176
     0
 40
1.0
176
     0
 90
        2
176
     1
  1
strokes_ogs.tif
176
     1
290
     0
176
     1
 40
1.0
176
     1
 40
1.0
176
     1
  0
VISUALSTYLE
  5
3D
102
{ACAD_REACTORS
330
2A
102
}
330
2A
100
AcDbVisualStyle
  2
EdgeColorOff
 70
    22
177
     3
291
     1
 70
    58
 90
        2
176
     0
 90
        2
176
     0
 90
        0
176
     0
 90
        0
176
     0
 40
0.6
176
     0
 40
30.0
176
     0
 62
     7
420
 16777215
176
     0
 90
        1
176
     0
 90
        4
176
     0
 62
     7
176
     0
 62
   257
176
     0
 90
        1
176
     0
 90
        1
176
     0
 40
1.0
176
     0
 90
        8
176
     2
 62
     7
176
     0
 40
1.0
176
     0
 90
        1
176
     0
 90
        6
176
     0
 90
        2
176
     0
 62
     7
176
     0
 90
        5
176
     0
 90
        0
176
     0
 90
        0
176
     0
290
     0
176
     0
 90
        1
176
     0
 40
0.0
176
     0
 90
        0
176
     0
290
     0
176
     0
290
     1
176
     0
290
     1
176
     0
290
     0
176
     0
290
     0
176
     0
290
     0
176
     0
290
     0
176
     0
290
     0
176
     0
290
     0
176
     0
 90
       50
176
     0
 40
0.0
176
     0
 40
1.0
176
     0
 90
        0
176
     0
 62
    18
420
        0
176
     0
 90
       50
176
     0
 90
        3
176
     0
 62
     5
420
      255
176
     0
290
     0
176
     0
 90
       50
176
     0
 90
       50
176
     0
 90
       50
176
     0
290
     0
176
     0
 90
       50
176
     0
 62
   256
176
     0
 40
1.0
176
     0
 90
        2
176
     0
  1
strokes_ogs.tif
176
     0
290
     0
176
     0
 40
1.0
176
     0
 40
1.0
176
     0
  0
VISUALSTYLE
  5
39
102
{ACAD_REACTORS
330
2A
102
}
330
2A
100
AcDbVisualStyle
  2
Facepattern
 70
    15
177
     3
291
     1
 70
    58
 90
        2
176
     1
 90
        2
176
     1
 90
        0
176
     1
 90
        0
176
     1
 40
0.6
176
     1
 40
30.0
176
     1
 62
     7
420
 16777215
176
     1
 90
        1
176
     1
 90
        4
176
     1
 62
     7
176
     1
 62
   257
176
     1
 90
        1
176
     1
 90
        1
176
     1
 40
1.0
176
     1
 90
        8
176
     1
 62
     7
176
     1
 40
1.0
176
     1
 90
        1
176
     1
 90
        6
176
     1
 90
        2
176
     1
 62
     7
176
     1
 90
        5
176
     1
 90
        0
176
     1
 90
        0
176
     1
290
     0
176
     1
 90
        1
176
     1
 40
0.0
176
     1
 90
        0
176
     1
290
     0
176
     1
290
     1
176
     1
290
     1
176
     1
290
     0
176
     1
290
     0
176
     1
290
     0
176
     1
290
     0
176
     1
290
     0
176
     1
290
     0
176
     1
 90
       50
176
     1
 40
0.0
176
     1
 40
1.0
176
     1
 90
        0
176
     1
 62
    18
420
        0
176
     1
 90
       50
176
     1
 90
        3
176
     1
 62
     5
420
      255
176
     1
290
     0
176
     1
 90
       50
176
     1
 90
       50
176
     1
 90
       50
176
     1
290
     0
176
     1
 90
       50
176
     1
 62
   256
176
     0
 40
1.0
176
     0
 90
        2
176
     1
  1
strokes_ogs.tif
176
     1
290
     0
176
     1
 40
1.0
176
     1
 40
1.0
176
     1
  0
VISUALSTYLE
  5
2B
102
{ACAD_REACTORS
330
2A
102
}
330
2A
100
AcDbVisualStyle
  2
Flat
 70
     0
177
     3
291
     1
 70
    58
 90
        2
176
     1
 90
        1
176
     1
 90
        1
176
     1
 90
        2
176
     1
 40
0.6
176
     1
 40
30.0
176
     1
 62
     7
420
 16777215
176
     1
 90
        0
176
     1
 90
        0
176
     1
 62
     7
176
     1
 62
   257
176
     1
 90
        1
176
     1
 90
        1
176
     1
 40
1.0
176
     1
 90
        8
176
     1
 62
     7
176
     1
 40
1.0
176
     1
 90
        1
176
     1
 90
        6
176
     1
 90
        2
176
     1
 62
     7
176
     1
 90
        5
176
     1
 90
        0
176
     1
 90
        0
176
     1
290
     0
176
     1
 90
       13
176
     1
 40
0.0
176
     1
 90
        0
176
     1
290
     0
176
     1
290
     1
176
     1
290
     1
176
     1
290
     0
176
     1
290
     0
176
     1
290
     0
176
     1
290
     0
176
     1
290
     0
176
     1
290
     0
176
     1
 90
       50
176
     1
 40
0.0
176
     1
 40
1.0
176
     1
 90
        0
176
     1
 62
    18
420
        0
176
     1
 90
       50
176
     1
 90
        3
176
     1
 62
     5
420
      255
176
     1
290
     0
176
     1
 90
       50
176
     1
 90
       50
176
     1
 90
       50
176
     1
290
     0
176
     1
 90
       50
176
     1
 62
   256
176
     0
 40
1.0
176
     0
 90
        2
176
     1
  1
strokes_ogs.tif
176
     1
290
     0
176
     1
 40
1.0
176
     1
 40
1.0
176
     1
  0
VISUALSTYLE
  5
2C
102
{ACAD_REACTORS
330
2A
102
}
330
2A
100
AcDbVisualStyle
  2
FlatWithEdges
 70
     1
177
     3
291
     1
 70
    58
 90
        2
176
     1
 90
        1
176
     1
 90
        1
176
     1
 90
        2
176
     1
 40
0.6
176
     1
 40
30.0
176
     1
 62
     7
420
 16777215
176
     1
 90
        1
176
     1
 90
        0
176
     1
 62
     7
176
     1
 62
   257
176
     1
 90
        1
176
     1
 90
        1
176
     1
 40
1.0
176
     1
 90
        0
176
     1
 62
   257
176
     1
 40
1.0
176
     1
 90
        1
176
     1
 90
        6
176
     1
 90
        2
176
     1
 62
     7
176
     1
 90
        5
176
     1
 90
        0
176
     1
 90
        0
176
     1
290
     0
176
     1
 90
       13
176
     1
 40
0.0
176
     1
 90
        0
176
     1
290
     0
176
     1
290
     1
176
     1
290
     1
176
     1
290
     0
176
     1
290
     0
176
     1
290
     0
176
     1
290
     0
176
     1
290
     0
176
     1
290
     0
176
     1
 90
       50
176
     1
 40
0.0
176
     1
 40
1.0
176
     1
 90
        0
176
     1
 62
    18
420
        0
176
     1
 90
       50
176
     1
 90
        3
176
     1
 62
     5
420
      255
176
     1
290
     0
176
     1
 90
       50
176
     1
 90
       50
176
     1
 90
       50
176
     1
290
     0
176
     1
 90
       50
176
     1
 62
   256
176
     0
 40
1.0
176
     0
 90
        2
176
     1
  1
strokes_ogs.tif
176
     1
290
     0
176
     1
 40
1.0
176
     1
 40
1.0
176
     1
  0
VISUALSTYLE
  5
2D
102
{ACAD_REACTORS
330
2A
102
}
330
2A
100
AcDbVisualStyle
  2
Gouraud
 70
     2
177
     3
291
     1
 70
    58
 90
        2
176
     1
 90
        2
176
     1
 90
        1
176
     1
 90
        2
176
     1
 40
0.6
176
     1
 40
30.0
176
     1
 62
     7
420
 16777215
176
     1
 90
        0
176
     1
 90
        0
176
     1
 62
     7
176
     1
 62
   257
176
     1
 90
        1
176
     1
 90
        1
176
     1
 40
1.0
176
     1
 90
        0
176
     1
 62
     7
176
     1
 40
1.0
176
     1
 90
        1
176
     1
 90
        6
176
     1
 90
        2
176
     1
 62
     7
176
     1
 90
        5
176
     1
 90
        0
176
     1
 90
        0
176
     1
290
     0
176
     1
 90
       13
176
     1
 40
0.0
176
     1
 90
        0
176
     1
290
     0
176
     1
290
     1
176
     1
290
     1
176
     1
290
     0
176
     1
290
     0
176
     1
290
     0
176
     1
290
     0
176
     1
290
     0
176
     1
290
     0
176
     1
 90
       50
176
     1
 40
0.0
176
     1
 40
1.0
176
     1
 90
        0
176
     1
 62
    18
420
        0
176
     1
 90
       50
176
     1
 90
        3
176
     1
 62
     5
420
      255
176
     1
290
     0
176
     1
 90
       50
176
     1
 90
       50
176
     1
 90
       50
176
     1
290
     0
176
     1
 90
       50
176
     1
 62
   256
176
     0
 40
1.0
176
     0
 90
        2
176
     1
  1
strokes_ogs.tif
176
     1
290
     0
176
     1
 40
1.0
176
     1
 40
1.0
176
     1
  0
VISUALSTYLE
  5
2E
102
{ACAD_REACTORS
330
2A
102
}
330
2A
100
AcDbVisualStyle
  2
GouraudWithEdges
 70
     3
177
     3
291
     1
 70
    58
 90
        2
176
     1
 90
        2
176
     1
 90
        1
176
     1
 90
        2
176
     1
 40
0.6
176
     1
 40
30.0
176
     1
 62
     7
420
 16777215
176
     1
 90
        1
176
     1
 90
        0
176
     1
 62
     7
176
     1
 62
   257
176
     1
 90
        1
176
     1
 90
        1
176
     1
 40
1.0
176
     1
 90
        0
176
     1
 62
   257
176
     1
 40
1.0
176
     1
 90
        1
176
     1
 90
        6
176
     1
 90
        2
176
     1
 62
     7
176
     1
 90
        5
176
     1
 90
        0
176
     1
 90
        0
176
     1
290
     0
176
     1
 90
       13
176
     1
 40
0.0
176
     1
 90
        0
176
     1
290
     0
176
     1
290
     1
176
     1
290
     1
176
     1
290
     0
176
     1
290
     0
176
     1
290
     0
176
     1
290
     0
176
     1
290
     0
176
     1
290
     0
176
     1
 90
       50
176
     1
 40
0.0
176
     1
 40
1.0
176
     1
 90
        0
176
     1
 62
    18
420
        0
176
     1
 90
       50
176
     1
 90
        3
176
     1
 62
     5
420
      255
176
     1
290
     0
176
     1
 90
       50
176
     1
 90
       50
176
     1
 90
       50
176
     1
290
     0
176
     1
 90
       50
176
     1
 62
   256
176
     0
 40
1.0
176
     0
 90
        2
176
     1
  1
strokes_ogs.tif
176
     1
290
     0
176
     1
 40
1.0
176
     1
 40
1.0
176
     1
  0
VISUALSTYLE
  5
31
102
{ACAD_REACTORS
330
2A
102
}
330
2A
100
AcDbVisualStyle
  2
Hidden
 70
     6
177
     3
291
     0
 70
    58
 90
        1
176
     1
 90
        2
176
     1
 90
        2
176
     1
 90
        0
176
     1
 40
0.6
176
     1
 40
30.0
176
     1
 62
     7
420
 16777215
176
     1
 90
        2
176
     1
 90
        2
176
     1
 62
     7
176
     1
 62
   257
176
     1
 90
        2
176
     1
 90
        1
176
     1
 40
40.0
176
     1
 90
        0
176
     1
 62
   257
176
     1
 40
1.0
176
     1
 90
        1
176
     1
 90
        6
176
     1
 90
        2
176
     1
 62
     7
176
     1
 90
        3
176
     1
 90
        0
176
     1
 90
        0
176
     1
290
     0
176
     1
 90
        1
176
     1
 40
0.0
176
     1
 90
        0
176
     1
290
     0
176
     1
290
     1
176
     1
290
     1
176
     1
290
     0
176
     1
290
     0
176
     1
290
     0
176
     1
290
     0
176
     1
290
     0
176
     1
290
     0
176
     1
 90
       50
176
     1
 40
0.0
176
     1
 40
1.0
176
     1
 90
        0
176
     1
 62
    18
420
        0
176
     1
 90
       50
176
     1
 90
        3
176
     1
 62
     5
420
      255
176
     1
290
     0
176
     1
 90
       50
176
     1
 90
       50
176
     1
 90
       50
176
     1
290
     0
176
     1
 90
       50
176
     1
 62
   256
176
     0
 40
1.0
176
     0
 90
        2
176
     1
  1
strokes_ogs.tif
176
     1
290
     0
176
     1
 40
1.0
176
     1
 40
1.0
176
     1
  0
VISUALSTYLE
  5
3B
102
{ACAD_REACTORS
330
2A
102
}
330
2A
100
AcDbVisualStyle
  2
JitterOff
 70
    20
177
     3
291
     1
 70
    58
 90
        2
176
     0
 90
        2
176
     0
 90
        0
176
     0
 90
        0
176
     0
 40
0.6
176
     0
 40
30.0
176
     0
 62
     7
420
 16777215
176
     0
 90
        1
176
     0
 90
        4
176
     0
 62
     7
176
     0
 62
   257
176
     0
 90
        1
176
     0
 90
        1
176
     0
 40
1.0
176
     0
 90
       10
176
     2
 62
     7
176
     0
 40
1.0
176
     0
 90
        1
176
     0
 90
        6
176
     0
 90
        2
176
     0
 62
     7
176
     0
 90
        5
176
     0
 90
        0
176
     0
 90
        0
176
     0
290
     0
176
     0
 90
        1
176
     0
 40
0.0
176
     0
 90
        0
176
     0
290
     0
176
     0
290
     1
176
     0
290
     1
176
     0
290
     0
176
     0
290
     0
176
     0
290
     0
176
     0
290
     0
176
     0
290
     0
176
     0
290
     0
176
     0
 90
       50
176
     0
 40
0.0
176
     0
 40
1.0
176
     0
 90
        0
176
     0
 62
    18
420
        0
176
     0
 90
       50
176
     0
 90
        3
176
     0
 62
     5
420
      255
176
     0
290
     0
176
     0
 90
       50
176
     0
 90
       50
176
     0
 90
       50
176
     0
290
     0
176
     0
 90
       50
176
     0
 62
   256
176
     0
 40
1.0
176
     0
 90
        2
176
     0
  1
strokes_ogs.tif
176
     0
290
     0
176
     0
 40
1.0
176
     0
 40
1.0
176
     0
  0
VISUALSTYLE
  5
38
102
{ACAD_REACTORS
330
2A
102
}
330
2A
100
AcDbVisualStyle
  2
Linepattern
 70
    14
177
     3
291
     1
 70
    58
 90
        2
176
     1
 90
        2
176
     1
 90
        0
176
     1
 90
        0
176
     1
 40
0.6
176
     1
 40
30.0
176
     1
 62
     7
420
 16777215
176
     1
 90
        1
176
     1
 90
        4
176
     1
 62
     7
176
     1
 62
   257
176
     1
 90
        7
176
     1
 90
        7
176
     1
 40
1.0
176
     1
 90
        8
176
     1
 62
     7
176
     1
 40
1.0
176
     1
 90
        1
176
     1
 90
        6
176
     1
 90
        2
176
     1
 62
     7
176
     1
 90
        5
176
     1
 90
        0
176
     1
 90
        0
176
     1
290
     0
176
     1
 90
        1
176
     1
 40
0.0
176
     1
 90
        0
176
     1
290
     0
176
     1
290
     1
176
     1
290
     1
176
     1
290
     0
176
     1
290
     0
176
     1
290
     0
176
     1
290
     0
176
     1
290
     0
176
     1
290
     0
176
     1
 90
       50
176
     1
 40
0.0
176
     1
 40
1.0
176
     1
 90
        0
176
     1
 62
    18
420
        0
176
     1
 90
       50
176
     1
 90
        3
176
     1
 62
     5
420
      255
176
     1
290
     0
176
     1
 90
       50
176
     1
 90
       50
176
     1
 90
       50
176
     1
290
     0
176
     1
 90
       50
176
     1
 62
   256
176
     0
 40
1.0
176
     0
 90
        2
176
     1
  1
strokes_ogs.tif
176
     1
290
     0
176
     1
 40
1.0
176
     1
 40
1.0
176
     1
  0
VISUALSTYLE
  5
3C
102
{ACAD_REACTORS
330
2A
102
}
330
2A
100
AcDbVisualStyle
  2
OverhangOff
 70
    21
177
     3
291
     1
 70
    58
 90
        2
176
     0
 90
        2
176
     0
 90
        0
176
     0
 90
        0
176
     0
 40
0.6
176
     0
 40
30.0
176
     0
 62
     7
420
 16777215
176
     0
 90
        1
176
     0
 90
        4
176
     0
 62
     7
176
     0
 62
   257
176
     0
 90
        1
176
     0
 90
        1
176
     0
 40
1.0
176
     0
 90
        9
176
     2
 62
     7
176
     0
 40
1.0
176
     0
 90
        1
176
     0
 90
        6
176
     0
 90
        2
176
     0
 62
     7
176
     0
 90
        5
176
     0
 90
        0
176
     0
 90
        0
176
     0
290
     0
176
     0
 90
        1
176
     0
 40
0.0
176
     0
 90
        0
176
     0
290
     0
176
     0
290
     1
176
     0
290
     1
176
     0
290
     0
176
     0
290
     0
176
     0
290
     0
176
     0
290
     0
176
     0
290
     0
176
     0
290
     0
176
     0
 90
       50
176
     0
 40
0.0
176
     0
 40
1.0
176
     0
 90
        0
176
     0
 62
    18
420
        0
176
     0
 90
       50
176
     0
 90
        3
176
     0
 62
     5
420
      255
176
     0
290
     0
176
     0
 90
       50
176
     0
 90
       50
176
     0
 90
       50
176
     0
290
     0
176
     0
 90
       50
176
     0
 62
   256
176
     0
 40
1.0
176
     0
 90
        2
176
     0
  1
strokes_ogs.tif
176
     0
290
     0
176
     0
 40
1.0
176
     0
 40
1.0
176
     0
  0
VISUALSTYLE
  5
33
102
{ACAD_REACTORS
330
2A
102
}
330
2A
100
AcDbVisualStyle
  2
Realistic
 70
     8
177
     3
291
     0
 70
    58
 90
        2
176
     1
 90
        3
176
     1
 90
        0
176
     1
 90
        2
176
     1
 40
0.6
176
     1
 40
30.0
176
     1
 62
     7
420
 16777215
176
     1
 90
        0
176
     1
 90
        0
176
     1
 62
     7
176
     1
 62
   257
176
     1
 90
        1
176
     1
 90
        1
176
     1
 40
1.0
176
     1
 90
        8
176
     1
 62
   257
176
     1
 40
1.0
176
     1
 90
        1
176
     1
 90
        6
176
     1
 90
        2
176
     1
 62
     7
176
     1
 90
        3
176
     1
 90
        0
176
     1
 90
        0
176
     1
290
     0
176
     1
 90
       13
176
     1
 40
0.0
176
     1
 90
        0
176
     1
290
     0
176
     1
290
     1
176
     1
290
     1
176
     1
290
     0
176
     1
290
     0
176
     1
290
     0
176
     1
290
     0
176
     1
290
     0
176
     1
290
     0
176
     1
 90
       50
176
     1
 40
0.0
176
     1
 40
1.0
176
     1
 90
        0
176
     1
 62
    18
420
        0
176
     1
 90
       50
176
     1
 90
        3
176
     1
 62
     5
420
      255
176
     1
290
     0
176
     1
 90
       50
176
     1
 90
       50
176
     1
 90
       50
176
     1
290
     0
176
     1
 90
       50
176
     1
 62
   256
176
     0
 40
1.0
176
     0
 90
        2
176
     1
  1
strokes_ogs.tif
176
     1
290
     0
176
     1
 40
1.0
176
     1
 40
1.0
176
     1
  0
VISUALSTYLE
  5
42
102
{ACAD_REACTORS
330
2A
102
}
330
2A
100
AcDbVisualStyle
  2
Shaded
 70
    27
177
     3
291
     0
 70
    58
 90
        2
176
     1
 90
        2
176
     1
 90
        1
176
     1
 90
        2
176
     1
 40
0.6
176
     1
 40
30.0
176
     1
 62
     7
420
 16777215
176
     1
 90
        0
176
     1
 90
        4
176
     1
 62
     7
176
     1
 62
   257
176
     1
 90
        1
176
     1
 90
        1
176
     1
 40
1.0
176
     1
 90
        8
176
     1
 62
   257
176
     1
 40
1.0
176
     1
 90
        1
176
     1
 90
        6
176
     1
 90
        2
176
     1
 62
     8
420
  7895160
176
     1
 90
        3
176
     1
 90
        0
176
     1
 90
        0
176
     1
290
     0
176
     1
 90
        5
176
     1
 40
0.0
176
     1
 90
        0
176
     1
290
     0
176
     1
290
     1
176
     1
290
     1
176
     1
290
     0
176
     1
290
     0
176
     1
290
     0
176
     1
290
     0
176
     1
290
     0
176
     1
290
     0
176
     1
 90
       50
176
     1
 40
0.0
176
     1
 40
1.0
176
     1
 90
        0
176
     1
 62
    18
420
        0
176
     1
 90
       50
176
     1
 90
        3
176
     1
 62
     5
420
      255
176
     1
290
     0
176
     1
 90
       50
176
     1
 90
       50
176
     1
 90
       50
176
     1
290
     0
176
     1
 90
       50
176
     1
 62
   256
176
     0
 40
1.0
176
     0
 90
        2
176
     1
  1
strokes_ogs.tif
176
     1
290
     0
176
     1
 40
1.0
176
     1
 40
1.0
176
     1
  0
VISUALSTYLE
  5
41
102
{ACAD_REACTORS
330
2A
102
}
330
2A
100
AcDbVisualStyle
  2
Shaded with edges
 70
    26
177
     3
291
     0
 70
    58
 90
        2
176
     1
 90
        2
176
     1
 90
        1
176
     1
 90
        2
176
     1
 40
0.6
176
     1
 40
30.0
176
     1
 62
     7
420
 16777215
176
     1
 90
        1
176
     1
 90
       10
176
     1
 62
     7
176
     1
 62
   257
176
     1
 90
        2
176
     1
 90
        1
176
     1
 40
1.0
176
     1
 90
        8
176
     1
 62
   257
176
     1
 40
1.0
176
     1
 90
        1
176
     1
 90
        6
176
     1
 90
        2
176
     1
 62
     7
176
     1
 90
        3
176
     1
 90
        0
176
     1
 90
        0
176
     1
290
     0
176
     1
 90
        5
176
     1
 40
0.0
176
     1
 90
        0
176
     1
290
     0
176
     1
290
     1
176
     1
290
     1
176
     1
290
     0
176
     1
290
     0
176
     1
290
     0
176
     1
290
     0
176
     1
290
     0
176
     1
290
     0
176
     1
 90
       50
176
     1
 40
0.0
176
     1
 40
1.0
176
     1
 90
        0
176
     1
 62
    18
420
        0
176
     1
 90
       50
176
     1
 90
        3
176
     1
 62
     5
420
      255
176
     1
290
     0
176
     1
 90
       50
176
     1
 90
       50
176
     1
 90
       50
176
     1
290
     0
176
     1
 90
       50
176
     1
 62
   256
176
     0
 40
1.0
176
     0
 90
        2
176
     1
  1
strokes_ogs.tif
176
     1
290
     0
176
     1
 40
1.0
176
     1
 40
1.0
176
     1
  0
VISUALSTYLE
  5
3E
102
{ACAD_REACTORS
330
2A
102
}
330
2A
100
AcDbVisualStyle
  2
Shades of Gray
 70
    23
177
     3
291
     0
 70
    58
 90
        2
176
     1
 90
        2
176
     1
 90
        3
176
     1
 90
        0
176
     1
 40
0.6
176
     1
 40
30.0
176
     1
 62
     7
420
 16777215
176
     1
 90
        2
176
     1
 90
        2
176
     1
 62
     7
176
     1
 62
     7
176
     1
 90
        1
176
     1
 90
        1
176
     1
 40
40.0
176
     1
 90
        8
176
     1
 62
     7
176
     1
 40
1.0
176
     1
 90
        1
176
     1
 90
        6
176
     1
 90
        2
176
     1
 62
     7
176
     1
 90
        3
176
     1
 90
        0
176
     1
 90
        0
176
     1
290
     0
176
     1
 90
        1
176
     1
 40
0.0
176
     1
 90
        0
176
     1
290
     0
176
     1
290
     1
176
     1
290
     1
176
     1
290
     0
176
     1
290
     0
176
     1
290
     0
176
     1
290
     0
176
     1
290
     0
176
     1
290
     0
176
     1
 90
       50
176
     1
 40
0.0
176
     1
 40
1.0
176
     1
 90
        0
176
     1
 62
    18
420
        0
176
     1
 90
       50
176
     1
 90
        3
176
     1
 62
     5
420
      255
176
     1
290
     0
176
     1
 90
       50
176
     1
 90
       50
176
     1
 90
       50
176
     1
290
     0
176
     1
 90
       50
176
     1
 62
   256
176
     0
 40
1.0
176
     0
 90
        2
176
     1
  1
strokes_ogs.tif
176
     1
290
     0
176
     1
 40
1.0
176
     1
 40
1.0
176
     1
  0
VISUALSTYLE
  5
3F
102
{ACAD_REACTORS
330
2A
102
}
330
2A
100
AcDbVisualStyle
  2
Sketchy
 70
    24
177
     3
291
     0
 70
    58
 90
        1
176
     1
 90
        2
176
     1
 90
        2
176
     1
 90
        0
176
     1
 40
0.6
176
     1
 40
30.0
176
     1
 62
     7
420
 16777215
176
     1
 90
        2
176
     1
 90
        2
176
     1
 62
     7
176
     1
 62
     7
176
     1
 90
        1
176
     1
 90
        1
176
     1
 40
40.0
176
     1
 90
       11
176
     1
 62
     7
176
     1
 40
1.0
176
     1
 90
        1
176
     1
 90
        6
176
     1
 90
        2
176
     1
 62
     7
176
     1
 90
        6
176
     1
 90
        0
176
     1
 90
        0
176
     1
290
     0
176
     1
 90
        1
176
     1
 40
0.0
176
     1
 90
        0
176
     1
290
     0
176
     1
290
     1
176
     1
290
     1
176
     1
290
     0
176
     1
290
     0
176
     1
290
     0
176
     1
290
     0
176
     1
290
     0
176
     1
290
     0
176
     1
 90
       50
176
     1
 40
0.0
176
     1
 40
1.0
176
     1
 90
        0
176
     1
 62
    18
420
        0
176
     1
 90
       50
176
     1
 90
        3
176
     1
 62
     5
420
      255
176
     1
290
     0
176
     1
 90
       50
176
     1
 90
       50
176
     1
 90
       50
176
     1
290
     0
176
     1
 90
       50
176
     1
 62
   256
176
     0
 40
1.0
176
     0
 90
        2
176
     1
  1
strokes_ogs.tif
176
     1
290
     0
176
     1
 40
1.0
176
     1
 40
1.0
176
     1
  0
VISUALSTYLE
  5
37
102
{ACAD_REACTORS
330
2A
102
}
330
2A
100
AcDbVisualStyle
  2
Thicken
 70
    13
177
     3
291
     1
 70
    58
 90
        2
176
     1
 90
        2
176
     1
 90
        0
176
     1
 90
        0
176
     1
 40
0.6
176
     1
 40
30.0
176
     1
 62
     7
420
 16777215
176
     1
 90
        1
176
     1
 90
        4
176
     1
 62
     7
176
     1
 62
   257
176
     1
 90
        1
176
     1
 90
        1
176
     1
 40
1.0
176
     1
 90
       12
176
     1
 62
     7
176
     1
 40
1.0
176
     1
 90
        1
176
     1
 90
        6
176
     1
 90
        2
176
     1
 62
     7
176
     1
 90
        5
176
     1
 90
        0
176
     1
 90
        0
176
     1
290
     0
176
     1
 90
        1
176
     1
 40
0.0
176
     1
 90
        0
176
     1
290
     0
176
     1
290
     1
176
     1
290
     1
176
     1
290
     0
176
     1
290
     0
176
     1
290
     0
176
     1
290
     0
176
     1
290
     0
176
     1
290
     0
176
     1
 90
       50
176
     1
 40
0.0
176
     1
 40
1.0
176
     1
 90
        0
176
     1
 62
    18
420
        0
176
     1
 90
       50
176
     1
 90
        3
176
     1
 62
     5
420
      255
176
     1
290
     0
176
     1
 90
       50
176
     1
 90
       50
176
     1
 90
       50
176
     1
290
     0
176
     1
 90
       50
176
     1
 62
   256
176
     0
 40
1.0
176
     0
 90
        2
176
     1
  1
strokes_ogs.tif
176
     1
290
     0
176
     1
 40
1.0
176
     1
 40
1.0
176
     1
  0
VISUALSTYLE
  5
30
102
{ACAD_REACTORS
330
2A
102
}
330
2A
100
AcDbVisualStyle
  2
Wireframe
 70
     5
177
     3
291
     0
 70
    58
 90
        0
176
     1
 90
        2
176
     1
 90
        0
176
     1
 90
        0
176
     1
 40
0.6
176
     1
 40
30.0
176
     1
 62
     7
420
 16777215
176
     1
 90
        1
176
     1
 90
        4
176
     1
 62
     7
176
     1
 62
   257
176
     1
 90
        1
176
     1
 90
        1
176
     1
 40
1.0
176
     1
 90
        0
176
     1
 62
   257
176
     1
 40
1.0
176
     1
 90
        1
176
     1
 90
        6
176
     1
 90
        2
176
     1
 62
     7
176
     1
 90
        3
176
     1
 90
        0
176
     1
 90
        0
176
     1
290
     0
176
     1
 90
        1
176
     1
 40
0.0
176
     1
 90
        0
176
     1
290
     0
176
     1
290
     1
176
     1
290
     1
176
     1
290
     0
176
     1
290
     0
176
     1
290
     0
176
     1
290
     0
176
     1
290
     0
176
     1
290
     0
176
     1
 90
       50
176
     1
 40
0.0
176
     1
 40
1.0
176
     1
 90
        0
176
     1
 62
    18
420
        0
176
     1
 90
       50
176
     1
 90
        3
176
     1
 62
     5
420
      255
176
     1
290
     0
176
     1
 90
       50
176
     1
 90
       50
176
     1
 90
       50
176
     1
290
     0
176
     1
 90
       50
176
     1
 62
   256
176
     0
 40
1.0
176
     0
 90
        2
176
     1
  1
strokes_ogs.tif
176
     1
290
     0
176
     1
 40
1.0
176
     1
 40
1.0
176
     1
  0
VISUALSTYLE
  5
40
102
{ACAD_REACTORS
330
2A
102
}
330
2A
100
AcDbVisualStyle
  2
X-Ray
 70
    25
177
     3
291
     0
 70
    58
 90
        2
176
     1
 90
        2
176
     1
 90
        1
176
     1
 90
        1
176
     1
 40
0.5
176
     1
 40
30.0
176
     1
 62
     7
420
 16777215
176
     1
 90
        1
176
     1
 90
        0
176
     1
 62
     7
176
     1
 62
   257
176
     1
 90
        1
176
     1
 90
        1
176
     1
 40
1.0
176
     1
 90
        8
176
     1
 62
     7
176
     1
 40
1.0
176
     1
 90
        1
176
     1
 90
        6
176
     1
 90
        2
176
     1
 62
     7
176
     1
 90
        3
176
     1
 90
        0
176
     1
 90
        0
176
     1
290
     0
176
     1
 90
       13
176
     1
 40
0.0
176
     1
 90
        0
176
     1
290
     0
176
     1
290
     1
176
     1
290
     1
176
     1
290
     0
176
     1
290
     0
176
     1
290
     0
176
     1
290
     0
176
     1
290
     0
176
     1
290
     0
176
     1
 90
       50
176
     1
 40
0.0
176
     1
 40
1.0
176
     1
 90
        0
176
     1
 62
    18
420
        0
176
     1
 90
       50
176
     1
 90
        3
176
     1
 62
     5
420
      255
176
     1
290
     0
176
     1
 90
       50
176
     1
 90
       50
176
     1
 90
       50
176
     1
290
     0
176
     1
 90
       50
176
     1
 62
   256
176
     0
 40
1.0
176
     0
 90
        2
176
     1
  1
strokes_ogs.tif
176
     1
290
     0
176
     1
 40
1.0
176
     1
 40
1.0
176
     1
  0
DICTIONARYVAR
  5
86
102
{ACAD_REACTORS
330
85
102
}
330
85
100
DictionaryVariables
280
     0
  1
1:1
  0
DICTIONARYVAR
  5
8F
102
{ACAD_REACTORS
330
85
102
}
330
85
100
DictionaryVariables
280
     0
  1
3.500000
  0
DICTIONARYVAR
  5
90
102
{ACAD_REACTORS
330
85
102
}
330
85
100
DictionaryVariables
280
     0
  1
acadiso.lin
  0
DICTIONARYVAR
  5
8B
102
{ACAD_REACTORS
330
85
102
}
330
85
100
DictionaryVariables
280
     0
  1
Standard
  0
DICTIONARYVAR
  5
8A
102
{ACAD_REACTORS
330
85
102
}
330
85
100
DictionaryVariables
280
     0
  1
Standard
  0
DICTIONARYVAR
  5
8E
102
{ACAD_REACTORS
330
85
102
}
330
85
100
DictionaryVariables
280
     0
  1
0
  0
DICTIONARY
  5
87
330
6A
100
AcDbDictionary
280
     1
281
     1
  3
ACAD_ROUNDTRIP_2008_TABLESTYLE_CELLSTYLEMAP
360
88
  0
CELLSTYLEMAP
  5
88
102
{ACAD_REACTORS
330
87
102
}
330
87
100
AcDbCellStyleMap
 90
        3
300
CELLSTYLE
  1
TABLEFORMAT_BEGIN
 90
        5
170
     1
 91
        0
 92
    32768
 62
   257
 93
        1
300
CONTENTFORMAT
  1
CONTENTFORMAT_BEGIN
 90
        0
 91
        0
 92
        4
 93
        0
300

 40
0.0
140
1.0
 94
        5
 62
     0
340
11
144
6.0
309
CONTENTFORMAT_END
171
     1
301
MARGIN
  1
CELLMARGIN_BEGIN
 40
1.5
 40
1.5
 40
1.5
 40
1.5
 40
1.5
 40
1.5
309
CELLMARGIN_END
 94
        6
 95
        1
302
GRIDFORMAT
  1
GRIDFORMAT_BEGIN
 90
        0
 91
        1
 62
     0
 92
       -2
340
14
 93
        0
 40
0.045
309
GRIDFORMAT_END
 95
        2
302
GRIDFORMAT
  1
GRIDFORMAT_BEGIN
 90
        0
 91
        1
 62
     0
 92
       -2
340
14
 93
        0
 40
0.045
309
GRIDFORMAT_END
 95
        4
302
GRIDFORMAT
  1
GRIDFORMAT_BEGIN
 90
        0
 91
        1
 62
     0
 92
       -2
340
14
 93
        0
 40
0.045
309
GRIDFORMAT_END
 95
        8
302
GRIDFORMAT
  1
GRIDFORMAT_BEGIN
 90
        0
 91
        1
 62
     0
 92
       -2
340
14
 93
        0
 40
0.045
309
GRIDFORMAT_END
 95
       16
302
GRIDFORMAT
  1
GRIDFORMAT_BEGIN
 90
        0
 91
        1
 62
     0
 92
       -2
340
14
 93
        0
 40
0.045
309
GRIDFORMAT_END
 95
       32
302
GRIDFORMAT
  1
GRIDFORMAT_BEGIN
 90
        0
 91
        1
 62
     0
 92
       -2
340
14
 93
        0
 40
0.045
309
GRIDFORMAT_END
309
TABLEFORMAT_END
  1
CELLSTYLE_BEGIN
 90
        1
 91
        1
300
_TITLE
309
CELLSTYLE_END
300
CELLSTYLE
  1
TABLEFORMAT_BEGIN
 90
        5
170
     1
 91
        0
 92
        0
 62
   257
 93
        1
300
CONTENTFORMAT
  1
CONTENTFORMAT_BEGIN
 90
        0
 91
        0
 92
        4
 93
        0
300

 40
0.0
140
1.0
 94
        5
 62
     0
340
11
144
4.5
309
CONTENTFORMAT_END
171
     1
301
MARGIN
  1
CELLMARGIN_BEGIN
 40
1.5
 40
1.5
 40
1.5
 40
1.5
 40
1.5
 40
1.5
309
CELLMARGIN_END
 94
        6
 95
        1
302
GRIDFORMAT
  1
GRIDFORMAT_BEGIN
 90
        0
 91
        1
 62
     0
 92
       -2
340
14
 93
        0
 40
0.045
309
GRIDFORMAT_END
 95
        2
302
GRIDFORMAT
  1
GRIDFORMAT_BEGIN
 90
        0
 91
        1
 62
     0
 92
       -2
340
14
 93
        0
 40
0.045
309
GRIDFORMAT_END
 95
        4
302
GRIDFORMAT
  1
GRIDFORMAT_BEGIN
 90
        0
 91
        1
 62
     0
 92
       -2
340
14
 93
        0
 40
0.045
309
GRIDFORMAT_END
 95
        8
302
GRIDFORMAT
  1
GRIDFORMAT_BEGIN
 90
        0
 91
        1
 62
     0
 92
       -2
340
14
 93
        0
 40
0.045
309
GRIDFORMAT_END
 95
       16
302
GRIDFORMAT
  1
GRIDFORMAT_BEGIN
 90
        0
 91
        1
 62
     0
 92
       -2
340
14
 93
        0
 40
0.045
309
GRIDFORMAT_END
 95
       32
302
GRIDFORMAT
  1
GRIDFORMAT_BEGIN
 90
        0
 91
        1
 62
     0
 92
       -2
340
14
 93
        0
 40
0.045
309
GRIDFORMAT_END
309
TABLEFORMAT_END
  1
CELLSTYLE_BEGIN
 90
        2
 91
        1
300
_HEADER
309
CELLSTYLE_END
300
CELLSTYLE
  1
TABLEFORMAT_BEGIN
 90
        5
170
     1
 91
        0
 92
        0
 62
   257
 93
        1
300
CONTENTFORMAT
  1
CONTENTFORMAT_BEGIN
 90
        0
 91
        0
 92
        4
 93
        0
300

 40
0.0
140
1.0
 94
        2
 62
     0
340
11
144
4.5
309
CONTENTFORMAT_END
171
     1
301
MARGIN
  1
CELLMARGIN_BEGIN
 40
1.5
 40
1.5
 40
1.5
 40
1.5
 40
1.5
 40
1.5
309
CELLMARGIN_END
 94
        6
 95
        1
302
GRIDFORMAT
  1
GRIDFORMAT_BEGIN
 90
        0
 91
        1
 62
     0
 92
       -2
340
14
 93
        0
 40
0.045
309
GRIDFORMAT_END
 95
        2
302
GRIDFORMAT
  1
GRIDFORMAT_BEGIN
 90
        0
 91
        1
 62
     0
 92
       -2
340
14
 93
        0
 40
0.045
309
GRIDFORMAT_END
 95
        4
302
GRIDFORMAT
  1
GRIDFORMAT_BEGIN
 90
        0
 91
        1
 62
     0
 92
       -2
340
14
 93
        0
 40
0.045
309
GRIDFORMAT_END
 95
        8
302
GRIDFORMAT
  1
GRIDFORMAT_BEGIN
 90
        0
 91
        1
 62
     0
 92
       -2
340
14
 93
        0
 40
0.045
309
GRIDFORMAT_END
 95
       16
302
GRIDFORMAT
  1
GRIDFORMAT_BEGIN
 90
        0
 91
        1
 62
     0
 92
       -2
340
14
 93
        0
 40
0.045
309
GRIDFORMAT_END
 95
       32
302
GRIDFORMAT
  1
GRIDFORMAT_BEGIN
 90
        0
 91
        1
 62
     0
 92
       -2
340
14
 93
        0
 40
0.045
309
GRIDFORMAT_END
309
TABLEFORMAT_END
  1
CELLSTYLE_BEGIN
 90
        3
 91
        2
300
_DATA
309
CELLSTYLE_END
  0
ENDSEC
  0
EOF
