  0
SECTION
  2
HEADER
  9
$ACADVER
  1
AC1024
  9
$ACADMAINTVER
 70
   155
  9
$DWGCODEPAGE
  3
ANSI_1251
  9
$LASTSAVEDBY
  1
Александр
  9
$INSBASE
 10
0.0
 20
0.0
 30
0.0
  9
$EXTMIN
 10
-37775.85120299175
 20
13865.01711541296
 30
0.0
  9
$EXTMAX
 10
-36905.99410433054
 20
14583.39102095004
 30
0.0
  9
$LIMMIN
 10
0.0
 20
0.0
  9
$LIMMAX
 10
420.0
 20
297.0
  9
$ORTHOMODE
 70
     0
  9
$REGENMODE
 70
     1
  9
$FILLMODE
 70
     1
  9
$QTEXTMODE
 70
     0
  9
$MIRRTEXT
 70
     0
  9
$LTSCALE
 40
1.0
  9
$ATTMODE
 70
     1
  9
$TEXTSIZE
 40
2.5
  9
$TRACEWID
 40
1.0
  9
$TEXTSTYLE
  7
Standard
  9
$CLAYER
  8
0
  9
$CELTYPE
  6
ByLayer
  9
$CECOLOR
 62
     1
  9
$CELTSCALE
 40
1.0
  9
$DISPSILH
 70
     0
  9
$DIMSCALE
 40
1.0
  9
$DIMASZ
 40
2.5
  9
$DIMEXO
 40
0.625
  9
$DIMDLI
 40
3.75
  9
$DIMRND
 40
0.0
  9
$DIMDLE
 40
0.0
  9
$DIMEXE
 40
1.25
  9
$DIMTP
 40
0.0
  9
$DIMTM
 40
0.0
  9
$DIMTXT
 40
2.5
  9
$DIMCEN
 40
2.5
  9
$DIMTSZ
 40
0.0
  9
$DIMTOL
 70
     0
  9
$DIMLIM
 70
     0
  9
$DIMTIH
 70
     0
  9
$DIMTOH
 70
     0
  9
$DIMSE1
 70
     0
  9
$DIMSE2
 70
     0
  9
$DIMTAD
 70
     1
  9
$DIMZIN
 70
     8
  9
$DIMBLK
  1

  9
$DIMASO
 70
     1
  9
$DIMSHO
 70
     1
  9
$DIMPOST
  1

  9
$DIMAPOST
  1

  9
$DIMALT
 70
     0
  9
$DIMALTD
 70
     3
  9
$DIMALTF
 40
0.03937007874016
  9
$DIMLFAC
 40
1.0
  9
$DIMTOFL
 70
     1
  9
$DIMTVP
 40
0.0
  9
$DIMTIX
 70
     0
  9
$DIMSOXD
 70
     0
  9
$DIMSAH
 70
     0
  9
$DIMBLK1
  1

  9
$DIMBLK2
  1

  9
$DIMSTYLE
  2
ISO-25
  9
$DIMCLRD
 70
     0
  9
$DIMCLRE
 70
     0
  9
$DIMCLRT
 70
     0
  9
$DIMTFAC
 40
1.0
  9
$DIMGAP
 40
0.625
  9
$DIMJUST
 70
     0
  9
$DIMSD1
 70
     0
  9
$DIMSD2
 70
     0
  9
$DIMTOLJ
 70
     0
  9
$DIMTZIN
 70
     8
  9
$DIMALTZ
 70
     0
  9
$DIMALTTZ
 70
     0
  9
$DIMUPT
 70
     0
  9
$DIMDEC
 70
     2
  9
$DIMTDEC
 70
     2
  9
$DIMALTU
 70
     2
  9
$DIMALTTD
 70
     3
  9
$DIMTXSTY
  7
Standard
  9
$DIMAUNIT
 70
     0
  9
$DIMADEC
 70
     0
  9
$DIMALTRND
 40
0.0
  9
$DIMAZIN
 70
     0
  9
$DIMDSEP
 70
    44
  9
$DIMATFIT
 70
     3
  9
$DIMFRAC
 70
     0
  9
$DIMLDRBLK
  1

  9
$DIMLUNIT
 70
     2
  9
$DIMLWD
 70
    -2
  9
$DIMLWE
 70
    -2
  9
$DIMTMOVE
 70
     0
  9
$DIMFXL
 40
1.0
  9
$DIMFXLON
 70
     0
  9
$DIMJOGANG
 40
0.7853981633974483
  9
$DIMTFILL
 70
     0
  9
$DIMTFILLCLR
 70
     0
  9
$DIMARCSYM
 70
     0
  9
$DIMLTYPE
  6

  9
$DIMLTEX1
  6

  9
$DIMLTEX2
  6

  9
$DIMTXTDIRECTION
 70
     0
  9
$LUNITS
 70
     2
  9
$LUPREC
 70
     4
  9
$SKETCHINC
 40
1.0
  9
$FILLETRAD
 40
2.0
  9
$AUNITS
 70
     0
  9
$AUPREC
 70
     0
  9
$MENU
  1
.
  9
$ELEVATION
 40
0.0
  9
$PELEVATION
 40
0.0
  9
$THICKNESS
 40
0.0
  9
$LIMCHECK
 70
     0
  9
$CHAMFERA
 40
0.0
  9
$CHAMFERB
 40
0.0
  9
$CHAMFERC
 40
0.0
  9
$CHAMFERD
 40
0.0
  9
$SKPOLY
 70
     0
  9
$TDCREATE
 40
2457036.947549688
  9
$TDUCREATE
 40
2457036.822549688
  9
$TDUPDATE
 40
2457037.944409202
  9
$TDUUPDATE
 40
2457037.819409201
  9
$TDINDWG
 40
0.1042578125
  9
$TDUSRTIMER
 40
0.1042539352
  9
$USRTIMER
 70
     1
  9
$ANGBASE
 50
0.0
  9
$ANGDIR
 70
     0
  9
$PDMODE
 70
     0
  9
$PDSIZE
 40
0.0
  9
$PLINEWID
 40
0.0
  9
$SPLFRAME
 70
     0
  9
$SPLINETYPE
 70
     6
  9
$SPLINESEGS
 70
     8
  9
$HANDSEED
  5
692
  9
$SURFTAB1
 70
     6
  9
$SURFTAB2
 70
     6
  9
$SURFTYPE
 70
     6
  9
$SURFU
 70
     6
  9
$SURFV
 70
     6
  9
$UCSBASE
  2

  9
$UCSNAME
  2

  9
$UCSORG
 10
0.0
 20
0.0
 30
0.0
  9
$UCSXDIR
 10
1.0
 20
0.0
 30
0.0
  9
$UCSYDIR
 10
0.0
 20
1.0
 30
0.0
  9
$UCSORTHOREF
  2

  9
$UCSORTHOVIEW
 70
     0
  9
$UCSORGTOP
 10
0.0
 20
0.0
 30
0.0
  9
$UCSORGBOTTOM
 10
0.0
 20
0.0
 30
0.0
  9
$UCSORGLEFT
 10
0.0
 20
0.0
 30
0.0
  9
$UCSORGRIGHT
 10
0.0
 20
0.0
 30
0.0
  9
$UCSORGFRONT
 10
0.0
 20
0.0
 30
0.0
  9
$UCSORGBACK
 10
0.0
 20
0.0
 30
0.0
  9
$PUCSBASE
  2

  9
$PUCSNAME
  2

  9
$PUCSORG
 10
0.0
 20
0.0
 30
0.0
  9
$PUCSXDIR
 10
1.0
 20
0.0
 30
0.0
  9
$PUCSYDIR
 10
0.0
 20
1.0
 30
0.0
  9
$PUCSORTHOREF
  2

  9
$PUCSORTHOVIEW
 70
     0
  9
$PUCSORGTOP
 10
0.0
 20
0.0
 30
0.0
  9
$PUCSORGBOTTOM
 10
0.0
 20
0.0
 30
0.0
  9
$PUCSORGLEFT
 10
0.0
 20
0.0
 30
0.0
  9
$PUCSORGRIGHT
 10
0.0
 20
0.0
 30
0.0
  9
$PUCSORGFRONT
 10
0.0
 20
0.0
 30
0.0
  9
$PUCSORGBACK
 10
0.0
 20
0.0
 30
0.0
  9
$USERI1
 70
     0
  9
$USERI2
 70
     0
  9
$USERI3
 70
     0
  9
$USERI4
 70
     0
  9
$USERI5
 70
     0
  9
$USERR1
 40
0.0
  9
$USERR2
 40
0.0
  9
$USERR3
 40
0.0
  9
$USERR4
 40
0.0
  9
$USERR5
 40
0.0
  9
$WORLDVIEW
 70
     1
  9
$SHADEDGE
 70
     3
  9
$SHADEDIF
 70
    70
  9
$TILEMODE
 70
     1
  9
$MAXACTVP
 70
    64
  9
$PINSBASE
 10
0.0
 20
0.0
 30
0.0
  9
$PLIMCHECK
 70
     0
  9
$PEXTMIN
 10
0.0
 20
0.0
 30
0.0
  9
$PEXTMAX
 10
0.0
 20
0.0
 30
0.0
  9
$PLIMMIN
 10
0.0
 20
0.0
  9
$PLIMMAX
 10
12.0
 20
9.0
  9
$UNITMODE
 70
     0
  9
$VISRETAIN
 70
     1
  9
$PLINEGEN
 70
     0
  9
$PSLTSCALE
 70
     1
  9
$TREEDEPTH
 70
  3020
  9
$CMLSTYLE
  2
Standard
  9
$CMLJUST
 70
     0
  9
$CMLSCALE
 40
20.0
  9
$PROXYGRAPHICS
 70
     1
  9
$MEASUREMENT
 70
     1
  9
$CELWEIGHT
370
    -1
  9
$ENDCAPS
280
     0
  9
$JOINSTYLE
280
     0
  9
$LWDISPLAY
290
     0
  9
$INSUNITS
 70
     4
  9
$HYPERLINKBASE
  1

  9
$STYLESHEET
  1

  9
$XEDIT
290
     1
  9
$CEPSNTYPE
380
     0
  9
$PSTYLEMODE
290
     1
  9
$FINGERPRINTGUID
  2
{FD975DE2-8C3E-4139-80E9-66791A94C534}
  9
$VERSIONGUID
  2
{D4A22EF3-5B0A-4857-B4B8-4256035C9328}
  9
$EXTNAMES
290
     1
  9
$PSVPSCALE
 40
0.0
  9
$OLESTARTUP
290
     0
  9
$SORTENTS
280
   127
  9
$INDEXCTL
280
     0
  9
$HIDETEXT
280
     1
  9
$XCLIPFRAME
280
     2
  9
$HALOGAP
280
     0
  9
$OBSCOLOR
 70
   257
  9
$OBSLTYPE
280
     0
  9
$INTERSECTIONDISPLAY
280
     0
  9
$INTERSECTIONCOLOR
 70
   257
  9
$DIMASSOC
280
     2
  9
$PROJECTNAME
  1

  9
$CAMERADISPLAY
290
     0
  9
$LENSLENGTH
 40
50.0
  9
$CAMERAHEIGHT
 40
0.0
  9
$STEPSPERSEC
 40
2.0
  9
$STEPSIZE
 40
6.0
  9
$3DDWFPREC
 40
2.0
  9
$PSOLWIDTH
 40
5.0
  9
$PSOLHEIGHT
 40
80.0
  9
$LOFTANG1
 40
1.570796326794896
  9
$LOFTANG2
 40
1.570796326794896
  9
$LOFTMAG1
 40
0.0
  9
$LOFTMAG2
 40
0.0
  9
$LOFTPARAM
 70
     7
  9
$LOFTNORMALS
280
     1
  9
$LATITUDE
 40
37.795
  9
$LONGITUDE
 40
-122.394
  9
$NORTHDIRECTION
 40
0.0
  9
$TIMEZONE
 70
 -8000
  9
$LIGHTGLYPHDISPLAY
280
     1
  9
$TILEMODELIGHTSYNCH
280
     1
  9
$CMATERIAL
347
EC
  9
$SOLIDHIST
280
     0
  9
$SHOWHIST
280
     1
  9
$DWFFRAME
280
     2
  9
$DGNFRAME
280
     0
  9
$REALWORLDSCALE
290
     1
  9
$INTERFERECOLOR
 62
     1
  9
$INTERFEREOBJVS
345
F9
  9
$INTERFEREVPVS
346
F6
  9
$CSHADOW
280
     0
  9
$SHADOWPLANELOCATION
 40
0.0
  0
ENDSEC
  0
SECTION
  2
CLASSES
  0
CLASS
  1
ACDBDICTIONARYWDFLT
  2
AcDbDictionaryWithDefault
  3
ObjectDBX Classes
 90
        0
 91
        1
280
     0
281
     0
  0
CLASS
  1
DICTIONARYVAR
  2
AcDbDictionaryVar
  3
ObjectDBX Classes
 90
        0
 91
        9
280
     0
281
     0
  0
CLASS
  1
TABLESTYLE
  2
AcDbTableStyle
  3
ObjectDBX Classes
 90
     4095
 91
        1
280
     0
281
     0
  0
CLASS
  1
MATERIAL
  2
AcDbMaterial
  3
ObjectDBX Classes
 90
     1153
 91
        3
280
     0
281
     0
  0
CLASS
  1
VISUALSTYLE
  2
AcDbVisualStyle
  3
ObjectDBX Classes
 90
     4095
 91
       24
280
     0
281
     0
  0
CLASS
  1
SCALE
  2
AcDbScale
  3
ObjectDBX Classes
 90
     1153
 91
       17
280
     0
281
     0
  0
CLASS
  1
MLEADERSTYLE
  2
AcDbMLeaderStyle
  3
ACDB_MLEADERSTYLE_CLASS
 90
     4095
 91
        2
280
     0
281
     0
  0
CLASS
  1
CELLSTYLEMAP
  2
AcDbCellStyleMap
  3
ObjectDBX Classes
 90
     1152
 91
        3
280
     0
281
     0
  0
CLASS
  1
EXACXREFPANELOBJECT
  2
ExAcXREFPanelObject
  3
EXAC_ESW
 90
     1025
 91
        0
280
     0
281
     0
  0
CLASS
  1
NPOCOLLECTION
  2
AcDbImpNonPersistentObjectsCollection
  3
ObjectDBX Classes
 90
     1153
 91
        0
280
     0
281
     0
  0
CLASS
  1
LAYER_INDEX
  2
AcDbLayerIndex
  3
ObjectDBX Classes
 90
        0
 91
        0
280
     0
281
     0
  0
CLASS
  1
SPATIAL_INDEX
  2
AcDbSpatialIndex
  3
ObjectDBX Classes
 90
        0
 91
        0
280
     0
281
     0
  0
CLASS
  1
IDBUFFER
  2
AcDbIdBuffer
  3
ObjectDBX Classes
 90
        0
 91
        0
280
     0
281
     0
  0
CLASS
  1
ACDBSECTIONVIEWSTYLE
  2
AcDbSectionViewStyle
  3
ObjectDBX Classes
 90
     1025
 91
        1
280
     0
281
     0
  0
CLASS
  1
ACDBDETAILVIEWSTYLE
  2
AcDbDetailViewStyle
  3
ObjectDBX Classes
 90
     1025
 91
        1
280
     0
281
     0
  0
CLASS
  1
RASTERVARIABLES
  2
AcDbRasterVariables
  3
ISM
 90
        0
 91
        1
280
     0
281
     0
  0
CLASS
  1
IMAGEDEF
  2
AcDbRasterImageDef
  3
ISM
 90
        0
 91
        1
280
     0
281
     0
  0
CLASS
  1
IMAGEDEF_REACTOR
  2
AcDbRasterImageDefReactor
  3
ISM
 90
        1
 91
        1
280
     0
281
     0
  0
CLASS
  1
IMAGE
  2
AcDbRasterImage
  3
ISM
 90
     2175
 91
        1
280
     0
281
     1
  0
CLASS
  1
SORTENTSTABLE
  2
AcDbSortentsTable
  3
ObjectDBX Classes
 90
        0
 91
        2
280
     0
281
     0
  0
CLASS
  1
ACDBASSOC2DCONSTRAINTGROUP
  2
AcDbAssoc2dConstraintGroup
  3
ObjectDBX Classes
 90
     1025
 91
        1
280
     0
281
     0
  0
CLASS
  1
ACDBASSOCGEOMDEPENDENCY
  2
AcDbAssocGeomDependency
  3
ObjectDBX Classes
 90
     1025
 91
        3
280
     0
281
     0
  0
CLASS
  1
ACDBASSOCNETWORK
  2
AcDbAssocNetwork
  3
ObjectDBX Classes
 90
     1025
 91
        2
280
     0
281
     0
  0
ENDSEC
  0
SECTION
  2
TABLES
  0
TABLE
  2
VPORT
  5
8
330
0
100
AcDbSymbolTable
 70
     1
  0
VPORT
  5
EA
330
8
100
AcDbSymbolTableRecord
100
AcDbViewportTableRecord
  2
*Active
 70
     0
 10
0.0
 20
0.0
 11
1.0
 21
1.0
 12
-37194.85689522402
 22
14330.84554414761
 13
0.0
 23
0.0
 14
10.0
 24
10.0
 15
10.0
 25
10.0
 16
0.0
 26
0.0
 36
1.0
 17
0.0
 27
0.0
 37
0.0
 40
532.2268464069444
 41
2.584615384615384
 42
50.0
 43
0.0
 44
0.0
 50
0.0
 51
0.0
 71
     0
 72
  1000
 73
     1
 74
     3
 75
     0
 76
     1
 77
     0
 78
     0
281
     0
 65
     1
110
0.0
120
0.0
130
0.0
111
1.0
121
0.0
131
0.0
112
0.0
122
1.0
132
0.0
 79
     0
146
0.0
348
F5
 60
     3
 61
     5
292
     1
282
     1
141
0.0
142
0.0
 63
   250
421
  3355443
1001
ACAD_NAV_VCDISPLAY
1070
     3
  0
ENDTAB
  0
TABLE
  2
LTYPE
  5
5
330
0
100
AcDbSymbolTable
 70
     2
  0
LTYPE
  5
14
330
5
100
AcDbSymbolTableRecord
100
AcDbLinetypeTableRecord
  2
ByBlock
 70
     0
  3

 72
    65
 73
     0
 40
0.0
  0
LTYPE
  5
15
330
5
100
AcDbSymbolTableRecord
100
AcDbLinetypeTableRecord
  2
ByLayer
 70
     0
  3

 72
    65
 73
     0
 40
0.0
  0
LTYPE
  5
16
330
5
100
AcDbSymbolTableRecord
100
AcDbLinetypeTableRecord
  2
Continuous
 70
     0
  3
Solid line
 72
    65
 73
     0
 40
0.0
  0
ENDTAB
  0
TABLE
  2
LAYER
  5
2
102
{ACAD_XDICTIONARY
360
1FF
102
}
330
0
100
AcDbSymbolTable
 70
     1
  0
LAYER
  5
10
102
{ACAD_XDICTIONARY
360
13C
102
}
330
2
100
AcDbSymbolTableRecord
100
AcDbLayerTableRecord
  2
0
 70
     0
 62
     7
  6
Continuous
370
    -3
390
F
347
EE
  0
ENDTAB
  0
TABLE
  2
STYLE
  5
3
330
0
100
AcDbSymbolTable
 70
     2
  0
STYLE
  5
11
330
3
100
AcDbSymbolTableRecord
100
AcDbTextStyleTableRecord
  2
Standard
 70
     0
 40
0.0
 41
1.0
 50
0.0
 71
     0
 42
2.5
  3
arial.ttf
  4

1001
ACAD
1000
Arial
1071
       34
  0
STYLE
  5
132
330
3
100
AcDbSymbolTableRecord
100
AcDbTextStyleTableRecord
  2
Аннотативный
 70
     0
 40
0.0
 41
1.0
 50
0.0
 71
     0
 42
2.5
  3
arial.ttf
  4

1001
AcadAnnotative
1000
AnnotativeData
1002
{
1070
     1
1070
     1
1002
}
1001
ACAD
1000
Arial
1071
       34
  0
ENDTAB
  0
TABLE
  2
VIEW
  5
6
330
0
100
AcDbSymbolTable
 70
     2
  0
ENDTAB
  0
TABLE
  2
UCS
  5
7
330
0
100
AcDbSymbolTable
 70
     0
  0
ENDTAB
  0
TABLE
  2
APPID
  5
9
330
0
100
AcDbSymbolTable
 70
     9
  0
APPID
  5
12
330
9
100
AcDbSymbolTableRecord
100
AcDbRegAppTableRecord
  2
ACAD
 70
     0
  0
APPID
  5
9E
330
9
100
AcDbSymbolTableRecord
100
AcDbRegAppTableRecord
  2
ACAD_PSEXT
 70
     0
  0
APPID
  5
133
330
9
100
AcDbSymbolTableRecord
100
AcDbRegAppTableRecord
  2
AcadAnnoPO
 70
     0
  0
APPID
  5
134
330
9
100
AcDbSymbolTableRecord
100
AcDbRegAppTableRecord
  2
AcadAnnotative
 70
     0
  0
APPID
  5
135
330
9
100
AcDbSymbolTableRecord
100
AcDbRegAppTableRecord
  2
ACAD_DSTYLE_DIMJAG
 70
     0
  0
APPID
  5
136
330
9
100
AcDbSymbolTableRecord
100
AcDbRegAppTableRecord
  2
ACAD_DSTYLE_DIMTALN
 70
     0
  0
APPID
  5
165
330
9
100
AcDbSymbolTableRecord
100
AcDbRegAppTableRecord
  2
ACAD_MLEADERVER
 70
     0
  0
APPID
  5
217
330
9
100
AcDbSymbolTableRecord
100
AcDbRegAppTableRecord
  2
ACAD_NAV_VCDISPLAY
 70
     0
  0
APPID
  5
2C1
330
9
100
AcDbSymbolTableRecord
100
AcDbRegAppTableRecord
  2
ACAD_EXEMPT_FROM_CAD_STANDARDS
 70
     0
  0
ENDTAB
  0
TABLE
  2
DIMSTYLE
  5
A
330
0
100
AcDbSymbolTable
 70
     4
100
AcDbDimStyleTable
 71
     2
340
27
340
137
  0
DIMSTYLE
105
1B0
330
A
100
AcDbSymbolTableRecord
100
AcDbDimStyleTableRecord
  2
Standard
 70
     0
340
11
  0
DIMSTYLE
105
137
330
A
100
AcDbSymbolTableRecord
100
AcDbDimStyleTableRecord
  2
Аннотативный
 70
     0
 40
0.0
 41
2.5
 42
0.625
 43
3.75
 44
1.25
 73
     0
 74
     0
 77
     1
 78
     8
140
2.5
141
2.5
143
0.03937007874016
147
0.625
171
     3
172
     1
271
     2
272
     2
274
     3
278
    44
283
     0
284
     8
340
11
1001
AcadAnnotative
1000
AnnotativeData
1002
{
1070
     1
1070
     1
1002
}
1001
ACAD_DSTYLE_DIMJAG
1070
   388
1040
1.5
1001
ACAD_DSTYLE_DIMTALN
1070
   392
1070
     0
  0
DIMSTYLE
105
27
330
A
100
AcDbSymbolTableRecord
100
AcDbDimStyleTableRecord
  2
ISO-25
 70
     0
 41
2.5
 42
0.625
 43
3.75
 44
1.25
 73
     0
 74
     0
 77
     1
 78
     8
140
2.5
141
2.5
143
0.03937007874016
147
0.625
171
     3
172
     1
271
     2
272
     2
274
     3
278
    44
283
     0
284
     8
340
11
  0
ENDTAB
  0
TABLE
  2
BLOCK_RECORD
  5
1
330
0
100
AcDbSymbolTable
 70
     2
  0
BLOCK_RECORD
  5
1F
102
{ACAD_XDICTIONARY
360
1CE
102
}
330
1
100
AcDbSymbolTableRecord
100
AcDbBlockTableRecord
  2
*Model_Space
340
22
 70
     0
280
     1
281
     0
  0
BLOCK_RECORD
  5
D2
330
1
100
AcDbSymbolTableRecord
100
AcDbBlockTableRecord
  2
*Paper_Space
340
D3
 70
     0
280
     1
281
     0
  0
BLOCK_RECORD
  5
D6
330
1
100
AcDbSymbolTableRecord
100
AcDbBlockTableRecord
  2
*Paper_Space0
340
D7
 70
     0
280
     1
281
     0
  0
ENDTAB
  0
ENDSEC
  0
SECTION
  2
BLOCKS
  0
BLOCK
  5
20
330
1F
100
AcDbEntity
  8
0
100
AcDbBlockBegin
  2
*Model_Space
 70
     0
 10
0.0
 20
0.0
 30
0.0
  3
*Model_Space
  1

  0
ENDBLK
  5
21
330
1F
100
AcDbEntity
  8
0
100
AcDbBlockEnd
  0
BLOCK
  5
D4
330
D2
100
AcDbEntity
 67
     1
  8
0
100
AcDbBlockBegin
  2
*Paper_Space
 70
     0
 10
0.0
 20
0.0
 30
0.0
  3
*Paper_Space
  1

  0
ENDBLK
  5
D5
330
D2
100
AcDbEntity
 67
     1
  8
0
100
AcDbBlockEnd
  0
BLOCK
  5
D8
330
D6
100
AcDbEntity
 67
     1
  8
0
100
AcDbBlockBegin
  2
*Paper_Space0
 70
     0
 10
0.0
 20
0.0
 30
0.0
  3
*Paper_Space0
  1

  0
ENDBLK
  5
D9
330
D6
100
AcDbEntity
 67
     1
  8
0
100
AcDbBlockEnd
  0
ENDSEC
  0
SECTION
  2
ENTITIES
  0
LINE
  5
24E
330
1F
100
AcDbEntity
  8
0
 62
     1
100
AcDbLine
 10
-36980.7838582272
 20
14151.56625147976
 30
0.0
 11
-37070.58106998628
 21
14176.8381015356
 31
0.0
  0
LINE
  5
24F
330
1F
100
AcDbEntity
  8
0
 62
     1
100
AcDbLine
 10
-37055.13829703571
 20
14160.54907118933
 30
0.0
 11
-37016.5687317073
 21
14151.56625147976
 31
0.0
  0
LINE
  5
250
330
1F
100
AcDbEntity
  8
0
 62
     1
100
AcDbLine
 10
-37070.85375330673
 20
14160.80185669644
 30
0.0
 11
-37091.91887283624
 21
14160.80185669644
 31
0.0
  0
ARC
  5
251
330
1F
100
AcDbEntity
  8
0
 62
     1
100
AcDbCircle
 10
-37075.47317861893
 20
14168.90084707123
 30
0.0
 40
9.32377258977608
100
AcDbArc
 50
299.6991606862936
 51
58.35249068124318
  0
ARC
  5
252
330
1F
100
AcDbEntity
  8
0
 62
     1
100
AcDbCircle
 10
-37106.15219276538
 20
14152.95070928945
 30
0.0
 40
16.25508879740652
100
AcDbArc
 50
28.88127727963398
 51
84.72462066045691
  0
ARC
  5
253
330
1F
100
AcDbEntity
  8
0
 62
     1
100
AcDbCircle
 10
-37109.44519187308
 20
14164.72550652779
 30
0.0
 40
6.510092316966817
100
AcDbArc
 50
322.9362937537408
 51
42.65879120795612
  0
ARC
  5
254
330
1F
100
AcDbEntity
  8
0
 62
     1
100
AcDbCircle
 10
-37056.98640116884
 20
14155.48005936203
 30
0.0
 40
5.395402653393118
100
AcDbArc
 50
69.96871889425069
 51
120.863557255126
  0
ARC
  5
255
330
1F
100
AcDbEntity
  8
0
 62
     1
100
AcDbCircle
 10
-37050.71012186082
 20
14151.41400014532
 30
0.0
 40
12.54754538887598
100
AcDbArc
 50
136.1194180942045
 51
179.3047586046976
  0
LINE
  5
256
330
1F
100
AcDbEntity
  8
0
 62
     1
100
AcDbLine
 10
-37104.25036040551
 20
14160.80185669644
 30
0.0
 11
-37169.71458327661
 21
14160.80185669644
 31
0.0
  0
LINE
  5
258
330
1F
100
AcDbEntity
  8
0
 62
     1
100
AcDbLine
 10
-36980.7838582272
 20
14151.56625147976
 30
0.0
 11
-37070.58106998628
 21
14126.29440142392
 31
0.0
  0
LINE
  5
259
330
1F
100
AcDbEntity
  8
0
 62
     1
100
AcDbLine
 10
-37055.13829703571
 20
14142.58343177018
 30
0.0
 11
-37016.5687317073
 21
14151.56625147976
 31
0.0
  0
LINE
  5
25A
330
1F
100
AcDbEntity
  8
0
 62
     1
100
AcDbLine
 10
-37070.85375330673
 20
14142.33064626307
 30
0.0
 11
-37091.91887283624
 21
14142.33064626307
 31
0.0
  0
LINE
  5
25B
330
1F
100
AcDbEntity
  8
0
 62
     1
100
AcDbLine
 10
-37104.25036040551
 20
14142.33064626307
 30
0.0
 11
-37187.73114758037
 21
14142.33064626307
 31
0.0
  0
ARC
  5
25C
330
1F
100
AcDbEntity
  8
0
 62
     1
100
AcDbCircle
 10
-37075.47317861893
 20
14134.23165588829
 30
0.0
 40
9.32377258977608
100
AcDbArc
 50
301.6475093187657
 51
60.30083931375418
  0
ARC
  5
25D
330
1F
100
AcDbEntity
  8
0
 62
     1
100
AcDbCircle
 10
-37106.15219276538
 20
14150.18179367006
 30
0.0
 40
16.25508879740652
100
AcDbArc
 50
275.2753793395387
 51
331.1187227202868
  0
ARC
  5
25E
330
1F
100
AcDbEntity
  8
0
 62
     1
100
AcDbCircle
 10
-37109.44519187308
 20
14138.40699643173
 30
0.0
 40
6.510092316966817
100
AcDbArc
 50
317.3412087920656
 51
37.06370624625473
  0
ARC
  5
25F
330
1F
100
AcDbEntity
  8
0
 62
     1
100
AcDbCircle
 10
-37056.98640116884
 20
14147.65244359748
 30
0.0
 40
5.395402653393118
100
AcDbArc
 50
239.136442744881
 51
274.8851676521534
  0
ARC
  5
260
330
1F
100
AcDbEntity
  8
0
 62
     1
100
AcDbCircle
 10
-37050.71012186082
 20
14151.7185028142
 30
0.0
 40
12.54754538887598
100
AcDbArc
 50
180.6952413952522
 51
223.8805819057911
  0
ARC
  5
261
330
1F
100
AcDbEntity
  8
0
 62
     1
100
AcDbCircle
 10
-37598.15183970644
 20
14129.11205544715
 30
0.0
 40
13.48836593978393
100
AcDbArc
 50
101.4785075600008
 51
315.6706790354042
  0
ARC
  5
262
330
1F
100
AcDbEntity
  8
0
 62
     1
100
AcDbCircle
 10
-37587.26247112321
 20
14118.69739072316
 30
0.0
 40
1.586775236122177
100
AcDbArc
 50
318.6073970263502
 51
141.4328818593098
  0
ARC
  5
26E
330
1F
100
AcDbEntity
  8
0
 62
     1
100
AcDbCircle
 10
-37608.64720866319
 20
14136.2442583086
 30
0.0
 40
29.24808096863435
100
AcDbArc
 50
128.9959116319623
 51
320.5203072185974
  0
ARC
  5
26F
330
1F
100
AcDbEntity
  8
0
 62
     1
100
AcDbCircle
 10
-37627.34806845379
 20
14160.94746181725
 30
0.0
 40
1.993965056863212
100
AcDbArc
 50
278.5389687264884
 51
71.55452623533488
  0
ARC
  5
270
330
1F
100
AcDbEntity
  8
0
 62
     1
100
AcDbCircle
 10
-37598.89612389824
 20
14210.5593523919
 30
0.0
 40
55.23806717640318
100
AcDbArc
 50
149.774071793416
 51
239.7577455258086
  0
ARC
  5
271
330
1F
100
AcDbEntity
  8
0
 62
     1
100
AcDbCircle
 10
-37664.56811933872
 20
14246.77441904578
 30
0.0
 40
19.81576495124976
100
AcDbArc
 50
334.8943178946736
 51
30.66292021901096
  0
ARC
  5
272
330
1F
100
AcDbEntity
  8
0
 62
     1
100
AcDbCircle
 10
-37706.57660378414
 20
14221.94999832341
 30
0.0
 40
68.61087951668892
100
AcDbArc
 50
30.60427962592714
 51
66.55531426435384
  0
ARC
  5
273
330
1F
100
AcDbEntity
  8
0
 62
     1
100
AcDbCircle
 10
-37677.88022587655
 20
14286.783743262
 30
0.0
 40
2.348855195603694
100
AcDbArc
 50
111.4250315916059
 51
233.4557444665527
  0
ARC
  5
274
330
1F
100
AcDbEntity
  8
0
 62
     1
100
AcDbCircle
 10
-37673.7928688514
 20
14210.16025122854
 30
0.0
 40
78.96504156427723
100
AcDbArc
 50
35.2881484460401
 51
93.59062086494148
  0
ARC
  5
275
330
1F
100
AcDbEntity
  8
0
 62
     1
100
AcDbCircle
 10
-37604.5311820834
 20
14266.6942548055
 30
0.0
 40
11.92782245787387
100
AcDbArc
 50
246.2393997184556
 51
338.4043474616869
  0
ARC
  5
276
330
1F
100
AcDbEntity
  8
0
 62
     1
100
AcDbCircle
 10
-37595.36788012788
 20
14262.74828004007
 30
0.0
 40
1.977747732324314
100
AcDbArc
 50
347.0234399920519
 51
60.04192955617342
  0
ARC
  5
277
330
1F
100
AcDbEntity
  8
0
 62
     1
100
AcDbCircle
 10
-37585.46639753525
 20
14279.41185304623
 30
0.0
 40
17.40579032425863
100
AcDbArc
 50
140.5732963720717
 51
239.1948198761246
  0
ARC
  5
278
330
1F
100
AcDbEntity
  8
0
 62
     1
100
AcDbCircle
 10
-37598.44670199906
 20
14290.05234523213
 30
0.0
 40
0.622122496459273
100
AcDbArc
 50
9.116246793998845
 51
138.3115100493548
  0
ARC
  5
279
330
1F
100
AcDbEntity
  8
0
 62
     1
100
AcDbCircle
 10
-37587.34415457505
 20
14291.45693441706
 30
0.0
 40
10.56928436970049
100
AcDbArc
 50
187.0980451321905
 51
298.501440144493
  0
ARC
  5
27A
330
1F
100
AcDbEntity
  8
0
 62
     1
100
AcDbCircle
 10
-37593.22634667614
 20
14302.61828586567
 30
0.0
 40
23.18533600308249
100
AcDbArc
 50
298.1142418695096
 51
3.389168913548823
  0
ARC
  5
27B
330
1F
100
AcDbEntity
  8
0
 62
     1
100
AcDbCircle
 10
-37570.93608385498
 20
14303.84023985203
 30
0.0
 40
0.8673656116608661
100
AcDbArc
 50
9.872079220490553
 51
101.5999321651241
  0
ARC
  5
27C
330
1F
100
AcDbEntity
  8
0
 62
     1
100
AcDbCircle
 10
-37571.92679866546
 20
14314.46686546407
 30
0.0
 40
9.810994274241556
100
AcDbArc
 50
167.6333801656863
 51
274.7727192869021
  0
ARC
  5
27D
330
1F
100
AcDbEntity
  8
0
 62
     1
100
AcDbCircle
 10
-37579.67102350933
 20
14315.68626967443
 30
0.0
 40
2.039589246014537
100
AcDbArc
 50
14.4145182436473
 51
154.3843442553906
  0
ARC
  5
27E
330
1F
100
AcDbEntity
  8
0
 62
     1
100
AcDbCircle
 10
-37572.72993249356
 20
14317.0538337668
 30
0.0
 40
5.039600771877212
100
AcDbArc
 50
189.8236571345357
 51
336.6083950793834
  0
ARC
  5
27F
330
1F
100
AcDbEntity
  8
0
 62
     1
100
AcDbCircle
 10
-37571.41973203232
 20
14316.33902322723
 30
0.0
 40
3.555890329408068
100
AcDbArc
 50
338.7985955596633
 51
36.17553314443887
  0
ARC
  5
280
330
1F
100
AcDbEntity
  8
0
 62
     1
100
AcDbCircle
 10
-37564.28686942456
 20
14331.28974320812
 30
0.0
 40
13.54024097910234
100
AcDbArc
 50
127.726496078225
 51
251.6510998749079
  0
ARC
  5
281
330
1F
100
AcDbEntity
  8
0
 62
     1
100
AcDbCircle
 10
-37571.77318270365
 20
14340.64998717977
 30
0.0
 40
1.568039502027226
100
AcDbArc
 50
352.5408794708308
 51
120.6283023778145
  0
ARC
  5
282
330
1F
100
AcDbEntity
  8
0
 62
     1
100
AcDbCircle
 10
-37562.03382734311
 20
14337.15099663339
 30
0.0
 40
8.823111016553179
100
AcDbArc
 50
158.0683827910897
 51
272.6272213620375
  0
ARC
  5
283
330
1F
100
AcDbEntity
  8
0
 62
     1
100
AcDbCircle
 10
-37558.99869217342
 20
14340.60553868547
 30
0.0
 40
12.54726007423312
100
AcDbArc
 50
257.8973550751694
 51
321.8784027188607
  0
ARC
  5
284
330
1F
100
AcDbEntity
  8
0
 62
     1
100
AcDbCircle
 10
-37490.73350644381
 20
14276.01923450662
 30
0.0
 40
81.4906440811754
100
AcDbArc
 50
106.9156530607319
 51
135.7724939122672
  0
ARC
  5
285
330
1F
100
AcDbEntity
  8
0
 62
     1
100
AcDbCircle
 10
-37515.41604576299
 20
14356.33798161572
 30
0.0
 40
2.546555896730168
100
AcDbArc
 50
292.431947033668
 51
50.05765371112882
  0
ARC
  5
286
330
1F
100
AcDbEntity
  8
0
 62
     1
100
AcDbCircle
 10
-37514.3330793915
 20
14361.06532807368
 30
0.0
 40
2.829288835229406
100
AcDbArc
 50
188.8028582833602
 51
281.249949337523
  0
ARC
  5
287
330
1F
100
AcDbEntity
  8
0
 62
     1
100
AcDbCircle
 10
-37517.55002415279
 20
14360.66140761222
 30
0.0
 40
0.4219846394853079
100
AcDbArc
 50
356.051178215111
 51
116.7998590249258
  0
ARC
  5
288
330
1F
100
AcDbEntity
  8
0
 62
     1
100
AcDbCircle
 10
-37519.23157967062
 20
14371.38625354983
 30
0.0
 40
10.45509201811951
100
AcDbArc
 50
204.7531090735719
 51
278.2005227936185
  0
ARC
  5
289
330
1F
100
AcDbEntity
  8
0
 62
     1
100
AcDbCircle
 10
-37529.74251678567
 20
14366.97060730166
 30
0.0
 40
1.01716444911567
100
AcDbArc
 50
2.141276768160036
 51
115.950229515802
  0
ARC
  5
28A
330
1F
100
AcDbEntity
  8
0
 62
     1
100
AcDbCircle
 10
-37532.86171059691
 20
14373.58526377563
 30
0.0
 40
6.296135313654419
100
AcDbArc
 50
195.0337754464937
 51
295.1329214039807
  0
ARC
  5
28B
330
1F
100
AcDbEntity
  8
0
 62
     1
100
AcDbCircle
 10
-37540.69329299889
 20
14372.10670716343
 30
0.0
 40
1.757755271059876
100
AcDbArc
 50
354.9545356681662
 51
95.20742611579386
  0
ARC
  5
28C
330
1F
100
AcDbEntity
  8
0
 62
     1
100
AcDbCircle
 10
-37541.98576859095
 20
14380.30397309965
 30
0.0
 40
6.545558523509908
100
AcDbArc
 50
180.76090087352
 51
279.9672434126556
  0
ARC
  5
28D
330
1F
100
AcDbEntity
  8
0
 62
     1
100
AcDbCircle
 10
-37543.71444678158
 20
14390.08843195856
 30
0.0
 40
10.98366852475184
100
AcDbArc
 50
189.1848257031208
 51
243.9919917555841
  0
ARC
  5
28E
330
1F
100
AcDbEntity
  8
0
 62
     1
100
AcDbCircle
 10
-37552.63575933228
 20
14393.0144650715
 30
0.0
 40
5.058418341612296
100
AcDbArc
 50
173.1434409951788
 51
247.6745128550589
  0
ARC
  5
28F
330
1F
100
AcDbEntity
  8
0
 62
     1
100
AcDbCircle
 10
-37655.87692765625
 20
14404.31148628174
 30
0.0
 40
98.79929446903183
100
AcDbArc
 50
353.78666116357
 51
357.1255143413654
  0
ARC
  5
290
330
1F
100
AcDbEntity
  8
0
 62
     1
100
AcDbCircle
 10
-37558.3382595528
 20
14399.27826593484
 30
0.0
 40
1.139032010353228
100
AcDbArc
 50
3.95759857916191
 51
53.05119362278663
  0
ARC
  5
291
330
1F
100
AcDbEntity
  8
0
 62
     1
100
AcDbCircle
 10
-37556.88212630412
 20
14403.96830901149
 30
0.0
 40
3.857684845985956
100
AcDbArc
 50
177.223048370459
 51
258.4642117237328
  0
ARC
  5
292
330
1F
100
AcDbEntity
  8
0
 62
     1
100
AcDbCircle
 10
-37549.80628942463
 20
14404.74904819341
 30
0.0
 40
10.9451134086701
100
AcDbArc
 50
167.7868733908017
 51
183.1101884124482
  0
ARC
  5
293
330
1F
100
AcDbEntity
  8
0
 62
     1
100
AcDbCircle
 10
-37562.32609546668
 20
14407.64971315151
 30
0.0
 40
1.9140738182908
100
AcDbArc
 50
342.1963262142406
 51
106.4839088268964
  0
ARC
  5
294
330
1F
100
AcDbEntity
  8
0
 62
     1
100
AcDbCircle
 10
-37563.08315658106
 20
14418.04904481863
 30
0.0
 40
8.566599426968904
100
AcDbArc
 50
147.4017692294873
 51
271.4311068760462
  0
ARC
  5
295
330
1F
100
AcDbEntity
  8
0
 62
     1
100
AcDbCircle
 10
-37575.68839655825
 20
14425.89715595518
 30
0.0
 40
6.28361000669543
100
AcDbArc
 50
329.0361391001766
 51
60.01058083978829
  0
ARC
  5
296
330
1F
100
AcDbEntity
  8
0
 62
     1
100
AcDbCircle
 10
-37570.22183797949
 20
14455.92522242701
 30
0.0
 40
24.69548145009689
100
AcDbArc
 50
249.7062539397272
 51
264.5960185410434
  0
ARC
  5
297
330
1F
100
AcDbEntity
  8
0
 62
     1
100
AcDbCircle
 10
-37577.02666217052
 20
14434.73485867576
 30
0.0
 40
2.643578765527629
100
AcDbArc
 50
125.2953807035362
 51
228.2476776412546
  0
ARC
  5
298
330
1F
100
AcDbEntity
  8
0
 62
     1
100
AcDbCircle
 10
-37563.69143178704
 20
14417.43944538223
 30
0.0
 40
24.4810228162984
100
AcDbArc
 50
92.62020756572232
 51
127.3808139593296
  0
ARC
  5
299
330
1F
100
AcDbEntity
  8
0
 62
     1
100
AcDbCircle
 10
-37565.89278463935
 20
14443.79141346369
 30
0.0
 40
2.183577446919256
100
AcDbArc
 50
299.7097549077164
 51
73.86601590073174
  0
ARC
  5
29A
330
1F
100
AcDbEntity
  8
0
 62
     1
100
AcDbCircle
 10
-37590.66635012918
 20
14400.00571405566
 30
0.0
 40
52.43507441856197
100
AcDbArc
 50
61.05081170753827
 51
80.20640431023087
  0
ARC
  5
29B
330
1F
100
AcDbEntity
  8
0
 62
     1
100
AcDbCircle
 10
-37580.70005659332
 20
14454.54523318207
 30
0.0
 40
3.053726414946576
100
AcDbArc
 50
132.6404415665325
 51
249.9463729457408
  0
ARC
  5
29C
330
1F
100
AcDbEntity
  8
0
 62
     1
100
AcDbCircle
 10
-37566.52410955957
 20
14434.28829769892
 30
0.0
 40
27.75398803975476
100
AcDbArc
 50
92.47403193220069
 51
125.8244867977261
  0
ARC
  5
29D
330
1F
100
AcDbEntity
  8
0
 62
     1
100
AcDbCircle
 10
-37568.50047185322
 20
14464.46094218844
 30
0.0
 40
2.56544081744694
100
AcDbArc
 50
287.6610542440109
 51
72.08406911911928
  0
ARC
  5
29E
330
1F
100
AcDbEntity
  8
0
 62
     1
100
AcDbCircle
 10
-37555.54570540097
 20
14511.97288503944
 30
0.0
 40
46.68391264637822
100
AcDbArc
 50
232.8131078189734
 51
254.8946446513483
  0
ARC
  5
29F
330
1F
100
AcDbEntity
  8
0
 62
     1
100
AcDbCircle
 10
-37585.19858957281
 20
14520.92932636056
 30
0.0
 40
46.17037798439866
100
AcDbArc
 50
252.4573889684833
 51
271.7827335247069
  0
ARC
  5
2A0
330
1F
100
AcDbEntity
  8
0
 62
     1
100
AcDbCircle
 10
-37598.2187525178
 20
14478.1942351285
 30
0.0
 40
1.569196010309789
100
AcDbArc
 50
126.341475687031
 51
235.1679785767624
  0
ARC
  5
2A1
330
1F
100
AcDbEntity
  8
0
 62
     1
100
AcDbCircle
 10
-37594.46246483491
 20
14473.59362783845
 30
0.0
 40
7.506917901434618
100
AcDbArc
 50
89.92463625881258
 51
128.6271032341155
  0
ARC
  5
2A2
330
1F
100
AcDbEntity
  8
0
 62
     1
100
AcDbCircle
 10
-37594.68189182478
 20
14482.83048041375
 30
0.0
 40
1.745071767587897
100
AcDbArc
 50
277.5504589429648
 51
96.89304528365425
  0
ARC
  5
2A3
330
1F
100
AcDbEntity
  8
0
 62
     1
100
AcDbCircle
 10
-37588.10601868895
 20
14535.00403699491
 30
0.0
 40
50.89543041036212
100
AcDbArc
 50
234.5073889071558
 51
262.3385930073001
  0
ARC
  5
2A4
330
1F
100
AcDbEntity
  8
0
 62
     1
100
AcDbCircle
 10
-37616.25897218205
 20
14495.09024542373
 30
0.0
 40
2.067869650114501
100
AcDbArc
 50
121.6949854271096
 51
227.5076214045807
  0
ARC
  5
2A5
330
1F
100
AcDbEntity
  8
0
 62
     1
100
AcDbCircle
 10
-37605.20876820449
 20
14472.38729019575
 30
0.0
 40
27.30765964663146
100
AcDbArc
 50
87.16320300098798
 51
116.3876108305142
  0
ARC
  5
2A6
330
1F
100
AcDbEntity
  8
0
 62
     1
100
AcDbCircle
 10
-37604.25124298552
 20
14501.17602686672
 30
0.0
 40
1.564941572772138
100
AcDbArc
 50
284.5807208161017
 51
76.36792036386222
  0
ARC
  5
2A7
330
1F
100
AcDbEntity
  8
0
 62
     1
100
AcDbCircle
 10
-37525.71859265454
 20
14755.53442263999
 30
0.0
 40
264.6439184161502
100
AcDbArc
 50
243.2992868658628
 51
252.8211943274563
  0
ARC
  5
2A8
330
1F
100
AcDbEntity
  8
0
 62
     1
100
AcDbCircle
 10
-37643.56885419828
 20
14520.16936553602
 30
0.0
 40
1.49976784154695
100
AcDbArc
 50
113.6975162785303
 51
224.9066984471331
  0
ARC
  5
2A9
330
1F
100
AcDbEntity
  8
0
 62
     1
100
AcDbCircle
 10
-37637.48481327402
 20
14549.29489516073
 30
0.0
 40
28.54644041930248
100
AcDbArc
 50
256.4529833935101
 51
269.2043239618031
  0
ARC
  5
2AA
330
1F
100
AcDbEntity
  8
0
 62
     1
100
AcDbCircle
 10
-37637.93350214834
 20
14522.54484888012
 30
0.0
 40
1.794403075163875
100
AcDbArc
 50
271.6693094518951
 51
79.21349823825607
  0
ARC
  5
2AB
330
1F
100
AcDbEntity
  8
0
 62
     1
100
AcDbCircle
 10
-37621.14827547847
 20
14599.09083371005
 30
0.0
 40
76.57103125653335
100
AcDbArc
 50
235.2563431534004
 51
257.5947144270199
  0
ARC
  5
2AC
330
1F
100
AcDbEntity
  8
0
 62
     1
100
AcDbCircle
 10
-37663.36086616159
 20
14537.0224334027
 30
0.0
 40
1.660243567362987
100
AcDbArc
 50
70.95165083176446
 51
210.8268708868985
  0
ARC
  5
2AD
330
1F
100
AcDbEntity
  8
0
 62
     1
100
AcDbCircle
 10
-37646.97557214847
 20
14599.35892693775
 30
0.0
 40
62.79858628107835
100
AcDbArc
 50
255.3869436961123
 51
273.2049752788244
  0
ARC
  5
2AE
330
1F
100
AcDbEntity
  8
0
 62
     1
100
AcDbCircle
 10
-37644.03067688127
 20
14538.45700178116
 30
0.0
 40
1.885419494105857
100
AcDbArc
 50
287.4714636882786
 51
82.06018603653189
  0
ARC
  5
2AF
330
1F
100
AcDbEntity
  8
0
 62
     1
100
AcDbCircle
 10
-37633.11135949835
 20
14603.20563258328
 30
0.0
 40
63.77827033332764
100
AcDbArc
 50
223.8941831076804
 51
260.3793562630615
  0
ARC
  5
2B0
330
1F
100
AcDbEntity
  8
0
 62
     1
100
AcDbCircle
 10
-37677.89272761476
 20
14559.67140530571
 30
0.0
 40
1.363263109890286
100
AcDbArc
 50
78.22600280960111
 51
210.1673089736717
  0
ARC
  5
2B1
330
1F
100
AcDbEntity
  8
0
 62
     1
100
AcDbCircle
 10
-37643.53193498521
 20
14678.94354898568
 30
0.0
 40
122.7635679712357
100
AcDbArc
 50
253.8813067065917
 51
273.1230039952492
  0
ARC
  5
2B2
330
1F
100
AcDbEntity
  8
0
 62
     1
100
AcDbCircle
 10
-37628.26036846404
 20
14448.08521194133
 30
0.0
 40
108.6167724995602
100
AcDbArc
 50
84.2424913680994
 51
94.53252580926671
  0
ARC
  5
2B3
330
1F
100
AcDbEntity
  8
0
 62
     1
100
AcDbCircle
 10
-37647.3768988521
 20
14300.31873293793
 30
0.0
 40
257.5897504337084
100
AcDbArc
 50
62.09293434893316
 51
83.30904547910757
  0
ARC
  5
2BE
330
1F
100
AcDbEntity
  8
0
 62
     1
100
AcDbCircle
 10
-37524.23105399623
 20
14497.52831309271
 30
0.0
 40
30.534043576441
100
AcDbArc
 50
76.65042525389393
 51
94.85428205869135
  0
ARC
  5
2BF
330
1F
100
AcDbEntity
  8
0
 62
     1
100
AcDbCircle
 10
-37616.16512938195
 20
14300.22025312112
 30
0.0
 40
247.6582376702491
100
AcDbArc
 50
47.98653767097755
 51
66.4418025870167
  0
ARC
  5
2C0
330
1F
100
AcDbEntity
  8
0
 62
     1
100
AcDbCircle
 10
-37462.99881039104
 20
14470.2133991698
 30
0.0
 40
18.84044161149549
100
AcDbArc
 50
342.7184979268357
 51
48.05762968901186
  0
ARC
  5
2C8
330
1F
100
AcDbEntity
  8
0
 62
     1
100
AcDbCircle
 10
-37392.92486557569
 20
14438.88000807409
 30
0.0
 40
58.09573172043405
100
AcDbArc
 50
153.7044224987773
 51
194.9070700587079
  0
ARC
  5
2C9
330
1F
100
AcDbEntity
  8
0
 62
     1
100
AcDbCircle
 10
-37407.42440662807
 20
14459.95947723177
 30
0.0
 40
55.0613112355182
100
AcDbArc
 50
220.8639772543844
 51
299.3194567461841
  0
ARC
  5
2CA
330
1F
100
AcDbEntity
  8
0
 62
     1
100
AcDbCircle
 10
-37406.39409740644
 20
14431.03023696292
 30
0.0
 40
32.19431999374251
100
AcDbArc
 50
323.6570987613833
 51
12.31136575274875
  0
ARC
  5
2CB
330
1F
100
AcDbEntity
  8
0
 62
     1
100
AcDbCircle
 10
-37373.22482470319
 20
14438.25892377761
 30
0.0
 40
1.753528475717261
100
AcDbArc
 50
89.49265538350173
 51
191.9832872245445
  0
ARC
  5
2CC
330
1F
100
AcDbEntity
  8
0
 62
     1
100
AcDbCircle
 10
-37372.98275090458
 20
14455.86442762017
 30
0.0
 40
15.85366285670453
100
AcDbArc
 50
269.1812228314472
 51
326.6204330349718
  0
ARC
  5
2CD
330
1F
100
AcDbEntity
  8
0
 62
     1
100
AcDbCircle
 10
-37402.8035398759
 20
14472.7605899397
 30
0.0
 40
50.10403760803027
100
AcDbArc
 50
329.2490289719652
 51
353.9661723116549
  0
ARC
  5
2CE
330
1F
100
AcDbEntity
  8
0
 62
     1
100
AcDbCircle
 10
-37354.41172260342
 20
14467.32174481362
 30
0.0
 40
1.444933437248431
100
AcDbArc
 50
6.841634115641639
 51
155.6405188740294
  0
ARC
  5
2CF
330
1F
100
AcDbEntity
  8
0
 62
     1
100
AcDbCircle
 10
-37392.59072711379
 20
14471.80010205326
 30
0.0
 40
37.06658769631678
100
AcDbArc
 50
319.4549603473563
 51
353.9877738309766
  0
ARC
  5
2D0
330
1F
100
AcDbEntity
  8
0
 62
     1
100
AcDbCircle
 10
-37377.35239062015
 20
14460.85851545457
 30
0.0
 40
18.4432835623023
100
AcDbArc
 50
263.5285580387611
 51
314.505738643406
  0
ARC
  5
2D1
330
1F
100
AcDbEntity
  8
0
 62
     1
100
AcDbCircle
 10
-37372.83083563591
 20
14430.24574804484
 30
0.0
 40
13.94753886879298
100
AcDbArc
 50
118.2435442472701
 51
150.3235175475948
  0
ARC
  5
2D2
330
1F
100
AcDbEntity
  8
0
 62
     1
100
AcDbCircle
 10
-37399.42878491294
 20
14432.98026961115
 30
0.0
 40
15.06859371597213
100
AcDbArc
 50
313.6572565004377
 51
16.06910275819035
  0
ARC
  5
2D3
330
1F
100
AcDbEntity
  8
0
 62
     1
100
AcDbCircle
 10
-37396.89688501596
 20
14479.76300774202
 30
0.0
 40
58.21906336085783
100
AcDbArc
 50
267.226898605892
 51
277.7695682995633
  0
ARC
  5
2D4
330
1F
100
AcDbEntity
  8
0
 62
     1
100
AcDbCircle
 10
-37402.25498737927
 20
14423.73231009335
 30
0.0
 40
3.309680865651608
100
AcDbArc
 50
256.573883903081
 51
320.1632599587993
  0
ARC
  5
2D5
330
1F
100
AcDbEntity
  8
0
 62
     1
100
AcDbCircle
 10
-37402.76249491554
 20
14426.05626552382
 30
0.0
 40
5.549323025990701
100
AcDbArc
 50
190.71968007376
 51
267.3045211293906
  0
ARC
  5
2D6
330
1F
100
AcDbEntity
  8
0
 62
     1
100
AcDbCircle
 10
-37333.25327699664
 20
14559.28328693707
 30
0.0
 40
153.7686382213265
100
AcDbArc
 50
238.5481469620803
 51
240.823822479853
  0
ARC
  5
2D7
330
1F
100
AcDbEntity
  8
0
 62
     1
100
AcDbCircle
 10
-37402.70034608982
 20
14440.77521920536
 30
0.0
 40
16.63873809336568
100
AcDbArc
 50
206.1024636310558
 51
229.5876821541615
  0
ARC
  5
2D8
330
1F
100
AcDbEntity
  8
0
 62
     1
100
AcDbCircle
 10
-37411.55947967502
 20
14436.04329622634
 30
0.0
 40
6.610569361443508
100
AcDbArc
 50
146.3932032679684
 51
203.0545935295076
  0
ARC
  5
2D9
330
1F
100
AcDbEntity
  8
0
 62
     1
100
AcDbCircle
 10
-37354.64884011928
 20
14439.72018577305
 30
0.0
 40
62.41629178851893
100
AcDbArc
 50
172.8357582834659
 51
180.0165262441581
  0
ARC
  5
2DA
330
1F
100
AcDbEntity
  8
0
 62
     1
100
AcDbCircle
 10
-37431.50477201364
 20
14464.39304451424
 30
0.0
 40
22.53976022439123
100
AcDbArc
 50
311.4716457032679
 51
43.49616442115003
  0
ARC
  5
2DB
330
1F
100
AcDbEntity
  8
0
 62
     1
100
AcDbCircle
 10
-37434.61494791485
 20
14477.28732275166
 30
0.0
 40
19.63654668063133
100
AcDbArc
 50
7.66746109527679
 51
32.06587562648758
  0
ARC
  5
2E6
330
1F
100
AcDbEntity
  8
0
 62
     1
100
AcDbCircle
 10
-37467.93818039412
 20
14534.50570932485
 30
0.0
 40
68.45457466774345
100
AcDbArc
 50
316.8767862148811
 51
326.8585711218946
  0
ARC
  5
2E7
330
1F
100
AcDbEntity
  8
0
 62
     1
100
AcDbCircle
 10
-37428.65221212302
 20
14498.3104564922
 30
0.0
 40
18.07452251398629
100
AcDbArc
 50
356.0998858899814
 51
10.55296896211467
  0
ARC
  5
2E8
330
1F
100
AcDbEntity
  8
0
 62
     1
100
AcDbCircle
 10
-37412.83630004399
 20
14509.24766323297
 30
0.0
 40
7.873011097029413
100
AcDbArc
 50
217.43668592601
 51
284.3621347153066
  0
ARC
  5
2E9
330
1F
100
AcDbEntity
  8
0
 62
     1
100
AcDbCircle
 10
-37414.60104185369
 20
14506.33564206571
 30
0.0
 40
4.862221648218305
100
AcDbArc
 50
139.980103950447
 51
202.6680515205272
  0
ARC
  5
2EA
330
1F
100
AcDbEntity
  8
0
 62
     1
100
AcDbCircle
 10
-37418.02716149914
 20
14508.87177439024
 30
0.0
 40
0.661228879219253
100
AcDbArc
 50
15.31989480176512
 51
116.7358944179059
  0
ARC
  5
2EB
330
1F
100
AcDbEntity
  8
0
 62
     1
100
AcDbCircle
 10
-37415.19881051845
 20
14508.27321080118
 30
0.0
 40
2.323090283642331
100
AcDbArc
 50
160.5574977545636
 51
259.8637832070904
  0
ARC
  5
2EC
330
1F
100
AcDbEntity
  8
0
 62
     1
100
AcDbCircle
 10
-37414.57651198426
 20
14510.29852842754
 30
0.0
 40
4.433720324575154
100
AcDbArc
 50
256.5517532338851
 51
319.6440952439582
  0
ARC
  5
2ED
330
1F
100
AcDbEntity
  8
0
 62
     1
100
AcDbCircle
 10
-37423.27544030221
 20
14513.07694014492
 30
0.0
 40
13.33355772154665
100
AcDbArc
 50
334.9317545158606
 51
355.8774831408568
  0
ARC
  5
2EE
330
1F
100
AcDbEntity
  8
0
 62
     1
100
AcDbCircle
 10
-37402.78420373515
 20
14512.66890468648
 30
0.0
 40
7.213215749910808
100
AcDbArc
 50
103.4385496348686
 51
184.3770202078253
  0
ARC
  5
2EF
330
1F
100
AcDbEntity
  8
0
 62
     1
100
AcDbCircle
 10
-37409.21765027511
 20
14521.60440696881
 30
0.0
 40
5.12985114307531
100
AcDbArc
 50
338.022762727736
 51
52.08063859833693
  0
ARC
  5
2F0
330
1F
100
AcDbEntity
  8
0
 62
     1
100
AcDbCircle
 10
-37403.06802559318
 20
14529.4562281655
 30
0.0
 40
4.843598243416798
100
AcDbArc
 50
183.3023154949059
 51
231.7737503839488
  0
ARC
  5
2F1
330
1F
100
AcDbEntity
  8
0
 62
     1
100
AcDbCircle
 10
-37383.29292549986
 20
14532.688541253
 30
0.0
 40
24.85988275603722
100
AcDbArc
 50
166.4658620499725
 51
188.1198753781628
  0
ARC
  5
2F2
330
1F
100
AcDbEntity
  8
0
 62
     1
100
AcDbCircle
 10
-37392.42010495775
 20
14547.52643197162
 30
0.0
 40
17.53950342760194
100
AcDbArc
 50
210.9487654116057
 51
241.2986162797969
  0
ARC
  5
2F3
330
1F
100
AcDbEntity
  8
0
 62
     1
100
AcDbCircle
 10
-37400.50296962959
 20
14526.27294065775
 30
0.0
 40
5.878849203887506
100
AcDbArc
 50
57.91560463681776
 51
93.31931308313622
  0
ARC
  5
2F4
330
1F
100
AcDbEntity
  8
0
 62
     1
100
AcDbCircle
 10
-37406.19505555082
 20
14520.07527996586
 30
0.0
 40
14.23590762946345
100
AcDbArc
 50
32.16767034666292
 51
51.74294100139229
  0
ARC
  5
2F5
330
1F
100
AcDbEntity
  8
0
 62
     1
100
AcDbCircle
 10
-37392.75582993392
 20
14530.75086770121
 30
0.0
 40
3.393524829246739
100
AcDbArc
 50
245.8456141477714
 51
311.8610801780083
  0
ARC
  5
2F6
330
1F
100
AcDbEntity
  8
0
 62
     1
100
AcDbCircle
 10
-37385.78281536403
 20
14521.80104789948
 30
0.0
 40
7.96347991208662
100
AcDbArc
 50
90.99543224029286
 51
126.2459137880537
  0
ARC
  5
2F7
330
1F
100
AcDbEntity
  8
0
 62
     1
100
AcDbCircle
 10
-37379.83430594096
 20
14525.83512204972
 30
0.0
 40
7.244350124328538
100
AcDbArc
 50
116.4153633184187
 51
147.163484945133
  0
ARC
  5
2F8
330
1F
100
AcDbEntity
  8
0
 62
     1
100
AcDbCircle
 10
-37381.54718220545
 20
14525.09112187984
 30
0.0
 40
7.387935272680659
100
AcDbArc
 50
60.70773348941978
 51
101.7932884400921
  0
ARC
  5
2F9
330
1F
100
AcDbEntity
  8
0
 62
     1
100
AcDbCircle
 10
-37381.11641863865
 20
14521.19136037189
 30
0.0
 40
10.82199913689346
100
AcDbArc
 50
34.10083788088849
 51
72.89009268817943
  0
ARC
  5
2FA
330
1F
100
AcDbEntity
  8
0
 62
     1
100
AcDbCircle
 10
-37370.69824750828
 20
14530.39329698564
 30
0.0
 40
3.456639847437393
100
AcDbArc
 50
245.0703471401918
 51
309.1631443406
  0
ARC
  5
2FB
330
1F
100
AcDbEntity
  8
0
 62
     1
100
AcDbCircle
 10
-37338.86335937891
 20
14533.08233084026
 30
0.0
 40
30.13409523762637
100
AcDbArc
 50
170.5788478755879
 51
190.2634771018604
  0
ARC
  5
2FD
330
1F
100
AcDbEntity
  8
0
 62
     1
100
AcDbCircle
 10
-37373.61676829608
 20
14525.34658480726
 30
0.0
 40
13.62889342172785
100
AcDbArc
 50
15.79050537376412
 51
68.36093733831676
  0
ARC
  5
2FE
330
1F
100
AcDbEntity
  8
0
 62
     1
100
AcDbCircle
 10
-37345.79336453448
 20
14529.57927791557
 30
0.0
 40
14.71815284588767
100
AcDbArc
 50
182.0402449741155
 51
213.1069202275935
  0
ARC
  5
2FF
330
1F
100
AcDbEntity
  8
0
 62
     1
100
AcDbCircle
 10
-37357.4378648907
 20
14479.916400034
 30
0.0
 40
41.62939960018461
100
AcDbArc
 50
74.36985324972742
 51
90.94172839749257
  0
ARC
  5
300
330
1F
100
AcDbEntity
  8
0
 62
     1
100
AcDbCircle
 10
-37359.63539927274
 20
14494.90673843152
 30
0.0
 40
28.45903824049223
100
AcDbArc
 50
27.12108549493263
 51
61.87933135721417
  0
ARC
  5
301
330
1F
100
AcDbEntity
  8
0
 62
     1
100
AcDbCircle
 10
-37331.35666572438
 20
14515.29765553205
 30
0.0
 40
7.981933851761867
100
AcDbArc
 50
248.3184485848538
 51
294.2579776219334
  0
ARC
  5
302
330
1F
100
AcDbEntity
  8
0
 62
     1
100
AcDbCircle
 10
-37330.48841044136
 20
14511.2345239231
 30
0.0
 40
4.017882191535212
100
AcDbArc
 50
306.876304112882
 51
15.59714873683357
  0
ARC
  5
303
330
1F
100
AcDbEntity
  8
0
 62
     1
100
AcDbCircle
 10
-37325.84178401612
 20
14510.88373766067
 30
0.0
 40
1.628267934824595
100
AcDbArc
 50
27.06700602051219
 51
118.4902556949981
  0
ARC
  5
304
330
1F
100
AcDbEntity
  8
0
 62
     1
100
AcDbCircle
 10
-37330.24928699156
 20
14509.3856584507
 30
0.0
 40
6.270776268359142
100
AcDbArc
 50
320.4318667585373
 51
20.91926258176724
  0
ARC
  5
305
330
1F
100
AcDbEntity
  8
0
 62
     1
100
AcDbCircle
 10
-37342.88929599808
 20
14528.86796573635
 30
0.0
 40
29.26597383788515
100
AcDbArc
 50
299.785349263433
 51
306.660613483485
  0
ARC
  5
306
330
1F
100
AcDbEntity
  8
0
 62
     1
100
AcDbCircle
 10
-37324.16349966188
 20
14500.92768906313
 30
0.0
 40
4.898227675012674
100
AcDbArc
 50
148.7570071075663
 51
210.1378671211536
  0
ARC
  5
307
330
1F
100
AcDbEntity
  8
0
 62
     1
100
AcDbCircle
 10
-37296.03724827416
 20
14524.2212502671
 30
0.0
 40
41.35857036709653
100
AcDbArc
 50
218.5116127708215
 51
235.0142177609486
  0
ARC
  5
308
330
1F
100
AcDbEntity
  8
0
 62
     1
100
AcDbCircle
 10
-37313.10094032987
 20
14503.82116210774
 30
0.0
 40
15.03541805886437
100
AcDbArc
 50
243.74912342904
 51
289.5036536435218
  0
ARC
  5
309
330
1F
100
AcDbEntity
  8
0
 62
     1
100
AcDbCircle
 10
-37307.2387092574
 20
14488.63092984298
 30
0.0
 40
1.320997782964669
100
AcDbArc
 50
310.3429251340847
 51
129.6206022593025
  0
ARC
  5
30A
330
1F
100
AcDbEntity
  8
0
 62
     1
100
AcDbCircle
 10
-37319.90478300509
 20
14499.00665635055
 30
0.0
 40
17.6744649422631
100
AcDbArc
 50
273.6698541020762
 51
319.9083535101965
  0
ARC
  5
30B
330
1F
100
AcDbEntity
  8
0
 62
     1
100
AcDbCircle
 10
-37317.37540626829
 20
14479.27992047852
 30
0.0
 40
2.513269707934626
100
AcDbArc
 50
123.7989549421558
 51
224.5303660766388
  0
ARC
  5
30C
330
1F
100
AcDbEntity
  8
0
 62
     1
100
AcDbCircle
 10
-37296.5718012503
 20
14501.20848386039
 30
0.0
 40
32.7385624834239
100
AcDbArc
 50
226.3562192684442
 51
253.0897742415079
  0
ARC
  5
30D
330
1F
100
AcDbEntity
  8
0
 62
     1
100
AcDbCircle
 10
-37301.789374808
 20
14481.27726984487
 30
0.0
 40
12.17815626717165
100
AcDbArc
 50
249.2973999663989
 51
291.7241874826034
  0
ARC
  5
30E
330
1F
100
AcDbEntity
  8
0
 62
     1
100
AcDbCircle
 10
-37296.70585091678
 20
14468.72912270647
 30
0.0
 40
1.362615990410322
100
AcDbArc
 50
316.3420923833425
 51
115.0021996024269
  0
ARC
  5
30F
330
1F
100
AcDbEntity
  8
0
 62
     1
100
AcDbCircle
 10
-37312.21554441804
 20
14488.34294252624
 30
0.0
 40
26.35506596201309
100
AcDbArc
 50
267.983514964897
 51
308.7479289595178
  0
ARC
  5
310
330
1F
100
AcDbEntity
  8
0
 62
     1
100
AcDbCircle
 10
-37312.7725291376
 20
14459.05610609962
 30
0.0
 40
2.971265029037668
100
AcDbArc
 50
97.16061813514109
 51
204.2031718943036
  0
ARC
  5
311
330
1F
100
AcDbEntity
  8
0
 62
     1
100
AcDbCircle
 10
-37208.810568021
 20
14519.61741676736
 30
0.0
 40
123.2705380789191
100
AcDbArc
 50
210.0774126990534
 51
224.9333939253082
  0
ARC
  5
312
330
1F
100
AcDbEntity
  8
0
 62
     1
100
AcDbCircle
 10
-37293.89379563969
 20
14435.40792363065
 30
0.0
 40
3.593888644575075
100
AcDbArc
 50
232.5872529131531
 51
352.8966538118922
  0
ARC
  5
313
330
1F
100
AcDbEntity
  8
0
 62
     1
100
AcDbCircle
 10
-37335.87110329174
 20
14450.71803353689
 30
0.0
 40
48.1915528654996
100
AcDbArc
 50
340.9183817030905
 51
21.77362393123377
  0
ARC
  5
314
330
1F
100
AcDbEntity
  8
0
 62
     1
100
AcDbCircle
 10
-37249.53145355982
 20
14498.12715786279
 30
0.0
 40
51.00597596190504
100
AcDbArc
 50
161.2701082960424
 51
215.3808887793663
  0
ARC
  5
315
330
1F
100
AcDbEntity
  8
0
 62
     1
100
AcDbCircle
 10
-37265.39280472329
 20
14498.79775625342
 30
0.0
 40
36.0460101501478
100
AcDbArc
 50
91.38564915441238
 51
154.1656757880689
  0
ARC
  5
316
330
1F
100
AcDbEntity
  8
0
 62
     1
100
AcDbCircle
 10
-37253.25407060039
 20
14426.81309772826
 30
0.0
 40
108.8008195301297
100
AcDbArc
 50
76.02898443488624
 51
96.86785793027777
  0
ARC
  5
317
330
1F
100
AcDbEntity
  8
0
 62
     1
100
AcDbCircle
 10
-37139.72955362473
 20
14883.70417364978
 30
0.0
 40
361.9828645803384
100
AcDbArc
 50
256.0513727007453
 51
269.1086833340748
  0
ARC
  5
318
330
1F
100
AcDbEntity
  8
0
 62
     1
100
AcDbCircle
 10
-37135.54724884551
 20
14632.72054450248
 30
0.0
 40
111.3885465568735
100
AcDbArc
 50
264.9457403802283
 51
284.6930975341734
  0
ARC
  5
326
330
1F
100
AcDbEntity
  8
0
 62
     1
100
AcDbCircle
 10
-37106.60371724108
 20
14523.6001158666
 30
0.0
 40
1.538298735420858
100
AcDbArc
 50
306.7558360338319
 51
116.6831646158128
  0
ARC
  5
327
330
1F
100
AcDbEntity
  8
0
 62
     1
100
AcDbCircle
 10
-37127.1724905848
 20
14546.11968707996
 30
0.0
 40
32.03044960574619
100
AcDbArc
 50
280.9387980883365
 51
312.1367395039337
  0
ARC
  5
328
330
1F
100
AcDbEntity
  8
0
 62
     1
100
AcDbCircle
 10
-37145.78906034946
 20
14765.69066862165
 30
0.0
 40
252.2312281135381
100
AcDbArc
 50
265.8198315217663
 51
275.6185392818954
  0
ARC
  5
329
330
1F
100
AcDbEntity
  8
0
 62
     1
100
AcDbCircle
 10
-37164.08235163179
 20
14512.17526981331
 30
0.0
 40
1.957356077372637
100
AcDbArc
 50
92.71156818290288
 51
246.0191435224242
  0
ARC
  5
32A
330
1F
100
AcDbEntity
  8
0
 62
     1
100
AcDbCircle
 10
-37136.93418938622
 20
14743.28107630707
 30
0.0
 40
234.564620619984
100
AcDbArc
 50
263.1581024748391
 51
279.3891669212571
  0
ARC
  5
32B
330
1F
100
AcDbEntity
  8
0
 62
     1
100
AcDbCircle
 10
-37098.39566695043
 20
14511.08780192295
 30
0.0
 40
0.8176051093078601
100
AcDbArc
 50
312.7598362886443
 51
109.4154840225758
  0
ARC
  5
32C
330
1F
100
AcDbEntity
  8
0
 62
     1
100
AcDbCircle
 10
-37124.08676616891
 20
14553.92537456369
 30
0.0
 40
50.75145926972083
100
AcDbArc
 50
274.715008597523
 51
301.1413729095309
  0
ARC
  5
32D
330
1F
100
AcDbEntity
  8
0
 62
     1
100
AcDbCircle
 10
-37133.3199137021
 20
14852.26489621909
 30
0.0
 40
349.1766342921591
100
AcDbArc
 50
268.1981163307757
 51
272.2001264266195
  0
ARC
  5
32E
330
1F
100
AcDbEntity
  8
0
 62
     1
100
AcDbCircle
 10
-37144.22254193589
 20
14501.56855688625
 30
0.0
 40
1.694102793141848
100
AcDbArc
 50
92.59658999273229
 51
250.1375833936315
  0
ARC
  5
32F
330
1F
100
AcDbEntity
  8
0
 62
     1
100
AcDbCircle
 10
-37129.41548329455
 20
14596.96607499905
 30
0.0
 40
98.20310158335061
100
AcDbArc
 50
260.9880071755347
 51
288.6929321702239
  0
ARC
  5
330
330
1F
100
AcDbEntity
  8
0
 62
     1
100
AcDbCircle
 10
-37097.39023396093
 20
14503.19764049304
 30
0.0
 40
0.9273918879460815
100
AcDbArc
 50
316.4039984653906
 51
126.4923298289399
  0
ARC
  5
331
330
1F
100
AcDbEntity
  8
0
 62
     1
100
AcDbCircle
 10
-37120.45748689742
 20
14530.18817959602
 30
0.0
 40
36.42737892253601
100
AcDbArc
 50
271.7016675990232
 51
310.6681677316194
  0
ARC
  5
332
330
1F
100
AcDbEntity
  8
0
 62
     1
100
AcDbCircle
 10
-37119.39010749861
 20
14492.06992981516
 30
0.0
 40
1.706995735550824
100
AcDbArc
 50
89.51853837921904
 51
260.2907268034725
  0
ARC
  5
333
330
1F
100
AcDbEntity
  8
0
 62
     1
100
AcDbCircle
 10
-37116.16689558752
 20
14514.10477892039
 30
0.0
 40
23.97587480481965
100
AcDbArc
 50
261.5791609662657
 51
300.157855823984
  0
ARC
  5
334
330
1F
100
AcDbEntity
  8
0
 62
     1
100
AcDbCircle
 10
-37103.5605026846
 20
14492.26122791573
 30
0.0
 40
1.246470968497034
100
AcDbArc
 50
314.2886378789629
 51
116.7633964634905
  0
ARC
  5
335
330
1F
100
AcDbEntity
  8
0
 62
     1
100
AcDbCircle
 10
-37125.10471324126
 20
14525.264196905
 30
0.0
 40
40.6361968691159
100
AcDbArc
 50
264.3533278174288
 51
303.4762773826135
  0
ARC
  5
336
330
1F
100
AcDbEntity
  8
0
 62
     1
100
AcDbCircle
 10
-37124.9200781549
 20
14537.34968656839
 30
0.0
 40
52.69080243536631
100
AcDbArc
 50
238.047226233772
 51
265.4466571408585
  0
ARC
  5
337
330
1F
100
AcDbEntity
  8
0
 62
     1
100
AcDbCircle
 10
-37153.68695444399
 20
14491.14875514111
 30
0.0
 40
1.734498355542167
100
AcDbArc
 50
59.44166039814353
 51
219.2904318403425
  0
ARC
  5
338
330
1F
100
AcDbEntity
  8
0
 62
     1
100
AcDbCircle
 10
-37118.0626135522
 20
14546.91955760225
 30
0.0
 40
67.8280454311009
100
AcDbArc
 50
236.9748687420771
 51
268.1328505223567
  0
ARC
  5
339
330
1F
100
AcDbEntity
  8
0
 62
     1
100
AcDbCircle
 10
-37120.47845651714
 20
14477.73508727648
 30
0.0
 40
1.407572533918987
100
AcDbArc
 50
308.692361672913
 51
81.5902175659386
  0
ARC
  5
33A
330
1F
100
AcDbEntity
  8
0
 62
     1
100
AcDbCircle
 10
-37136.48400337862
 20
14522.32474496485
 30
0.0
 40
48.70871447331932
100
AcDbArc
 50
262.1613835313722
 51
290.2833015685356
  0
ARC
  5
33B
330
1F
100
AcDbEntity
  8
0
 62
     1
100
AcDbCircle
 10
-37133.84313310853
 20
14543.95406013955
 30
0.0
 40
70.49688876001169
100
AcDbArc
 50
228.7869482895231
 51
262.4325825632179
  0
ARC
  5
33C
330
1F
100
AcDbEntity
  8
0
 62
     1
100
AcDbCircle
 10
-37181.35247155762
 20
14489.23881022605
 30
0.0
 40
1.989829455878563
100
AcDbArc
 50
57.75349830757807
 51
205.0268366395634
  0
ARC
  5
33D
330
1F
100
AcDbEntity
  8
0
 62
     1
100
AcDbCircle
 10
-37139.69354345519
 20
14530.68884858337
 30
0.0
 40
60.64270501035853
100
AcDbArc
 50
224.2182470902809
 51
270.6971870499506
  0
ARC
  5
33E
330
1F
100
AcDbEntity
  8
0
 62
     1
100
AcDbCircle
 10
-37138.41869488728
 20
14468.47331447744
 30
0.0
 40
1.666209204852106
100
AcDbArc
 50
294.9243667425125
 51
108.7996937527637
  0
ARC
  5
33F
330
1F
100
AcDbEntity
  8
0
 62
     1
100
AcDbCircle
 10
-37146.43969908992
 20
14511.0332884424
 30
0.0
 40
44.92601663919747
100
AcDbArc
 50
243.3481352924211
 51
281.1961061442287
  0
ARC
  5
340
330
1F
100
AcDbEntity
  8
0
 62
     1
100
AcDbCircle
 10
-37167.46022418744
 20
14469.700480899
 30
0.0
 40
1.465142418962871
100
AcDbArc
 50
53.66338104817811
 51
202.2079753747636
  0
ARC
  5
341
330
1F
100
AcDbEntity
  8
0
 62
     1
100
AcDbCircle
 10
-37157.72103656705
 20
14471.33449079033
 30
0.0
 40
11.30927546078884
100
AcDbArc
 50
191.1542424275526
 51
235.6852834308551
  0
ARC
  5
342
330
1F
100
AcDbEntity
  8
0
 62
     1
100
AcDbCircle
 10
-37166.14879605912
 20
14461.37459014957
 30
0.0
 40
2.143596584995921
100
AcDbArc
 50
250.4204964372612
 51
16.78316877408331
  0
ARC
  5
343
330
1F
100
AcDbEntity
  8
0
 62
     1
100
AcDbCircle
 10
-37130.89630425594
 20
14552.33414609992
 30
0.0
 40
99.69470347543188
100
AcDbArc
 50
225.7165668180263
 51
248.8500530926028
  0
ARC
  5
344
330
1F
100
AcDbEntity
  8
0
 62
     1
100
AcDbCircle
 10
-37201.28969369052
 20
14480.14638963417
 30
0.0
 40
1.133402070396412
100
AcDbArc
 50
46.11296015271238
 51
195.7581926005657
  0
ARC
  5
345
330
1F
100
AcDbEntity
  8
0
 62
     1
100
AcDbCircle
 10
-37194.22630622905
 20
14479.97333730586
 30
0.0
 40
8.155305609329079
100
AcDbArc
 50
180.9467742709093
 51
220.039500415859
  0
ARC
  5
346
330
1F
100
AcDbEntity
  8
0
 62
     1
100
AcDbCircle
 10
-36978.113054743
 20
14762.32975417353
 30
0.0
 40
363.5354443223081
100
AcDbArc
 50
232.2909942244323
 51
237.0284857831588
  0
ARC
  5
347
330
1F
100
AcDbEntity
  8
0
 62
     1
100
AcDbCircle
 10
-37177.03719452373
 20
14456.5781115043
 30
0.0
 40
1.324634153469924
100
AcDbArc
 50
262.0848857557836
 51
35.36973586087628
  0
ARC
  5
348
330
1F
100
AcDbEntity
  8
0
 62
     1
100
AcDbCircle
 10
-37177.90617313115
 20
14473.2107293863
 30
0.0
 40
17.95776186699265
100
AcDbArc
 50
236.5460251787938
 51
272.1910905329257
  0
ARC
  5
349
330
1F
100
AcDbEntity
  8
0
 62
     1
100
AcDbCircle
 10
-37188.66257662656
 20
14457.12477419546
 30
0.0
 40
1.396948168477609
100
AcDbArc
 50
52.16451701541645
 51
185.666126313245
  0
ARC
  5
34A
330
1F
100
AcDbEntity
  8
0
 62
     1
100
AcDbCircle
 10
-37183.14816687478
 20
14457.78243406438
 30
0.0
 40
6.950217403649605
100
AcDbArc
 50
186.5729833768883
 51
214.7115310871175
  0
ARC
  5
34B
330
1F
100
AcDbEntity
  8
0
 62
     1
100
AcDbCircle
 10
-37176.6541240143
 20
14467.83208957272
 30
0.0
 40
18.58027669976669
100
AcDbArc
 50
228.928179342892
 51
243.5229745035979
  0
ARC
  5
34C
330
1F
100
AcDbEntity
  8
0
 62
     1
100
AcDbCircle
 10
-37186.91459611722
 20
14450.31221045458
 30
0.0
 40
2.167139844444932
100
AcDbArc
 50
267.3585359854624
 51
24.20195731038116
  0
ARC
  5
34D
330
1F
100
AcDbEntity
  8
0
 62
     1
100
AcDbCircle
 10
-37181.84660350829
 20
14470.08269144375
 30
0.0
 40
22.53586111987391
100
AcDbArc
 50
229.5141369766997
 51
256.7431068044734
  0
ARC
  5
34E
330
1F
100
AcDbEntity
  8
0
 62
     1
100
AcDbCircle
 10
-37196.58959340788
 20
14452.39002273517
 30
0.0
 40
0.5637602152075411
100
AcDbArc
 50
78.60869217140178
 51
169.2634578511197
  0
ARC
  5
34F
330
1F
100
AcDbEntity
  8
0
 62
     1
100
AcDbCircle
 10
-37187.18344615302
 20
14451.98301356108
 30
0.0
 40
9.973191233551981
100
AcDbArc
 50
177.057081840144
 51
242.0564883203891
  0
ARC
  5
350
330
1F
100
AcDbEntity
  8
0
 62
     1
100
AcDbCircle
 10
-37192.95477700418
 20
14442.28590010478
 30
0.0
 40
1.411234325843626
100
AcDbArc
 50
294.2528690922558
 51
38.92574336262251
  0
ARC
  5
351
330
1F
100
AcDbEntity
  8
0
 62
     1
100
AcDbCircle
 10
-37192.88581966252
 20
14448.11388025576
 30
0.0
 40
7.13296881471688
100
AcDbArc
 50
240.6548938363922
 51
274.1059480066738
  0
ARC
  5
352
330
1F
100
AcDbEntity
  8
0
 62
     1
100
AcDbCircle
 10
-37196.74033451749
 20
14441.38459906905
 30
0.0
 40
0.6249076889335895
100
AcDbArc
 50
54.95109541775562
 51
179.6530807447502
  0
ARC
  5
353
330
1F
100
AcDbEntity
  8
0
 62
     1
100
AcDbCircle
 10
-37200.24153889729
 20
14442.02002691034
 30
0.0
 40
2.944846828971317
100
AcDbArc
 50
270.6024023834809
 51
347.614313360241
  0
ARC
  5
354
330
1F
100
AcDbEntity
  8
0
 62
     1
100
AcDbCircle
 10
-37200.44127416539
 20
14461.90867149072
 30
0.0
 40
22.83449403742828
100
AcDbArc
 50
262.4220914132613
 51
270.5788682156073
  0
ARC
  5
355
330
1F
100
AcDbEntity
  8
0
 62
     1
100
AcDbCircle
 10
-37197.79700461167
 20
14450.53159159139
 30
0.0
 40
12.59871206367753
100
AcDbArc
 50
206.0297790210717
 51
243.3269284147695
  0
ARC
  5
356
330
1F
100
AcDbEntity
  8
0
 62
     1
100
AcDbCircle
 10
-37215.00057796929
 20
14440.21609205195
 30
0.0
 40
7.584183426043547
100
AcDbArc
 50
39.13448950904257
 51
77.1746010416212
  0
ARC
  5
357
330
1F
100
AcDbEntity
  8
0
 62
     1
100
AcDbCircle
 10
-37213.54991807444
 20
14446.90776394334
 30
0.0
 40
0.740848851429896
100
AcDbArc
 50
71.67866340004156
 51
166.3686086893601
  0
ARC
  5
358
330
1F
100
AcDbEntity
  8
0
 62
     1
100
AcDbCircle
 10
-37205.31954019232
 20
14446.84618225719
 30
0.0
 40
8.953474135643993
100
AcDbArc
 50
178.4884369165539
 51
225.2626961682191
  0
ARC
  5
359
330
1F
100
AcDbEntity
  8
0
 62
     1
100
AcDbCircle
 10
-37153.49218655517
 20
14514.18481943153
 30
0.0
 40
93.86432016272625
100
AcDbArc
 50
231.7356271245203
 51
235.3267783605627
  0
ARC
  5
35A
330
1F
100
AcDbEntity
  8
0
 62
     1
100
AcDbCircle
 10
-37207.92557697411
 20
14435.75526974612
 30
0.0
 40
1.610670634789951
100
AcDbArc
 50
337.4093790871306
 51
50.04137845171398
  0
ARC
  5
35B
330
1F
100
AcDbEntity
  8
0
 62
     1
100
AcDbCircle
 10
-37214.43806751616
 20
14437.23404651909
 30
0.0
 40
8.269994243203921
100
AcDbArc
 50
297.762923020984
 51
345.3076652714738
  0
ARC
  5
35C
330
1F
100
AcDbEntity
  8
0
 62
     1
100
AcDbCircle
 10
-37213.96960481249
 20
14442.22716179721
 30
0.0
 40
12.76765986827551
100
AcDbArc
 50
259.1160778341896
 51
285.3687561931521
  0
ARC
  5
35D
330
1F
100
AcDbEntity
  8
0
 62
     1
100
AcDbCircle
 10
-37216.69133339925
 20
14429.25814729397
 30
0.0
 40
0.5314739222403167
100
AcDbArc
 50
54.1932549718902
 51
225.1212676103472
  0
ARC
  5
35E
330
1F
100
AcDbEntity
  8
0
 62
     1
100
AcDbCircle
 10
-37219.62712833474
 20
14428.03313778737
 30
0.0
 40
2.6976655274427
100
AcDbArc
 50
265.2054855335131
 51
18.33041530429473
  0
ARC
  5
35F
330
1F
100
AcDbEntity
  8
0
 62
     1
100
AcDbCircle
 10
-37220.89732589043
 20
14422.23501117503
 30
0.0
 40
3.280689207890139
100
AcDbArc
 50
71.43107011312848
 51
172.238794172647
  0
ARC
  5
360
330
1F
100
AcDbEntity
  8
0
 62
     1
100
AcDbCircle
 10
-37230.13532234804
 20
14421.96598559015
 30
0.0
 40
6.029553605378653
100
AcDbArc
 50
261.6732458576613
 51
6.782222166012132
  0
ARC
  5
361
330
1F
100
AcDbEntity
  8
0
 62
     1
100
AcDbCircle
 10
-37229.44238202463
 20
14412.5163134743
 30
0.0
 40
3.819527636837442
100
AcDbArc
 50
114.2068634581841
 51
196.8134499169339
  0
ARC
  5
362
330
1F
100
AcDbEntity
  8
0
 62
     1
100
AcDbCircle
 10
-37236.43562909593
 20
14409.14594464287
 30
0.0
 40
4.033392209039006
100
AcDbArc
 50
342.4997255704336
 51
34.1732598945728
  0
ARC
  5
363
330
1F
100
AcDbEntity
  8
0
 62
     1
100
AcDbCircle
 10
-37240.20725909712
 20
14412.21562437835
 30
0.0
 40
8.739532426815076
100
AcDbArc
 50
277.8533373488588
 51
330.6579767043443
  0
ARC
  5
364
330
1F
100
AcDbEntity
  8
0
 62
     1
100
AcDbCircle
 10
-37237.09551396701
 20
14399.49040117475
 30
0.0
 40
4.497000357454504
100
AcDbArc
 50
115.2403475056171
 51
182.6211016487541
  0
ARC
  5
365
330
1F
100
AcDbEntity
  8
0
 62
     1
100
AcDbCircle
 10
-37248.04143751855
 20
14400.9958486878
 30
0.0
 40
6.676614049949238
100
AcDbArc
 50
259.0363830404272
 51
345.1504070297309
  0
ARC
  5
366
330
1F
100
AcDbEntity
  8
0
 62
     1
100
AcDbCircle
 10
-37250.10998150659
 20
14391.65715999072
 30
0.0
 40
2.896255100168437
100
AcDbArc
 50
73.9911111503185
 51
159.0828712375533
  0
ARC
  5
367
330
1F
100
AcDbEntity
  8
0
 62
     1
100
AcDbCircle
 10
-37258.67727050115
 20
14393.87971684324
 30
0.0
 40
5.981182926432063
100
AcDbArc
 50
256.5600575774858
 51
348.5382425616626
  0
ARC
  5
368
330
1F
100
AcDbEntity
  8
0
 62
     1
100
AcDbCircle
 10
-37260.41946363406
 20
14386.57227457549
 30
0.0
 40
1.531074431142783
100
AcDbArc
 50
76.7081724204142
 51
172.2367242333843
  0
ARC
  5
369
330
1F
100
AcDbEntity
  8
0
 62
     1
100
AcDbCircle
 10
-37268.39278488903
 20
14390.89460073179
 30
0.0
 40
7.656432081351384
100
AcDbArc
 50
258.3588829482305
 51
327.4848271350368
  0
ARC
  5
36A
330
1F
100
AcDbEntity
  8
0
 62
     1
100
AcDbCircle
 10
-37270.1565258027
 20
14382.12664918585
 30
0.0
 40
1.287734679406836
100
AcDbArc
 50
80.21648276394046
 51
202.4151281237999
  0
ARC
  5
36B
330
1F
100
AcDbEntity
  8
0
 62
     1
100
AcDbCircle
 10
-37298.59593315441
 20
14370.4941183753
 30
0.0
 40
29.4387363768546
100
AcDbArc
 50
350.132510452547
 51
22.23856540692884
  0
ARC
  5
36C
330
1F
100
AcDbEntity
  8
0
 62
     1
100
AcDbCircle
 10
-37329.99276880429
 20
14384.84333479063
 30
0.0
 40
63.43738457673293
100
AcDbArc
 50
331.4422023636326
 51
342.1984583299787
  0
ARC
  5
36D
330
1F
100
AcDbEntity
  8
0
 62
     1
100
AcDbCircle
 10
-37272.29534517715
 20
14353.30385056335
 30
0.0
 40
2.320713544831713
100
AcDbArc
 50
148.4713818700558
 51
343.6532039482817
  0
ARC
  5
36E
330
1F
100
AcDbEntity
  8
0
 62
     1
100
AcDbCircle
 10
-37297.16097911049
 20
14369.76201557564
 30
0.0
 40
32.04376801280808
100
AcDbArc
 50
327.7239675397543
 51
353.2740502552064
  0
ARC
  5
36F
330
1F
100
AcDbEntity
  8
0
 62
     1
100
AcDbCircle
 10
-37246.74616143018
 20
14407.05779623862
 30
0.0
 40
45.06271229923355
100
AcDbArc
 50
245.6335340071954
 51
260.063411272235
  0
ARC
  5
370
330
1F
100
AcDbEntity
  8
0
 62
     1
100
AcDbCircle
 10
-37250.34835937062
 20
14383.40624659923
 30
0.0
 40
21.15108250498423
100
AcDbArc
 50
258.6191397512002
 51
301.662895551792
  0
ARC
  5
371
330
1F
100
AcDbEntity
  8
0
 62
     1
100
AcDbCircle
 10
-37232.42740567429
 20
14350.06762815976
 30
0.0
 40
16.78325602308166
100
AcDbArc
 50
19.49735588535517
 51
113.9699226576405
  0
ARC
  5
372
330
1F
100
AcDbEntity
  8
0
 62
     1
100
AcDbCircle
 10
-37248.73629703405
 20
14349.49706667579
 30
0.0
 40
32.71721915270591
100
AcDbArc
 50
355.7015673195441
 51
10.874177792514
  0
ARC
  5
373
330
1F
100
AcDbEntity
  8
0
 62
     1
100
AcDbCircle
 10
-37222.11549449264
 20
14342.87577353804
 30
0.0
 40
7.309856442324329
100
AcDbArc
 50
330.0191861477336
 51
34.77381085354846
  0
ARC
  5
374
330
1F
100
AcDbEntity
  8
0
 62
     1
100
AcDbCircle
 10
-37128.8436618172
 20
14263.2736097326
 30
0.0
 40
115.442121780281
100
AcDbArc
 50
138.8600998991795
 51
156.7962868142242
  0
ARC
  5
375
330
1F
100
AcDbEntity
  8
0
 62
     1
100
AcDbCircle
 10
-37228.22499880802
 20
14305.54496928873
 30
0.0
 40
7.451001660201557
100
AcDbArc
 50
154.4551115080685
 51
199.4211616203648
  0
ARC
  5
377
330
1F
100
AcDbEntity
  8
0
 62
     1
100
AcDbCircle
 10
-37166.42374349597
 20
14162.6919637042
 30
0.0
 40
3.795013960788382
100
AcDbArc
 50
127.6647771744277
 51
209.8710779811704
  0
ARC
  5
378
330
1F
100
AcDbEntity
  8
0
 62
     1
100
AcDbCircle
 10
-37178.7377977504
 20
14206.18980482198
 30
0.0
 40
41.70903456179302
100
AcDbArc
 50
283.8652852513448
 51
16.1872464460732
  0
ARC
  5
379
330
1F
100
AcDbEntity
  8
0
 62
     1
100
AcDbCircle
 10
-37097.75849352192
 20
14281.57212252191
 30
0.0
 40
75.75902087900482
100
AcDbArc
 50
195.841496467296
 51
237.3038511474091
  0
ARC
  5
37A
330
1F
100
AcDbEntity
  8
0
 62
     1
100
AcDbCircle
 10
-37117.1728237249
 20
14270.84307322904
 30
0.0
 40
54.3856063486316
100
AcDbArc
 50
169.3129586797459
 51
175.7192808458086
  0
ARC
  5
37B
330
1F
100
AcDbEntity
  8
0
 62
     1
100
AcDbCircle
 10
-37145.86985778175
 20
14270.18159728258
 30
0.0
 40
26.9782235932994
100
AcDbArc
 50
110.2480587990547
 51
156.5244554939705
  0
ARC
  5
37C
330
1F
100
AcDbEntity
  8
0
 62
     1
100
AcDbCircle
 10
-37152.1909443387
 20
14287.29754076992
 30
0.0
 40
8.732360769237995
100
AcDbArc
 50
36.54446153046489
 51
110.2028721343114
  0
ARC
  5
37D
330
1F
100
AcDbEntity
  8
0
 62
     1
100
AcDbCircle
 10
-37148.27154552845
 20
14290.76146269671
 30
0.0
 40
3.549482041037505
100
AcDbArc
 50
313.2546863612467
 51
29.27550749761024
  0
ARC
  5
37E
330
1F
100
AcDbEntity
  8
0
 62
     1
100
AcDbCircle
 10
-37147.58416423365
 20
14285.08726080904
 30
0.0
 40
3.54780031550129
100
AcDbArc
 50
60.53980402852495
 51
124.4341352950456
  0
ARC
  5
37F
330
1F
100
AcDbEntity
  8
0
 62
     1
100
AcDbCircle
 10
-37143.04150578907
 20
14282.25820213697
 30
0.0
 40
8.718315710721155
100
AcDbArc
 50
138.6903854112912
 51
220.0808613614361
  0
ARC
  5
380
330
1F
100
AcDbEntity
  8
0
 62
     1
100
AcDbCircle
 10
-37144.97508526464
 20
14283.44930936825
 30
0.0
 40
8.291095311905245
100
AcDbArc
 50
235.1555393884023
 51
337.444477267444
  0
ARC
  5
381
330
1F
100
AcDbEntity
  8
0
 62
     1
100
AcDbCircle
 10
-37151.22765284689
 20
14288.08797429092
 30
0.0
 40
15.95647662899239
100
AcDbArc
 50
330.6582748315323
 51
51.01927820475244
  0
ARC
  5
382
330
1F
100
AcDbEntity
  8
0
 62
     1
100
AcDbCircle
 10
-37151.50420062828
 20
14282.33763392867
 30
0.0
 40
20.87958195644382
100
AcDbArc
 50
60.39743964091016
 51
130.6088221297097
  0
ARC
  5
383
330
1F
100
AcDbEntity
  8
0
 62
     1
100
AcDbCircle
 10
-37151.97402970865
 20
14276.84112386443
 30
0.0
 40
25.05736065921956
100
AcDbArc
 50
121.5753086880583
 51
172.5809230709629
  0
ARC
  5
387
330
1F
100
AcDbEntity
  8
0
 62
     1
100
AcDbCircle
 10
-37121.62201313976
 20
14268.46764536143
 30
0.0
 40
56.40714224690789
100
AcDbArc
 50
168.1232093589106
 51
173.4494216077749
  0
ARC
  5
388
330
1F
100
AcDbEntity
  8
0
 62
     1
100
AcDbCircle
 10
-37182.31446417481
 20
14221.15455575043
 30
0.0
 40
22.08680426847009
100
AcDbArc
 50
314.7639970867038
 51
56.20091161554064
  0
ARC
  5
389
330
1F
100
AcDbEntity
  8
0
 62
     1
100
AcDbCircle
 10
-37172.84742925767
 20
14189.81296241381
 30
0.0
 40
16.80081523687539
100
AcDbArc
 50
291.6283486520269
 51
68.76105927633827
  0
ARC
  5
38A
330
1F
100
AcDbEntity
  8
0
 62
     1
100
AcDbCircle
 10
-37171.46377590429
 20
14183.86076961413
 30
0.0
 40
10.79592019559932
100
AcDbArc
 50
246.1737351332629
 51
296.4510943915453
  0
ARC
  5
38B
330
1F
100
AcDbEntity
  8
0
 62
     1
100
AcDbCircle
 10
-36789.59274422926
 20
14659.0082829666
 30
0.0
 40
620.0185165306224
100
AcDbArc
 50
230.5555918712573
 51
231.4691037701178
  0
LINE
  5
38D
330
1F
100
AcDbEntity
  8
0
 62
     1
100
AcDbLine
 10
-37183.50901348621
 20
14180.2543254361
 30
0.0
 11
-37184.19459241722
 21
14271.87507276307
 31
0.0
  0
LINE
  5
38E
330
1F
100
AcDbEntity
  8
0
 62
     1
100
AcDbLine
 10
-37186.27724099019
 20
14180.83681614524
 30
0.0
 11
-37186.51324959257
 21
14271.87507276307
 31
0.0
  0
LINE
  5
38F
330
1F
100
AcDbEntity
  8
0
 62
     1
100
AcDbLine
 10
-37186.27724099019
 20
14180.83681614524
 30
0.0
 11
-37190.18785259407
 21
14180.81395508586
 31
0.0
  0
ARC
  5
390
330
1F
100
AcDbEntity
  8
0
 62
     1
100
AcDbCircle
 10
-37163.86086027168
 20
14273.96156467701
 30
0.0
 40
3.533779279877269
100
AcDbArc
 50
216.1883843234645
 51
164.5561835497205
  0
LINE
  5
391
330
1F
100
AcDbEntity
  8
0
 62
     1
100
AcDbLine
 10
-37167.2670419928
 20
14274.90258650547
 30
0.0
 11
-37171.40671100829
 21
14274.90258650547
 31
0.0
  0
LINE
  5
392
330
1F
100
AcDbEntity
  8
0
 62
     1
100
AcDbLine
 10
-37166.71290295928
 20
14271.87507276307
 30
0.0
 11
-37171.54863778658
 21
14271.87507276307
 31
0.0
  0
LINE
  5
393
330
1F
100
AcDbEntity
  8
0
 62
     1
100
AcDbLine
 10
-37190.18815632788
 20
14180.86395416331
 30
0.0
 11
-37190.74102959154
 21
14271.87507276307
 31
0.0
  0
LINE
  5
3AD
330
1F
100
AcDbEntity
  8
0
 62
     1
100
AcDbLine
 10
-37186.51324959257
 20
14271.87507276307
 30
0.0
 11
-37190.74102959153
 21
14271.87507276307
 31
0.0
  0
LINE
  5
3AE
330
1F
100
AcDbEntity
  8
0
 62
     1
100
AcDbLine
 10
-37177.66090346545
 20
14274.90258650547
 30
0.0
 11
-37192.12991474784
 21
14274.90258650547
 31
0.0
  0
LINE
  5
3AF
330
1F
100
AcDbEntity
  8
0
 62
     1
100
AcDbLine
 10
-37177.92614384937
 20
14271.87507276307
 30
0.0
 11
-37184.19459241722
 21
14271.87507276307
 31
0.0
  0
ARC
  5
3B0
330
1F
100
AcDbEntity
  8
0
 62
     1
100
AcDbCircle
 10
-37117.1728237249
 20
14270.84307322904
 30
0.0
 40
54.3856063486316
100
AcDbArc
 50
178.9127129257002
 51
190.5433283510374
  0
ARC
  5
3B1
330
1F
100
AcDbEntity
  8
0
 62
     1
100
AcDbCircle
 10
-37121.62201313976
 20
14268.46764536143
 30
0.0
 40
56.40714224690789
100
AcDbArc
 50
176.5367835898864
 51
210.8901850659123
  0
ARC
  5
3B3
330
1F
100
AcDbEntity
  8
0
 62
     1
100
AcDbCircle
 10
-37217.83608599972
 20
14162.6919637042
 30
0.0
 40
3.795013960788382
100
AcDbArc
 50
330.1289220187433
 51
52.33522282551266
  0
ARC
  5
3B4
330
1F
100
AcDbEntity
  8
0
 62
     1
100
AcDbCircle
 10
-37205.52203174528
 20
14206.18980482198
 30
0.0
 40
41.70903456179302
100
AcDbArc
 50
163.8127535538192
 51
256.1347147487653
  0
ARC
  5
3B5
330
1F
100
AcDbEntity
  8
0
 62
     1
100
AcDbCircle
 10
-37286.50133597377
 20
14281.57212252191
 30
0.0
 40
75.75902087900482
100
AcDbArc
 50
302.6961488524527
 51
344.1585035327469
  0
ARC
  5
3B6
330
1F
100
AcDbEntity
  8
0
 62
     1
100
AcDbCircle
 10
-37267.08700577078
 20
14270.84307322904
 30
0.0
 40
54.3856063486316
100
AcDbArc
 50
4.280719154189955
 51
10.6870413201824
  0
ARC
  5
3B7
330
1F
100
AcDbEntity
  8
0
 62
     1
100
AcDbCircle
 10
-37267.08700577078
 20
14270.84307322904
 30
0.0
 40
54.3856063486316
100
AcDbArc
 50
349.4566716489247
 51
1.087287074298182
  0
ARC
  5
3B8
330
1F
100
AcDbEntity
  8
0
 62
     1
100
AcDbCircle
 10
-37238.38997171394
 20
14270.18159728258
 30
0.0
 40
26.9782235932994
100
AcDbArc
 50
23.47554450598065
 51
69.75194120073211
  0
ARC
  5
3B9
330
1F
100
AcDbEntity
  8
0
 62
     1
100
AcDbCircle
 10
-37232.06888515699
 20
14287.29754076992
 30
0.0
 40
8.732360769237995
100
AcDbArc
 50
69.79712786546135
 51
143.455538469777
  0
ARC
  5
3BA
330
1F
100
AcDbEntity
  8
0
 62
     1
100
AcDbCircle
 10
-37235.98828396724
 20
14290.76146269671
 30
0.0
 40
3.549482041037505
100
AcDbArc
 50
150.7244925022675
 51
226.7453136387863
  0
ARC
  5
3BB
330
1F
100
AcDbEntity
  8
0
 62
     1
100
AcDbCircle
 10
-37236.67566526203
 20
14285.08726080904
 30
0.0
 40
3.54780031550129
100
AcDbArc
 50
55.56586470472929
 51
119.4601959716452
  0
ARC
  5
3BC
330
1F
100
AcDbEntity
  8
0
 62
     1
100
AcDbCircle
 10
-37241.21832370661
 20
14282.25820213697
 30
0.0
 40
8.718315710721155
100
AcDbArc
 50
319.9191386383179
 51
41.30961458853283
  0
ARC
  5
3BD
330
1F
100
AcDbEntity
  8
0
 62
     1
100
AcDbCircle
 10
-37239.28474423105
 20
14283.44930936825
 30
0.0
 40
8.291095311905245
100
AcDbArc
 50
202.5555227325516
 51
304.8444606115115
  0
ARC
  5
3BE
330
1F
100
AcDbEntity
  8
0
 62
     1
100
AcDbCircle
 10
-37233.0321766488
 20
14288.08797429092
 30
0.0
 40
15.95647662899239
100
AcDbArc
 50
174.9564169091569
 51
209.3417251684689
  0
ARC
  5
3BF
330
1F
100
AcDbEntity
  8
0
 62
     1
100
AcDbCircle
 10
-37232.7556288674
 20
14282.33763392867
 30
0.0
 40
20.87958195644382
100
AcDbArc
 50
49.39117787037935
 51
96.86683714962514
  0
ARC
  5
3C0
330
1F
100
AcDbEntity
  8
0
 62
     1
100
AcDbCircle
 10
-37232.28579978703
 20
14276.84112386443
 30
0.0
 40
25.05736065921956
100
AcDbArc
 50
7.419076929044275
 51
58.42469131194334
  0
ARC
  5
3C1
330
1F
100
AcDbEntity
  8
0
 62
     1
100
AcDbCircle
 10
-37262.63781635593
 20
14268.46764536143
 30
0.0
 40
56.40714224690789
100
AcDbArc
 50
6.550578392222801
 51
11.8767906411081
  0
ARC
  5
3C2
330
1F
100
AcDbEntity
  8
0
 62
     1
100
AcDbCircle
 10
-37262.63781635593
 20
14268.46764536143
 30
0.0
 40
56.40714224690789
100
AcDbArc
 50
329.109814934273
 51
3.463216410101535
  0
ARC
  5
3C3
330
1F
100
AcDbEntity
  8
0
 62
     1
100
AcDbCircle
 10
-37201.94536532087
 20
14221.15455575043
 30
0.0
 40
22.08680426847009
100
AcDbArc
 50
123.799088384692
 51
225.1062969787643
  0
ARC
  5
3C4
330
1F
100
AcDbEntity
  8
0
 62
     1
100
AcDbCircle
 10
-37211.41240023801
 20
14189.81296241381
 30
0.0
 40
16.80081523687539
100
AcDbArc
 50
111.238940723663
 51
248.3716513482517
  0
ARC
  5
3C5
330
1F
100
AcDbEntity
  8
0
 62
     1
100
AcDbCircle
 10
-37212.7960535914
 20
14183.86076961413
 30
0.0
 40
10.79592019559932
100
AcDbArc
 50
243.5489056084958
 51
293.8262648666488
  0
ARC
  5
3C6
330
1F
100
AcDbEntity
  8
0
 62
     1
100
AcDbCircle
 10
-37594.66708526642
 20
14659.0082829666
 30
0.0
 40
620.0185165306224
100
AcDbArc
 50
308.5308962299154
 51
309.4444081290368
  0
LINE
  5
3C7
330
1F
100
AcDbEntity
  8
0
 62
     1
100
AcDbLine
 10
-37200.75119013857
 20
14180.20432683585
 30
0.0
 11
-37200.06523707847
 21
14271.87507276307
 31
0.0
  0
LINE
  5
3C8
330
1F
100
AcDbEntity
  8
0
 62
     1
100
AcDbLine
 10
-37198.19390154766
 20
14180.86395448193
 30
0.0
 11
-37197.74657990312
 21
14271.87507276307
 31
0.0
  0
LINE
  5
3C9
330
1F
100
AcDbEntity
  8
0
 62
     1
100
AcDbLine
 10
-37198.19414729578
 20
14180.81395508586
 30
0.0
 11
-37195.0071822122
 21
14180.81395508586
 31
0.0
  0
ARC
  5
3CA
330
1F
100
AcDbEntity
  8
0
 62
     1
100
AcDbCircle
 10
-37220.39896922401
 20
14273.96156467701
 30
0.0
 40
3.533779279877269
100
AcDbArc
 50
15.44381645030751
 51
323.8116156764137
  0
LINE
  5
3CB
330
1F
100
AcDbEntity
  8
0
 62
     1
100
AcDbLine
 10
-37216.99278750289
 20
14274.90258650547
 30
0.0
 11
-37212.8531184874
 21
14274.90258650547
 31
0.0
  0
LINE
  5
3CC
330
1F
100
AcDbEntity
  8
0
 62
     1
100
AcDbLine
 10
-37206.59892603023
 20
14274.90258650547
 30
0.0
 11
-37192.12991474784
 21
14274.90258650547
 31
0.0
  0
LINE
  5
3CD
330
1F
100
AcDbEntity
  8
0
 62
     1
100
AcDbLine
 10
-37217.5469265364
 20
14271.87507276307
 30
0.0
 11
-37212.7111917091
 21
14271.87507276307
 31
0.0
  0
LINE
  5
3CE
330
1F
100
AcDbEntity
  8
0
 62
     1
100
AcDbLine
 10
-37206.33368564632
 20
14271.87507276307
 30
0.0
 11
-37200.06523707847
 21
14271.87507276307
 31
0.0
  0
LINE
  5
3CF
330
1F
100
AcDbEntity
  8
0
 62
     1
100
AcDbLine
 10
-37197.74657990312
 20
14271.87507276307
 30
0.0
 11
-37193.43967759575
 21
14271.87507276307
 31
0.0
  0
LINE
  5
3D0
330
1F
100
AcDbEntity
  8
0
 62
     1
100
AcDbLine
 10
-37195.0071822122
 20
14180.81395508586
 30
0.0
 11
-37193.43967759574
 21
14271.87507276307
 31
0.0
  0
ARC
  5
3DB
330
1F
100
AcDbEntity
  8
0
 62
     1
100
AcDbCircle
 10
-37251.52139463497
 20
14299.44409151849
 30
0.0
 40
10.28592636594747
100
AcDbArc
 50
264.487980859752
 51
284.6101090590365
  0
ARC
  5
3DC
330
1F
100
AcDbEntity
  8
0
 62
     1
100
AcDbCircle
 10
-37242.41025572204
 20
14263.00969615853
 30
0.0
 40
28.07534183823425
100
AcDbArc
 50
111.0827542434233
 51
139.3416440984154
  0
ARC
  5
3DD
330
1F
100
AcDbEntity
  8
0
 62
     1
100
AcDbCircle
 10
-37280.37556295872
 20
14292.17312457935
 30
0.0
 40
19.89904792099987
100
AcDbArc
 50
256.7164737790823
 51
326.8858758856986
  0
ARC
  5
3DE
330
1F
100
AcDbEntity
  8
0
 62
     1
100
AcDbCircle
 10
-37259.28291349267
 20
14281.24383620976
 30
0.0
 40
27.05879442738964
100
AcDbArc
 50
141.1029845613176
 51
198.1429569191944
  0
ARC
  5
3DF
330
1F
100
AcDbEntity
  8
0
 62
     1
100
AcDbCircle
 10
-37274.1449667783
 20
14287.05432268019
 30
0.0
 40
12.78298504695915
100
AcDbArc
 50
67.4554201662726
 51
118.9991751598712
  0
ARC
  5
3E0
330
1F
100
AcDbEntity
  8
0
 62
     1
100
AcDbCircle
 10
-37265.79758347069
 20
14303.43009081029
 30
0.0
 40
5.723547735195323
100
AcDbArc
 50
232.976904284352
 51
23.84445016794626
  0
ARC
  5
3E1
330
1F
100
AcDbEntity
  8
0
 62
     1
100
AcDbCircle
 10
-37246.4288184103
 20
14302.184637803
 30
0.0
 40
14.57500547572127
100
AcDbArc
 50
95.23237896881175
 51
165.8654004458255
  0
ARC
  5
3E2
330
1F
100
AcDbEntity
  8
0
 62
     1
100
AcDbCircle
 10
-37249.54789343505
 20
14325.45253694117
 30
0.0
 40
8.934749150787853
100
AcDbArc
 50
281.5562824789296
 51
314.351229664672
  0
ARC
  5
3E3
330
1F
100
AcDbEntity
  8
0
 62
     1
100
AcDbCircle
 10
-37255.67018088499
 20
14333.3224301135
 30
0.0
 40
18.87554688132802
100
AcDbArc
 50
310.9384714168263
 51
26.29114416283594
  0
ARC
  5
3E4
330
1F
100
AcDbEntity
  8
0
 62
     1
100
AcDbCircle
 10
-37240.6528035759
 20
14339.4114164194
 30
0.0
 40
2.965041169253416
100
AcDbArc
 50
50.00769191265757
 51
113.4624017424507
  0
ARC
  5
3E5
330
1F
100
AcDbEntity
  8
0
 62
     1
100
AcDbCircle
 10
-37225.50365055601
 20
14305.91161988187
 30
0.0
 40
39.73064875667457
100
AcDbArc
 50
114.2682685974613
 51
138.4827030273101
  0
ARC
  5
3E6
330
1F
100
AcDbEntity
  8
0
 62
     1
100
AcDbCircle
 10
-37263.09571811794
 20
14337.79696303928
 30
0.0
 40
9.608522907157341
100
AcDbArc
 50
281.8628765415119
 51
324.716959423315
  0
ARC
  5
3E7
330
1F
100
AcDbEntity
  8
0
 62
     1
100
AcDbCircle
 10
-37269.88193153742
 20
14373.60294057115
 30
0.0
 40
46.05043200640186
100
AcDbArc
 50
252.8807557400002
 51
280.9678104010116
  0
ARC
  5
3E8
330
1F
100
AcDbEntity
  8
0
 62
     1
100
AcDbCircle
 10
-37285.08446638723
 20
14325.18423579128
 30
0.0
 40
4.706204232336175
100
AcDbArc
 50
69.51402785945986
 51
128.6446404017146
  0
ARC
  5
3E9
330
1F
100
AcDbEntity
  8
0
 62
     1
100
AcDbCircle
 10
-37304.57163496846
 20
14341.95992607954
 30
0.0
 40
21.10574504833522
100
AcDbArc
 50
288.0796272121791
 51
321.6339482576286
  0
ARC
  5
3EA
330
1F
100
AcDbEntity
  8
0
 62
     1
100
AcDbCircle
 10
-37323.38976151639
 20
14351.40142082142
 30
0.0
 40
38.91134667987172
100
AcDbArc
 50
283.189277415449
 51
310.6883929609244
  0
ARC
  5
3EB
330
1F
100
AcDbEntity
  8
0
 62
     1
100
AcDbCircle
 10
-37271.73203597044
 20
14323.43802363576
 30
0.0
 40
43.91482377838264
100
AcDbArc
 50
176.5111363580955
 51
193.057377435502
  0
ARC
  5
3EC
330
1F
100
AcDbEntity
  8
0
 62
     1
100
AcDbCircle
 10
-37317.63669822587
 20
14325.10326946796
 30
0.0
 40
2.303123625558161
100
AcDbArc
 50
25.9321347379767
 51
143.9952549345188
  0
ARC
  5
3ED
330
1F
100
AcDbEntity
  8
0
 62
     1
100
AcDbCircle
 10
-37365.85183152923
 20
14316.4542859447
 30
0.0
 40
47.4190213847445
100
AcDbArc
 50
345.2249897666345
 51
12.17782944372042
  0
ARC
  5
3EE
330
1F
100
AcDbEntity
  8
0
 62
     1
100
AcDbCircle
 10
-37361.72630852779
 20
14284.43374610851
 30
0.0
 40
46.23992637847429
100
AcDbArc
 50
350.2522356635436
 51
25.52848624500699
  0
ARC
  5
3EF
330
1F
100
AcDbEntity
  8
0
 62
     1
100
AcDbCircle
 10
-37351.19750389301
 20
14241.95880569512
 30
0.0
 40
49.27875548187485
100
AcDbArc
 50
2.985606678737138
 51
44.67317093713558
  0
ARC
  5
3F0
330
1F
100
AcDbEntity
  8
0
 62
     1
100
AcDbCircle
 10
-37232.83857319865
 20
14266.55809622916
 30
0.0
 40
72.57239129993613
100
AcDbArc
 50
197.6736449927496
 51
232.4924472968757
  0
ARC
  5
3F1
330
1F
100
AcDbEntity
  8
0
 62
     1
100
AcDbCircle
 10
-37286.03334076987
 20
14192.47313675928
 30
0.0
 40
18.81210620952382
100
AcDbArc
 50
4.022772789032416
 51
61.39062067836247
  0
ARC
  5
3F2
330
1F
100
AcDbEntity
  8
0
 62
     1
100
AcDbCircle
 10
-37197.15956082741
 20
14242.14564345201
 30
0.0
 40
85.16528794629497
100
AcDbArc
 50
214.5936298634143
 51
229.4371587076268
  0
ARC
  5
3F3
330
1F
100
AcDbEntity
  8
0
 62
     1
100
AcDbCircle
 10
-37279.46510114986
 20
14151.200010184
 30
0.0
 40
37.60010652834866
100
AcDbArc
 50
14.79536439894949
 51
44.26946277239625
  0
ARC
  5
3FE
330
1F
100
AcDbEntity
  8
0
 62
     1
100
AcDbCircle
 10
-37566.10113933041
 20
14192.20633585652
 30
0.0
 40
32.82915187360996
100
AcDbArc
 50
192.4516373187245
 51
253.0586282097516
  0
ARC
  5
3FF
330
1F
100
AcDbEntity
  8
0
 62
     1
100
AcDbCircle
 10
-37513.74655950602
 20
14206.42148962335
 30
0.0
 40
87.05587821295734
100
AcDbArc
 50
174.2786359500091
 51
194.1580323205005
  0
ARC
  5
400
330
1F
100
AcDbEntity
  8
0
 62
     1
100
AcDbCircle
 10
-37581.44186062815
 20
14351.04851453488
 30
0.0
 40
137.2595481890805
100
AcDbArc
 50
262.0741535136893
 51
268.296466632531
  0
ARC
  5
401
330
1F
100
AcDbEntity
  8
0
 62
     1
100
AcDbCircle
 10
-37585.10624030134
 20
14208.77143879536
 30
0.0
 40
5.095207583246289
100
AcDbArc
 50
28.50269397956373
 51
94.68378415542945
  0
ARC
  5
402
330
1F
100
AcDbEntity
  8
0
 62
     1
100
AcDbCircle
 10
-37572.89830627137
 20
14213.11628066592
 30
0.0
 40
7.963576923815535
100
AcDbArc
 50
193.9024748429984
 51
276.1780244775378
  0
ARC
  5
403
330
1F
100
AcDbEntity
  8
0
 62
     1
100
AcDbCircle
 10
-37569.7608312464
 20
14209.99716331217
 30
0.0
 40
5.312557734096353
100
AcDbArc
 50
125.4042512740445
 51
244.5796090251537
  0
ARC
  5
404
330
1F
100
AcDbEntity
  8
0
 62
     1
100
AcDbCircle
 10
-37585.26404343514
 20
14269.74041438113
 30
0.0
 40
56.78907548552642
100
AcDbArc
 50
282.6385367023765
 51
19.01192773906017
  0
ARC
  5
405
330
1F
100
AcDbEntity
  8
0
 62
     1
100
AcDbCircle
 10
-37480.41235435947
 20
14296.00145190484
 30
0.0
 40
51.74575613256868
100
AcDbArc
 50
132.4618991814631
 51
188.6261222780398
  0
ARC
  5
406
330
1F
100
AcDbEntity
  8
0
 62
     1
100
AcDbCircle
 10
-37514.283694445
 20
14332.32525525387
 30
0.0
 40
2.13361173361252
100
AcDbArc
 50
335.1861866733725
 51
119.8575460396305
  0
ARC
  5
407
330
1F
100
AcDbEntity
  8
0
 62
     1
100
AcDbCircle
 10
-37471.44708072164
 20
14308.8546330954
 30
0.0
 40
46.71668597537228
100
AcDbArc
 50
151.1030035010083
 51
209.2253835969697
  0
ARC
  5
408
330
1F
100
AcDbEntity
  8
0
 62
     1
100
AcDbCircle
 10
-37555.07543825343
 20
14275.99957994586
 30
0.0
 40
44.02003343160845
100
AcDbArc
 50
347.7226394702685
 51
13.19169699774984
  0
ARC
  5
409
330
1F
100
AcDbEntity
  8
0
 62
     1
100
AcDbCircle
 10
-37215.47007504323
 20
14122.21875005942
 30
0.0
 40
329.8849244112542
100
AcDbArc
 50
154.0370602005107
 51
157.1680348450202
  0
ARC
  5
40A
330
1F
100
AcDbEntity
  8
0
 62
     1
100
AcDbCircle
 10
-37491.84437648277
 20
14243.02724368905
 30
0.0
 40
28.58389248640114
100
AcDbArc
 50
165.4174517904737
 51
200.0104934928232
  0
ARC
  5
40B
330
1F
100
AcDbEntity
  8
0
 62
     1
100
AcDbCircle
 10
-37542.49629373791
 20
14226.40449591086
 30
0.0
 40
24.75770684972675
100
AcDbArc
 50
341.6355750581486
 51
16.04192605984646
  0
ARC
  5
40C
330
1F
100
AcDbEntity
  8
0
 62
     1
100
AcDbCircle
 10
-37563.50678162062
 20
14233.78979463894
 30
0.0
 40
47.02659363776644
100
AcDbArc
 50
318.6268724906769
 51
341.160870349024
  0
ARC
  5
40D
330
1F
100
AcDbEntity
  8
0
 62
     1
100
AcDbCircle
 10
-37512.43781594522
 20
14192.35149993818
 30
0.0
 40
18.87384556218761
100
AcDbArc
 50
146.7238725614745
 51
204.1086549822969
  0
ARC
  5
40E
330
1F
100
AcDbEntity
  8
0
 62
     1
100
AcDbCircle
 10
-37536.54089119742
 20
14181.31626553388
 30
0.0
 40
7.637705738220015
100
AcDbArc
 50
308.2817002204248
 51
25.81415611607188
  0
ARC
  5
40F
330
1F
100
AcDbEntity
  8
0
 62
     1
100
AcDbCircle
 10
-37522.97271930039
 20
14160.22535731617
 30
0.0
 40
17.4916035988014
100
AcDbArc
 50
120.3432577200287
 51
178.1112672589882
  0
ARC
  5
41A
330
1F
100
AcDbEntity
  8
0
 62
     1
100
AcDbCircle
 10
-37512.06409693322
 20
14315.95479294685
 30
0.0
 40
60.91593471187653
100
AcDbArc
 50
295.7395157783622
 51
335.3829196630588
  0
ARC
  5
41B
330
1F
100
AcDbEntity
  8
0
 62
     1
100
AcDbCircle
 10
-37475.78540605903
 20
14244.97282491424
 30
0.0
 40
18.86936618713794
100
AcDbArc
 50
121.3749968315559
 51
173.8519335106209
  0
ARC
  5
41C
330
1F
100
AcDbEntity
  8
0
 62
     1
100
AcDbCircle
 10
-37546.82322784169
 20
14258.09207204961
 30
0.0
 40
53.44208912007058
100
AcDbArc
 50
322.0172432220626
 51
348.0140984558357
  0
ARC
  5
41D
330
1F
100
AcDbEntity
  8
0
 62
     1
100
AcDbCircle
 10
-37412.72561922478
 20
14192.85858760671
 30
0.0
 40
97.49608879553731
100
AcDbArc
 50
160.6252232337148
 51
173.1252776333667
  0
ARC
  5
41E
330
1F
100
AcDbEntity
  8
0
 62
     1
100
AcDbCircle
 10
-37524.7746718286
 20
14195.77163016609
 30
0.0
 40
17.58891265570412
100
AcDbArc
 50
311.8077431519962
 51
29.85968594677068
  0
ARC
  5
41F
330
1F
100
AcDbEntity
  8
0
 62
     1
100
AcDbCircle
 10
-37498.96621234946
 20
14175.16827395252
 30
0.0
 40
15.95231511659778
100
AcDbArc
 50
151.9850693949335
 51
184.384231454156
  0
ARC
  5
420
330
1F
100
AcDbEntity
  8
0
 62
     1
100
AcDbCircle
 10
-37524.84901047652
 20
14164.59635225904
 30
0.0
 40
13.67523830065421
100
AcDbArc
 50
343.8906171486769
 51
43.14891560761438
  0
ARC
  5
42B
330
1F
100
AcDbEntity
  8
0
 62
     1
100
AcDbCircle
 10
-37429.75739307086
 20
14338.27938975073
 30
0.0
 40
54.77496639899909
100
AcDbArc
 50
212.9434204042622
 51
240.5542909837619
  0
ARC
  5
42C
330
1F
100
AcDbEntity
  8
0
 62
     1
100
AcDbCircle
 10
-37474.39585159279
 20
14309.67161678512
 30
0.0
 40
1.776978391090722
100
AcDbArc
 50
33.35377291566591
 51
221.5849480250856
  0
ARC
  5
42D
330
1F
100
AcDbEntity
  8
0
 62
     1
100
AcDbCircle
 10
-37424.99659023081
 20
14347.11711364738
 30
0.0
 40
60.21457950794726
100
AcDbArc
 50
217.2750817979868
 51
263.8006872988278
  0
ARC
  5
42E
330
1F
100
AcDbEntity
  8
0
 62
     1
100
AcDbCircle
 10
-37433.05009705595
 20
14285.00226954316
 30
0.0
 40
2.734796228040212
100
AcDbArc
 50
271.1786577599742
 51
55.44701760078509
  0
ARC
  5
42F
330
1F
100
AcDbEntity
  8
0
 62
     1
100
AcDbCircle
 10
-37422.64574105032
 20
14347.54296819432
 30
0.0
 40
66.09007405637093
100
AcDbArc
 50
243.4730211383465
 51
260.9918054503907
  0
ARC
  5
430
330
1F
100
AcDbEntity
  8
0
 62
     1
100
AcDbCircle
 10
-37452.9391896608
 20
14286.54497732866
 30
0.0
 40
2.020695069960088
100
AcDbArc
 50
67.40578930800701
 51
229.3198953681387
  0
ARC
  5
431
330
1F
100
AcDbEntity
  8
0
 62
     1
100
AcDbCircle
 10
-37419.24043178994
 20
14328.20980785295
 30
0.0
 40
55.60680346865526
100
AcDbArc
 50
230.9715913432283
 51
241.2437781919808
  0
ARC
  5
432
330
1F
100
AcDbEntity
  8
0
 62
     1
100
AcDbCircle
 10
-37447.17588095137
 20
14277.53874061786
 30
0.0
 40
2.257369881665902
100
AcDbArc
 50
349.6992084738608
 51
58.36788932605148
  0
ARC
  5
433
330
1F
100
AcDbEntity
  8
0
 62
     1
100
AcDbCircle
 10
-37524.77205245463
 20
14287.09721653701
 30
0.0
 40
80.43645188956986
100
AcDbArc
 50
331.4918283057934
 51
352.8855967374513
  0
ARC
  5
434
330
1F
100
AcDbEntity
  8
0
 62
     1
100
AcDbCircle
 10
-37449.08075152685
 20
14246.63804457696
 30
0.0
 40
5.4180889086779
100
AcDbArc
 50
157.5604231664601
 51
228.1833175073423
  0
ARC
  5
435
330
1F
100
AcDbEntity
  8
0
 62
     1
100
AcDbCircle
 10
-37489.90018512051
 20
14178.38876226706
 30
0.0
 40
74.21215280120458
100
AcDbArc
 50
15.53240631771634
 51
59.91005310508089
  0
ARC
  5
436
330
1F
100
AcDbEntity
  8
0
 62
     1
100
AcDbCircle
 10
-37382.17239518575
 20
14199.98737702217
 30
0.0
 40
36.26701489718204
100
AcDbArc
 50
182.7275591501606
 51
210.7076706747793
  0
ARC
  5
437
330
1F
100
AcDbEntity
  8
0
 62
     1
100
AcDbCircle
 10
-37408.77887812593
 20
14186.33117882694
 30
0.0
 40
6.677609558977196
100
AcDbArc
 50
226.7508415557689
 51
290.0093114411867
  0
ARC
  5
438
330
1F
100
AcDbEntity
  8
0
 62
     1
100
AcDbCircle
 10
-37405.68859680347
 20
14177.47966580059
 30
0.0
 40
2.699905574873377
100
AcDbArc
 50
39.6658103867317
 51
107.3555874335003
  0
ARC
  5
439
330
1F
100
AcDbEntity
  8
0
 62
     1
100
AcDbCircle
 10
-37407.81212901961
 20
14174.49321308907
 30
0.0
 40
6.31174655621514
100
AcDbArc
 50
335.6666652749552
 51
48.26227831083752
  0
ARC
  5
43A
330
1F
100
AcDbEntity
  8
0
 62
     1
100
AcDbCircle
 10
-37395.47676099692
 20
14161.55547928963
 30
0.0
 40
12.25590832546629
100
AcDbArc
 50
122.4957813728357
 51
183.5253732355792
  0
ARC
  5
43B
330
1F
100
AcDbEntity
  8
0
 62
     1
100
AcDbCircle
 10
-37396.07506378287
 20
14387.78005195699
 30
0.0
 40
96.80938267302153
100
AcDbArc
 50
269.5920695703516
 51
289.2718045025079
  0
ARC
  5
43C
330
1F
100
AcDbEntity
  8
0
 62
     1
100
AcDbCircle
 10
-37597.72770369914
 20
14427.00891494258
 30
0.0
 40
242.67678193369
100
AcDbArc
 50
316.3177420587408
 51
325.905210469683
  0
ARC
  5
43D
330
1F
100
AcDbEntity
  8
0
 62
     1
100
AcDbCircle
 10
-37408.98006399135
 20
14249.3582181478
 30
0.0
 40
16.62528300581594
100
AcDbArc
 50
142.833386613364
 51
191.8324882517671
  0
ARC
  5
43E
330
1F
100
AcDbEntity
  8
0
 62
     1
100
AcDbCircle
 10
-37411.19359269727
 20
14248.59504616611
 30
0.0
 40
14.30530206486786
100
AcDbArc
 50
190.6586018570014
 51
224.9197201587762
  0
ARC
  5
43F
330
1F
100
AcDbEntity
  8
0
 62
     1
100
AcDbCircle
 10
-37514.66895650677
 20
14147.0884919325
 30
0.0
 40
130.6460217884863
100
AcDbArc
 50
28.69586720905862
 51
44.39823785237688
  0
ARC
  5
440
330
1F
100
AcDbEntity
  8
0
 62
     1
100
AcDbCircle
 10
-37403.82168450745
 20
14198.89403468071
 30
0.0
 40
11.55207609536038
100
AcDbArc
 50
344.0721289853544
 51
71.04236904851497
  0
ARC
  5
441
330
1F
100
AcDbEntity
  8
0
 62
     1
100
AcDbCircle
 10
-37380.0233823981
 20
14197.05330044143
 30
0.0
 40
12.75918633579696
100
AcDbArc
 50
185.980897960544
 51
216.8059383782543
  0
ARC
  5
442
330
1F
100
AcDbEntity
  8
0
 62
     1
100
AcDbCircle
 10
-36214.47530589249
 20
15436.3571846955
 30
0.0
 40
1713.855363885841
100
AcDbArc
 50
226.6829782458275
 51
226.932323581981
  0
ARC
  5
443
330
1F
100
AcDbEntity
  8
0
 62
     1
100
AcDbCircle
 10
-37420.52730075674
 20
14151.29401128069
 30
0.0
 40
48.64155947146272
100
AcDbArc
 50
11.33093251192197
 51
42.73760177876166
  0
ARC
  5
444
330
1F
100
AcDbEntity
  8
0
 62
     1
100
AcDbCircle
 10
-37305.47254549562
 20
14334.99442205105
 30
0.0
 40
70.21229444241908
100
AcDbArc
 50
197.993145324971
 51
213.3495543853022
  0
ARC
  5
445
330
1F
100
AcDbEntity
  8
0
 62
     1
100
AcDbCircle
 10
-37370.39764213291
 20
14313.63815644434
 30
0.0
 40
1.882955119374
100
AcDbArc
 50
48.98075088618612
 51
190.1720203609433
  0
ARC
  5
446
330
1F
100
AcDbEntity
  8
0
 62
     1
100
AcDbCircle
 10
-37274.35692422567
 20
14349.93146187703
 30
0.0
 40
101.01520618158
100
AcDbArc
 50
200.1953267589616
 51
232.3496263351032
  0
ARC
  5
447
330
1F
100
AcDbEntity
  8
0
 62
     1
100
AcDbCircle
 10
-37349.49772060051
 20
14257.0283254156
 30
0.0
 40
18.6432596999435
100
AcDbArc
 50
3.332886697148111
 51
43.88628080356301
  0
ARC
  5
448
330
1F
100
AcDbEntity
  8
0
 62
     1
100
AcDbCircle
 10
-37312.7799743306
 20
14257.4727011227
 30
0.0
 40
18.11730912271602
100
AcDbArc
 50
177.9772053337373
 51
233.9638406558199
  0
ARC
  5
449
330
1F
100
AcDbEntity
  8
0
 62
     1
100
AcDbCircle
 10
-37358.48051576575
 20
14199.70331579037
 30
0.0
 40
55.56253754450706
100
AcDbArc
 50
32.38052860395946
 51
50.89965710242642
  0
ARC
  5
44A
330
1F
100
AcDbEntity
  8
0
 62
     1
100
AcDbCircle
 10
-37402.27672768361
 20
14160.98976801257
 30
0.0
 40
113.6576834839492
100
AcDbArc
 50
18.11523530044765
 51
37.04331230755948
  0
ARC
  5
44B
330
1F
100
AcDbEntity
  8
0
 62
     1
100
AcDbCircle
 10
-37281.93960801734
 20
14198.28478474652
 30
0.0
 40
12.46741508513991
100
AcDbArc
 50
189.0241705244302
 51
267.4355531600704
  0
ARC
  5
44C
330
1F
100
AcDbEntity
  8
0
 62
     1
100
AcDbCircle
 10
-37282.42065744778
 20
14182.6209594664
 30
0.0
 40
3.209814453205809
100
AcDbArc
 50
31.84065124266719
 51
91.370692004615
  0
ARC
  5
44D
330
1F
100
AcDbEntity
  8
0
 62
     1
100
AcDbCircle
 10
-37289.9186926514
 20
14176.49257005547
 30
0.0
 40
12.87350162446309
100
AcDbArc
 50
350.931781689181
 51
37.41513356579821
  0
ARC
  5
44E
330
1F
100
AcDbEntity
  8
0
 62
     1
100
AcDbCircle
 10
-37217.6571513717
 20
14155.24347168835
 30
0.0
 40
62.57386539240692
100
AcDbArc
 50
162.1119216880703
 51
174.9037458723899
  0
ARC
  5
463
330
1F
100
AcDbEntity
  8
0
 62
     1
100
AcDbCircle
 10
-37501.24647176469
 20
14277.11546847554
 30
0.0
 40
48.10259387705691
100
AcDbArc
 50
162.2984778551777
 51
181.3407670315097
  0
ARC
  5
464
330
1F
100
AcDbEntity
  8
0
 62
     1
100
AcDbCircle
 10
-37572.41735068628
 20
14278.45574891213
 30
0.0
 40
23.21279413810668
100
AcDbArc
 50
294.2434290709865
 51
353.9021575589533
  0
ARC
  5
465
330
1F
100
AcDbEntity
  8
0
 62
     1
100
AcDbCircle
 10
-37567.68396356007
 20
14276.07548248406
 30
0.0
 40
19.38845311635097
100
AcDbArc
 50
241.954688621437
 51
284.3280247894064
  0
ARC
  5
466
330
1F
100
AcDbEntity
  8
0
 62
     1
100
AcDbCircle
 10
-37577.41799147234
 20
14257.16968007179
 30
0.0
 40
1.897532431020286
100
AcDbArc
 50
70.98757731702095
 51
224.7033751241789
  0
ARC
  5
467
330
1F
100
AcDbEntity
  8
0
 62
     1
100
AcDbCircle
 10
-37567.22288412533
 20
14262.94134224808
 30
0.0
 40
13.55584338812929
100
AcDbArc
 50
211.6167994274664
 51
289.0125603824054
  0
ARC
  5
468
330
1F
100
AcDbEntity
  8
0
 62
     1
100
AcDbCircle
 10
-37585.69100286808
 20
14263.70132809268
 30
0.0
 40
26.60839529930222
100
AcDbArc
 50
245.8953529536584
 51
329.3210535651312
  0
ARC
  5
469
330
1F
100
AcDbEntity
  8
0
 62
     1
100
AcDbCircle
 10
-37597.3148548389
 20
14237.26949600885
 30
0.0
 40
2.273350853733827
100
AcDbArc
 50
70.55336853993662
 51
226.1694841751689
  0
ARC
  5
46A
330
1F
100
AcDbEntity
  8
0
 62
     1
100
AcDbCircle
 10
-37579.6037847577
 20
14253.85304750803
 30
0.0
 40
26.5334635396732
100
AcDbArc
 50
223.3783559561898
 51
280.3381891812581
  0
ARC
  5
46B
330
1F
100
AcDbEntity
  8
0
 62
     1
100
AcDbCircle
 10
-37578.92543455096
 20
14260.79662454247
 30
0.0
 40
33.29760262564484
100
AcDbArc
 50
277.0439222772581
 51
332.8558768913304
  0
ARC
  5
46C
330
1F
100
AcDbEntity
  8
0
 62
     1
100
AcDbCircle
 10
-37565.0615502805
 20
14242.92862892447
 30
0.0
 40
16.02192239659609
100
AcDbArc
 50
329.4308972727925
 51
9.77839541158846
  0
ARC
  5
46D
330
1F
100
AcDbEntity
  8
0
 62
     1
100
AcDbCircle
 10
-37549.95102833514
 20
14233.9115936516
 30
0.0
 40
1.576321557249386
100
AcDbArc
 50
146.5600869905386
 51
299.8926658151366
  0
ARC
  5
46E
330
1F
100
AcDbEntity
  8
0
 62
     1
100
AcDbCircle
 10
-37590.47861529379
 20
14264.96667542374
 30
0.0
 40
52.5161460168061
100
AcDbArc
 50
321.8759498264114
 51
16.72680491743884
  0
ARC
  5
46F
330
1F
100
AcDbEntity
  8
0
 62
     1
100
AcDbCircle
 10
-37484.19404868577
 20
14289.25414949259
 30
0.0
 40
56.73690337384428
100
AcDbArc
 50
151.1001719378256
 51
189.3040683904965
  0
ARC
  5
470
330
1F
100
AcDbEntity
  8
0
 62
     1
100
AcDbCircle
 10
-37534.90527413132
 20
14317.73710803543
 30
0.0
 40
1.487247916204726
100
AcDbArc
 50
314.3689522544282
 51
151.9554244495155
  0
ARC
  5
471
330
1F
100
AcDbEntity
  8
0
 62
     1
100
AcDbCircle
 10
-37495.4119300323
 20
14286.16234554814
 30
0.0
 40
52.0263196777277
100
AcDbArc
 50
141.6590363827173
 51
165.8311417595116
  0
ARC
  5
472
330
1F
100
AcDbEntity
  8
0
 62
     1
100
AcDbCircle
 10
-37548.75354301343
 20
14300.69128893512
 30
0.0
 40
3.408314175109259
100
AcDbArc
 50
208.8996689875275
 51
328.2417742753194
  0
ARC
  5
473
330
1F
100
AcDbEntity
  8
0
 62
     1
100
AcDbCircle
 10
-37553.01933813744
 20
14297.20943301174
 30
0.0
 40
2.238178634882983
100
AcDbArc
 50
55.05745268747674
 51
212.3675490424951
  0
ARC
  5
474
330
1F
100
AcDbEntity
  8
0
 62
     1
100
AcDbCircle
 10
-37548.42825095797
 20
14298.58030299278
 30
0.0
 40
6.972107828828098
100
AcDbArc
 50
201.621845936796
 51
281.2205803403077
  0
ARC
  5
47F
330
1F
100
AcDbEntity
  8
0
 62
     1
100
AcDbCircle
 10
-37487.53807637237
 20
14360.44621637727
 30
0.0
 40
9.945239124002103
100
AcDbArc
 50
221.1795954611803
 51
293.128192019176
  0
ARC
  5
480
330
1F
100
AcDbEntity
  8
0
 62
     1
100
AcDbCircle
 10
-37475.23105568895
 20
14360.68844947211
 30
0.0
 40
11.56627677003952
100
AcDbArc
 50
235.8527040599978
 51
296.8137163011465
  0
ARC
  5
481
330
1F
100
AcDbEntity
  8
0
 62
     1
100
AcDbCircle
 10
-37463.45201623702
 20
14357.21269942112
 30
0.0
 40
8.321714831587751
100
AcDbArc
 50
236.7494363510454
 51
329.188265530798
  0
ARC
  5
482
330
1F
100
AcDbEntity
  8
0
 62
     1
100
AcDbCircle
 10
-37450.92031939225
 20
14363.46314444383
 30
0.0
 40
10.1061060869913
100
AcDbArc
 50
252.3686251561594
 51
330.5937849064209
  0
ARC
  5
483
330
1F
100
AcDbEntity
  8
0
 62
     1
100
AcDbCircle
 10
-37438.08726083554
 20
14368.9771868191
 30
0.0
 40
9.684069468119218
100
AcDbArc
 50
258.7137611329897
 51
282.5715717140167
  0
ARC
  5
484
330
1F
100
AcDbEntity
  8
0
 62
     1
100
AcDbCircle
 10
-37435.14315029453
 20
14357.3664339696
 30
0.0
 40
2.315178362123021
100
AcDbArc
 50
323.7948934762863
 51
111.1750588664636
  0
ARC
  5
485
330
1F
100
AcDbEntity
  8
0
 62
     1
100
AcDbCircle
 10
-37438.04510552812
 20
14357.68783688971
 30
0.0
 40
5.060260524832874
100
AcDbArc
 50
256.7659883158766
 51
340.5026760106688
  0
ARC
  5
486
330
1F
100
AcDbEntity
  8
0
 62
     1
100
AcDbCircle
 10
-37449.71441327075
 20
14357.48911051704
 30
0.0
 40
10.06672236195141
100
AcDbArc
 50
252.2698166586294
 51
326.4204409566511
  0
ARC
  5
487
330
1F
100
AcDbEntity
  8
0
 62
     1
100
AcDbCircle
 10
-37462.233487002
 20
14351.28730685927
 30
0.0
 40
8.306553268952672
100
AcDbArc
 50
231.8036055750302
 51
328.7620910926728
  0
ARC
  5
488
330
1F
100
AcDbEntity
  8
0
 62
     1
100
AcDbCircle
 10
-37474.57945541114
 20
14350.41277100815
 30
0.0
 40
7.37443983061768
100
AcDbArc
 50
220.9975265228791
 51
309.5787940178934
  0
ARC
  5
489
330
1F
100
AcDbEntity
  8
0
 62
     1
100
AcDbCircle
 10
-37487.70310259027
 20
14356.67565937281
 30
0.0
 40
11.80796864766196
100
AcDbArc
 50
205.672220986113
 51
295.9787054125287
  0
ARC
  5
48A
330
1F
100
AcDbEntity
  8
0
 62
     1
100
AcDbCircle
 10
-37496.58560783854
 20
14352.58871776615
 30
0.0
 40
2.038382786771889
100
AcDbArc
 50
39.96670969984349
 51
210.3036348805515
  0
ARC
  5
48B
330
1F
100
AcDbEntity
  8
0
 62
     1
100
AcDbCircle
 10
-37481.65470045943
 20
14344.26289055041
 30
0.0
 40
2.0
100
AcDbArc
 50
40.99752652280925
 51
115.9787054126107
  0
ARC
  5
48C
330
1F
100
AcDbEntity
  8
0
 62
     1
100
AcDbCircle
 10
-37468.60663636492
 20
14343.18742985503
 30
0.0
 40
2.0
100
AcDbArc
 50
51.8036055751213
 51
129.5787940179421
  0
ARC
  5
48D
330
1F
100
AcDbEntity
  8
0
 62
     1
100
AcDbCircle
 10
-37453.38915111159
 20
14345.99554316998
 30
0.0
 40
2.0
100
AcDbArc
 50
72.26981665866633
 51
149.1069746091173
  0
ARC
  5
48E
330
1F
100
AcDbEntity
  8
0
 62
     1
100
AcDbCircle
 10
-37439.66140222758
 20
14350.81507444235
 30
0.0
 40
2.0
100
AcDbArc
 50
76.76598831597366
 51
146.4204409566684
  0
ARC
  5
48F
330
1F
100
AcDbEntity
  8
0
 62
     1
100
AcDbCircle
 10
-37440.37395728522
 20
14357.51906748464
 30
0.0
 40
2.0
100
AcDbArc
 50
78.7137611328815
 51
150.593784906433
  0
ARC
  5
490
330
1F
100
AcDbEntity
  8
0
 62
     1
100
AcDbCircle
 10
-37454.58715974301
 20
14351.92572330947
 30
0.0
 40
2.0
100
AcDbArc
 50
72.36862515607834
 51
149.1882655307478
  0
ARC
  5
491
330
1F
100
AcDbEntity
  8
0
 62
     1
100
AcDbCircle
 10
-37469.1114275126
 20
14348.58084787706
 30
0.0
 40
2.0
100
AcDbArc
 50
56.74943635099232
 51
116.8137163011701
  0
ARC
  5
492
330
1F
100
AcDbEntity
  8
0
 62
     1
100
AcDbCircle
 10
-37482.84610994231
 20
14349.46103596233
 30
0.0
 40
2.0
100
AcDbArc
 50
55.85270405994791
 51
113.128192019082
  0
ARC
  5
49D
330
1F
100
AcDbEntity
  8
0
 62
     1
100
AcDbCircle
 10
-37433.06852477474
 20
14409.22737758807
 30
0.0
 40
36.7057424793221
100
AcDbArc
 50
156.2234424809572
 51
213.0379068338001
  0
ARC
  5
49E
330
1F
100
AcDbEntity
  8
0
 62
     1
100
AcDbCircle
 10
-37513.88352881189
 20
14450.58783611514
 30
0.0
 40
54.18207603413486
100
AcDbArc
 50
330.6441886225508
 51
32.2218566860222
  0
ARC
  5
49F
330
1F
100
AcDbEntity
  8
0
 62
     1
100
AcDbCircle
 10
-37473.95614729501
 20
14465.19704808292
 30
0.0
 40
15.4552708197492
100
AcDbArc
 50
26.55877107820541
 51
67.51754392110995
  0
ARC
  5
4A0
330
1F
100
AcDbEntity
  8
0
 62
     1
100
AcDbCircle
 10
-37459.27283832948
 20
14472.45923143963
 30
0.0
 40
0.9282242598181724
100
AcDbArc
 50
202.2780479797552
 51
14.5651570141413
  0
ARC
  5
4A1
330
1F
100
AcDbEntity
  8
0
 62
     1
100
AcDbCircle
 10
-37521.53455991351
 20
14440.62672018237
 30
0.0
 40
70.83378242813172
100
AcDbArc
 50
26.91658159504728
 51
56.11578292280928
  0
ARC
  5
4A2
330
1F
100
AcDbEntity
  8
0
 62
     1
100
AcDbCircle
 10
-37556.46087947077
 20
14384.33947459133
 30
0.0
 40
137.0543096741019
100
AcDbArc
 50
57.11348268280555
 51
75.4129290839972
  0
ARC
  5
4A3
330
1F
100
AcDbEntity
  8
0
 62
     1
100
AcDbCircle
 10
-37524.2495800125
 20
14509.43096834672
 30
0.0
 40
7.889528276416259
100
AcDbArc
 50
73.00540408777696
 51
114.5562559819311
  0
ARC
  5
4A4
330
1F
100
AcDbEntity
  8
0
 62
     1
100
AcDbCircle
 10
-37529.42957655631
 20
14522.44586207105
 30
0.0
 40
6.140675082685463
100
AcDbArc
 50
241.4827907643956
 51
288.0357363870798
  0
ARC
  5
4A5
330
1F
100
AcDbEntity
  8
0
 62
     1
100
AcDbCircle
 10
-37687.8492165518
 20
14235.72910586805
 30
0.0
 40
321.4312756830052
100
AcDbArc
 50
61.0702955028907
 51
71.03939947084796
  0
ARC
  5
4A6
330
1F
100
AcDbEntity
  8
0
 62
     1
100
AcDbCircle
 10
-37584.19856758894
 20
14538.17655544772
 30
0.0
 40
1.733231438201781
100
AcDbArc
 50
62.95351407898152
 51
236.8489912357007
  0
ARC
  5
4A7
330
1F
100
AcDbEntity
  8
0
 62
     1
100
AcDbCircle
 10
-37449.09746881059
 20
14731.67781724097
 30
0.0
 40
237.7303862759069
100
AcDbArc
 50
235.0904628471139
 51
248.4246588954775
  0
ARC
  5
4A8
330
1F
100
AcDbEntity
  8
0
 62
     1
100
AcDbCircle
 10
-37538.30055361905
 20
14532.3263334821
 30
0.0
 40
21.79540409735479
100
AcDbArc
 50
245.9909395429162
 51
274.69458536754
  0
ARC
  5
4A9
330
1F
100
AcDbEntity
  8
0
 62
     1
100
AcDbCircle
 10
-37547.45432280909
 20
14510.49783121116
 30
0.0
 40
1.939954780417018
100
AcDbArc
 50
81.53321792846609
 51
237.0303654321423
  0
ARC
  5
4AA
330
1F
100
AcDbEntity
  8
0
 62
     1
100
AcDbCircle
 10
-37421.31158665748
 20
14781.10283130017
 30
0.0
 40
300.4829491761683
100
AcDbArc
 50
244.9560483678699
 51
248.1732347866098
  0
ARC
  5
4AB
330
1F
100
AcDbEntity
  8
0
 62
     1
100
AcDbCircle
 10
-37527.6260662168
 20
14580.01208904969
 30
0.0
 40
78.03869776101793
100
AcDbArc
 50
261.3055024207376
 51
266.0280878494996
  0
ARC
  5
4AC
330
1F
100
AcDbEntity
  8
0
 62
     1
100
AcDbCircle
 10
-37539.68059371515
 20
14501.39762968951
 30
0.0
 40
1.494936057012998
100
AcDbArc
 50
80.07216750615205
 51
245.9083114045443
  0
ARC
  5
4AD
330
1F
100
AcDbEntity
  8
0
 62
     1
100
AcDbCircle
 10
-37581.60403851093
 20
14370.90594588786
 30
0.0
 40
135.5749062604563
100
AcDbArc
 50
60.16500343064136
 51
72.25831275067303
  0
ARC
  5
4AE
330
1F
100
AcDbEntity
  8
0
 62
     1
100
AcDbCircle
 10
-37510.82926317871
 20
14487.40023240109
 30
0.0
 40
3.506634457620242
100
AcDbArc
 50
161.5157515515553
 51
287.3148894372529
  0
ARC
  5
4AF
330
1F
100
AcDbEntity
  8
0
 62
     1
100
AcDbCircle
 10
-37508.05046034479
 20
14482.68780624768
 30
0.0
 40
2.207519990655842
100
AcDbArc
 50
141.814819832266
 51
299.219011156895
  0
ARC
  5
4B0
330
1F
100
AcDbEntity
  8
0
 62
     1
100
AcDbCircle
 10
-37503.15966520758
 20
14479.27830212059
 30
0.0
 40
4.091376546018235
100
AcDbArc
 50
158.7500277789328
 51
287.7937888814198
  0
ARC
  5
4B1
330
1F
100
AcDbEntity
  8
0
 62
     1
100
AcDbCircle
 10
-37500.0445361843
 20
14473.68153424443
 30
0.0
 40
2.524163141384628
100
AcDbArc
 50
137.6287885929037
 51
296.2912998826917
  0
ARC
  5
4B2
330
1F
100
AcDbEntity
  8
0
 62
     1
100
AcDbCircle
 10
-37503.92038341933
 20
14470.5354451797
 30
0.0
 40
5.071358305654014
100
AcDbArc
 50
318.3323853381306
 51
10.02763928457997
  0
ARC
  5
4B3
330
1F
100
AcDbEntity
  8
0
 62
     1
100
AcDbCircle
 10
-37490.97364925154
 20
14462.99551914987
 30
0.0
 40
10.06237846409566
100
AcDbArc
 50
155.5272486021431
 51
211.3725885139023
  0
ARC
  5
4B4
330
1F
100
AcDbEntity
  8
0
 62
     1
100
AcDbCircle
 10
-37218.70807121829
 20
14710.99355079253
 30
0.0
 40
378.1656999809239
100
AcDbArc
 50
222.0396202233959
 51
223.5983366606392
  0
ARC
  5
4B5
330
1F
100
AcDbEntity
  8
0
 62
     1
100
AcDbCircle
 10
-37413.4490848903
 20
14430.45040707948
 30
0.0
 40
81.553746390703
100
AcDbArc
 50
165.9775532596494
 51
210.8215905405209
  0
ARC
  5
4B6
330
1F
100
AcDbEntity
  8
0
 62
     1
100
AcDbCircle
 10
-37451.62214552375
 20
14412.20837568918
 30
0.0
 40
39.6171127235112
100
AcDbArc
 50
216.4608166848708
 51
285.9609712879845
  0
ARC
  5
4B7
330
1F
100
AcDbEntity
  8
0
 62
     1
100
AcDbCircle
 10
-37417.69051387729
 20
14334.57162377985
 30
0.0
 40
45.76778259913686
100
AcDbArc
 50
99.6511887288063
 51
120.2224704083142
  0
ARC
  5
4B8
330
1F
100
AcDbEntity
  8
0
 62
     1
100
AcDbCircle
 10
-37418.82354768746
 20
14330.22240198023
 30
0.0
 40
49.89965836101125
100
AcDbArc
 50
76.39748551714042
 51
97.53092699096768
  0
ARC
  5
4B9
330
1F
100
AcDbEntity
  8
0
 62
     1
100
AcDbCircle
 10
-37407.13900305891
 20
14380.6458647623
 30
0.0
 40
1.924134423985415
100
AcDbArc
 50
271.5216556324818
 51
57.9304229309985
  0
ARC
  5
4BA
330
1F
100
AcDbEntity
  8
0
 62
     1
100
AcDbCircle
 10
-37421.15046460582
 20
14341.36415844466
 30
0.0
 40
43.58673688690546
100
AcDbArc
 50
69.82429074696773
 51
102.6566285032492
  0
ARC
  5
4BB
330
1F
100
AcDbEntity
  8
0
 62
     1
100
AcDbCircle
 10
-37437.55499344444
 20
14411.8603288979
 30
0.0
 40
28.79622210378113
100
AcDbArc
 50
214.5656418244945
 51
283.7702473564151
  0
ARC
  5
4BC
330
1F
100
AcDbEntity
  8
0
 62
     1
100
AcDbCircle
 10
-37462.44739568876
 20
14394.44560519945
 30
0.0
 40
1.597270966899198
100
AcDbArc
 50
42.40691551602977
 51
197.8365935158082
  0
ARC
  5
4BD
330
1F
100
AcDbEntity
  8
0
 62
     1
100
AcDbCircle
 10
-37539.848027749
 20
14389.52628390935
 30
0.0
 40
76.00934490748503
100
AcDbArc
 50
359.8035225122479
 51
3.341277898924226
  0
ARC
  5
4C8
330
1F
100
AcDbEntity
  8
0
 62
     1
100
AcDbCircle
 10
-37197.2482954886
 20
14673.57051076445
 30
0.0
 40
323.7510242180448
100
AcDbArc
 50
240.2246489194534
 51
246.2961694022139
  0
ARC
  5
4C9
330
1F
100
AcDbEntity
  8
0
 62
     1
100
AcDbCircle
 10
-37369.50690172148
 20
14345.1071832667
 30
0.0
 40
52.92691009430248
100
AcDbArc
 50
357.2735567271734
 51
37.20770082391373
  0
ARC
  5
4CA
330
1F
100
AcDbEntity
  8
0
 62
     1
100
AcDbCircle
 10
-37313.70174407696
 20
14344.52117373952
 30
0.0
 40
3.516221837655892
100
AcDbArc
 50
213.321504363886
 51
321.3588197978072
  0
ARC
  5
4CB
330
1F
100
AcDbEntity
  8
0
 62
     1
100
AcDbCircle
 10
-37379.49091315855
 20
14343.8627472594
 30
0.0
 40
68.5528290345023
100
AcDbArc
 50
358.7150763203942
 51
29.50105468270814
  0
ARC
  5
4CC
330
1F
100
AcDbEntity
  8
0
 62
     1
100
AcDbCircle
 10
-37330.96923106914
 20
14370.6448743427
 30
0.0
 40
13.14655642729933
100
AcDbArc
 50
32.04824776505062
 51
62.51177366779273
  0
ARC
  5
4CD
330
1F
100
AcDbEntity
  8
0
 62
     1
100
AcDbCircle
 10
-37475.25429108685
 20
14097.81011492984
 30
0.0
 40
321.783576745406
100
AcDbArc
 50
62.14412646223835
 51
68.18533700531594
  0
ARC
  5
4CE
330
1F
100
AcDbEntity
  8
0
 62
     1
100
AcDbCircle
 10
-37356.44302071255
 20
14394.31663147646
 30
0.0
 40
2.361796022405087
100
AcDbArc
 50
71.0940992693598
 51
228.0040131160685
  0
ARC
  5
4CF
330
1F
100
AcDbEntity
  8
0
 62
     1
100
AcDbCircle
 10
-37314.08952071038
 20
14396.58340717791
 30
0.0
 40
22.53077042641536
100
AcDbArc
 50
319.3534184408652
 51
0.7158375271880658
  0
ARC
  5
4D0
330
1F
100
AcDbEntity
  8
0
 62
     1
100
AcDbCircle
 10
-37294.01342790554
 20
14396.8125108581
 30
0.0
 40
2.45347844353439
100
AcDbArc
 50
1.223367388415679
 51
140.6325763444902
  0
ARC
  5
4D1
330
1F
100
AcDbEntity
  8
0
 62
     1
100
AcDbCircle
 10
-37333.69162560754
 20
14407.30851818218
 30
0.0
 40
38.82468370921468
100
AcDbArc
 50
326.8666397127938
 51
346.6875959112599
  0
ARC
  5
4D2
330
1F
100
AcDbEntity
  8
0
 62
     1
100
AcDbCircle
 10
-37295.45321214005
 20
14381.88445975061
 30
0.0
 40
7.103394986610527
100
AcDbArc
 50
143.7241605091994
 51
190.6362257950997
  0
ARC
  5
4D3
330
1F
100
AcDbEntity
  8
0
 62
     1
100
AcDbCircle
 10
-37357.58235117521
 20
14365.24088214572
 30
0.0
 40
57.23952878271564
100
AcDbArc
 50
340.7980501803431
 51
15.53727985836315
  0
ARC
  5
4D4
330
1F
100
AcDbEntity
  8
0
 62
     1
100
AcDbCircle
 10
-37300.52839355275
 20
14344.92749708196
 30
0.0
 40
3.347524518874582
100
AcDbArc
 50
153.6201299440669
 51
334.5835348947784
  0
ARC
  5
4D5
330
1F
100
AcDbEntity
  8
0
 62
     1
100
AcDbCircle
 10
-37342.36132322961
 20
14363.29825101424
 30
0.0
 40
49.03507184355458
100
AcDbArc
 50
336.1749400611336
 51
22.24429012476596
  0
ARC
  5
4D6
330
1F
100
AcDbEntity
  8
0
 62
     1
100
AcDbCircle
 10
-37387.62353985319
 20
14486.59875668209
 30
0.0
 40
15.50565523978226
100
AcDbArc
 50
305.3115558562708
 51
344.5788457023291
  0
ARC
  5
4D7
330
1F
100
AcDbEntity
  8
0
 62
     1
100
AcDbCircle
 10
-37376.82958224423
 20
14484.44194874809
 30
0.0
 40
4.586969577333802
100
AcDbArc
 50
335.2811911427993
 51
45.01424525996275
  0
ARC
  5
4D8
330
1F
100
AcDbEntity
  8
0
 62
     1
100
AcDbCircle
 10
-37374.36060520824
 20
14486.13050265043
 30
0.0
 40
1.737497316087844
100
AcDbArc
 50
63.55797443906001
 51
169.6673872166944
  0
ARC
  5
4D9
330
1F
100
AcDbEntity
  8
0
 62
     1
100
AcDbCircle
 10
-37379.75207988553
 20
14484.9042393165
 30
0.0
 40
3.990414793635838
100
AcDbArc
 50
254.1128409388272
 51
22.66855690881904
  0
ARC
  5
4DA
330
1F
100
AcDbEntity
  8
0
 62
     1
100
AcDbCircle
 10
-37372.55183920241
 20
14477.0457769813
 30
0.0
 40
9.21581563244525
100
AcDbArc
 50
154.1346486881731
 51
197.9140601274844
  0
ARC
  5
4DB
330
1F
100
AcDbEntity
  8
0
 62
     1
100
AcDbCircle
 10
-37379.82342167879
 20
14475.75776442934
 30
0.0
 40
2.152800954940093
100
AcDbArc
 50
225.9267143862536
 51
302.6830866325934
  0
ARC
  5
4DC
330
1F
100
AcDbEntity
  8
0
 62
     1
100
AcDbCircle
 10
-37390.42427615419
 20
14435.95714343888
 30
0.0
 40
12.14008086297213
100
AcDbArc
 50
130.3763811720417
 51
194.4183714543715
  0
ARC
  5
4DD
330
1F
100
AcDbEntity
  8
0
 62
     1
100
AcDbCircle
 10
-37398.75277699487
 20
14434.39140983077
 30
0.0
 40
3.725957851514072
100
AcDbArc
 50
203.0217888767487
 51
270.2748812055077
  0
ARC
  5
4DE
330
1F
100
AcDbEntity
  8
0
 62
     1
100
AcDbCircle
 10
-37398.26207479448
 20
14432.30233819343
 30
0.0
 40
1.703766759614959
100
AcDbArc
 50
253.8878473218339
 51
0.9219929057077481
  0
ARC
  5
4DF
330
1F
100
AcDbEntity
  8
0
 62
     1
100
AcDbCircle
 10
-37381.31086624163
 20
14437.75416887572
 30
0.0
 40
16.18380326203127
100
AcDbArc
 50
167.312169391165
 51
183.4476914177013
  0
ARC
  5
4E0
330
1F
100
AcDbEntity
  8
0
 62
     1
100
AcDbCircle
 10
-37396.21293529575
 20
14441.15928361809
 30
0.0
 40
0.8990589161521327
100
AcDbArc
 50
73.78536215097369
 51
170.4294270710516
  0
ARC
  5
4E1
330
1F
100
AcDbEntity
  8
0
 62
     1
100
AcDbCircle
 10
-37395.67392119122
 20
14442.68427031676
 30
0.0
 40
0.7216351260340871
100
AcDbArc
 50
246.481577830773
 51
1.823195357320358
  0
ARC
  5
4E2
330
1F
100
AcDbEntity
  8
0
 62
     1
100
AcDbCircle
 10
-37396.78586109329
 20
14443.73579434037
 30
0.0
 40
2.10204748535291
100
AcDbArc
 50
330.7043829838304
 51
135.6380280821892
  0
ARC
  5
4ED
330
1F
100
AcDbEntity
  8
0
 62
     1
100
AcDbCircle
 10
-37349.87731661627
 20
14517.01871578146
 30
0.0
 40
18.12442732543122
100
AcDbArc
 50
142.4041549948575
 51
177.0286750307652
  0
ARC
  5
4EE
330
1F
100
AcDbEntity
  8
0
 62
     1
100
AcDbCircle
 10
-37365.45066016653
 20
14518.11834910465
 30
0.0
 40
2.531786514619843
100
AcDbArc
 50
183.6263124470785
 51
242.8939311893732
  0
ARC
  5
4EF
330
1F
100
AcDbEntity
  8
0
 62
     1
100
AcDbCircle
 10
-37364.72256356234
 20
14522.59347311436
 30
0.0
 40
6.986978789967179
100
AcDbArc
 50
254.3766643971249
 51
288.6828738886909
  0
ARC
  5
4F0
330
1F
100
AcDbEntity
  8
0
 62
     1
100
AcDbCircle
 10
-37362.98479738078
 20
14517.02880898385
 30
0.0
 40
1.17358778187731
100
AcDbArc
 50
297.8184190991096
 51
355.6012119956203
  0
ARC
  5
4F1
330
1F
100
AcDbEntity
  8
0
 62
     1
100
AcDbCircle
 10
-37413.94205627709
 20
14522.08308926031
 30
0.0
 40
52.38061187581972
100
AcDbArc
 50
354.3639050150198
 51
6.242748061391967
  0
ARC
  5
4F2
330
1F
100
AcDbEntity
  8
0
 62
     1
100
AcDbCircle
 10
-37363.08748223272
 20
14527.66891084664
 30
0.0
 40
1.220403216912022
100
AcDbArc
 50
5.176107528853651
 51
160.504169946891
  0
ARC
  5
4FD
330
1F
100
AcDbEntity
  8
0
 62
     1
100
AcDbCircle
 10
-37303.91571951345
 20
14498.5994682055
 30
0.0
 40
30.02903456572057
100
AcDbArc
 50
205.9746331728406
 51
251.0771623243341
  0
ARC
  5
4FE
330
1F
100
AcDbEntity
  8
0
 62
     1
100
AcDbCircle
 10
-37314.87819106692
 20
14468.14666516879
 30
0.0
 40
2.384848656688987
100
AcDbArc
 50
267.2421765155789
 51
59.11392047900427
  0
ARC
  5
4FF
330
1F
100
AcDbEntity
  8
0
 62
     1
100
AcDbCircle
 10
-37314.78881701131
 20
14485.52859674931
 30
0.0
 40
19.76507219957008
100
AcDbArc
 50
230.1693311974714
 51
269.4082785885701
  0
ARC
  5
500
330
1F
100
AcDbEntity
  8
0
 62
     1
100
AcDbCircle
 10
-37260.39672913065
 20
14487.08170795674
 30
0.0
 40
69.10801824146304
100
AcDbArc
 50
194.0109145897551
 51
230.075395304472
  0
ARC
  5
501
330
1F
100
AcDbEntity
  8
0
 62
     1
100
AcDbCircle
 10
-37306.14756770237
 20
14433.12623671258
 30
0.0
 40
1.694952103113888
100
AcDbArc
 50
250.4539588773811
 51
34.3859605335563
  0
ARC
  5
502
330
1F
100
AcDbEntity
  8
0
 62
     1
100
AcDbCircle
 10
-37280.81983160477
 20
14476.84232941402
 30
0.0
 40
52.19044429331763
100
AcDbArc
 50
200.9755638786543
 51
240.2537343882306
  0
ARC
  5
503
330
1F
100
AcDbEntity
  8
0
 62
     1
100
AcDbCircle
 10
-36947.89204279389
 20
14444.15850810542
 30
0.0
 40
381.9164700980877
100
AcDbArc
 50
177.9065425626565
 51
179.3038014016888
  0
ARC
  5
504
330
1F
100
AcDbEntity
  8
0
 62
     1
100
AcDbCircle
 10
-37331.08616161922
 20
14449.22604727562
 30
0.0
 40
1.373883504053097
100
AcDbArc
 50
236.830448230755
 51
341.8925746685395
  0
ARC
  5
505
330
1F
100
AcDbEntity
  8
0
 62
     1
100
AcDbCircle
 10
-37306.73417941223
 20
14475.42766476806
 30
0.0
 40
37.12553810001872
100
AcDbArc
 50
181.6823228847136
 51
227.4539123570683
  0
ARC
  5
506
330
1F
100
AcDbEntity
  8
0
 62
     1
100
AcDbCircle
 10
-37441.26897417519
 20
14488.16731289265
 30
0.0
 40
98.40192186750263
100
AcDbArc
 50
351.9208061810834
 51
4.464085324323651
  0
ARC
  5
507
330
1F
100
AcDbEntity
  8
0
 62
     1
100
AcDbCircle
 10
-37371.89409281107
 20
14493.52895695808
 30
0.0
 40
28.82023388527515
100
AcDbArc
 50
4.572152641256093
 51
45.3789403501372
  0
ARC
  5
508
330
1F
100
AcDbEntity
  8
0
 62
     1
100
AcDbCircle
 10
-37349.9671634457
 20
14514.97343287224
 30
0.0
 40
1.923571297854889
100
AcDbArc
 50
64.26748269104409
 51
208.9520696275803
  0
ARC
  5
509
330
1F
100
AcDbEntity
  8
0
 62
     1
100
AcDbCircle
 10
-37370.11474673526
 20
14487.72647826212
 30
0.0
 40
35.77851736480263
100
AcDbArc
 50
33.75412307255034
 51
54.09365876926571
  0
ARC
  5
50A
330
1F
100
AcDbEntity
  8
0
 62
     1
100
AcDbCircle
 10
-37337.35371459997
 20
14510.67170354265
 30
0.0
 40
4.298883590524458
100
AcDbArc
 50
225.4890614206793
 51
276.5369529131153
  0
ARC
  5
50B
330
1F
100
AcDbEntity
  8
0
 62
     1
100
AcDbCircle
 10
-37337.20837631246
 20
14503.62580238507
 30
0.0
 40
2.796214780267503
100
AcDbArc
 50
0.3010131021926643
 51
82.93205584890531
  0
ARC
  5
50C
330
1F
100
AcDbEntity
  8
0
 62
     1
100
AcDbCircle
 10
-37335.642710865
 20
14503.56968892509
 30
0.0
 40
1.23254609071561
100
AcDbArc
 50
246.9797622034631
 51
3.293176923473462
  0
ARC
  5
50D
330
1F
100
AcDbEntity
  8
0
 62
     1
100
AcDbCircle
 10
-37336.55009421428
 20
14501.97162472736
 30
0.0
 40
0.6292415980957568
100
AcDbArc
 50
47.46552774298209
 51
197.8987649545615
  0
ARC
  5
50E
330
1F
100
AcDbEntity
  8
0
 62
     1
100
AcDbCircle
 10
-37320.218983278
 20
14504.7246495286
 30
0.0
 40
17.18437647432997
100
AcDbArc
 50
189.8726506316814
 51
258.4556917709263
  0
ARC
  5
50F
330
1F
100
AcDbEntity
  8
0
 62
     1
100
AcDbCircle
 10
-37324.28301360959
 20
14486.9484906319
 30
0.0
 40
1.128328858129948
100
AcDbArc
 50
287.2891712553136
 51
56.364160533942
  0
ARC
  5
510
330
1F
100
AcDbEntity
  8
0
 62
     1
100
AcDbCircle
 10
-37326.13715447783
 20
14499.31323053386
 30
0.0
 40
13.61923313965558
100
AcDbArc
 50
252.109656649416
 51
279.2512081125757
  0
ARC
  5
511
330
1F
100
AcDbEntity
  8
0
 62
     1
100
AcDbCircle
 10
-37330.46817571119
 20
14485.80345910229
 30
0.0
 40
0.5684802205770185
100
AcDbArc
 50
74.9884561749552
 51
218.7600087477421
  0
ARC
  5
51C
330
1F
100
AcDbEntity
  8
0
 62
     1
100
AcDbCircle
 10
-37293.47769319319
 20
14469.21570378817
 30
0.0
 40
36.14655806785237
100
AcDbArc
 50
349.6652023933947
 51
43.84803163513152
  0
ARC
  5
51D
330
1F
100
AcDbEntity
  8
0
 62
     1
100
AcDbCircle
 10
-37256.5356209611
 20
14470.95662932088
 30
0.0
 40
8.34088761542362
100
AcDbArc
 50
221.1237421406045
 51
260.4630648217705
  0
ARC
  5
51E
330
1F
100
AcDbEntity
  8
0
 62
     1
100
AcDbCircle
 10
-37284.65812431318
 20
14454.80686868085
 30
0.0
 40
24.30393253822104
100
AcDbArc
 50
346.9103943372703
 51
26.02602428542958
  0
ARC
  5
51F
330
1F
100
AcDbEntity
  8
0
 62
     1
100
AcDbCircle
 10
-37262.62540007222
 20
14453.24774373664
 30
0.0
 40
4.272293093533817
100
AcDbArc
 50
227.7239414757515
 51
292.5694781112063
  0
ARC
  5
520
330
1F
100
AcDbEntity
  8
0
 62
     1
100
AcDbCircle
 10
-37290.41420156402
 20
14442.79257647581
 30
0.0
 40
25.9605686344637
100
AcDbArc
 50
331.5892716986087
 51
16.31788573752502
  0
ARC
  5
521
330
1F
100
AcDbEntity
  8
0
 62
     1
100
AcDbCircle
 10
-37266.69821560657
 20
14433.65582218597
 30
0.0
 40
3.333817541400383
100
AcDbArc
 50
195.4062211519743
 51
254.6569372470687
  0
ARC
  5
522
330
1F
100
AcDbEntity
  8
0
 62
     1
100
AcDbCircle
 10
-37319.08277405533
 20
14447.41178894571
 30
0.0
 40
51.30418132961489
100
AcDbArc
 50
323.2326302517431
 51
343.4179181494849
  0
ARC
  5
523
330
1F
100
AcDbEntity
  8
0
 62
     1
100
AcDbCircle
 10
-37279.19528618006
 20
14419.92829266943
 30
0.0
 40
3.445313765233955
100
AcDbArc
 50
240.1283032412199
 51
290.5763785726652
  0
ARC
  5
524
330
1F
100
AcDbEntity
  8
0
 62
     1
100
AcDbCircle
 10
-37318.03254572185
 20
14389.56816040364
 30
0.0
 40
46.12208486816101
100
AcDbArc
 50
36.40437822944373
 51
43.72858401472009
  0
ARC
  5
525
330
1F
100
AcDbEntity
  8
0
 62
     1
100
AcDbCircle
 10
-37281.0434667081
 20
14422.69204062705
 30
0.0
 40
3.86530825890397
100
AcDbArc
 50
145.2252633774395
 51
198.7476389430367
  0
ARC
  5
526
330
1F
100
AcDbEntity
  8
0
 62
     1
100
AcDbCircle
 10
-37330.43592941027
 20
14446.59061366927
 30
0.0
 40
51.05571510924569
100
AcDbArc
 50
334.8551509445542
 51
28.80903749839854
  0
ARC
  5
527
330
1F
100
AcDbEntity
  8
0
 62
     1
100
AcDbCircle
 10
-37234.81344813191
 20
14496.83235396789
 30
0.0
 40
56.97984173286288
100
AcDbArc
 50
189.4258387875366
 51
206.7408424164647
  0
ARC
  5
528
330
1F
100
AcDbEntity
  8
0
 62
     1
100
AcDbCircle
 10
-37250.67317981175
 20
14491.1028972847
 30
0.0
 40
40.51125858104803
100
AcDbArc
 50
137.4010725093297
 51
185.1013649388124
  0
ARC
  5
529
330
1F
100
AcDbEntity
  8
0
 62
     1
100
AcDbCircle
 10
-37251.10846548401
 20
14486.47184016944
 30
0.0
 40
43.48343738346026
100
AcDbArc
 50
106.2599219223792
 51
132.515125933959
  0
ARC
  5
52A
330
1F
100
AcDbEntity
  8
0
 62
     1
100
AcDbCircle
 10
-37247.8397123234
 20
14457.75190001822
 30
0.0
 40
72.13670183010162
100
AcDbArc
 50
78.15430712465668
 51
102.3622777131594
  0
ARC
  5
52B
330
1F
100
AcDbEntity
  8
0
 62
     1
100
AcDbCircle
 10
-37234.45737405344
 20
14525.62276774041
 30
0.0
 40
3.079484337606586
100
AcDbArc
 50
282.9174735751815
 51
62.42251414607267
  0
ARC
  5
52C
330
1F
100
AcDbEntity
  8
0
 62
     1
100
AcDbCircle
 10
-37239.55163241668
 20
14642.96034703166
 30
0.0
 40
120.477988806209
100
AcDbArc
 50
264.8841381974471
 51
272.7511239206708
  0
ARC
  5
52D
330
1F
100
AcDbEntity
  8
0
 62
     1
100
AcDbCircle
 10
-37295.64119868419
 20
14459.74013954337
 30
0.0
 40
77.80327258173659
100
AcDbArc
 50
50.08543688146762
 51
54.31292702132407
  0
ARC
  5
52E
330
1F
100
AcDbEntity
  8
0
 62
     1
100
AcDbCircle
 10
-37247.36709566752
 20
14518.25152494832
 30
0.0
 40
2.017513947663785
100
AcDbArc
 50
281.9767769845422
 51
35.23221661352395
  0
ARC
  5
52F
330
1F
100
AcDbEntity
  8
0
 62
     1
100
AcDbCircle
 10
-37253.60568302109
 20
14531.51200180301
 30
0.0
 40
16.62516138417596
100
AcDbArc
 50
255.8507749474883
 51
293.6052085956434
  0
ARC
  5
530
330
1F
100
AcDbEntity
  8
0
 62
     1
100
AcDbCircle
 10
-37279.22835084717
 20
14474.42049142853
 30
0.0
 40
46.2966115301275
100
AcDbArc
 50
51.42861781071289
 51
62.24677959021922
  0
ARC
  5
531
330
1F
100
AcDbEntity
  8
0
 62
     1
100
AcDbCircle
 10
-37251.63872619938
 20
14509.02796948459
 30
0.0
 40
2.037557854078561
100
AcDbArc
 50
290.7622131084545
 51
51.23355950541374
  0
ARC
  5
532
330
1F
100
AcDbEntity
  8
0
 62
     1
100
AcDbCircle
 10
-37254.75550991904
 20
14528.03926717879
 30
0.0
 40
21.26593508660008
100
AcDbArc
 50
256.1051006367085
 51
280.4004654459601
  0
ARC
  5
533
330
1F
100
AcDbEntity
  8
0
 62
     1
100
AcDbCircle
 10
-37262.39331210771
 20
14503.76643339532
 30
0.0
 40
4.424564988872218
100
AcDbArc
 50
259.9408593762754
 51
55.10837777419077
  0
ARC
  5
534
330
1F
100
AcDbEntity
  8
0
 62
     1
100
AcDbCircle
 10
-37266.62479740733
 20
14499.62774911794
 30
0.0
 40
3.46552546517351
100
AcDbArc
 50
262.9651211782753
 51
356.3956248817472
  0
ARC
  5
535
330
1F
100
AcDbEntity
  8
0
 62
     1
100
AcDbCircle
 10
-37266.33117608294
 20
14495.05474494735
 30
0.0
 40
1.34185743803214
100
AcDbArc
 50
122.3521368914981
 51
216.5222247974326
  0
LINE
  5
536
330
1F
100
AcDbEntity
  8
0
 62
     1
100
AcDbLine
 10
-37279.98365445224
 20
14160.80185669644
 30
0.0
 11
-37372.82402850665
 21
14160.80185669644
 31
0.0
  0
LINE
  5
537
330
1F
100
AcDbEntity
  8
0
 62
     1
100
AcDbLine
 10
-37407.75947704322
 20
14160.80185669644
 30
0.0
 11
-37511.7107478058
 21
14160.80185669644
 31
0.0
  0
LINE
  5
538
330
1F
100
AcDbEntity
  8
0
 62
     1
100
AcDbLine
 10
-37540.50482000146
 20
14160.80185669644
 30
0.0
 11
-37575.66732464248
 21
14160.80185669644
 31
0.0
  0
LINE
  5
539
330
1F
100
AcDbEntity
  8
0
 62
     1
100
AcDbLine
 10
-37214.54524621908
 20
14160.80185669644
 30
0.0
 11
-37243.11166177344
 21
14160.80185669644
 31
0.0
  0
LINE
  5
56E
330
1F
100
AcDbEntity
  8
0
  6
Continuous
 62
     1
100
AcDbLine
 10
-37387.82516670398
 20
14129.50992309357
 30
0.0
 11
-37356.68315964248
 21
14102.33064626307
 31
0.0
  0
LINE
  5
56F
330
1F
100
AcDbEntity
  8
0
  6
Continuous
 62
     1
100
AcDbLine
 10
-37341.93315964247
 20
14102.33064626307
 30
0.0
 11
-37356.68315964248
 21
14102.33064626307
 31
0.0
  0
LINE
  5
570
102
{ACAD_REACTORS
330
58B
102
}
330
1F
100
AcDbEntity
  8
0
  6
Continuous
 62
     1
100
AcDbLine
 10
-37341.93315964247
 20
14142.33064626307
 30
0.0
 11
-37341.93315964247
 21
14102.33064626307
 31
0.0
  0
LINE
  5
571
102
{ACAD_REACTORS
330
58A
102
}
330
1F
100
AcDbEntity
  8
0
  6
Continuous
 62
     1
100
AcDbLine
 10
-37321.43315964247
 20
14142.33064626307
 30
0.0
 11
-37321.43315964247
 21
14102.33064626307
 31
0.0
  0
LINE
  5
572
330
1F
100
AcDbEntity
  8
0
  6
Continuous
 62
     1
100
AcDbLine
 10
-37321.43315964247
 20
14102.33064626307
 30
0.0
 11
-37306.68315964248
 21
14102.33064626307
 31
0.0
  0
LINE
  5
573
330
1F
100
AcDbEntity
  8
0
  6
Continuous
 62
     1
100
AcDbLine
 10
-37275.54115258098
 20
14129.50992309357
 30
0.0
 11
-37306.68315964248
 21
14102.33064626307
 31
0.0
  0
LINE
  5
574
330
1F
100
AcDbEntity
  8
0
 62
     1
100
AcDbLine
 10
-37443.76270702169
 20
14124.43215235486
 30
0.0
 11
-37405.66874003361
 21
14102.71560421441
 31
0.0
  0
ARC
  5
575
330
1F
100
AcDbEntity
  8
0
 62
     1
100
AcDbCircle
 10
-37411.16577068216
 20
14134.68556612365
 30
0.0
 40
23.90755267360463
100
AcDbArc
 50
285.5026741720838
 51
347.4972959412315
  0
ARC
  5
576
330
1F
100
AcDbEntity
  8
0
 62
     1
100
AcDbCircle
 10
-37438.85546991446
 20
14110.38415631899
 30
0.0
 40
34.10315485409311
100
AcDbArc
 50
2.123530504458868
 51
35.37683822656477
  0
ARC
  5
577
330
1F
100
AcDbEntity
  8
0
 62
     1
100
AcDbCircle
 10
-37424.63907220107
 20
14119.37079294424
 30
0.0
 40
17.33236951399941
100
AcDbArc
 50
38.36405768782471
 51
116.3505013524848
  0
ARC
  5
578
330
1F
100
AcDbEntity
  8
0
 62
     1
100
AcDbCircle
 10
-37421.18891202854
 20
14111.39261800744
 30
0.0
 40
26.01685266769661
100
AcDbArc
 50
115.360473817279
 51
149.8875576068345
  0
ARC
  5
579
330
1F
100
AcDbEntity
  8
0
 62
     1
100
AcDbCircle
 10
-37439.16913602926
 20
14131.62519740413
 30
0.0
 40
8.534681689628849
100
AcDbArc
 50
173.0603270599312
 51
237.4371757392983
  0
ARC
  5
57A
330
1F
100
AcDbEntity
  8
0
 62
     1
100
AcDbCircle
 10
-37423.80067516597
 20
14130.83985127014
 30
0.0
 40
23.90972259528648
100
AcDbArc
 50
163.5912497653837
 51
175.6427515650127
  0
ARC
  5
57B
330
1F
100
AcDbEntity
  8
0
 62
     1
100
AcDbCircle
 10
-37457.62134790122
 20
14155.48045160613
 30
0.0
 40
20.93801126780157
100
AcDbArc
 50
263.4209406931466
 51
301.3225210825914
  0
ARC
  5
57C
330
1F
100
AcDbEntity
  8
0
 62
     1
100
AcDbCircle
 10
-37457.74815190612
 20
14159.07865632453
 30
0.0
 40
24.50390414381075
100
AcDbArc
 50
223.1164462674272
 51
264.6795477019102
  0
ARC
  5
57D
330
1F
100
AcDbEntity
  8
0
 62
     1
100
AcDbCircle
 10
-37252.23627995085
 20
14134.65165832233
 30
0.0
 40
23.86534159548636
100
AcDbArc
 50
192.4417997835891
 51
254.5582301020693
  0
ARC
  5
57E
330
1F
100
AcDbEntity
  8
0
 62
     1
100
AcDbCircle
 10
-37226.32144123376
 20
14111.03762758486
 30
0.0
 40
32.27491167112739
100
AcDbArc
 50
145.1358843784286
 51
178.9166988572183
  0
ARC
  5
57F
330
1F
100
AcDbEntity
  8
0
 62
     1
100
AcDbCircle
 10
-37238.67410873905
 20
14119.30002844911
 30
0.0
 40
17.41864989165147
100
AcDbArc
 50
61.15765958654558
 51
144.2089148044706
  0
ARC
  5
580
330
1F
100
AcDbEntity
  8
0
 62
     1
100
AcDbCircle
 10
-37242.4960723788
 20
14111.12673842403
 30
0.0
 40
26.42846396368343
100
AcDbArc
 50
30.15621025994108
 51
62.44760232355578
  0
ARC
  5
581
330
1F
100
AcDbEntity
  8
0
 62
     1
100
AcDbCircle
 10
-37223.90458745072
 20
14131.48370013989
 30
0.0
 40
8.263196334329441
100
AcDbArc
 50
301.0344942742715
 51
8.158828340979994
  0
ARC
  5
582
330
1F
100
AcDbEntity
  8
0
 62
     1
100
AcDbCircle
 10
-37239.56564411899
 20
14130.83985127014
 30
0.0
 40
23.90972259528482
100
AcDbArc
 50
4.3572484349873
 51
16.40875023461622
  0
ARC
  5
583
330
1F
100
AcDbEntity
  8
0
 62
     1
100
AcDbCircle
 10
-37205.60888268015
 20
14155.85605980622
 30
0.0
 40
21.32976899423975
100
AcDbArc
 50
238.8897081151785
 51
284.1300976561337
  0
ARC
  5
584
330
1F
100
AcDbEntity
  8
0
 62
     1
100
AcDbCircle
 10
-37205.19809133479
 20
14158.45287631564
 30
0.0
 40
23.7701583080099
100
AcDbArc
 50
281.6410293870348
 51
317.2925630190247
  0
LINE
  5
585
102
{ACAD_REACTORS
330
589
102
}
330
1F
100
AcDbEntity
  8
0
 62
     1
100
AcDbLine
 10
-37341.93315964247
 20
14142.33064626307
 30
0.0
 11
-37321.43315964247
 21
14142.33064626307
 31
0.0
  0
LINE
  5
592
330
1F
100
AcDbEntity
  8
0
 62
     1
100
AcDbLine
 10
-37475.63517170457
 20
14142.33064626307
 30
0.0
 11
-37600.83602907509
 21
14142.33064626307
 31
0.0
  0
LINE
  5
5DD
330
1F
100
AcDbEntity
  8
0
 62
     1
100
AcDbLine
 10
-37056.47713600721
 20
14142.2811291599
 30
0.0
 11
-37057.29623826468
 21
14147.21358002046
 31
0.0
  0
LINE
  5
5DE
330
1F
100
AcDbEntity
  8
0
 62
     1
100
AcDbLine
 10
-37183.50863935712
 20
14180.20432683585
 30
0.0
 11
-37180.21916480212
 21
14183.96987555444
 31
0.0
  0
LINE
  5
5DF
330
1F
100
AcDbEntity
  8
0
 62
     1
100
AcDbLine
 10
-37190.18785259407
 20
14180.81395508586
 30
0.0
 11
-37188.727895587
 21
14185.59605980424
 31
0.0
  0
LINE
  5
5E0
330
1F
100
AcDbEntity
  8
0
 62
     1
100
AcDbLine
 10
-37198.19414729578
 20
14180.81395508586
 30
0.0
 11
-37197.11855143831
 21
14185.69689411388
 31
0.0
  0
LINE
  5
5E1
330
1F
100
AcDbEntity
  8
0
 62
     1
100
AcDbLine
 10
-37217.4986322262
 20
14205.47262948593
 30
0.0
 11
-37212.63497552849
 21
14206.63230337408
 31
0.0
  0
LINE
  5
5E2
330
1F
100
AcDbEntity
  8
0
 62
     1
100
AcDbLine
 10
-37284.99641333788
 20
14272.81802576959
 30
0.0
 11
-37289.99641333788
 21
14272.81802576959
 31
0.0
  0
LINE
  5
5E3
330
1F
100
AcDbEntity
  8
0
 62
     1
100
AcDbLine
 10
-37372.82402850665
 20
14160.80185669644
 30
0.0
 11
-37369.91238889778
 21
14164.86662665156
 31
0.0
  0
LINE
  5
5E4
330
1F
100
AcDbEntity
  8
0
 62
     1
100
AcDbLine
 10
-37407.70947704322
 20
14160.80185669644
 30
0.0
 11
-37411.71998360349
 21
14163.78779660374
 31
0.0
  0
LINE
  5
5E5
330
1F
100
AcDbEntity
  8
0
 62
     1
100
AcDbLine
 10
-37540.45482000146
 20
14160.80185669644
 30
0.0
 11
-37544.15746841404
 21
14164.16197495817
 31
0.0
  0
LINE
  5
5E6
330
1F
100
AcDbEntity
  8
0
 62
     1
100
AcDbLine
 10
-37549.27239421982
 20
14245.64975886883
 30
0.0
 11
-37549.27239421982
 21
14250.64975886883
 31
0.0
  0
LINE
  5
5E7
330
1F
100
AcDbEntity
  8
0
 62
     1
100
AcDbLine
 10
-37455.10540593696
 20
14347.02241676219
 30
0.0
 11
-37460.10540593696
 21
14347.02241676219
 31
0.0
  0
LINE
  5
5E8
330
1F
100
AcDbEntity
  8
0
 62
     1
100
AcDbLine
 10
-37463.83931765211
 20
14389.2156351188
 30
0.0
 11
-37462.41595577486
 21
14384.42251077591
 31
0.0
  0
LINE
  5
5EA
330
1F
100
AcDbEntity
  8
0
 62
     1
100
AcDbLine
 10
-37327.35333563626
 20
14377.11241218995
 30
0.0
 11
-37330.70140100285
 21
14380.82596282257
 31
0.0
  0
LINE
  5
5EB
330
1F
100
AcDbEntity
  8
0
 62
     1
100
AcDbLine
 10
-37296.99447943625
 20
14381.90705954494
 30
0.0
 11
-37296.99447943625
 21
14376.90705954494
 31
0.0
  0
LINE
  5
5EC
330
1F
100
AcDbEntity
  8
0
 62
     1
100
AcDbLine
 10
-37250.29465927382
 20
14522.96229221103
 30
0.0
 11
-37255.29465927382
 21
14522.96229221103
 31
0.0
  0
LINE
  5
5ED
330
1F
100
AcDbEntity
  8
0
 62
     1
100
AcDbLine
 10
-37329.55178123574
 20
14458.15972893392
 30
0.0
 11
-37331.8980944435
 21
14462.57502216666
 31
0.0
  0
LINE
  5
5EE
330
1F
100
AcDbEntity
  8
0
 62
     1
100
AcDbLine
 10
-37397.46537871548
 20
14436.78091928987
 30
0.0
 11
-37400.31901222451
 21
14435.33904194762
 31
0.0
  0
LINE
  5
5F5
330
1F
100
AcDbEntity
  8
0
 62
     1
100
AcDbLine
 10
-37372.66291231954
 20
14482.52383727009
 30
0.0
 11
-37376.88076150794
 21
14479.83873983724
 31
0.0
  0
LINE
  5
5F6
330
1F
100
AcDbEntity
  8
0
 62
     1
100
AcDbLine
 10
-37362.43711801351
 20
14515.99085157025
 30
0.0
 11
-37364.39477221698
 21
14520.59167649841
 31
0.0
  0
ARC
  5
5F8
330
1F
100
AcDbEntity
  8
0
 62
     1
100
AcDbCircle
 10
-37056.98640116884
 20
14147.65244359748
 30
0.0
 40
5.395402653393118
100
AcDbArc
 50
275.4161380747364
 51
290.0312811057426
  0
ARC
  5
64B
330
1F
100
AcDbEntity
  8
0
 62
     1
100
AcDbCircle
 10
-37381.31086624163
 20
14437.75416887572
 30
0.0
 40
16.18380326203127
100
AcDbArc
 50
183.6247072939052
 51
199.5832134441951
  0
ENDSEC
  0
SECTION
  2
OBJECTS
  0
DICTIONARY
  5
C
330
0
100
AcDbDictionary
281
     1
  3
ACAD_ASSOCNETWORK
350
569
  3
ACAD_CIP_PREVIOUS_PRODUCT_INFO
350
216
  3
ACAD_COLOR
350
6B
  3
ACAD_DETAILVIEWSTYLE
350
21B
  3
ACAD_GROUP
350
D
  3
ACAD_IMAGE_DICT
350
242
  3
ACAD_IMAGE_VARS
350
243
  3
ACAD_LAYOUT
350
1A
  3
ACAD_MATERIAL
350
6A
  3
ACAD_MLEADERSTYLE
350
12D
  3
ACAD_MLINESTYLE
350
17
  3
ACAD_PLOTSETTINGS
350
19
  3
ACAD_PLOTSTYLENAME
350
E
  3
ACAD_SCALELIST
350
10C
  3
ACAD_SECTIONVIEWSTYLE
350
219
  3
ACAD_TABLESTYLE
350
7E
  3
ACAD_VISUALSTYLE
350
EF
  3
ACDB_RECOMPOSE_DATA
350
657
  3
AcDbVariableDictionary
350
5E
  3
AcDsDecomposeData
350
65D
  0
DICTIONARY
  5
1FF
330
2
100
AcDbDictionary
280
     1
281
     1
  3
ACAD_LAYERSTATES
360
200
  0
DICTIONARY
  5
13C
330
10
100
AcDbDictionary
280
     1
281
     1
  0
DICTIONARY
  5
1CE
330
1F
100
AcDbDictionary
280
     1
281
     1
  3
ACAD_ASSOCNETWORK
360
58C
  3
ACAD_SORTENTS
360
257
  0
DICTIONARY
  5
569
102
{ACAD_REACTORS
330
C
102
}
330
C
100
AcDbDictionary
281
     1
  3
ACAD_ASSOCNETWORK
350
56A
  0
XRECORD
  5
216
102
{ACAD_REACTORS
330
C
102
}
330
C
100
AcDbXrecord
280
     1
300
ACD
300
2014
300
ACD_F_S
  0
DICTIONARY
  5
6B
102
{ACAD_REACTORS
330
C
102
}
330
C
100
AcDbDictionary
281
     1
  0
DICTIONARY
  5
21B
102
{ACAD_REACTORS
330
C
102
}
330
C
100
AcDbDictionary
281
     1
  3
Metric50
350
21C
  0
DICTIONARY
  5
D
102
{ACAD_REACTORS
330
C
102
}
330
C
100
AcDbDictionary
281
     1
  0
DICTIONARY
  5
242
102
{ACAD_REACTORS
330
C
102
}
330
C
100
AcDbDictionary
281
     1
  3
54
350
244
  0
RASTERVARIABLES
  5
243
102
{ACAD_REACTORS
330
C
102
}
330
C
100
AcDbRasterVariables
 90
        0
 70
     1
 71
     1
 72
     1
  0
DICTIONARY
  5
1A
102
{ACAD_REACTORS
330
C
102
}
330
C
100
AcDbDictionary
281
     1
  3
Model
350
22
  3
Лист1
350
D3
  3
Лист2
350
D7
  0
DICTIONARY
  5
6A
102
{ACAD_REACTORS
330
C
102
}
330
C
100
AcDbDictionary
281
     1
  3
ByBlock
350
ED
  3
ByLayer
350
EC
  3
Global
350
EE
  0
DICTIONARY
  5
12D
102
{ACAD_REACTORS
330
C
102
}
330
C
100
AcDbDictionary
281
     1
  3
Standard
350
12E
  3
Аннотативный
350
13B
  0
DICTIONARY
  5
17
102
{ACAD_REACTORS
330
C
102
}
330
C
100
AcDbDictionary
281
     1
  3
Standard
350
18
  0
DICTIONARY
  5
19
102
{ACAD_REACTORS
330
C
102
}
330
C
100
AcDbDictionary
281
     1
  0
ACDBDICTIONARYWDFLT
  5
E
102
{ACAD_REACTORS
330
C
102
}
330
C
100
AcDbDictionary
281
     1
  3
Normal
350
F
100
AcDbDictionaryWithDefault
340
F
  0
DICTIONARY
  5
10C
102
{ACAD_REACTORS
330
C
102
}
330
C
100
AcDbDictionary
281
     1
  3
A0
350
10D
  3
A1
350
1BE
  3
A2
350
1BF
  3
A3
350
1C0
  3
A4
350
1C1
  3
A5
350
1C2
  3
A6
350
1C3
  3
A7
350
1C4
  3
A8
350
1C5
  3
A9
350
1C6
  3
B0
350
1C7
  3
B1
350
1C8
  3
B2
350
1C9
  3
B3
350
1CA
  3
B4
350
1CB
  3
B5
350
1CC
  3
B6
350
1CD
  0
DICTIONARY
  5
219
102
{ACAD_REACTORS
330
C
102
}
330
C
100
AcDbDictionary
281
     1
  3
Metric50
350
21A
  0
DICTIONARY
  5
7E
102
{ACAD_REACTORS
330
C
102
}
330
C
100
AcDbDictionary
281
     1
  3
Standard
350
7F
  0
DICTIONARY
  5
EF
102
{ACAD_REACTORS
330
C
102
}
330
C
100
AcDbDictionary
281
     1
  3
2dWireframe
350
F5
  3
Basic
350
F4
  3
Brighten
350
FB
  3
ColorChange
350
FF
  3
Conceptual
350
F8
  3
Dim
350
FA
  3
EdgeColorOff
350
1E6
  3
Facepattern
350
FE
  3
Flat
350
F0
  3
FlatWithEdges
350
F1
  3
Gouraud
350
F2
  3
GouraudWithEdges
350
F3
  3
Hidden
350
F7
  3
JitterOff
350
1E4
  3
Linepattern
350
FD
  3
OverhangOff
350
1E5
  3
Realistic
350
F9
  3
Shaded
350
1F3
  3
Shaded with edges
350
1F2
  3
Shades of Gray
350
1EF
  3
Sketchy
350
1F0
  3
Thicken
350
FC
  3
Wireframe
350
F6
  3
X-Ray
350
1F1
  0
XRECORD
  5
657
102
{ACAD_REACTORS
330
C
102
}
330
C
100
AcDbXrecord
280
     1
 90
        1
330
7F
  0
DICTIONARY
  5
5E
102
{ACAD_REACTORS
330
C
102
}
330
C
100
AcDbDictionary
281
     1
  3
CANNOSCALE
350
146
  3
CMLEADERSTYLE
350
145
  3
CTABLESTYLE
350
84
  3
CVIEWDETAILSTYLE
350
227
  3
CVIEWSECTIONSTYLE
350
228
  3
DIMASSOC
350
5F
  3
HIDETEXT
350
63
  3
LAYEREVAL
350
1AE
  3
LAYERNOTIFY
350
1AF
  0
DICTIONARY
  5
65D
102
{ACAD_REACTORS
330
C
102
}
330
C
100
AcDbDictionary
281
     1
  3
AcDsRecords
350
65F
  3
AcDsSchemas
350
65E
1001
ACAD
1070
     2
  0
DICTIONARY
  5
200
102
{ACAD_REACTORS
330
1FF
102
}
330
1FF
100
AcDbDictionary
281
     1
  0
DICTIONARY
  5
58C
102
{ACAD_REACTORS
330
1CE
102
}
330
1CE
100
AcDbDictionary
281
     1
  3
ACAD_ASSOCNETWORK
350
58D
  0
SORTENTSTABLE
  5
257
102
{ACAD_REACTORS
330
1CE
102
}
330
1CE
100
AcDbSortentsTable
330
1F
331
583
  5
592
331
4FD
  5
504
331
487
  5
492
331
5F5
  5
5F7
331
57F
  5
582
331
483
  5
48C
331
44C
  5
466
331
538
  5
255
331
387
  5
38F
331
40D
  5
41D
331
57B
  5
57E
331
534
  5
56F
331
47F
  5
485
331
448
  5
44E
331
383
  5
38E
331
409
  5
40F
331
30D
  5
313
331
2D6
  5
2E6
331
34C
  5
352
331
297
  5
29D
331
530
  5
537
331
4F1
  5
502
331
4BA
  5
4CA
331
444
  5
44A
331
3CE
  5
3DE
331
37F
  5
389
331
405
  5
40B
331
309
  5
30F
331
2D2
  5
2D8
331
293
  5
299
331
348
  5
34E
331
440
  5
446
331
401
  5
407
331
37B
  5
382
331
344
  5
34A
331
305
  5
30B
331
28F
  5
295
331
25C
  5
261
331
2CE
  5
2D4
331
3CA
  5
3D0
331
340
  5
346
331
301
  5
307
331
28B
  5
291
331
258
  5
25C
331
2CA
  5
2D0
331
254
  5
25A
331
250
  5
250
331
5ED
  5
5F5
331
577
  5
57A
331
573
  5
576
331
52C
  5
533
331
4ED
  5
4FE
331
4B6
  5
4BC
331
5E5
  5
5E7
331
56F
  5
572
331
528
  5
52F
331
4B2
  5
4B8
331
43C
  5
442
331
3C6
  5
3CC
331
473
  5
483
331
377
  5
37D
331
5E1
  5
5E3
331
524
  5
52B
331
4AE
  5
4B4
331
438
  5
43E
331
373
  5
37A
331
3C2
  5
3C8
331
2FD
  5
303
331
287
  5
28D
331
33C
  5
342
331
46F
  5
47F
331
520
  5
527
331
4E1
  5
4F2
331
4AA
  5
4B0
331
46B
  5
471
331
434
  5
43A
331
36F
  5
375
331
3BE
  5
3C4
331
2F9
  5
300
331
283
  5
289
331
338
  5
33E
331
430
  5
436
331
3F1
  5
401
331
36B
  5
371
331
334
  5
33A
331
3BA
  5
3C0
331
2BE
  5
2CB
331
27F
  5
285
331
2F5
  5
2FB
331
330
  5
336
331
2F1
  5
2F7
331
27B
  5
281
331
51C
  5
523
331
4A6
  5
4AC
331
5DD
  5
5DF
331
4A2
  5
4A8
331
3B6
  5
3BC
331
42C
  5
432
331
4DD
  5
4ED
331
49E
  5
4A4
331
32C
  5
332
331
467
  5
46D
331
510
  5
521
331
4D9
  5
4DF
331
3ED
  5
3F3
331
3AE
  5
3B4
331
367
  5
36D
331
328
  5
32E
331
2B2
  5
2C9
331
463
  5
469
331
420
  5
430
331
3E9
  5
3EF
331
363
  5
369
331
2AE
  5
2BE
331
2ED
  5
2F3
331
2E9
  5
2EF
331
2AA
  5
2B0
331
277
  5
27D
331
273
  5
279
331
64B
  5
4F0
331
50C
  5
51D
331
592
  5
260
331
4D5
  5
4DB
331
508
  5
50F
331
4D1
  5
4D7
331
492
  5
487
331
3E5
  5
3EB
331
35F
  5
365
331
41C
  5
42C
331
504
  5
50B
331
4CD
  5
4D3
331
48E
  5
491
331
3E1
  5
3E7
331
392
  5
3B5
331
2A6
  5
2AC
331
35B
  5
361
331
500
  5
507
331
4C9
  5
4CF
331
48A
  5
4A2
331
3DD
  5
3E3
331
357
  5
35D
331
2A2
  5
2A8
331
26F
  5
275
331
318
  5
32B
331
38E
  5
3AF
331
38A
  5
393
331
353
  5
359
331
314
  5
327
331
29E
  5
2A4
331
310
  5
316
331
2D9
  5
2E9
331
29A
  5
2A0
331
582
  5
585
331
5F8
  5
270
331
486
  5
490
331
57E
  5
581
331
482
  5
48A
331
537
  5
254
331
44B
  5
465
331
34F
  5
355
331
40C
  5
41C
331
57A
  5
57D
331
533
  5
56E
331
4BD
  5
4CD
331
408
  5
40E
331
382
  5
38D
331
30C
  5
312
331
2D5
  5
2DB
331
296
  5
29C
331
34B
  5
351
331
447
  5
44D
331
4F0
  5
501
331
4B9
  5
4C9
331
443
  5
449
331
3CD
  5
3DD
331
37E
  5
388
331
347
  5
34D
331
2D1
  5
2D7
331
292
  5
298
331
308
  5
30E
331
404
  5
40A
331
25F
  5
26F
331
400
  5
406
331
3C9
  5
3CF
331
37A
  5
380
331
343
  5
349
331
304
  5
30A
331
28E
  5
294
331
25B
  5
25F
331
2CD
  5
2D3
331
300
  5
306
331
2C9
  5
2CF
331
28A
  5
290
331
253
  5
259
331
5EC
  5
5EE
331
576
  5
579
331
52F
  5
536
331
5E8
  5
5EB
331
572
  5
575
331
52B
  5
532
331
4B5
  5
4BB
331
43F
  5
445
331
5E4
  5
5E6
331
56E
  5
571
331
527
  5
52E
331
4B1
  5
4B7
331
43B
  5
441
331
3C5
  5
3CB
331
472
  5
482
331
33F
  5
345
331
5E0
  5
5E2
331
523
  5
52A
331
4AD
  5
4B3
331
437
  5
43D
331
372
  5
379
331
3C1
  5
3C7
331
286
  5
28C
331
33B
  5
341
331
46E
  5
474
331
4E0
  5
4F1
331
4A9
  5
4AF
331
46A
  5
470
331
433
  5
439
331
36E
  5
374
331
3BD
  5
3C3
331
2F8
  5
2FF
331
282
  5
288
331
24F
  5
24F
331
337
  5
33D
331
3F0
  5
400
331
3B9
  5
3BF
331
36A
  5
370
331
333
  5
339
331
2F4
  5
2FA
331
27E
  5
284
331
2F0
  5
2F6
331
27A
  5
280
331
51F
  5
526
331
4A5
  5
4AB
331
42F
  5
435
331
4A1
  5
4A7
331
42B
  5
431
331
3B5
  5
3BB
331
32F
  5
335
331
4DC
  5
4E2
331
49D
  5
4A3
331
3B1
  5
390
331
32B
  5
331
331
466
  5
46C
331
4D8
  5
4DE
331
3EC
  5
3F2
331
3AD
  5
3B7
331
366
  5
36C
331
327
  5
32D
331
2B1
  5
2C8
331
3E8
  5
3EE
331
362
  5
368
331
2AD
  5
2B3
331
2EC
  5
2F2
331
2E8
  5
2EE
331
2A9
  5
2AF
331
276
  5
27C
331
272
  5
278
331
50F
  5
520
331
50B
  5
51C
331
4D4
  5
4DA
331
41F
  5
42F
331
507
  5
50E
331
4D0
  5
4D6
331
491
  5
489
331
3E4
  5
3EA
331
35E
  5
364
331
41B
  5
42B
331
503
  5
50A
331
4CC
  5
4D2
331
48D
  5
49D
331
3E0
  5
3E6
331
391
  5
3B3
331
2A5
  5
2AB
331
35A
  5
360
331
4C8
  5
4CE
331
489
  5
4A0
331
3DC
  5
3E2
331
38D
  5
3AE
331
356
  5
35C
331
2A1
  5
2A7
331
26E
  5
274
331
317
  5
32A
331
389
  5
392
331
352
  5
358
331
313
  5
326
331
29D
  5
2A3
331
2D8
  5
2E8
331
299
  5
29F
331
262
  5
273
331
585
  5
5DE
331
4FF
  5
506
331
581
  5
584
331
44E
  5
468
331
40F
  5
41F
331
485
  5
48F
331
57D
  5
580
331
481
  5
488
331
536
  5
253
331
44A
  5
464
331
34E
  5
354
331
30F
  5
315
331
40B
  5
41B
331
579
  5
57C
331
532
  5
539
331
4BC
  5
4CC
331
446
  5
44C
331
3D0
  5
3E0
331
381
  5
38B
331
407
  5
40D
331
30B
  5
311
331
2D4
  5
2DA
331
295
  5
29B
331
34A
  5
350
331
4B8
  5
4C8
331
442
  5
448
331
403
  5
409
331
37D
  5
387
331
346
  5
34C
331
3CC
  5
3DC
331
2D0
  5
2D6
331
291
  5
297
331
25E
  5
26E
331
307
  5
30D
331
3C8
  5
3CE
331
379
  5
37F
331
342
  5
348
331
303
  5
309
331
28D
  5
293
331
25A
  5
25E
331
2CC
  5
2D2
331
2C8
  5
2CE
331
289
  5
28F
331
256
  5
251
331
252
  5
258
331
5EB
  5
5ED
331
575
  5
578
331
52E
  5
535
331
4EF
  5
500
331
5E7
  5
5EA
331
571
  5
574
331
52A
  5
531
331
4B4
  5
4BA
331
3FF
  5
405
331
43E
  5
444
331
5E3
  5
5E5
331
526
  5
52D
331
4B0
  5
4B6
331
43A
  5
440
331
3C4
  5
3CA
331
471
  5
481
331
33E
  5
344
331
2FF
  5
305
331
375
  5
37C
331
522
  5
529
331
4AC
  5
4B2
331
436
  5
43C
331
371
  5
378
331
3C0
  5
3C6
331
2FB
  5
302
331
285
  5
28B
331
33A
  5
340
331
46D
  5
473
331
4A8
  5
4AE
331
469
  5
46F
331
432
  5
438
331
3BC
  5
3C2
331
36D
  5
373
331
336
  5
33C
331
2C0
  5
2CD
331
281
  5
287
331
2F7
  5
2FE
331
3F3
  5
403
331
24E
  5
24E
331
3B8
  5
3BE
331
369
  5
36F
331
332
  5
338
331
2F3
  5
2F9
331
27D
  5
283
331
279
  5
27F
331
51E
  5
525
331
5DF
  5
5E1
331
4A4
  5
4AA
331
42E
  5
434
331
4DF
  5
4EF
331
4A0
  5
4A6
331
3B4
  5
3BA
331
32E
  5
334
331
4DB
  5
4E1
331
465
  5
46B
331
3EF
  5
3FF
331
32A
  5
330
331
3B0
  5
381
331
3EB
  5
3F1
331
365
  5
36B
331
326
  5
32C
331
2B0
  5
2C0
331
2EF
  5
2F5
331
361
  5
367
331
2EB
  5
2F1
331
2AC
  5
2B2
331
2A8
  5
2AE
331
275
  5
27B
331
271
  5
277
331
50E
  5
51F
331
4D7
  5
4DD
331
50A
  5
511
331
4D3
  5
4D9
331
41E
  5
42E
331
3E7
  5
3ED
331
506
  5
50D
331
4CF
  5
4D5
331
490
  5
48B
331
3E3
  5
3E9
331
2E7
  5
2ED
331
35D
  5
363
331
41A
  5
420
331
502
  5
509
331
4CB
  5
4D1
331
48C
  5
49F
331
3DF
  5
3E5
331
390
  5
3B1
331
2A4
  5
2AA
331
359
  5
35F
331
488
  5
49E
331
3DB
  5
3E1
331
316
  5
329
331
355
  5
35B
331
2A0
  5
2A6
331
388
  5
391
331
351
  5
357
331
312
  5
318
331
29C
  5
2A2
331
2DB
  5
2EB
331
298
  5
29E
331
261
  5
272
331
584
  5
5DD
331
4FE
  5
505
331
5F6
  5
64A
331
580
  5
583
331
484
  5
48E
331
44D
  5
467
331
40E
  5
41E
331
539
  5
252
331
57C
  5
57F
331
535
  5
570
331
480
  5
486
331
449
  5
463
331
34D
  5
353
331
2D7
  5
2E7
331
30E
  5
314
331
40A
  5
41A
331
578
  5
57B
331
531
  5
538
331
4F2
  5
503
331
4BB
  5
4CB
331
445
  5
44B
331
3CF
  5
3DF
331
380
  5
38A
331
406
  5
40C
331
30A
  5
310
331
2D3
  5
2D9
331
294
  5
29A
331
349
  5
34F
331
441
  5
447
331
402
  5
408
331
37C
  5
383
331
345
  5
34B
331
3CB
  5
3DB
331
2CF
  5
2D5
331
290
  5
296
331
25D
  5
262
331
306
  5
30C
331
378
  5
37E
331
341
  5
347
331
302
  5
308
331
28C
  5
292
331
259
  5
25D
331
2CB
  5
2D1
331
288
  5
28E
331
255
  5
25B
331
251
  5
256
331
5EE
  5
5F6
331
5EA
  5
5EC
331
574
  5
577
331
52D
  5
534
331
4EE
  5
4FF
331
4B7
  5
4BD
331
5E6
  5
5E8
331
570
  5
573
331
529
  5
530
331
4B3
  5
4B9
331
43D
  5
443
331
3C7
  5
3CD
331
3FE
  5
404
331
474
  5
484
331
5E2
  5
5E4
331
525
  5
52C
331
4AF
  5
4B5
331
439
  5
43F
331
3C3
  5
3C9
331
470
  5
480
331
33D
  5
343
331
2FE
  5
304
331
374
  5
37B
331
521
  5
528
331
4E2
  5
4FD
331
4AB
  5
4B1
331
46C
  5
472
331
435
  5
43B
331
370
  5
377
331
3BF
  5
3C5
331
2FA
  5
301
331
284
  5
28A
331
339
  5
33F
331
468
  5
46E
331
431
  5
437
331
3F2
  5
402
331
36C
  5
372
331
335
  5
33B
331
3BB
  5
3C1
331
2BF
  5
2CC
331
280
  5
286
331
2F6
  5
2FD
331
368
  5
36E
331
331
  5
337
331
2F2
  5
2F8
331
27C
  5
282
331
278
  5
27E
331
51D
  5
524
331
4A7
  5
4AD
331
5DE
  5
5E0
331
4A3
  5
4A9
331
3B7
  5
3BD
331
42D
  5
433
331
4DE
  5
4EE
331
49F
  5
4A5
331
3B3
  5
3B9
331
32D
  5
333
331
511
  5
522
331
4DA
  5
4E0
331
3EE
  5
3FE
331
464
  5
46A
331
329
  5
32F
331
2B3
  5
2CA
331
3AF
  5
3B6
331
3EA
  5
3F0
331
364
  5
36A
331
2AF
  5
2BF
331
2EE
  5
2F4
331
360
  5
366
331
2EA
  5
2F0
331
2AB
  5
2B1
331
274
  5
27A
331
270
  5
276
331
50D
  5
51E
331
4D6
  5
4DC
331
509
  5
510
331
4D2
  5
4D8
331
3E6
  5
3EC
331
41D
  5
42D
331
505
  5
50C
331
4CE
  5
4D4
331
48F
  5
48D
331
3E2
  5
3E8
331
393
  5
3B8
331
2E6
  5
2EC
331
2A7
  5
2AD
331
35C
  5
362
331
501
  5
508
331
4CA
  5
4D0
331
48B
  5
4A1
331
3DE
  5
3E4
331
358
  5
35E
331
2A3
  5
2A9
331
38F
  5
3B0
331
38B
  5
3AD
331
354
  5
35A
331
315
  5
328
331
29F
  5
2A5
331
350
  5
356
331
311
  5
317
331
2DA
  5
2EA
331
29B
  5
2A1
331
260
  5
271
  0
ACDBASSOCNETWORK
  5
56A
102
{ACAD_REACTORS
330
569
102
}
330
569
100
AcDbAssocAction
 90
        1
 90
        0
330
0
360
0
 90
        0
 90
        0
 90
        0
100
AcDbAssocNetwork
 90
        0
 90
        2
 90
        1
330
58D
 90
        0
  0
ACDBDETAILVIEWSTYLE
  5
21C
102
{ACAD_XDICTIONARY
360
236
102
}
102
{ACAD_REACTORS
330
21B
102
}
330
21B
100
AcDbModelDocViewStyle
 70
     0
  3
Metric50
290
     0
100
AcDbDetailViewStyle
 70
     0
 71
     0
 90
        3
 71
     1
340
11
 62
   256
 40
5.0
340
0
 62
   256
 40
5.0
300

 40
0.0
280
     1
 71
     2
340
16
 90
       25
 62
   256
 71
     3
340
11
 62
   256
 40
5.0
 90
        0
 40
15.0
 90
        1
300
%<\AcVar ViewDetailId>% (%<\AcVar ViewScale \f "%sn">%)
 71
     4
340
16
 90
       25
 62
   256
340
16
 90
       25
 62
   256
280
     0
  0
IMAGEDEF
  5
244
102
{ACAD_REACTORS
330
242
330
245
102
}
330
242
100
AcDbRasterImageDef
 90
        0
  1
C:\Users\Александр\Documents\Заказы\Флюгер\Прототипы\1-1\54.jpg
 10
557.0
 20
460.0
 11
0.2645833333333333
 21
0.2645833333333333
280
     1
281
     5
  0
LAYOUT
  5
22
102
{ACAD_XDICTIONARY
360
205
102
}
102
{ACAD_REACTORS
330
1A
102
}
330
1A
100
AcDbPlotSettings
  1

  2
none_device
  4
ISO_A4_(210.00_x_297.00_MM)
  6

 40
7.5
 41
20.0
 42
7.5
 43
20.0
 44
210.0
 45
297.0
 46
11.54999923706054
 47
-13.65000009536743
 48
0.0
 49
0.0
140
0.0
141
0.0
142
1.0
143
8.704084754739808
 70
 11952
 72
     1
 73
     0
 74
     0
  7

 75
     0
147
0.1148885871608098
 76
     0
 77
     2
 78
   300
148
0.0
149
0.0
100
AcDbLayout
  1
Model
 70
     1
 71
     0
 10
0.0
 20
0.0
 11
12.0
 21
9.0
 12
0.0
 22
0.0
 32
0.0
 14
0.0
 24
0.0
 34
0.0
 15
0.0
 25
0.0
 35
0.0
146
0.0
 13
0.0
 23
0.0
 33
0.0
 16
1.0
 26
0.0
 36
0.0
 17
0.0
 27
1.0
 37
0.0
 76
     0
330
1F
331
EA
1001
ACAD_PSEXT
1000
None
1000
None
1000
Not applicable
1000
The layout will not be plotted unless a new plotter configuration name is selected.
1070
     0
  0
LAYOUT
  5
D3
102
{ACAD_REACTORS
330
1A
102
}
330
1A
100
AcDbPlotSettings
  1

  2
C:\Documents and Settings\basas\Application Data\Autodesk\AutoCAD 2005\R16.1\enu\plotters\Default Windows System Printer.pc3
  4

  6

 40
0.0
 41
0.0
 42
0.0
 43
0.0
 44
0.0
 45
0.0
 46
0.0
 47
0.0
 48
0.0
 49
0.0
140
0.0
141
0.0
142
1.0
143
1.0
 70
   688
 72
     0
 73
     0
 74
     5
  7

 75
    16
147
1.0
 76
     0
 77
     2
 78
   300
148
0.0
149
0.0
100
AcDbLayout
  1
Лист1
 70
     1
 71
     1
 10
0.0
 20
0.0
 11
12.0
 21
9.0
 12
0.0
 22
0.0
 32
0.0
 14
0.0
 24
0.0
 34
0.0
 15
0.0
 25
0.0
 35
0.0
146
0.0
 13
0.0
 23
0.0
 33
0.0
 16
1.0
 26
0.0
 36
0.0
 17
0.0
 27
1.0
 37
0.0
 76
     0
330
D2
  0
LAYOUT
  5
D7
102
{ACAD_REACTORS
330
1A
102
}
330
1A
100
AcDbPlotSettings
  1

  2
C:\Documents and Settings\basas\Application Data\Autodesk\AutoCAD 2005\R16.1\enu\plotters\Default Windows System Printer.pc3
  4

  6

 40
0.0
 41
0.0
 42
0.0
 43
0.0
 44
0.0
 45
0.0
 46
0.0
 47
0.0
 48
0.0
 49
0.0
140
0.0
141
0.0
142
1.0
143
1.0
 70
   688
 72
     0
 73
     0
 74
     5
  7

 75
    16
147
1.0
 76
     0
 77
     2
 78
   300
148
0.0
149
0.0
100
AcDbLayout
  1
Лист2
 70
     1
 71
     2
 10
0.0
 20
0.0
 11
12.0
 21
9.0
 12
0.0
 22
0.0
 32
0.0
 14
0.0
 24
0.0
 34
0.0
 15
0.0
 25
0.0
 35
0.0
146
0.0
 13
0.0
 23
0.0
 33
0.0
 16
1.0
 26
0.0
 36
0.0
 17
0.0
 27
1.0
 37
0.0
 76
     0
330
D6
  0
MATERIAL
  5
ED
102
{ACAD_XDICTIONARY
360
1F9
102
}
102
{ACAD_REACTORS
330
6A
102
}
330
6A
100
AcDbMaterial
  1
ByBlock
 94
       63
  0
MATERIAL
  5
EC
102
{ACAD_XDICTIONARY
360
1F7
102
}
102
{ACAD_REACTORS
330
6A
102
}
330
6A
100
AcDbMaterial
  1
ByLayer
 94
       63
  0
MATERIAL
  5
EE
102
{ACAD_XDICTIONARY
360
173
102
}
102
{ACAD_REACTORS
330
6A
102
}
330
6A
100
AcDbMaterial
  1
Global
 43
0.0007999999797903
 43
0.0
 43
0.0
 43
0.0
 43
0.0
 43
0.0007999999797903
 43
0.0
 43
0.0
 43
0.0
 43
0.0
 43
1.0
 43
0.0
 43
0.0
 43
0.0
 43
0.0
 43
1.0
 49
0.0007999999797903
 49
0.0
 49
0.0
 49
0.0
 49
0.0
 49
0.0007999999797903
 49
0.0
 49
0.0
 49
0.0
 49
0.0
 49
1.0
 49
0.0
 49
0.0
 49
0.0
 49
0.0
 49
1.0
142
0.0007999999797903
142
0.0
142
0.0
142
0.0
142
0.0
142
0.0007999999797903
142
0.0
142
0.0
142
0.0
142
0.0
142
1.0
142
0.0
142
0.0
142
0.0
142
0.0
142
1.0
144
0.0007999999797903
144
0.0
144
0.0
144
0.0
144
0.0
144
0.0007999999797903
144
0.0
144
0.0
144
0.0
144
0.0
144
1.0
144
0.0
144
0.0
144
0.0
144
0.0
144
1.0
 94
       63
1001
ACAD
1070
    -1
1070
     3
1070
     0
1000

1071
        0
1070
     0
  0
MLEADERSTYLE
  5
12E
102
{ACAD_REACTORS
330
12D
102
}
330
12D
100
AcDbMLeaderStyle
179
     2
170
     2
171
     1
172
     0
 90
        2
 40
0.0
 41
0.0
173
     1
 91
-1056964608
340
14
 92
       -2
290
     1
 42
2.0
291
     1
 43
8.0
  3
Standard
 44
4.0
300

342
11
174
     1
178
     1
175
     1
176
     0
 93
-1056964608
 45
4.0
292
     0
297
     0
 46
4.0
 94
-1056964608
 47
1.0
 49
1.0
140
1.0
293
     1
141
0.0
294
     1
177
     0
142
1.0
295
     0
296
     0
143
3.75
271
     0
272
     9
273
     9
  0
MLEADERSTYLE
  5
13B
102
{ACAD_REACTORS
330
12D
102
}
330
12D
100
AcDbMLeaderStyle
179
     2
170
     2
171
     1
172
     0
 90
        2
 40
0.0
 41
0.0
173
     1
 91
-1056964608
340
14
 92
       -2
290
     1
 42
2.0
291
     1
 43
8.0
  3
Standard
 44
4.0
300

342
11
174
     1
178
     1
175
     1
176
     0
 93
-1056964608
 45
4.0
292
     0
297
     0
 46
4.0
 94
-1056964608
 47
1.0
 49
1.0
140
1.0
293
     1
141
0.0
294
     1
177
     0
142
1.0
295
     0
296
     1
143
3.75
271
     0
272
     9
273
     9
  0
MLINESTYLE
  5
18
102
{ACAD_REACTORS
330
17
102
}
330
17
100
AcDbMlineStyle
  2
STANDARD
 70
     0
  3

 62
   256
 51
90.0
 52
90.0
 71
     2
 49
0.5
 62
   256
  6
BYLAYER
 49
-0.5
 62
   256
  6
BYLAYER
  0
ACDBPLACEHOLDER
  5
F
102
{ACAD_REACTORS
330
E
102
}
330
E
  0
SCALE
  5
10D
102
{ACAD_REACTORS
330
10C
102
}
330
10C
100
AcDbScale
 70
     0
300
1:1
140
1.0
141
1.0
290
     1
  0
SCALE
  5
1BE
102
{ACAD_REACTORS
330
10C
102
}
330
10C
100
AcDbScale
 70
     0
300
1:2
140
1.0
141
2.0
290
     0
  0
SCALE
  5
1BF
102
{ACAD_REACTORS
330
10C
102
}
330
10C
100
AcDbScale
 70
     0
300
1:4
140
1.0
141
4.0
290
     0
  0
SCALE
  5
1C0
102
{ACAD_REACTORS
330
10C
102
}
330
10C
100
AcDbScale
 70
     0
300
1:5
140
1.0
141
5.0
290
     0
  0
SCALE
  5
1C1
102
{ACAD_REACTORS
330
10C
102
}
330
10C
100
AcDbScale
 70
     0
300
1:8
140
1.0
141
8.0
290
     0
  0
SCALE
  5
1C2
102
{ACAD_REACTORS
330
10C
102
}
330
10C
100
AcDbScale
 70
     0
300
1:10
140
1.0
141
10.0
290
     0
  0
SCALE
  5
1C3
102
{ACAD_REACTORS
330
10C
102
}
330
10C
100
AcDbScale
 70
     0
300
1:16
140
1.0
141
16.0
290
     0
  0
SCALE
  5
1C4
102
{ACAD_REACTORS
330
10C
102
}
330
10C
100
AcDbScale
 70
     0
300
1:20
140
1.0
141
20.0
290
     0
  0
SCALE
  5
1C5
102
{ACAD_REACTORS
330
10C
102
}
330
10C
100
AcDbScale
 70
     0
300
1:30
140
1.0
141
30.0
290
     0
  0
SCALE
  5
1C6
102
{ACAD_REACTORS
330
10C
102
}
330
10C
100
AcDbScale
 70
     0
300
1:40
140
1.0
141
40.0
290
     0
  0
SCALE
  5
1C7
102
{ACAD_REACTORS
330
10C
102
}
330
10C
100
AcDbScale
 70
     0
300
1:50
140
1.0
141
50.0
290
     0
  0
SCALE
  5
1C8
102
{ACAD_REACTORS
330
10C
102
}
330
10C
100
AcDbScale
 70
     0
300
1:100
140
1.0
141
100.0
290
     0
  0
SCALE
  5
1C9
102
{ACAD_REACTORS
330
10C
102
}
330
10C
100
AcDbScale
 70
     0
300
2:1
140
2.0
141
1.0
290
     0
  0
SCALE
  5
1CA
102
{ACAD_REACTORS
330
10C
102
}
330
10C
100
AcDbScale
 70
     0
300
4:1
140
4.0
141
1.0
290
     0
  0
SCALE
  5
1CB
102
{ACAD_REACTORS
330
10C
102
}
330
10C
100
AcDbScale
 70
     0
300
8:1
140
8.0
141
1.0
290
     0
  0
SCALE
  5
1CC
102
{ACAD_REACTORS
330
10C
102
}
330
10C
100
AcDbScale
 70
     0
300
10:1
140
10.0
141
1.0
290
     0
  0
SCALE
  5
1CD
102
{ACAD_REACTORS
330
10C
102
}
330
10C
100
AcDbScale
 70
     0
300
100:1
140
100.0
141
1.0
290
     0
  0
ACDBSECTIONVIEWSTYLE
  5
21A
102
{ACAD_XDICTIONARY
360
234
102
}
102
{ACAD_REACTORS
330
219
102
}
330
219
100
AcDbModelDocViewStyle
 70
     0
  3
Metric50
290
     0
100
AcDbSectionViewStyle
 70
     0
 71
     0
 90
      102
 71
     1
340
11
 62
   256
 40
5.0
340
0
340
0
 62
   256
 40
5.0
300
I, O, Q, S, X, Z
 40
10.0
 90
        0
 40
2.5
 90
        0
 71
     2
340
16
 90
       25
 62
   256
340
16
 90
       50
 62
   256
 40
5.0
 40
2.5
 40
5.0
 71
     3
340
11
 62
   256
 40
5.0
 90
        0
 40
15.0
 90
        1
300
%<\AcVar ViewSectionStartId>%-%<\AcVar ViewSectionEndId>% (%<\AcVar ViewScale \f "%sn">%)
 71
     4
 62
   256
 62
   257
300
ANSI31
 40
1.0
 90
        0
290
     0
290
     0
 90
        6
 40
0.0
 40
1.570796326794896
 40
0.2617993877991494
 40
1.308996938995747
 40
-0.2617993877991494
 40
1.832595714594046
  0
TABLESTYLE
  5
7F
102
{ACAD_XDICTIONARY
360
162
102
}
102
{ACAD_REACTORS
330
7E
102
}
330
7E
100
AcDbTableStyle
280
     0
  3
Standard
 70
     0
 71
     0
 40
1.5
 41
1.5
280
     0
281
     0
  7
Standard
140
4.5
170
     2
 62
     0
 63
     7
283
     0
 90
      512
 91
        0
  1

274
    -2
284
     1
 64
     0
275
    -2
285
     1
 65
     0
276
    -2
286
     1
 66
     0
277
    -2
287
     1
 67
     0
278
    -2
288
     1
 68
     0
279
    -2
289
     1
 69
     0
  7
Standard
140
6.0
170
     5
 62
     0
 63
     7
283
     0
 90
      512
 91
        0
  1

274
    -2
284
     1
 64
     0
275
    -2
285
     1
 65
     0
276
    -2
286
     1
 66
     0
277
    -2
287
     1
 67
     0
278
    -2
288
     1
 68
     0
279
    -2
289
     1
 69
     0
  7
Standard
140
4.5
170
     5
 62
     0
 63
     7
283
     0
 90
      512
 91
        0
  1

274
    -2
284
     1
 64
     0
275
    -2
285
     1
 65
     0
276
    -2
286
     1
 66
     0
277
    -2
287
     1
 67
     0
278
    -2
288
     1
 68
     0
279
    -2
289
     1
 69
     0
  0
VISUALSTYLE
  5
F5
102
{ACAD_XDICTIONARY
360
66A
102
}
102
{ACAD_REACTORS
330
EF
102
}
330
EF
100
AcDbVisualStyle
  2
2dWireframe
 70
     4
177
     2
291
     0
 71
     0
176
     1
 72
     2
176
     1
 73
     1
176
     1
 90
        0
176
     1
 40
0.6
176
     1
 41
30.0
176
     1
 63
     7
421
 16777215
176
     1
 74
     1
176
     1
 91
        4
176
     1
 64
     7
176
     1
 65
   257
176
     1
 75
     1
176
     1
175
     1
176
     1
 42
1.0
176
     1
 92
        0
176
     1
 66
   257
176
     1
 43
1.0
176
     1
 76
     1
176
     1
 77
     6
176
     1
 78
     2
176
     1
 67
     7
176
     1
 79
     5
176
     1
170
     0
176
     1
171
     0
176
     1
290
     0
176
     1
 93
        1
176
     1
 44
0.0
176
     1
173
     0
176
     1
1001
ACAD
1000
AcDbSavedByObjectVersion
1070
     0
  0
VISUALSTYLE
  5
F4
102
{ACAD_XDICTIONARY
360
668
102
}
102
{ACAD_REACTORS
330
EF
102
}
330
EF
100
AcDbVisualStyle
  2
Basic
 70
     7
177
     2
291
     1
 71
     1
176
     1
 72
     0
176
     1
 73
     1
176
     1
 90
        0
176
     1
 40
0.6
176
     1
 41
30.0
176
     1
 63
     7
421
 16777215
176
     1
 74
     0
176
     1
 91
        4
176
     1
 64
     7
176
     1
 65
   257
176
     1
 75
     1
176
     1
175
     1
176
     1
 42
1.0
176
     1
 92
        8
176
     1
 66
     7
176
     1
 43
1.0
176
     1
 76
     1
176
     1
 77
     6
176
     1
 78
     2
176
     1
 67
     7
176
     1
 79
     5
176
     1
170
     0
176
     1
171
     0
176
     1
290
     0
176
     1
 93
        1
176
     1
 44
0.0
176
     1
173
     0
176
     1
1001
ACAD
1000
AcDbSavedByObjectVersion
1070
     0
  0
VISUALSTYLE
  5
FB
102
{ACAD_XDICTIONARY
360
676
102
}
102
{ACAD_REACTORS
330
EF
102
}
330
EF
100
AcDbVisualStyle
  2
Brighten
 70
    12
177
     2
291
     1
 71
     2
176
     1
 72
     2
176
     1
 73
     1
176
     1
 90
        0
176
     1
 40
0.6
176
     1
 41
30.0
176
     1
 63
     7
421
 16777215
176
     1
 74
     1
176
     1
 91
        4
176
     1
 64
     7
176
     1
 65
   257
176
     1
 75
     1
176
     1
175
     1
176
     1
 42
1.0
176
     1
 92
        8
176
     1
 66
     7
176
     1
 43
1.0
176
     1
 76
     1
176
     1
 77
     6
176
     1
 78
     2
176
     1
 67
     7
176
     1
 79
     5
176
     1
170
     0
176
     1
171
     0
176
     1
290
     0
176
     1
 93
        1
176
     1
 44
50.0
176
     1
173
     0
176
     1
1001
ACAD
1000
AcDbSavedByObjectVersion
1070
     0
  0
VISUALSTYLE
  5
FF
102
{ACAD_XDICTIONARY
360
67E
102
}
102
{ACAD_REACTORS
330
EF
102
}
330
EF
100
AcDbVisualStyle
  2
ColorChange
 70
    16
177
     2
291
     1
 71
     2
176
     1
 72
     2
176
     1
 73
     3
176
     1
 90
        0
176
     1
 40
0.6
176
     1
 41
30.0
176
     1
 63
     8
421
  8421504
176
     1
 74
     1
176
     1
 91
        4
176
     1
 64
     7
176
     1
 65
   257
176
     1
 75
     1
176
     1
175
     1
176
     1
 42
1.0
176
     1
 92
        8
176
     1
 66
     8
424
  8421504
176
     1
 43
1.0
176
     1
 76
     1
176
     1
 77
     6
176
     1
 78
     2
176
     1
 67
     7
176
     1
 79
     5
176
     1
170
     0
176
     1
171
     0
176
     1
290
     0
176
     1
 93
        1
176
     1
 44
0.0
176
     1
173
     0
176
     1
1001
ACAD
1000
AcDbSavedByObjectVersion
1070
     0
  0
VISUALSTYLE
  5
F8
102
{ACAD_XDICTIONARY
360
670
102
}
102
{ACAD_REACTORS
330
EF
102
}
330
EF
100
AcDbVisualStyle
  2
Conceptual
 70
     9
177
     2
291
     0
 71
     3
176
     1
 72
     2
176
     1
 73
     1
176
     1
 90
        0
176
     1
 40
0.6
176
     1
 41
30.0
176
     1
 63
     7
421
 16777215
176
     1
 74
     2
176
     1
 91
        2
176
     1
 64
     7
176
     1
 65
   257
176
     1
 75
     1
176
     1
175
     1
176
     1
 42
40.0
176
     1
 92
        8
176
     1
 66
     7
176
     1
 43
1.0
176
     1
 76
     1
176
     1
 77
     6
176
     1
 78
     2
176
     1
 67
     7
176
     1
 79
     3
176
     1
170
     0
176
     1
171
     0
176
     1
290
     0
176
     1
 93
        1
176
     1
 44
0.0
176
     1
173
     0
176
     1
1001
ACAD
1000
AcDbSavedByObjectVersion
1070
     0
  0
VISUALSTYLE
  5
FA
102
{ACAD_XDICTIONARY
360
674
102
}
102
{ACAD_REACTORS
330
EF
102
}
330
EF
100
AcDbVisualStyle
  2
Dim
 70
    11
177
     2
291
     1
 71
     2
176
     1
 72
     2
176
     1
 73
     1
176
     1
 90
        0
176
     1
 40
0.6
176
     1
 41
30.0
176
     1
 63
     7
421
 16777215
176
     1
 74
     1
176
     1
 91
        4
176
     1
 64
     7
176
     1
 65
   257
176
     1
 75
     1
176
     1
175
     1
176
     1
 42
1.0
176
     1
 92
        8
176
     1
 66
     7
176
     1
 43
1.0
176
     1
 76
     1
176
     1
 77
     6
176
     1
 78
     2
176
     1
 67
     7
176
     1
 79
     5
176
     1
170
     0
176
     1
171
     0
176
     1
290
     0
176
     1
 93
        1
176
     1
 44
-50.0
176
     1
173
     0
176
     1
1001
ACAD
1000
AcDbSavedByObjectVersion
1070
     0
  0
VISUALSTYLE
  5
1E6
102
{ACAD_XDICTIONARY
360
684
102
}
102
{ACAD_REACTORS
330
EF
102
}
330
EF
100
AcDbVisualStyle
  2
EdgeColorOff
 70
    22
177
     2
291
     1
 71
     2
176
     0
 72
     2
176
     0
 73
     0
176
     0
 90
        0
176
     0
 40
0.6
176
     0
 41
30.0
176
     0
 63
     7
421
 16777215
176
     0
 74
     1
176
     0
 91
        4
176
     0
 64
     7
176
     0
 65
   257
176
     0
 75
     1
176
     0
175
     1
176
     0
 42
1.0
176
     0
 92
        8
176
     2
 66
     7
176
     0
 43
1.0
176
     0
 76
     1
176
     0
 77
     6
176
     0
 78
     2
176
     0
 67
     7
176
     0
 79
     5
176
     0
170
     0
176
     0
171
     0
176
     0
290
     0
176
     0
 93
        1
176
     0
 44
0.0
176
     0
173
     0
176
     0
1001
ACAD
1000
AcDbSavedByObjectVersion
1070
     0
  0
VISUALSTYLE
  5
FE
102
{ACAD_XDICTIONARY
360
67C
102
}
102
{ACAD_REACTORS
330
EF
102
}
330
EF
100
AcDbVisualStyle
  2
Facepattern
 70
    15
177
     2
291
     1
 71
     2
176
     1
 72
     2
176
     1
 73
     1
176
     1
 90
        0
176
     1
 40
0.6
176
     1
 41
30.0
176
     1
 63
     7
421
 16777215
176
     1
 74
     1
176
     1
 91
        4
176
     1
 64
     7
176
     1
 65
   257
176
     1
 75
     1
176
     1
175
     1
176
     1
 42
1.0
176
     1
 92
        8
176
     1
 66
     7
176
     1
 43
1.0
176
     1
 76
     1
176
     1
 77
     6
176
     1
 78
     2
176
     1
 67
     7
176
     1
 79
     5
176
     1
170
     0
176
     1
171
     0
176
     1
290
     0
176
     1
 93
        1
176
     1
 44
0.0
176
     1
173
     0
176
     1
1001
ACAD
1000
AcDbSavedByObjectVersion
1070
     0
  0
VISUALSTYLE
  5
F0
102
{ACAD_XDICTIONARY
360
660
102
}
102
{ACAD_REACTORS
330
EF
102
}
330
EF
100
AcDbVisualStyle
  2
Flat
 70
     0
177
     2
291
     1
 71
     2
176
     1
 72
     1
176
     1
 73
     1
176
     1
 90
        2
176
     1
 40
0.6
176
     1
 41
30.0
176
     1
 63
     7
421
 16777215
176
     1
 74
     0
176
     1
 91
        0
176
     1
 64
     7
176
     1
 65
   257
176
     1
 75
     1
176
     1
175
     1
176
     1
 42
1.0
176
     1
 92
        8
176
     1
 66
     7
176
     1
 43
1.0
176
     1
 76
     1
176
     1
 77
     6
176
     1
 78
     2
176
     1
 67
     7
176
     1
 79
     5
176
     1
170
     0
176
     1
171
     0
176
     1
290
     0
176
     1
 93
       13
176
     1
 44
0.0
176
     1
173
     0
176
     1
1001
ACAD
1000
AcDbSavedByObjectVersion
1070
     0
  0
VISUALSTYLE
  5
F1
102
{ACAD_XDICTIONARY
360
662
102
}
102
{ACAD_REACTORS
330
EF
102
}
330
EF
100
AcDbVisualStyle
  2
FlatWithEdges
 70
     1
177
     2
291
     1
 71
     2
176
     1
 72
     1
176
     1
 73
     1
176
     1
 90
        2
176
     1
 40
0.6
176
     1
 41
30.0
176
     1
 63
     7
421
 16777215
176
     1
 74
     1
176
     1
 91
        0
176
     1
 64
     7
176
     1
 65
   257
176
     1
 75
     1
176
     1
175
     1
176
     1
 42
1.0
176
     1
 92
        0
176
     1
 66
   257
176
     1
 43
1.0
176
     1
 76
     1
176
     1
 77
     6
176
     1
 78
     2
176
     1
 67
     7
176
     1
 79
     5
176
     1
170
     0
176
     1
171
     0
176
     1
290
     0
176
     1
 93
       13
176
     1
 44
0.0
176
     1
173
     0
176
     1
1001
ACAD
1000
AcDbSavedByObjectVersion
1070
     0
  0
VISUALSTYLE
  5
F2
102
{ACAD_XDICTIONARY
360
664
102
}
102
{ACAD_REACTORS
330
EF
102
}
330
EF
100
AcDbVisualStyle
  2
Gouraud
 70
     2
177
     2
291
     1
 71
     2
176
     1
 72
     2
176
     1
 73
     1
176
     1
 90
        2
176
     1
 40
0.6
176
     1
 41
30.0
176
     1
 63
     7
421
 16777215
176
     1
 74
     0
176
     1
 91
        0
176
     1
 64
     7
176
     1
 65
   257
176
     1
 75
     1
176
     1
175
     1
176
     1
 42
1.0
176
     1
 92
        0
176
     1
 66
     7
176
     1
 43
1.0
176
     1
 76
     1
176
     1
 77
     6
176
     1
 78
     2
176
     1
 67
     7
176
     1
 79
     5
176
     1
170
     0
176
     1
171
     0
176
     1
290
     0
176
     1
 93
       13
176
     1
 44
0.0
176
     1
173
     0
176
     1
1001
ACAD
1000
AcDbSavedByObjectVersion
1070
     0
  0
VISUALSTYLE
  5
F3
102
{ACAD_XDICTIONARY
360
666
102
}
102
{ACAD_REACTORS
330
EF
102
}
330
EF
100
AcDbVisualStyle
  2
GouraudWithEdges
 70
     3
177
     2
291
     1
 71
     2
176
     1
 72
     2
176
     1
 73
     1
176
     1
 90
        2
176
     1
 40
0.6
176
     1
 41
30.0
176
     1
 63
     7
421
 16777215
176
     1
 74
     1
176
     1
 91
        0
176
     1
 64
     7
176
     1
 65
   257
176
     1
 75
     1
176
     1
175
     1
176
     1
 42
1.0
176
     1
 92
        0
176
     1
 66
   257
176
     1
 43
1.0
176
     1
 76
     1
176
     1
 77
     6
176
     1
 78
     2
176
     1
 67
     7
176
     1
 79
     5
176
     1
170
     0
176
     1
171
     0
176
     1
290
     0
176
     1
 93
       13
176
     1
 44
0.0
176
     1
173
     0
176
     1
1001
ACAD
1000
AcDbSavedByObjectVersion
1070
     0
  0
VISUALSTYLE
  5
F7
102
{ACAD_XDICTIONARY
360
66E
102
}
102
{ACAD_REACTORS
330
EF
102
}
330
EF
100
AcDbVisualStyle
  2
Hidden
 70
     6
177
     2
291
     0
 71
     1
176
     1
 72
     2
176
     1
 73
     2
176
     1
 90
        0
176
     1
 40
0.6
176
     1
 41
30.0
176
     1
 63
     7
421
 16777215
176
     1
 74
     2
176
     1
 91
        2
176
     1
 64
     7
176
     1
 65
   257
176
     1
 75
     2
176
     1
175
     1
176
     1
 42
40.0
176
     1
 92
        0
176
     1
 66
   257
176
     1
 43
1.0
176
     1
 76
     1
176
     1
 77
     6
176
     1
 78
     2
176
     1
 67
     7
176
     1
 79
     3
176
     1
170
     0
176
     1
171
     0
176
     1
290
     0
176
     1
 93
        1
176
     1
 44
0.0
176
     1
173
     0
176
     1
1001
ACAD
1000
AcDbSavedByObjectVersion
1070
     0
  0
VISUALSTYLE
  5
1E4
102
{ACAD_XDICTIONARY
360
680
102
}
102
{ACAD_REACTORS
330
EF
102
}
330
EF
100
AcDbVisualStyle
  2
JitterOff
 70
    20
177
     2
291
     1
 71
     2
176
     0
 72
     2
176
     0
 73
     0
176
     0
 90
        0
176
     0
 40
0.6
176
     0
 41
30.0
176
     0
 63
     7
421
 16777215
176
     0
 74
     1
176
     0
 91
        4
176
     0
 64
     7
176
     0
 65
   257
176
     0
 75
     1
176
     0
175
     1
176
     0
 42
1.0
176
     0
 92
       10
176
     2
 66
     7
176
     0
 43
1.0
176
     0
 76
     1
176
     0
 77
     6
176
     0
 78
     2
176
     0
 67
     7
176
     0
 79
     5
176
     0
170
     0
176
     0
171
     0
176
     0
290
     0
176
     0
 93
        1
176
     0
 44
0.0
176
     0
173
     0
176
     0
1001
ACAD
1000
AcDbSavedByObjectVersion
1070
     0
  0
VISUALSTYLE
  5
FD
102
{ACAD_XDICTIONARY
360
67A
102
}
102
{ACAD_REACTORS
330
EF
102
}
330
EF
100
AcDbVisualStyle
  2
Linepattern
 70
    14
177
     2
291
     1
 71
     2
176
     1
 72
     2
176
     1
 73
     1
176
     1
 90
        0
176
     1
 40
0.6
176
     1
 41
30.0
176
     1
 63
     7
421
 16777215
176
     1
 74
     1
176
     1
 91
        4
176
     1
 64
     7
176
     1
 65
   257
176
     1
 75
     7
176
     1
175
     7
176
     1
 42
1.0
176
     1
 92
        8
176
     1
 66
     7
176
     1
 43
1.0
176
     1
 76
     1
176
     1
 77
     6
176
     1
 78
     2
176
     1
 67
     7
176
     1
 79
     5
176
     1
170
     0
176
     1
171
     0
176
     1
290
     0
176
     1
 93
        1
176
     1
 44
0.0
176
     1
173
     0
176
     1
1001
ACAD
1000
AcDbSavedByObjectVersion
1070
     0
  0
VISUALSTYLE
  5
1E5
102
{ACAD_XDICTIONARY
360
682
102
}
102
{ACAD_REACTORS
330
EF
102
}
330
EF
100
AcDbVisualStyle
  2
OverhangOff
 70
    21
177
     2
291
     1
 71
     2
176
     0
 72
     2
176
     0
 73
     0
176
     0
 90
        0
176
     0
 40
0.6
176
     0
 41
30.0
176
     0
 63
     7
421
 16777215
176
     0
 74
     1
176
     0
 91
        4
176
     0
 64
     7
176
     0
 65
   257
176
     0
 75
     1
176
     0
175
     1
176
     0
 42
1.0
176
     0
 92
        9
176
     2
 66
     7
176
     0
 43
1.0
176
     0
 76
     1
176
     0
 77
     6
176
     0
 78
     2
176
     0
 67
     7
176
     0
 79
     5
176
     0
170
     0
176
     0
171
     0
176
     0
290
     0
176
     0
 93
        1
176
     0
 44
0.0
176
     0
173
     0
176
     0
1001
ACAD
1000
AcDbSavedByObjectVersion
1070
     0
  0
VISUALSTYLE
  5
F9
102
{ACAD_XDICTIONARY
360
672
102
}
102
{ACAD_REACTORS
330
EF
102
}
330
EF
100
AcDbVisualStyle
  2
Realistic
 70
     8
177
     2
291
     0
 71
     2
176
     1
 72
     3
176
     1
 73
     0
176
     1
 90
        2
176
     1
 40
0.6
176
     1
 41
30.0
176
     1
 63
     7
421
 16777215
176
     1
 74
     0
176
     1
 91
        0
176
     1
 64
     7
176
     1
 65
   257
176
     1
 75
     1
176
     1
175
     1
176
     1
 42
1.0
176
     1
 92
        8
176
     1
 66
   257
176
     1
 43
1.0
176
     1
 76
     1
176
     1
 77
     6
176
     1
 78
     2
176
     1
 67
     7
176
     1
 79
     3
176
     1
170
     0
176
     1
171
     0
176
     1
290
     0
176
     1
 93
       13
176
     1
 44
0.0
176
     1
173
     0
176
     1
1001
ACAD
1000
AcDbSavedByObjectVersion
1070
     0
  0
VISUALSTYLE
  5
1F3
102
{ACAD_XDICTIONARY
360
68E
102
}
102
{ACAD_REACTORS
330
EF
102
}
330
EF
100
AcDbVisualStyle
  2
Shaded
 70
    27
177
     2
291
     0
 71
     2
176
     1
 72
     2
176
     1
 73
     1
176
     1
 90
        2
176
     1
 40
0.6
176
     1
 41
30.0
176
     1
 63
     7
421
 16777215
176
     1
 74
     0
176
     1
 91
        4
176
     1
 64
     7
176
     1
 65
   257
176
     1
 75
     1
176
     1
175
     1
176
     1
 42
1.0
176
     1
 92
        8
176
     1
 66
   257
176
     1
 43
1.0
176
     1
 76
     1
176
     1
 77
     6
176
     1
 78
     2
176
     1
 67
     8
425
  7895160
176
     1
 79
     3
176
     1
170
     0
176
     1
171
     0
176
     1
290
     0
176
     1
 93
        5
176
     1
 44
0.0
176
     1
173
     0
176
     1
1001
ACAD
1000
AcDbSavedByObjectVersion
1070
     0
  0
VISUALSTYLE
  5
1F2
102
{ACAD_XDICTIONARY
360
68C
102
}
102
{ACAD_REACTORS
330
EF
102
}
330
EF
100
AcDbVisualStyle
  2
Shaded with edges
 70
    26
177
     2
291
     0
 71
     2
176
     1
 72
     2
176
     1
 73
     1
176
     1
 90
        2
176
     1
 40
0.6
176
     1
 41
30.0
176
     1
 63
     7
421
 16777215
176
     1
 74
     1
176
     1
 91
       10
176
     1
 64
     7
176
     1
 65
   257
176
     1
 75
     2
176
     1
175
     1
176
     1
 42
1.0
176
     1
 92
        8
176
     1
 66
   257
176
     1
 43
1.0
176
     1
 76
     1
176
     1
 77
     6
176
     1
 78
     2
176
     1
 67
     7
176
     1
 79
     3
176
     1
170
     0
176
     1
171
     0
176
     1
290
     0
176
     1
 93
        5
176
     1
 44
0.0
176
     1
173
     0
176
     1
1001
ACAD
1000
AcDbSavedByObjectVersion
1070
     0
  0
VISUALSTYLE
  5
1EF
102
{ACAD_XDICTIONARY
360
686
102
}
102
{ACAD_REACTORS
330
EF
102
}
330
EF
100
AcDbVisualStyle
  2
Shades of Gray
 70
    23
177
     2
291
     0
 71
     2
176
     1
 72
     2
176
     1
 73
     3
176
     1
 90
        0
176
     1
 40
0.6
176
     1
 41
30.0
176
     1
 63
     7
421
 16777215
176
     1
 74
     2
176
     1
 91
        2
176
     1
 64
     7
176
     1
 65
     7
176
     1
 75
     1
176
     1
175
     1
176
     1
 42
40.0
176
     1
 92
        8
176
     1
 66
     7
176
     1
 43
1.0
176
     1
 76
     1
176
     1
 77
     6
176
     1
 78
     2
176
     1
 67
     7
176
     1
 79
     3
176
     1
170
     0
176
     1
171
     0
176
     1
290
     0
176
     1
 93
        1
176
     1
 44
0.0
176
     1
173
     0
176
     1
1001
ACAD
1000
AcDbSavedByObjectVersion
1070
     0
  0
VISUALSTYLE
  5
1F0
102
{ACAD_XDICTIONARY
360
688
102
}
102
{ACAD_REACTORS
330
EF
102
}
330
EF
100
AcDbVisualStyle
  2
Sketchy
 70
    24
177
     2
291
     0
 71
     1
176
     1
 72
     2
176
     1
 73
     2
176
     1
 90
        0
176
     1
 40
0.6
176
     1
 41
30.0
176
     1
 63
     7
421
 16777215
176
     1
 74
     2
176
     1
 91
        2
176
     1
 64
     7
176
     1
 65
     7
176
     1
 75
     1
176
     1
175
     1
176
     1
 42
40.0
176
     1
 92
       11
176
     1
 66
     7
176
     1
 43
1.0
176
     1
 76
     1
176
     1
 77
     6
176
     1
 78
     2
176
     1
 67
     7
176
     1
 79
     6
176
     1
170
     0
176
     1
171
     0
176
     1
290
     0
176
     1
 93
        1
176
     1
 44
0.0
176
     1
173
     0
176
     1
1001
ACAD
1000
AcDbSavedByObjectVersion
1070
     0
  0
VISUALSTYLE
  5
FC
102
{ACAD_XDICTIONARY
360
678
102
}
102
{ACAD_REACTORS
330
EF
102
}
330
EF
100
AcDbVisualStyle
  2
Thicken
 70
    13
177
     2
291
     1
 71
     2
176
     1
 72
     2
176
     1
 73
     1
176
     1
 90
        0
176
     1
 40
0.6
176
     1
 41
30.0
176
     1
 63
     7
421
 16777215
176
     1
 74
     1
176
     1
 91
        4
176
     1
 64
     7
176
     1
 65
   257
176
     1
 75
     1
176
     1
175
     1
176
     1
 42
1.0
176
     1
 92
       12
176
     1
 66
     7
176
     1
 43
1.0
176
     1
 76
     1
176
     1
 77
     6
176
     1
 78
     2
176
     1
 67
     7
176
     1
 79
     5
176
     1
170
     0
176
     1
171
     0
176
     1
290
     0
176
     1
 93
        1
176
     1
 44
0.0
176
     1
173
     0
176
     1
1001
ACAD
1000
AcDbSavedByObjectVersion
1070
     0
  0
VISUALSTYLE
  5
F6
102
{ACAD_XDICTIONARY
360
66C
102
}
102
{ACAD_REACTORS
330
EF
102
}
330
EF
100
AcDbVisualStyle
  2
Wireframe
 70
     5
177
     2
291
     0
 71
     0
176
     1
 72
     2
176
     1
 73
     0
176
     1
 90
        0
176
     1
 40
0.6
176
     1
 41
30.0
176
     1
 63
     7
421
 16777215
176
     1
 74
     1
176
     1
 91
        4
176
     1
 64
     7
176
     1
 65
   257
176
     1
 75
     1
176
     1
175
     1
176
     1
 42
1.0
176
     1
 92
        0
176
     1
 66
   257
176
     1
 43
1.0
176
     1
 76
     1
176
     1
 77
     6
176
     1
 78
     2
176
     1
 67
     7
176
     1
 79
     3
176
     1
170
     0
176
     1
171
     0
176
     1
290
     0
176
     1
 93
        1
176
     1
 44
0.0
176
     1
173
     0
176
     1
1001
ACAD
1000
AcDbSavedByObjectVersion
1070
     0
  0
VISUALSTYLE
  5
1F1
102
{ACAD_XDICTIONARY
360
68A
102
}
102
{ACAD_REACTORS
330
EF
102
}
330
EF
100
AcDbVisualStyle
  2
X-Ray
 70
    25
177
     2
291
     0
 71
     2
176
     1
 72
     2
176
     1
 73
     1
176
     1
 90
        1
176
     1
 40
0.5
176
     1
 41
30.0
176
     1
 63
     7
421
 16777215
176
     1
 74
     1
176
     1
 91
        0
176
     1
 64
     7
176
     1
 65
   257
176
     1
 75
     1
176
     1
175
     1
176
     1
 42
1.0
176
     1
 92
        8
176
     1
 66
     7
176
     1
 43
1.0
176
     1
 76
     1
176
     1
 77
     6
176
     1
 78
     2
176
     1
 67
     7
176
     1
 79
     3
176
     1
170
     0
176
     1
171
     0
176
     1
290
     0
176
     1
 93
       13
176
     1
 44
0.0
176
     1
173
     0
176
     1
1001
ACAD
1000
AcDbSavedByObjectVersion
1070
     0
  0
DICTIONARYVAR
  5
146
102
{ACAD_REACTORS
330
5E
102
}
330
5E
100
DictionaryVariables
280
     0
  1
1:1
  0
DICTIONARYVAR
  5
145
102
{ACAD_REACTORS
330
5E
102
}
330
5E
100
DictionaryVariables
280
     0
  1
STANDARD
  0
DICTIONARYVAR
  5
84
102
{ACAD_REACTORS
330
5E
102
}
330
5E
100
DictionaryVariables
280
     0
  1
STANDARD
  0
DICTIONARYVAR
  5
227
102
{ACAD_REACTORS
330
5E
102
}
330
5E
100
DictionaryVariables
280
     0
  1
Metric50
  0
DICTIONARYVAR
  5
228
102
{ACAD_REACTORS
330
5E
102
}
330
5E
100
DictionaryVariables
280
     0
  1
Metric50
  0
DICTIONARYVAR
  5
5F
102
{ACAD_REACTORS
330
5E
102
}
330
5E
100
DictionaryVariables
280
     0
  1
2
  0
DICTIONARYVAR
  5
63
102
{ACAD_REACTORS
330
5E
102
}
330
5E
100
DictionaryVariables
280
     0
  1
1
  0
DICTIONARYVAR
  5
1AE
102
{ACAD_REACTORS
330
5E
102
}
330
5E
100
DictionaryVariables
280
     0
  1
0
  0
DICTIONARYVAR
  5
1AF
102
{ACAD_REACTORS
330
5E
102
}
330
5E
100
DictionaryVariables
280
     0
  1
0
  0
DICTIONARY
  5
65F
102
{ACAD_REACTORS
330
65D
102
}
330
65D
100
AcDbDictionary
281
     1
  0
DICTIONARY
  5
65E
102
{ACAD_REACTORS
330
65D
102
}
330
65D
100
AcDbDictionary
281
     1
  3
140699591839744
350
658
  3
140699591839760
350
659
  3
140699591839776
350
65A
  3
140699591839792
350
65B
  3
140699591839808
350
65C
  0
ACDBASSOCNETWORK
  5
58D
102
{ACAD_REACTORS
330
58C
102
}
330
58C
100
AcDbAssocAction
 90
        1
 90
        0
330
56A
360
0
 90
        2
 90
        0
 90
        0
100
AcDbAssocNetwork
 90
        0
 90
        1
 90
        1
360
588
 90
        0
  0
DICTIONARY
  5
236
330
21C
100
AcDbDictionary
280
     1
281
     1
  3
ACAD_XREC_ROUNDTRIP
360
691
  0
DICTIONARY
  5
205
330
22
100
AcDbDictionary
280
     1
281
     1
  0
DICTIONARY
  5
1F9
330
ED
100
AcDbDictionary
280
     1
281
     1
  3
FBXASSET
360
1FA
  0
DICTIONARY
  5
1F7
330
EC
100
AcDbDictionary
280
     1
281
     1
  3
FBXASSET
360
1F8
  0
DICTIONARY
  5
173
330
EE
100
AcDbDictionary
280
     1
281
     1
  3
BUMPTILE
360
175
  3
DIFFUSETILE
360
174
  3
FBXASSET
360
1FB
  3
OPACITYTILE
360
176
  3
REFLECTIONTILE
360
177
  0
DICTIONARY
  5
234
330
21A
100
AcDbDictionary
280
     1
281
     1
  3
ACAD_XREC_ROUNDTRIP
360
690
  0
DICTIONARY
  5
162
330
7F
100
AcDbDictionary
280
     1
281
     1
  3
ACAD_ROUNDTRIP_2008_TABLESTYLE_CELLSTYLEMAP
360
656
  0
DICTIONARY
  5
66A
330
F5
100
AcDbDictionary
280
     1
281
     1
  3
ACAD_XREC_ROUNDTRIP
360
66B
  0
DICTIONARY
  5
668
330
F4
100
AcDbDictionary
280
     1
281
     1
  3
ACAD_XREC_ROUNDTRIP
360
669
  0
DICTIONARY
  5
676
330
FB
100
AcDbDictionary
280
     1
281
     1
  3
ACAD_XREC_ROUNDTRIP
360
677
  0
DICTIONARY
  5
67E
330
FF
100
AcDbDictionary
280
     1
281
     1
  3
ACAD_XREC_ROUNDTRIP
360
67F
  0
DICTIONARY
  5
670
330
F8
100
AcDbDictionary
280
     1
281
     1
  3
ACAD_XREC_ROUNDTRIP
360
671
  0
DICTIONARY
  5
674
330
FA
100
AcDbDictionary
280
     1
281
     1
  3
ACAD_XREC_ROUNDTRIP
360
675
  0
DICTIONARY
  5
684
330
1E6
100
AcDbDictionary
280
     1
281
     1
  3
ACAD_XREC_ROUNDTRIP
360
685
  0
DICTIONARY
  5
67C
330
FE
100
AcDbDictionary
280
     1
281
     1
  3
ACAD_XREC_ROUNDTRIP
360
67D
  0
DICTIONARY
  5
660
330
F0
100
AcDbDictionary
280
     1
281
     1
  3
ACAD_XREC_ROUNDTRIP
360
661
  0
DICTIONARY
  5
662
330
F1
100
AcDbDictionary
280
     1
281
     1
  3
ACAD_XREC_ROUNDTRIP
360
663
  0
DICTIONARY
  5
664
330
F2
100
AcDbDictionary
280
     1
281
     1
  3
ACAD_XREC_ROUNDTRIP
360
665
  0
DICTIONARY
  5
666
330
F3
100
AcDbDictionary
280
     1
281
     1
  3
ACAD_XREC_ROUNDTRIP
360
667
  0
DICTIONARY
  5
66E
330
F7
100
AcDbDictionary
280
     1
281
     1
  3
ACAD_XREC_ROUNDTRIP
360
66F
  0
DICTIONARY
  5
680
330
1E4
100
AcDbDictionary
280
     1
281
     1
  3
ACAD_XREC_ROUNDTRIP
360
681
  0
DICTIONARY
  5
67A
330
FD
100
AcDbDictionary
280
     1
281
     1
  3
ACAD_XREC_ROUNDTRIP
360
67B
  0
DICTIONARY
  5
682
330
1E5
100
AcDbDictionary
280
     1
281
     1
  3
ACAD_XREC_ROUNDTRIP
360
683
  0
DICTIONARY
  5
672
330
F9
100
AcDbDictionary
280
     1
281
     1
  3
ACAD_XREC_ROUNDTRIP
360
673
  0
DICTIONARY
  5
68E
330
1F3
100
AcDbDictionary
280
     1
281
     1
  3
ACAD_XREC_ROUNDTRIP
360
68F
  0
DICTIONARY
  5
68C
330
1F2
100
AcDbDictionary
280
     1
281
     1
  3
ACAD_XREC_ROUNDTRIP
360
68D
  0
DICTIONARY
  5
686
330
1EF
100
AcDbDictionary
280
     1
281
     1
  3
ACAD_XREC_ROUNDTRIP
360
687
  0
DICTIONARY
  5
688
330
1F0
100
AcDbDictionary
280
     1
281
     1
  3
ACAD_XREC_ROUNDTRIP
360
689
  0
DICTIONARY
  5
678
330
FC
100
AcDbDictionary
280
     1
281
     1
  3
ACAD_XREC_ROUNDTRIP
360
679
  0
DICTIONARY
  5
66C
330
F6
100
AcDbDictionary
280
     1
281
     1
  3
ACAD_XREC_ROUNDTRIP
360
66D
  0
DICTIONARY
  5
68A
330
1F1
100
AcDbDictionary
280
     1
281
     1
  3
ACAD_XREC_ROUNDTRIP
360
68B
  0
XRECORD
  5
658
102
{ACAD_REACTORS
330
65E
102
}
330
65E
100
AcDbXrecord
280
     1
  1
AcDb_Thumbnail_Schema
102
{ATTRRECORD
341
659
  2
AcDbDs::TreatedAsObjectData
280
     1
291
     1
102
ATTRRECORD}
102
{ATTRRECORD
341
65A
  2
AcDbDs::Legacy
280
     1
291
     1
102
ATTRRECORD}
  2
AcDbDs::ID
280
    10
 91
        8
102
{ATTRRECORD
341
65B
  2
AcDs:Indexable
280
     1
291
     1
102
ATTRRECORD}
102
{ATTRRECORD
341
65C
  2
AcDbDs::HandleAttribute
280
     7
282
     1
102
ATTRRECORD}
  2
Thumbnail_Data
280
    15
 91
        0
  0
XRECORD
  5
659
102
{ACAD_REACTORS
330
65E
102
}
330
65E
100
AcDbXrecord
280
     1
  1
AcDbDs::TreatedAsObjectDataSchema
  2
AcDbDs::TreatedAsObjectData
280
     1
 91
        0
  0
XRECORD
  5
65A
102
{ACAD_REACTORS
330
65E
102
}
330
65E
100
AcDbXrecord
280
     1
  1
AcDbDs::LegacySchema
  2
AcDbDs::Legacy
280
     1
 91
        0
  0
XRECORD
  5
65B
102
{ACAD_REACTORS
330
65E
102
}
330
65E
100
AcDbXrecord
280
     1
  1
AcDbDs::IndexedPropertySchema
  2
AcDs:Indexable
280
     1
 91
        0
  0
XRECORD
  5
65C
102
{ACAD_REACTORS
330
65E
102
}
330
65E
100
AcDbXrecord
280
     1
  1
AcDbDs::HandleAttributeSchema
  2
AcDbDs::HandleAttribute
280
     7
 91
        1
284
     1
  0
ACDBASSOC2DCONSTRAINTGROUP
  5
588
330
58D
100
AcDbAssocAction
 90
        1
 90
        0
330
58D
360
0
 90
        1
 90
      553
 90
        0
 90
        2
 70
     0
 10
-37912.5707673236
 20
13374.39744934632
 30
0.0
 10
1.0
 20
0.0
 30
0.0
 10
0.0
 20
1.0
 30
0.0
360
0
 90
        3
360
589
360
58A
360
58B
 90
     4361
 90
       19
  1
AcConstrainedDatumLine
330
588
 90
     4325
 70
     0
 90
        0
330
0
 90
        0
 10
-1352.124487561766
 20
-641.7861639464104
 30
0.0
 10
1.0
 20
0.0
 30
0.0
  1
AcConstrainedBoundedLine
330
588
 90
     4326
 70
     1
 90
        3
 90
     4328
 90
     4330
 90
     4343
330
589
 90
        0
 10
570.6376076811211
 20
767.933196916747
 30
0.0
 10
1.0
 20
0.0
 30
0.0
290
     0
 10
570.6376076811211
 20
767.933196916747
 30
0.0
 11
591.1376076811211
 21
767.933196916747
 31
0.0
  1
AcConstrainedImplicitPoint
330
588
 90
     4327
 70
     1
 90
        2
 90
     4328
 90
     4336
330
0
 90
        0
280
     0
 90
       -1
 90
     4326
  1
AcPointCurveConstraint
330
588
 90
     4328
 70
     0
 90
        2
 90
     4327
 90
     4326
 90
        0
290
     1
290
     1
  1
AcConstrainedImplicitPoint
330
588
 90
     4329
 70
     1
 90
        2
 90
     4330
 90
     4342
330
0
 90
        0
280
     1
 90
       -1
 90
     4326
  1
AcPointCurveConstraint
330
588
 90
     4330
 70
     0
 90
        2
 90
     4329
 90
     4326
 90
        0
290
     1
290
     1
  1
AcConstrainedBoundedLine
330
588
 90
     4331
 70
     1
 90
        2
 90
     4333
 90
     4335
330
58B
 90
        0
 10
570.6376076811211
 20
937.089249029832
 30
0.0
 10
0.0
 20
-1.0
 30
0.0
290
     0
 10
570.6376076811211
 20
767.933196916747
 30
0.0
 11
570.6376076811211
 21
727.9331969167469
 31
0.0
  1
AcConstrainedImplicitPoint
330
588
 90
     4332
 70
     1
 90
        2
 90
     4333
 90
     4336
330
0
 90
        0
280
     0
 90
       -1
 90
     4331
  1
AcPointCurveConstraint
330
588
 90
     4333
 70
     0
 90
        2
 90
     4332
 90
     4331
 90
        0
290
     1
290
     1
  1
AcConstrainedImplicitPoint
330
588
 90
     4334
 70
     1
 90
        1
 90
     4335
330
0
 90
        0
280
     1
 90
       -1
 90
     4331
  1
AcPointCurveConstraint
330
588
 90
     4335
 70
     0
 90
        2
 90
     4334
 90
     4331
 90
        0
290
     1
290
     1
  1
AcPointCoincidenceConstraint
330
588
 90
     4336
 70
     0
 90
        2
 90
     4327
 90
     4332
 90
        0
290
     0
290
     1
  1
AcConstrainedBoundedLine
330
588
 90
     4337
 70
     1
 90
        2
 90
     4339
 90
     4341
330
58A
 90
        0
 10
591.1376076811211
 20
937.089249029832
 30
0.0
 10
0.0
 20
-1.0
 30
0.0
290
     0
 10
591.1376076811211
 20
767.933196916747
 30
0.0
 11
591.1376076811211
 21
727.9331969167469
 31
0.0
  1
AcConstrainedImplicitPoint
330
588
 90
     4338
 70
     1
 90
        2
 90
     4339
 90
     4342
330
0
 90
        0
280
     0
 90
       -1
 90
     4337
  1
AcPointCurveConstraint
330
588
 90
     4339
 70
     0
 90
        2
 90
     4338
 90
     4337
 90
        0
290
     1
290
     1
  1
AcConstrainedImplicitPoint
330
588
 90
     4340
 70
     1
 90
        1
 90
     4341
330
0
 90
        0
280
     1
 90
       -1
 90
     4337
  1
AcPointCurveConstraint
330
588
 90
     4341
 70
     0
 90
        2
 90
     4340
 90
     4337
 90
        0
290
     1
290
     1
  1
AcPointCoincidenceConstraint
330
588
 90
     4342
 70
     0
 90
        2
 90
     4329
 90
     4338
 90
        0
290
     0
290
     1
  1
AcHorizontalConstraint
330
588
 90
     4343
 70
     0
 90
        1
 90
     4326
 90
        0
290
     0
290
     1
 90
     4325
  0
XRECORD
  5
691
102
{ACAD_REACTORS
330
236
102
}
330
236
100
AcDbXrecord
280
     1
102
DISPLAYNAME
  1
Metric50
102
FLAGS
 90
        0
  0
XRECORD
  5
1FA
102
{ACAD_REACTORS
330
1F9
102
}
330
1F9
100
AcDbXrecord
280
     1
 70
     1
 90
429727718
  1
D62C5603-E3A1-4AEA-B7FB-FE5D8D0755AF
310
504B03040A0000080000CC70623B3DEE336E79000000790000001B0000006175746F6465736B2D64657369676E2D7061636B6167652E786D6C3C3F786D6C2076657273696F6E3D22312E302220656E636F64696E673D227574662D3822203F3E3C666F726D6174733E3C666F726D61743E687474703A2F2F736368656D612E
310
6175746F6465736B2E636F6D2F64657369676E2D7061636B6167652F323030393C2F666F726D61743E3C2F666F726D6174733E504B0304140006080800CC70623BD486FD9CA0000000F4000000130000005B436F6E74656E745F54797065735D2E786D6C7D8EC10E82300C865F65E91D8A1E8C310C0EEA1BF002731658846E
310
D98AC1B77784ABF1D8FE5FBFBF75BBCE937A534CCEB38643598122B6FEE978D0B0485F9C41B54DDD7D022595594E1A469170414C76A4D9A4D207E29CF43ECE46F218070CC6BECC4078ACAA135ACF422C856C0E68EA1BF5669944DDD7BCDE7B1F8E415D77AECB980613C2E4AC91FC167A2B244592486606FC29C8FD7F045B9A
310
EF7053A7E60B504B0304140006080800CC70623B853B8169EB0000007C01000008000000636F72652E786D6C8D90416EC3201045AF62CDB6C206821CC7C244919D9CA01740401C94182C03558F5F9C3852BBEB6A467FFE9B197D7EFC9E1EC5975982F5AE035262288C535E5B377690E21535501C055FBC8FBF6C503839990E
310
5619041F179FE64D52DE45E362569DD7661365082642A11EB9E920A89B99642953CC8E702F67A9EE7234257977194EC9EAE275C4EABCCF5EAD5940D4AC6F0E35A568B8F43562CD7046CD199FD07E60174276A7BE677B5EADB0E0D14EEFFB6A31321A0D82627C4084204C3F096B71DD52F6819B16635EADF63F509AF53FA164
310
5DDCD1EDDD17164090FCC8732078B56691CB33A85CD7DCC40F504B0304140006080800CC70623B55019EA25F0000007C00000007000000636E782E786D6C4DCB3B0E80201045D1AD90E915ED2CF8AC45050C11660C8261F98AB1B07AC9C97D42D718D865D3E909258CFD00CCE24AC6E326A164D74DC0B4128928FF32603847
310
2BA13128B1252AC747C6BAB984FC68F0B87FE8960A5C09FE86CFB69FBA01504B0304140006080800CC70623BDBABAAF470010000D40300000C0000006662782F636F72652E786D6CC553D16E823014FD95A6AF4B694182CC941A83FA05FB810A9511A125A5257EFE2E82712ECEB8A7F100CD39F7F69E734AF9FADC366850B6
310
AF8DCE7018308C942E4C59EB2AC3DE1D498AD15A706B8CFB56869196ADCAF00863C12B6B7C374385D14E6907A836A59A41D9F7CA615434B0C8705F7CAA5606D23BA8E84F41278B93AC54100640439DE0BDB320004D43C63716C7C399D30917DCFBBA9CD9BA8469F5B156168B24CED3F7248AC8769F27244EB73B92EED8862C
310
B7F13E0C179B3C8F979C8ECD82BBBABDAA2BAC924E9558448CBD9330242CFA08E3154B5651FCC6D215639C8EE5774DBE2B5F6CF2B5768B68963BB5F5588420E442FC700B1139D4CB01F450C1E918227C2E09DF070D8140C84E1E9AAB8F1340832A9CB13130A5F1376A908D57309505ECF2A0DF179C4E9D30F5B239B87E3823
310
7A79C6F31DE1A8A5AEC08474B03C7837EAE4938639B44E5932B833D2C6B6B279CDC613877FA26EE21F4A2A4C63EC7F29A2F301D1F9F7A0E37D145F504B0304140006080800CC70623B9C113CC27E0000009D0000000B0000006662782F636E782E786D6C4DCCDF0A83201C86E15B91DFB94BFB330DD428C8FB886521330DA7
310
6397BF1A1DECE883878F57749FCDA1B7892F1BBC047A23808C7F84D9FA55424E0BE6803A256208E9EF06C84F9B91703228B1C690F78B66B34CD9A5439DF5CF0BFBF65E35BCA1B8D6A5C6F540381E886698B5741C695F9503EBA150A2F8958E3DC3EA0B504B0304140006080800CC70623B7DF2F77C2A010000120200003100
310
00006662782F41393633353835312D344632462D344230382D423046372D3739314545314133324237412F636F72652E786D6C8D51DB8EC22014FC15C2939B0D2DB4B45643319AE817EC0F6041255A68B86CFCFC856D4D76DF7CE190393373060EDB3DC707F856CE6B6B7A480A0C81328395DA5C7B18C3057510EC3873D686
310
3F34088C18550F330C39BB3A1BA7051AAC09CA84841A2BD5020AEF55806078A44B0FFD7053A328440C89E1EFC52486BBB8AA8214A99D789CF9E05200300FC927E4FB4D5B375D43103D5527440FB843077C5AA3F5861C8F645F5787F59E95B390B318B55CE45AA638FAA2957BD7248B390B7A7CC51F9C124149C82B8C378810
310
84AB2F42B7B8DD56F413775B8C5999E9FF4471926F8AA236A1AE96B8B3CC434E5839373893369E1FAF30EA395917409EB7F26AF8801C171837A4A6AC9C89E9F9C9B1A58BA30FD6A5EF5DDDCF894B9AD9B6A59C957943A9FCAE2FD5BC4DFE03504B0304140006080800CC70623BAD7543B64E01000033030000300000006662
310
782F41393633353835312D344632462D344230382D423046372D3739314545314133324237412F636E782E786D6CD593CD6EC32010845F0571AD6CE3D48AD20813A9873E410FBD12D82434182C7EAAE6EDBB2424CD25871E7B41D6EC30B3FA84F9E67BB2E40B4234DE8DB46F1925E094D7C6ED479AD3AE5951B2113C789FEE
310
6C943839C1488B4C05DF079FE72A69D8C96C13AAD6B8631503449F83828872B949AC57D26200B826A308D316B4064D6E46FCDA41C05550DC9E483A00797BFD207EFB092A45DE9514C1BBD22178396BD39D891265658C238DEA00936C654E5E433CB65A26D9F6EDB5EBC14EBF49A45CB856E66048291F6939A9A81BB5C89177
310
38143CA680F4AA299D66A042CEB3354A2684DC9D8D178FE0D9B8B41CAAD720F880EE7EF93C0C18769E099ECC04D5A102C8049A8A05632F4DDF376CF1DE0F6BB65C2F8627B65A33C6BB62177CEBBDAD973006829F89F22E814B54F4BC2BE347F8AA8F681390B50FA73F804400B5F542E796F19FF974E7F78DB802FE05E20750
310
4B0304140006080800CC70623BE75B7789680500003C100000340000006662782F41393633353835312D344632462D344230382D423046372D3739314545314133324237412F6F626A656374732E786D6CAD575B8F9B3818FD2B887D06C22499CB8AA1CA655245D5B455A356FB305264C061D8018C6C3393D95FBFC7600890
310
A4CD5EF210B0B1BFEBF98E3F7B1FF6596ABC522E1296DF9BAE3D320D9A872C4AF2F8DE2CE5CEBA358D0FBEC719939D65A691938CDE9B6ADAF4BD98B3B2D05311DD91329583D9D5FC0F438434A7A611A644887B5384CF34233629258BA878B12322891DEFF6B66BD70BFB62634E8AE781D082709A4B588AF91C528CDA28B73F
310
1C998EEF39EABBEFA97FBD6A7C7E9553F9D3D79FE442923C3C523610337627CB87ABE99D359D4CC6D6E4FACAB5E6ABF9D2726FC6A3C5F56271377BB88362213924694B38DD99FE47C48627A1E7D49F5A8BB5E1A74C0A599ED3B0F21F1E56366B89112D681E218F0915D0D6F17AD41FBA2A369DCF6335D62ABBD39779D5DDD1
310
11D4D8DE3CBB96B2E04FB8202E41051754A1AA8E8F76B4C6DFE810B580B1547F4B84911149794252234D024EF8BBE963A95AE27B3D310A9D5C215C7960FAEE415ED75694C6AFB17BCACA5D99A60A9AA65F217B0BFC53292ACB92BF283FAD0D3621576592CB5BED907C2FA8E9DF794E35E97BEA31BED21FEB401ABB94C44839
310
DCACBF0E1C5DA8DA5B2F4DFFD32AD86F543D9E565E7056502E157C00AD2671CD534549AB752FCA9CDA00677A313F04E51B22FF19E57B300579E3C97EB29F682D92935CEC18CF901B7B54FD8C51F362B56FC72FE0B3C1EAE335EDCCBF5AEC39ADB17DC238973F804BA5E6F6BFE7AF1FB32E523BE9F3BD571418E3631DCA4D48
310
5250CF639223210A9446CA30052EDF057BD35F8329C1ECD84552BF0DC8D18BE7BCE23BFE6BD960AB4A7DE79923A103BEBD80F911CBAA2C60DB19B01CF164A5583B772EE6D3FFA56666CBCDA74DC97724A48F9A58967497E489C4D979006FD7A05E227A1EBDD0F737C623387A9C844D3709995625106D157315F8B8392CD4E0
310
A0B9A720C4BE9829CEF37EA1E13111214D53925356365ADA634861B52519DD27A00AEB808EAF0628E6F435519D446F45CF2C9CF5214F0A15B2F6D06B79DA3EE3CBF7F56780D2F4E7EF73A0F5E5B02A38D07DC852C6B7C1FBB6664213E0C39E3EBA7FF4E1AD23EA2829407C85E586727488B751B2DB9502BC7B228A3FD68B6E
310
A65A22397E690AA8D158D7E404EC8CDA235CC3B7D1898680131CEC2CDF2638C65196279577750F15884AEE19F94199155B92B13297978469D4F8D358DF0AEF7631E28DC8F0D9F437D5D39A83B2231A1D52D543813A824EF8D44BCFF2FA6A31BD1E8DAD87F1CCB526B3879935BF59CDADD5C37479BB1CDD4CA7B3556B516589
310
EF352754B706114D9C885EC9131DE6EFEB43D99AFE2391C2F958179413D7CFEF6B1B6DB1E7600F00DE6E5C67454A339A4BA2E0FBA85ED26F045D454F463DBFCE484C2F90F2E5E3666003662ED8F755951A7D1BECD5B30B550B2785C8E7320B7292A4838DDA71BBC863ED7613CAF659337A3354231D4FF4A182A54904C2898C
310
98B28C4AD0CE056CCF332A80986E571EE9DBC305BB5FEB7E509220A58D25CF042D712A806AC0AD0C657FDEF80D2D9CEAA2EE4D1C76F60BFE74219A06527D6F82DF6412526107381E55E353090704D085B52408A8913C4ED159D79BDA71BB4BC506F4831350EB6F975CD22D69BF7AC49B91A2C0A9DDA3D5CA36AD20FC478E37
310
E61844E2352865EBCB61A275A65283CAAA9DD27703B4102F5AF51EF5F573B75CBB5AD38BC845F7A49F82A0966A49C2E3EA5EA0ECD326CD965F1DB402C6FA8B51A4658C5C5E2EC9E214602E55810345408596591009A82E7E7FFACA19EEA299B14A0081A705CB3296EBC14CDF658DCD336EA6D1136881AAEB87B81AB9EE53D5
310
F5EB8BC8362082DA24122F98680A4E7930C01A0079749CEA14382A0783E5EBA5A10F8C098456A03D6A4AEB6BB881E2513747552A5DB22C7EDAF83BD5528081A365F7FF06504B0304140006080000CC70623B000000000000000000000000350000006662782F41393633353835312D344632462D344230382D423046372D37
310
39314545314133324237412F76657274696365732E62696E504B0304140006080800CC70623BF270F1330600000004000000360000006662782F41393633353835312D344632462D344230382D423046372D3739314545314133324237412F747269616E676C65732E62696E636660600000504B0304140006080000CC7062
310
3B000000000000000000000000370000006662782F41393633353835312D344632462D344230382D423046372D3739314545314133324237412F617474726962757465732E62696E504B0304140006080800CC70623B08DA0BD19000000041010000360000006662782F41393633353835312D344632462D344230382D4230
310
46372D3739314545314133324237412F6469726563746F72792E786D6C858F410AC3201045AF22B36F53E9A60B35CBEEBAE80D244E44489C6234F4F835464A48035D0DF398FF9F8AF63D0E6CC63039F212F8F9020C7D47C6792B21C5FE7403D62A1188E2E60C98D7234A5830286103A55745067B9D86B8A3CF9C7F90C11DE6
310
07FB144396D7B6A82D282E9A152AD114D5EF2CB866EEE831B8EEA07A7BB5A8D7D61A2BAAEB7FD5F70921FF497D00504B0304140006080800CC70623BEDD1DC58FD000000A00100003B0000006662782F41393633353835312D344632462D344230382D423046372D3739314545314133324237412F7265736F75726365732F
310
636F72652E786D6C8D504B6E833010BD0A9A6D65B00922041947112427E8052C33A156828DFCA97AFC9A40A576D7CDCCE87D344F8F9FBFE667F689CE6B6B3A6039850C8DB2A336530731DC4903D95970676DF82583CCC8193B5861107C72362E3BA4AC096842428D1D7107A5F7182053CF7474E0D507CE32973124857FE48B
310
540F3961CEF244279DE03EB81420DB9EAC1384436FA353E879B1B182C7A8C75DA3C7F453DF353A1075D537A7BA6464B8F535A99AE14A9A2BBD90E350DD183B5CFABE3AF262350B1EF4FC9351399401471025A527C218A1E53BAB5A5AB765F5469B96525EACF23FA6B88CFF34456DC2A1DCE36E360F82A5202F42F062ED2BAD
310
579969AFDD8A6F504B010214000A0000080000CC70623B3DEE336E79000000790000001B00000000000000000000000000000000006175746F6465736B2D64657369676E2D7061636B6167652E786D6C504B01021400140006080800CC70623BD486FD9CA0000000F40000001300000000000000000000000000B20000005B
310
436F6E74656E745F54797065735D2E786D6C504B01021400140006080800CC70623B853B8169EB0000007C010000080000000000000000000000000083010000636F72652E786D6C504B01021400140006080800CC70623B55019EA25F0000007C000000070000000000000000000000000094020000636E782E786D6C504B
310
01021400140006080800CC70623BDBABAAF470010000D40300000C00000000000000000000000000180300006662782F636F72652E786D6C504B01021400140006080800CC70623B9C113CC27E0000009D0000000B00000000000000000000000000B20400006662782F636E782E786D6C504B01021400140006080800CC70
310
623B7DF2F77C2A010000120200003100000000000000000000000000590500006662782F41393633353835312D344632462D344230382D423046372D3739314545314133324237412F636F72652E786D6C504B01021400140006080800CC70623BAD7543B64E010000330300003000000000000000000000000000D2060000
310
6662782F41393633353835312D344632462D344230382D423046372D3739314545314133324237412F636E782E786D6C504B01021400140006080800CC70623BE75B7789680500003C10000034000000000000000000000000006E0800006662782F41393633353835312D344632462D344230382D423046372D3739314545
310
314133324237412F6F626A656374732E786D6C504B01021400140006080000CC70623B0000000000000000000000003500000000000000000000000000280E00006662782F41393633353835312D344632462D344230382D423046372D3739314545314133324237412F76657274696365732E62696E504B01021400140006
310
080800CC70623BF270F133060000000400000036000000000000000000000000007B0E00006662782F41393633353835312D344632462D344230382D423046372D3739314545314133324237412F747269616E676C65732E62696E504B01021400140006080000CC70623B0000000000000000000000003700000000000000
310
000000000000D50E00006662782F41393633353835312D344632462D344230382D423046372D3739314545314133324237412F617474726962757465732E62696E504B01021400140006080800CC70623B08DA0BD1900000004101000036000000000000000000000000002A0F00006662782F41393633353835312D344632
310
462D344230382D423046372D3739314545314133324237412F6469726563746F72792E786D6C504B01021400140006080800CC70623BEDD1DC58FD000000A00100003B000000000000000000000000000E1000006662782F41393633353835312D344632462D344230382D423046372D3739314545314133324237412F7265
310
736F75726365732F636F72652E786D6C504B0506000000000E000E0080040000641100000000
  0
XRECORD
  5
1F8
102
{ACAD_REACTORS
330
1F7
102
}
330
1F7
100
AcDbXrecord
280
     1
 70
     1
 90
429727718
  1
30362254-06B7-45E0-A893-8CFA70E3D6BC
310
504B03040A0000080000CC70623B3DEE336E79000000790000001B0000006175746F6465736B2D64657369676E2D7061636B6167652E786D6C3C3F786D6C2076657273696F6E3D22312E302220656E636F64696E673D227574662D3822203F3E3C666F726D6174733E3C666F726D61743E687474703A2F2F736368656D612E
310
6175746F6465736B2E636F6D2F64657369676E2D7061636B6167652F323030393C2F666F726D61743E3C2F666F726D6174733E504B0304140006080800CC70623BD486FD9CA0000000F4000000130000005B436F6E74656E745F54797065735D2E786D6C7D8EC10E82300C865F65E91D8A1E8C310C0EEA1BF002731658846E
310
D98AC1B77784ABF1D8FE5FBFBF75BBCE937A534CCEB38643598122B6FEE978D0B0485F9C41B54DDD7D022595594E1A469170414C76A4D9A4D207E29CF43ECE46F218070CC6BECC4078ACAA135ACF422C856C0E68EA1BF5669944DDD7BCDE7B1F8E415D77AECB980613C2E4AC91FC167A2B244592486606FC29C8FD7F045B9A
310
EF7053A7E60B504B0304140006080800CC70623B1EC5D7A3EB0000007C01000008000000636F72652E786D6C8D90416EC3201045AF82665B6103C6756C6122AB4D4ED00B204C5C94182C03558F5F9C3852BBEB6A467FFE9B197D71FC9E6FE8CBACC17AD7032D0820E3B41FAD9B7A48F1820F808E52ACDEC75F36404ECDA687
310
4D0629A6D5A76597B477D1B89855E747B38B2A041301E95B6E7A08FAD3CCAA50296647B8168BD2573599823EBB0CA76447F43862C7BCCF5EAC59410E4DDD9C7973C2755553CCCFA4C603E3040F1565ED3B1FDE4E432BCA0D9622DAF9795FAF464533826484B498524CD807E51D79ED187F21878E10516EF63F505AC67F42C9
310
BA58B1FDDD071640D2FCC87D2045B96591CB3DA85CB7DCE40F504B0304140006080800CC70623B55019EA25F0000007C00000007000000636E782E786D6C4DCB3B0E80201045D1AD90E915ED2CF8AC45050C11660C8261F98AB1B07AC9C97D42D718D865D3E909258CFD00CCE24AC6E326A164D74DC0B4128928FF32603847
310
2BA13128B1252AC747C6BAB984FC68F0B87FE8960A5C09FE86CFB69FBA01504B0304140006080800CC70623B8C9102E971010000D40300000C0000006662782F636F72652E786D6CC5535B6E833010BC8AE5DF0A6C08340F1947A84D4ED00B38C6A128602363A31CBFCB234A53A551FA553EC09AD9F5CE8C31DB9E9B1AF5CA
310
7695D1198E428A91D2D214952E33ECDD315861B4E5CC1AE3BE9561A445A3323CC098B3D21ADFCE9034DA29ED00D5A6503328BA4E398C640D8B0C77F253352214DE4145770A5B214FA2546114020D759C75CE8200340D19DE981F0F6746269C33EFAB6266AB02A655C74A59CCF365BADC27CB5D902ED22848F6340DF238A141
310
BE88E2F57B92BFEDF23523433367AE6A2EEAA455C2A902F398D2751045018D3FA264435F3771F242571B4A1919CA6F9A7C5B3CD9E42BED16F12C776AEB308F40C848FC700B1139D4891EF410CEC810227CC6846F8386402064270EF5C5C709A05E49676C024C61FC95EA45ED154CA5211D1FF4FB8291A913A68E9B83EBBB33
310
E2A7673CDE118E5AE8124C0807CB8377834E366998436B950D7A7746DAD846D4CFD978E0F04FD455FC5D49D2D4C6FE9722321F10997F0F32DC47FE05504B0304140006080800CC70623BFFEA85907E0000009D0000000B0000006662782F636E782E786D6C4DCCD10A83201886E15B91FFDC95D95A811AB6F23E625948A6C3
310
E9D8E5AF46073BFAE0E1E365ED67B3E8ADC3CB78C7815C7240DA3DFC64DCC221C519D7805AC182F7F1EF06C88D9BE6703008B6049F9E274D7A1E938DBB5AE3D6131B2589BA0D3D965551E0B2EA732C9B9A624AAEB41E3A557677029960D9AFB4EF11165F504B0304140006080800CC70623B4FEEA4082C0100001202000031
310
0000006662782F39464131463745442D413632322D343644302D413938332D3331353338454246344243312F636F72652E786D6C8D515B6EC32010BC0AE2AB55850DD871ED0813254D72825EC00192A2C460F1A872FC42ED48ED5F7E00CDCECCCEB26C731F6FE05B39AFADE921293004CA082BB5B9F43086336A21D870E6AC
310
0D7F68109861543DCC30E4ECE26C9C164858139409093556AA051CBC570102714B8F1E7AF1A5C6A11862480C7F2DA6415C878B2A4891CA89C7990F2E050073937C42DE1DB7E4F87ED8A36D4329AA9B3D46DBAEAD504556557BD81DEBDD0761E52CE42C462D17B996298E3E6BE59E35C962CE821E1FF18553435012728A7187
310
0841987E927A8D9B35ADDF70BBC6989599FE4F1427F9A4286A132ABAC49D651EF234CD5CE04CDA78BA3DC2A8FB645D00B9DF8B57E215725C60BCA2A463E54C4CE327C7A65E1C7DB02E7DEFCBF594B864C5CA6CDBD49C957943E9FA5D5FBAF336F90F504B0304140006080800CC70623BAD7543B64E01000033030000300000
310
006662782F39464131463745442D413632322D343644302D413938332D3331353338454246344243312F636E782E786D6CD593CD6EC32010845F0571AD6CE3D48AD20813A9873E410FBD12D82434182C7EAAE6EDBB2424CD25871E7B41D6EC30B3FA84F9E67BB2E40B4234DE8DB46F1925E094D7C6ED479AD3AE5951B2113C
310
789FEE6C943839C1488B4C05DF079FE72A69D8C96C13AAD6B8631503449F83828872B949AC57D26200B826A308D316B4064D6E46FCDA41C05550DC9E483A00797BFD207EFB092A45DE9514C1BBD22178396BD39D891265658C238DEA00936C654E5E433CB65A26D9F6EDB5EBC14EBF49A45CB856E66048291F6939A9A81BB5
310
C8917738143CA680F4AA299D66A042CEB3354A2684DC9D8D178FE0D9B8B41CAAD720F880EE7EF93C0C18769E099ECC04D5A102C8049A8A05632F4DDF376CF1DE0F6BB65C2F8627B65A33C6BB62177CEBBDAD973006829F89F22E814B54F4BC2BE347F8AA8F681390B50FA73F804400B5F542E796F19FF974E7F78DB802FE05
310
E207504B0304140006080800CC70623B16AB87BA640500003C100000340000006662782F39464131463745442D413632322D343644302D413938332D3331353338454246344243312F6F626A656374732E786D6CAD575B6FA33818FD2B887DE6924B3BED8A326A92B68A663B534DD4D13E548A0C38942D60649B369D5FBFC7
310
600890A493BDE42160637FD7F31D7FF63E6FB3D478A55C242CBF3247B66B1A340F5994E4F19559CA8D75611A9F7D8F33263BCB4C232719BD32D5B4E97B316765A1A722BA21652A07B3B7B33F0D11D29C9A46981221AE4C113ED38CD8A4942CA2E2C58E882476BCD9DA23BB5ED8171B73523C0F841684D35CC252CCE79062D4
310
468DFA43D7747CCF51DF7D4FFDEB5593E3AB9CCA9FBEFE241792E4E19EB28198C968BAB8199F5D5A67D3E9C49A9E8F47D6EC76B6B0469F26EEFC7C3EBFBCBEB98462213924694B38DD98FE1D62C393D073EA4FADC5DAF04326852CCF6958F90F0F2B9BB5C48816348F90C7840A68EB78EDF68723159BCEE7891A6B95DDE9D3
310
BCEAEEE8086A6C6F9E5D4B59F0175C10A7A0820BAA5055C7473B5AE3CFDD452D602CD5DF12616444529E90D448938013FE6EFA58AA96F85E4F8C42275708571E98FE6827AF6B2B4AE3D7D83D64E5A64C53054DD3AF90BD06FEA9149565C94FCA0F6B834DC85599E4F2423B24DF0B6AFA979E534DFA9E7A4CC6FA631D486393
310
921829879BF5D781A373557BCB85E97FB90DB62B558F8795179C15944B051F40AB495CF35451D26A4727654E6D8033BD98EF82F21D91FF8AF2DD9982BCF1643BDD4EB516C9492E368C67C88DED563FC36D5EACF66DFF057C3658BDBFA69DF9578B3DA735B64F18C7F20770A9D45CFCF7FCF563D6456A277DBEF78A02637CA2
310
43B90A490AEAB94F72244481D24819A6C0E59B606BFA4B3025981DBB48EAB701D97BF19C577CC77F2D1B6C55A9EF3C732474C0B727303F625995056C3B02963D9EAC146BE78EC5FCEC7FA999EBC5EACBAAE41B12D27B4D2C0BBA49F244E2ECDC81B76B502F113D8F5EE8FB1BE3111CDD4FC2AA9B844CAB1288B68AB90A7CDC
310
1C166AB0D3DC5310625FCC14E779BFD0709F8890A629C9292B1B2DED31A4B0DA928CEE135085754027E3018A397D4D5427D15BD1330B677DC8934285AC3DF45A9EB68FF8F2B8FC0A509AFEECFD0FF2DE25CC6047F7214B195F07EFEB9A094D800F7BFAE8FED187B78EA8A3A400F115961BCAD1215E47C966530AF0EE8128FE
310
58CEBB996A8964FFA529A046635D9353B0336A8F700DDF46271A024E70B0B37C9DE01847591E54DED53D54202AB947E4076556AC49C6CA5C9E1226B7F1A7B1BE15DEED62C41B91E1B3E9AFAAA735036547343A925075041DF0A9979E893B391F8FCFA6967B3EFB644DCF6E5CEBFAE272625DCC6FAF3FB93793C5F90CE1EF57
310
407342756B10D1C489E8953CD1617E5CEECAD6F4EF8914CE5D5D504E5C3F1F9736DA62CFC11E00BCDDB8CC8A9466349744C1F75EBDA4DF09BA8A9E8C7A7E9991989E20E5DBDD6A6003664ED8F7A04A8DBE0DF6EAD9B9AA858342E47399053949D2C146EDB85DE4B176BB0965FBAC19BD19AA918E27FA50C1D22402E144464C
310
59462568E704B6E71915404CB72B8FF4EDE184DDAF753F284990D2C6926782963815403548A70C657FDEF80D2D9CEAA2AE4C1C76F60BFE74219A06527D6582DF6412526107381E55E353090704D085B52408D0933C4ED159D79BDA71BB4BC506F4831350EB6F979CD22D69BF7AC49B91A2C0A9DDA3D5CA36AD20FC478E37E6
310
1844E2352865EBCB6EA275A652E3836BE04EFB400BF1A2556F515F1FBB35B2AB35BD889C744FFA1004B5544B121E57F70215746DD2F5E2C1412B602CBF19455AC6C8E5E9922C4E01E65215385004546899059180EAFCF7A707CE7017CD8CDB0410789AB32C63B91E5CEBBBACB17AC6CD347A022D5075FD106377347AAABA7E
310
7D11590744509B44E205134DC1290F06580320F78E537D3D73540E06CB970B431F185308AD40BBD794D6D77003C5A36E8EAA54BA64597CD8F83BD552A080A365F7FF06504B0304140006080000CC70623B000000000000000000000000350000006662782F39464131463745442D413632322D343644302D413938332D3331
310
353338454246344243312F76657274696365732E62696E504B0304140006080800CC70623BF270F1330600000004000000360000006662782F39464131463745442D413632322D343644302D413938332D3331353338454246344243312F747269616E676C65732E62696E636660600000504B0304140006080000CC70623B
310
000000000000000000000000370000006662782F39464131463745442D413632322D343644302D413938332D3331353338454246344243312F617474726962757465732E62696E504B0304140006080800CC70623B08DA0BD19000000041010000360000006662782F39464131463745442D413632322D343644302D413938
310
332D3331353338454246344243312F6469726563746F72792E786D6C858F410AC3201045AF22B36F53E9A60B35CBEEBAE80D244E44489C6234F4F835464A48035D0DF398FF9F8AF63D0E6CC63039F212F8F9020C7D47C6792B21C5FE7403D62A1188E2E60C98D7234A5830286103A55745067B9D86B8A3CF9C7F90C11DE607
310
FB144396D7B6A82D282E9A152AD114D5EF2CB866EEE831B8EEA07A7BB5A8D7D61A2BAAEB7FD5F70921FF497D00504B0304140006080800CC70623B0D6EF93BFE000000A00100003B0000006662782F39464131463745442D413632322D343644302D413938332D3331353338454246344243312F7265736F75726365732F63
310
6F72652E786D6C8D50596E833010BD0A9ADFCA60B334011947A8694ED00B586642AC041B79A97AFC9A40A5F6AF3F33A3B7689E1E3F7DCD8FEC139DD7D6F4C0720A191A65476DA61E62B892236427C19DB5E1970C322367EC618541F0C9D9B8EC90B226A009093576C41D94DE63804C3DD2D18357379C652E63480A7FCF17A9
310
EE72C29CE5894E3AC17D702940B63D59270887DE46A7D0F36263058F518FBB468FE9A7BE6A7420864373B8D4873369AA8691FA421B3294352543C5CAF65C0F6FEF43CB8BD52C78D0F34F46E550061C419494B6843142CB0F5677F4B52BEB177AEC28E5C52AFF638ACBF84F53D42654E51E77B379102C05791282176B5F693D
310
CB4C7BED567C03504B010214000A0000080000CC70623B3DEE336E79000000790000001B00000000000000000000000000000000006175746F6465736B2D64657369676E2D7061636B6167652E786D6C504B01021400140006080800CC70623BD486FD9CA0000000F40000001300000000000000000000000000B20000005B
310
436F6E74656E745F54797065735D2E786D6C504B01021400140006080800CC70623B1EC5D7A3EB0000007C010000080000000000000000000000000083010000636F72652E786D6C504B01021400140006080800CC70623B55019EA25F0000007C000000070000000000000000000000000094020000636E782E786D6C504B
310
01021400140006080800CC70623B8C9102E971010000D40300000C00000000000000000000000000180300006662782F636F72652E786D6C504B01021400140006080800CC70623BFFEA85907E0000009D0000000B00000000000000000000000000B30400006662782F636E782E786D6C504B01021400140006080800CC70
310
623B4FEEA4082C0100001202000031000000000000000000000000005A0500006662782F39464131463745442D413632322D343644302D413938332D3331353338454246344243312F636F72652E786D6C504B01021400140006080800CC70623BAD7543B64E010000330300003000000000000000000000000000D5060000
310
6662782F39464131463745442D413632322D343644302D413938332D3331353338454246344243312F636E782E786D6C504B01021400140006080800CC70623B16AB87BA640500003C1000003400000000000000000000000000710800006662782F39464131463745442D413632322D343644302D413938332D3331353338
310
454246344243312F6F626A656374732E786D6C504B01021400140006080000CC70623B0000000000000000000000003500000000000000000000000000270E00006662782F39464131463745442D413632322D343644302D413938332D3331353338454246344243312F76657274696365732E62696E504B01021400140006
310
080800CC70623BF270F133060000000400000036000000000000000000000000007A0E00006662782F39464131463745442D413632322D343644302D413938332D3331353338454246344243312F747269616E676C65732E62696E504B01021400140006080000CC70623B0000000000000000000000003700000000000000
310
000000000000D40E00006662782F39464131463745442D413632322D343644302D413938332D3331353338454246344243312F617474726962757465732E62696E504B01021400140006080800CC70623B08DA0BD190000000410100003600000000000000000000000000290F00006662782F39464131463745442D413632
310
322D343644302D413938332D3331353338454246344243312F6469726563746F72792E786D6C504B01021400140006080800CC70623B0D6EF93BFE000000A00100003B000000000000000000000000000D1000006662782F39464131463745442D413632322D343644302D413938332D3331353338454246344243312F7265
310
736F75726365732F636F72652E786D6C504B0506000000000E000E0080040000641100000000
  0
XRECORD
  5
175
102
{ACAD_REACTORS
330
173
102
}
330
173
100
AcDbXrecord
280
     1
270
     1
271
     1
  0
XRECORD
  5
174
102
{ACAD_REACTORS
330
173
102
}
330
173
100
AcDbXrecord
280
     1
270
     1
271
     1
  0
XRECORD
  5
1FB
102
{ACAD_REACTORS
330
173
102
}
330
173
100
AcDbXrecord
280
     1
 70
     0
 90
1673772943
  1
ECE7A1D2-D628-4531-984C-D00F80459256
310
504B03040A0000080000CC70623B3DEE336E79000000790000001B0000006175746F6465736B2D64657369676E2D7061636B6167652E786D6C3C3F786D6C2076657273696F6E3D22312E302220656E636F64696E673D227574662D3822203F3E3C666F726D6174733E3C666F726D61743E687474703A2F2F736368656D612E
310
6175746F6465736B2E636F6D2F64657369676E2D7061636B6167652F323030393C2F666F726D61743E3C2F666F726D6174733E504B0304140006080800CC70623BD486FD9CA0000000F4000000130000005B436F6E74656E745F54797065735D2E786D6C7D8EC10E82300C865F65E91D8A1E8C310C0EEA1BF002731658846E
310
D98AC1B77784ABF1D8FE5FBFBF75BBCE937A534CCEB38643598122B6FEE978D0B0485F9C41B54DDD7D022595594E1A469170414C76A4D9A4D207E29CF43ECE46F218070CC6BECC4078ACAA135ACF422C856C0E68EA1BF5669944DDD7BCDE7B1F8E415D77AECB980613C2E4AC91FC167A2B244592486606FC29C8FD7F045B9A
310
EF7053A7E60B504B0304140006080800CC70623BD9DDAED0EC0000007C01000008000000636F72652E786D6C8D90416EC3201045AF82665B61836D9CD8C2444DD39CA01740405C94182C03558F5F9C3852BBEB6A467FFE9B197D7EF89E6EE8CB2CC17A37002D0820E394D7D68D03A478C17B4007C117EFE32F1B20272733C0
310
2A83E0E3E2D3BC49CABB685CCCAAF3DA6CA20CC14440EA969B0182FA34932C648AD911AEC52CD5558EA6A0CF2EC329598D1E47ACCEFBECC59A050463A7EA5833865FEBDD0E37353BE3EE8DBDE3F6786A48D375FBF6CC78B9C282473B3DEFABC5C86834888A900E538A49F5419B9EB47DD5BC907D4F082F57FB1F28CDFA9F50
310
B22ED6D5F6EE030B20687EE43E10BC5CB3C8E51E54AE6B6EE207504B0304140006080800CC70623B55019EA25F0000007C00000007000000636E782E786D6C4DCB3B0E80201045D1AD90E915ED2CF8AC45050C11660C8261F98AB1B07AC9C97D42D718D865D3E909258CFD00CCE24AC6E326A164D74DC0B4128928FF326038
310
472BA13128B1252AC747C6BAB984FC68F0B87FE8960A5C09FE86CFB69FBA01504B0304140006080800CC70623BA24EB22D72010000D40300000C0000006662782F636F72652E786D6CC5535B6E833010BC8AE5DF0A6C5E49888CA3A6694ED00B38E05014B091B1518EDFE511A5A9D228FD2A1F60CDEC7A67C6986DCE4D8D7A
310
69BA4AAB0C073EC548AA5C17952A33ECECD15B61B4E1CC686DBF9561A44423333CC098B3D268D7CE50AE9595CA02AA74216750749DB418E5352C32DCE59FB211BE70162ABA93DF8AFC244AE9073ED050C759670D0840D390E18DF9F1706664C23973AE2A66B62A605A75ACA4C13C4976E1364A12EF355A2EBD384AF65EFA96
310
BC7B8BED2EA6719AAE16FB8491A199335B351775B991C2CA02F390D2D40B028F861F41BCA68B7518BFD0D59A524686F29B26D7164F36B94AD9289CE54E6D1DE6010819891F6E21228B3AD1831EC219194284CF98F06DD01008846CC5A1BEF83801D4CBDC6A1303536877A57A513B0953A94FC707FDBE6064EA84A9E3E6E0FA
310
EE8CF0E9198F7784A316AA0413C2C2F2E0ECA0934D1AE6D05A69BCDE9E91D2A611F573361E38FC1375157F5752AE6B6DFE4B11990F88CCBF0719EE23FF02504B0304140006080800CC70623B408A7D3B7C0000009D0000000B0000006662782F636E782E786D6C4DCCD10A83201886E15B91FFDC552A92A0064DBC8F581632
310
D3703A76F9ABD1C18E3E78F878E5F0D9027ABBFCF2292AE86E2D20171F69F6715550CB827B40839639A5F2770314A7CD293819B45C73AAFB45B35BA61ACAA1C1C7E7855C58C15BC331339661262CC762340413D68D77DA5B42298546CBE6573AF60CEB2F504B0304140006080800CC70623B449FB9BD290100001202000031
310
0000006662782F36394639363044362D344446342D343946362D394244322D3234314243333846323333332F636F72652E786D6C8D515B6EC32010BC0AE22B55850D98B871848994463E412FE002495162B07854397EA176A4F62F3F2C9A9D991D587EB84F37F0AD7D30CEF6905418026DA553C65E7A98E219ED203808EE9D
310
8B7F6810D871D23D2C3014FCE25D9A57483A1BB58D19B54EE9151C43D0110279CB971E06F9A5A7B11A53CC8C70ADE6515EC78BAE4895DB992778883E0700CB907242D17643D7E2538BD869608875438BBAE38922CAC8F1BDD90DB4691A5E2F42C153326A951B95E398B3D1FE599322163C9AE9115F7A3D46ADA0A018778810
310
84E907617BDCEE297BC5BB3DC6BC2EF47FA234AB2745C9D8D8D035EE220B50105E2F0DC1954B9FB747187D9F9D8FA0CCDB042D5FA0C015C65B42DF78BD10F3F3B363CB56C7109DCFDFBBB97E662ED92EB62D13BC2E1BCAE5777DB9966D8A1F504B0304140006080800CC70623BAD7543B64E01000033030000300000006662
310
782F36394639363044362D344446342D343946362D394244322D3234314243333846323333332F636E782E786D6CD593CD6EC32010845F0571AD6CE3D48AD20813A9873E410FBD12D82434182C7EAAE6EDBB2424CD25871E7B41D6EC30B3FA84F9E67BB2E40B4234DE8DB46F1925E094D7C6ED479AD3AE5951B2113C789FEE
310
6C943839C1488B4C05DF079FE72A69D8C96C13AAD6B8631503449F83828872B949AC57D26200B826A308D316B4064D6E46FCDA41C05550DC9E483A00797BFD207EFB092A45DE9514C1BBD22178396BD39D891265658C238DEA00936C654E5E433CB65A26D9F6EDB5EBC14EBF49A45CB856E66048291F6939A9A81BB5C89177
310
38143CA680F4AA299D66A042CEB3354A2684DC9D8D178FE0D9B8B41CAAD720F880EE7EF93C0C18769E099ECC04D5A102C8049A8A05632F4DDF376CF1DE0F6BB65C2F8627B65A33C6BB62177CEBBDAD973006829F89F22E814B54F4BC2BE347F8AA8F681390B50FA73F804400B5F542E796F19FF974E7F78DB802FE05E20750
310
4B0304140006080800CC70623B8D05915C650500003B100000340000006662782F36394639363044362D344446342D343946362D394244322D3234314243333846323333332F6F626A656374732E786D6CAD575B6FA33814FE2B887D06429276DA1565D4266D158D3A339A6846FB502932E050B66023DB74D2FDF5FB190C01
310
9276B2973C046C8ECFF53B17071F77456EBD502133CEAE6CDF9DD81665314F32965ED995DA3A17B6F5310C04E7AA47665B8C14F4CAD6DB7618A48257A5D94AE89654B91AEDDEDDFC61C998326A5B714EA4BCB265FC440BE2924AF184CA6737218AB8E976E7FA6E4338649B0A523E8D98964450A6A029F619B8588D52FE7039
310
B1BD30F0F4F730D0FF866AF6369557DB33949F31A9088B0F848DD8CCFCF9F2767A76E99CCDE733677E3EF59D9BBB9BA5E37F984D16E78BC5E5F5ED25044B25C0C96822E8D60EEFE11B91C581D77CEA34368A1F5329E68CD1B8B61F16D63A1B8E092D294B10C78C4A48EB593D192E7DED9BDEE7995E1B91FDEDD3ACEA9FE831
310
6A756F9F7D4D79F4274C90A7A04248AA51D5F8C718DAE06FB2F75AC4796EBE65D22A88A22223B995679120E2D50E41AA49C260C046A35368846B0BECD0DFF3EBEB8AD4F835768F69B9ADF25C43D30E6B646F807FAA64AD59F61715C7A54127C4AACA98BA3006A9D792DAE165E0D59B61A01FB3A9F9D838D2DAE62445C86166
310
F37564E842E7DE6A69879FEEA2DD5AE7E371E1A5E025154AC307D06A03D73EB5978C58FFA4C8E9033066E0F3BD53BEC1F39F91BE7B55103791EDE6BBB991A2046172CB4581D8B893FA674DDA17A77B3B7C413D1B511FD2743BFF8A38F03A658705E3ADF8015C3A3417FF3D7E439FF591DA0B5F18BC20C1B8981957AE6392A3
310
F43C640C01D1A0B4728E2DD4F26DB4B3C3152A252A3B4E913CEC1C72F012782FF88EFF8637AA552DBEF76408E8A8DE9E50F9E1CB3A2DA0DB1B6039A893B56063DC5B3E3FFB5F72E67AB9FEB4AEC496C4F4C1149625DD662C53E89D7BF0F6151A046260D1337DFDC94502430F83B0EE07A130A224BCAD7DAE1D9FB6CD422FF6
310
920702629C4BB9AE79C12F243C6432A6794E18E5552BA56B431AAB5D91317302B2B071E86C3A42B1A02F999E24061403B5D0EB639195DA655DD3EBEAB4FB862DDF579F014AD0E73C22F99E28DA57FB98E75C6CA2D74D53086D600F4786E0FE3144B771A8A7B900F03594DB8A633CBC49B2EDB69228BB479CF863B5E807AAAB
310
23872F6DFEB4129B949CA33823F58830E86D65621E10047D9DB34D862E8EAC3C2ABC2F7B2C40D67CDFE01F5545B92105AF983AC54D93D69E56FB8E797F88913F898A9FEC705D3F9D1B54EC8426FB500D40A03BD0119B06E1B95DDC7EB8F6975367793EBD70E66733DFB9BC982F9CE564727731999F5D4ECFCE3B8D6A4DC2A0
310
6D50FD148437D110834A64C6CDDF57FBACB5C307A2A477DFE4939736CFEF2B175371E0E10CF0DD1D5C15654E0BCA14D1E87DD02FF93782A162C0A3D95F1524A52770F972BF1EE9809D13CE7DD599467F8ECE9ADD85CE85A34CD45355448C64F9E8A031DC2D596ACC6E5DD93D9B82DE2EF5CAF81363A8E47996A0DE24564A79
310
4115AACE09C55E14540231FDA13C319787134EBF34E3A022514E5B4D9E0826E25C02D5805B15ABE1BEF51B26383D445DD9E875EE33FE4C22DA16427D65A3BCA92CA6D28DD01DF5DC53330704308475351050232CCD31583787BA75774AFB06E5070DD0C8EF484E19968C5D83BA5B90B244D31E54D55A372320FE4786B7EA58
310
44E135AA5467CB7EA333A61683CC6A8C3257034C10CF46F40EF9F5BE59BE5BD30C3C72D235E95D10345C1D45445A5F0BB47E46A5EBE5570F9380B5FA629579952296A773720405982B9DE04011506178964401AA8BDF1FBF0A8EAB6861DD6580C0E38217056766716DAEB2D6FA0917D3E4116581EADB879C4E7CFFB11EFACD
310
3D641311495D92C8676CB409A72D18610D803CE8A626049E8EC1887CB5B44CC39883690DDA8399B4B9855B481E7D71D4A9D22F96E5BB73BF5793020C02137BF837504B0304140006080000CC70623B000000000000000000000000350000006662782F36394639363044362D344446342D343946362D394244322D32343142
310
43333846323333332F76657274696365732E62696E504B0304140006080800CC70623BF270F1330600000004000000360000006662782F36394639363044362D344446342D343946362D394244322D3234314243333846323333332F747269616E676C65732E62696E636660600000504B0304140006080000CC70623B0000
310
00000000000000000000370000006662782F36394639363044362D344446342D343946362D394244322D3234314243333846323333332F617474726962757465732E62696E504B0304140006080800CC70623B08DA0BD19000000041010000360000006662782F36394639363044362D344446342D343946362D394244322D
310
3234314243333846323333332F6469726563746F72792E786D6C858F410AC3201045AF22B36F53E9A60B35CBEEBAE80D244E44489C6234F4F835464A48035D0DF398FF9F8AF63D0E6CC63039F212F8F9020C7D47C6792B21C5FE7403D62A1188E2E60C98D7234A5830286103A55745067B9D86B8A3CF9C7F90C11DE607FB14
310
4396D7B6A82D282E9A152AD114D5EF2CB866EEE831B8EEA07A7BB5A8D7D61A2BAAEB7FD5F70921FF497D00504B0304140006080800CC70623BCA768048FE000000A00100003B0000006662782F36394639363044362D344446342D343946362D394244322D3234314243333846323333332F7265736F75726365732F636F72
310
652E786D6C8D50596E833010BD0A9ADFCA60D600328E9AA639412F609909B1126CE4A5EAF16B0295DABFFECC8CDEA2797AECF8353F924FB44E193D409E5248504B332A3D0D10FC95B4901C39B3C6F85F3248B49871801506CE266BC2B243D2688FDA47549B11775038871E12F988C7004EDE7016A9083E2ADC3D5D84BC8B09
310
D33C8D74D471E6BC8D0192EDC93A815B742658898E651BCB59086ADC356A8C3FD555A1055ED7E7E254D615792D0F075295F585746FF53B694EE78A565DD736979A65AB9933AFE69F8CD2A2F038022F28ED489E135A7CE4554F9BBEA85E68DB53CAB255FEC71496F19FA6A0B42F8B3DEE6673C0F318E4497096AD7DC5F52C33
310
EEB55BFE0D504B010214000A0000080000CC70623B3DEE336E79000000790000001B00000000000000000000000000000000006175746F6465736B2D64657369676E2D7061636B6167652E786D6C504B01021400140006080800CC70623BD486FD9CA0000000F40000001300000000000000000000000000B20000005B436F
310
6E74656E745F54797065735D2E786D6C504B01021400140006080800CC70623BD9DDAED0EC0000007C010000080000000000000000000000000083010000636F72652E786D6C504B01021400140006080800CC70623B55019EA25F0000007C000000070000000000000000000000000095020000636E782E786D6C504B0102
310
1400140006080800CC70623BA24EB22D72010000D40300000C00000000000000000000000000190300006662782F636F72652E786D6C504B01021400140006080800CC70623B408A7D3B7C0000009D0000000B00000000000000000000000000B50400006662782F636E782E786D6C504B01021400140006080800CC70623B
310
449FB9BD290100001202000031000000000000000000000000005A0500006662782F36394639363044362D344446342D343946362D394244322D3234314243333846323333332F636F72652E786D6C504B01021400140006080800CC70623BAD7543B64E010000330300003000000000000000000000000000D20600006662
310
782F36394639363044362D344446342D343946362D394244322D3234314243333846323333332F636E782E786D6C504B01021400140006080800CC70623B8D05915C650500003B10000034000000000000000000000000006E0800006662782F36394639363044362D344446342D343946362D394244322D32343142433338
310
46323333332F6F626A656374732E786D6C504B01021400140006080000CC70623B0000000000000000000000003500000000000000000000000000250E00006662782F36394639363044362D344446342D343946362D394244322D3234314243333846323333332F76657274696365732E62696E504B010214001400060808
310
00CC70623BF270F13306000000040000003600000000000000000000000000780E00006662782F36394639363044362D344446342D343946362D394244322D3234314243333846323333332F747269616E676C65732E62696E504B01021400140006080000CC70623B00000000000000000000000037000000000000000000
310
00000000D20E00006662782F36394639363044362D344446342D343946362D394244322D3234314243333846323333332F617474726962757465732E62696E504B01021400140006080800CC70623B08DA0BD190000000410100003600000000000000000000000000270F00006662782F36394639363044362D344446342D
310
343946362D394244322D3234314243333846323333332F6469726563746F72792E786D6C504B01021400140006080800CC70623BCA768048FE000000A00100003B000000000000000000000000000B1000006662782F36394639363044362D344446342D343946362D394244322D3234314243333846323333332F7265736F
310
75726365732F636F72652E786D6C504B0506000000000E000E0080040000621100000000
  0
XRECORD
  5
176
102
{ACAD_REACTORS
330
173
102
}
330
173
100
AcDbXrecord
280
     1
270
     1
271
     1
  0
XRECORD
  5
177
102
{ACAD_REACTORS
330
173
102
}
330
173
100
AcDbXrecord
280
     1
270
     1
271
     1
  0
XRECORD
  5
690
102
{ACAD_REACTORS
330
234
102
}
330
234
100
AcDbXrecord
280
     1
102
DISPLAYNAME
  1
Metric50
102
FLAGS
 90
        0
  0
CELLSTYLEMAP
  5
656
102
{ACAD_REACTORS
330
162
102
}
330
162
100
AcDbCellStyleMap
 90
        3
300
CELLSTYLE
  1
TABLEFORMAT_BEGIN
 90
        5
170
     1
 91
        0
 92
    32768
 62
   257
 93
        1
300
CONTENTFORMAT
  1
CONTENTFORMAT_BEGIN
 90
        0
 91
        0
 92
      512
 93
        0
300

 40
0.0
140
1.0
 94
        5
 62
     0
340
11
144
6.0
309
CONTENTFORMAT_END
171
     1
301
MARGIN
  1
CELLMARGIN_BEGIN
 40
1.5
 40
1.5
 40
1.5
 40
1.5
 40
4.5
 40
4.5
309
CELLMARGIN_END
 94
        6
 95
        1
302
GRIDFORMAT
  1
GRIDFORMAT_BEGIN
 90
        0
 91
        1
 62
     0
 92
       -2
340
14
 93
        0
 40
1.125
309
GRIDFORMAT_END
 95
        2
302
GRIDFORMAT
  1
GRIDFORMAT_BEGIN
 90
        0
 91
        1
 62
     0
 92
       -2
340
14
 93
        0
 40
1.125
309
GRIDFORMAT_END
 95
        4
302
GRIDFORMAT
  1
GRIDFORMAT_BEGIN
 90
        0
 91
        1
 62
     0
 92
       -2
340
14
 93
        0
 40
1.125
309
GRIDFORMAT_END
 95
        8
302
GRIDFORMAT
  1
GRIDFORMAT_BEGIN
 90
        0
 91
        1
 62
     0
 92
       -2
340
14
 93
        0
 40
1.125
309
GRIDFORMAT_END
 95
       16
302
GRIDFORMAT
  1
GRIDFORMAT_BEGIN
 90
        0
 91
        1
 62
     0
 92
       -2
340
14
 93
        0
 40
1.125
309
GRIDFORMAT_END
 95
       32
302
GRIDFORMAT
  1
GRIDFORMAT_BEGIN
 90
        0
 91
        1
 62
     0
 92
       -2
340
14
 93
        0
 40
1.125
309
GRIDFORMAT_END
309
TABLEFORMAT_END
  1
CELLSTYLE_BEGIN
 90
        1
 91
        1
300
_TITLE
309
CELLSTYLE_END
300
CELLSTYLE
  1
TABLEFORMAT_BEGIN
 90
        5
170
     1
 91
        0
 92
        0
 62
   257
 93
        1
300
CONTENTFORMAT
  1
CONTENTFORMAT_BEGIN
 90
        0
 91
        0
 92
      512
 93
        0
300

 40
0.0
140
1.0
 94
        5
 62
     0
340
11
144
4.5
309
CONTENTFORMAT_END
171
     1
301
MARGIN
  1
CELLMARGIN_BEGIN
 40
1.5
 40
1.5
 40
1.5
 40
1.5
 40
4.5
 40
4.5
309
CELLMARGIN_END
 94
        6
 95
        1
302
GRIDFORMAT
  1
GRIDFORMAT_BEGIN
 90
        0
 91
        1
 62
     0
 92
       -2
340
14
 93
        0
 40
1.125
309
GRIDFORMAT_END
 95
        2
302
GRIDFORMAT
  1
GRIDFORMAT_BEGIN
 90
        0
 91
        1
 62
     0
 92
       -2
340
14
 93
        0
 40
1.125
309
GRIDFORMAT_END
 95
        4
302
GRIDFORMAT
  1
GRIDFORMAT_BEGIN
 90
        0
 91
        1
 62
     0
 92
       -2
340
14
 93
        0
 40
1.125
309
GRIDFORMAT_END
 95
        8
302
GRIDFORMAT
  1
GRIDFORMAT_BEGIN
 90
        0
 91
        1
 62
     0
 92
       -2
340
14
 93
        0
 40
1.125
309
GRIDFORMAT_END
 95
       16
302
GRIDFORMAT
  1
GRIDFORMAT_BEGIN
 90
        0
 91
        1
 62
     0
 92
       -2
340
14
 93
        0
 40
1.125
309
GRIDFORMAT_END
 95
       32
302
GRIDFORMAT
  1
GRIDFORMAT_BEGIN
 90
        0
 91
        1
 62
     0
 92
       -2
340
14
 93
        0
 40
1.125
309
GRIDFORMAT_END
309
TABLEFORMAT_END
  1
CELLSTYLE_BEGIN
 90
        2
 91
        1
300
_HEADER
309
CELLSTYLE_END
300
CELLSTYLE
  1
TABLEFORMAT_BEGIN
 90
        5
170
     1
 91
        0
 92
        0
 62
   257
 93
        1
300
CONTENTFORMAT
  1
CONTENTFORMAT_BEGIN
 90
        0
 91
        0
 92
      512
 93
        0
300

 40
0.0
140
1.0
 94
        2
 62
     0
340
11
144
4.5
309
CONTENTFORMAT_END
171
     1
301
MARGIN
  1
CELLMARGIN_BEGIN
 40
1.5
 40
1.5
 40
1.5
 40
1.5
 40
4.5
 40
4.5
309
CELLMARGIN_END
 94
        6
 95
        1
302
GRIDFORMAT
  1
GRIDFORMAT_BEGIN
 90
        0
 91
        1
 62
     0
 92
       -2
340
14
 93
        0
 40
1.125
309
GRIDFORMAT_END
 95
        2
302
GRIDFORMAT
  1
GRIDFORMAT_BEGIN
 90
        0
 91
        1
 62
     0
 92
       -2
340
14
 93
        0
 40
1.125
309
GRIDFORMAT_END
 95
        4
302
GRIDFORMAT
  1
GRIDFORMAT_BEGIN
 90
        0
 91
        1
 62
     0
 92
       -2
340
14
 93
        0
 40
1.125
309
GRIDFORMAT_END
 95
        8
302
GRIDFORMAT
  1
GRIDFORMAT_BEGIN
 90
        0
 91
        1
 62
     0
 92
       -2
340
14
 93
        0
 40
1.125
309
GRIDFORMAT_END
 95
       16
302
GRIDFORMAT
  1
GRIDFORMAT_BEGIN
 90
        0
 91
        1
 62
     0
 92
       -2
340
14
 93
        0
 40
1.125
309
GRIDFORMAT_END
 95
       32
302
GRIDFORMAT
  1
GRIDFORMAT_BEGIN
 90
        0
 91
        1
 62
     0
 92
       -2
340
14
 93
        0
 40
1.125
309
GRIDFORMAT_END
309
TABLEFORMAT_END
  1
CELLSTYLE_BEGIN
 90
        3
 91
        2
300
_DATA
309
CELLSTYLE_END
  0
XRECORD
  5
66B
102
{ACAD_REACTORS
330
66A
102
}
330
66A
100
AcDbXrecord
280
     1
102
RTVSPost2010Prop28
280
     1
102
RTVSPost2010PropOp28
 70
     1
102
RTVSPost2010Prop29
280
     1
102
RTVSPost2010PropOp29
 70
     1
102
RTVSPost2010Prop30
280
     0
102
RTVSPost2010PropOp30
 70
     1
102
RTVSPost2010Prop31
280
     0
102
RTVSPost2010PropOp31
 70
     1
102
RTVSPost2010Prop32
280
     0
102
RTVSPost2010PropOp32
 70
     1
102
RTVSPost2010Prop33
280
     0
102
RTVSPost2010PropOp33
 70
     1
102
RTVSPost2010Prop34
280
     0
102
RTVSPost2010PropOp34
 70
     1
102
RTVSPost2010Prop35
280
     0
102
RTVSPost2010PropOp35
 70
     1
102
RTVSPost2010Prop36
280
     0
102
RTVSPost2010PropOp36
 70
     1
102
RTVSPost2010Prop37
 90
       50
102
RTVSPost2010PropOp37
 70
     1
102
RTVSPost2010Prop38
140
0.0
102
RTVSPost2010PropOp38
 70
     1
102
RTVSPost2010Prop39
140
1.0
102
RTVSPost2010PropOp39
 70
     1
102
RTVSPost2010Prop40
 90
        0
102
RTVSPost2010PropOp40
 70
     1
102
RTVSPost2010Prop41ColorIndex
 90
       18
102
RTVSPost2010Prop41ColorRGB
 90
        0
102
RTVSPost2010PropOp41
 70
     1
102
RTVSPost2010Prop42
 90
       50
102
RTVSPost2010PropOp42
 70
     1
102
RTVSPost2010Prop43
 90
        3
102
RTVSPost2010PropOp43
 70
     1
102
RTVSPost2010Prop44ColorIndex
 90
        5
102
RTVSPost2010Prop44ColorRGB
 90
      255
102
RTVSPost2010PropOp44
 70
     1
102
RTVSPost2010Prop45
280
     0
102
RTVSPost2010PropOp45
 70
     1
102
RTVSPost2010Prop46
 90
       50
102
RTVSPost2010PropOp46
 70
     1
102
RTVSPost2010Prop47
 90
       50
102
RTVSPost2010PropOp47
 70
     1
102
RTVSPost2010Prop48
 90
       50
102
RTVSPost2010PropOp48
 70
     1
102
RTVSPost2010Prop49
280
     0
102
RTVSPost2010PropOp49
 70
     1
102
RTVSPost2010Prop50
 90
       50
102
RTVSPost2010PropOp50
 70
     1
102
RTVSPost2010Prop51ColorIndex
 90
      256
102
RTVSPost2010Prop51ColorRGB
 90
-16777216
102
RTVSPost2010PropOp51
 70
     0
102
RTVSPost2010Prop52
140
1.0
102
RTVSPost2010PropOp52
 70
     0
102
RTVSPost2010Prop53
 90
        2
102
RTVSPost2010PropOp53
 70
     1
102
RTVSPost2010Prop54
  1
strokes_ogs.tif
102
RTVSPost2010PropOp54
 70
     1
102
RTVSPost2010Prop55
280
     0
102
RTVSPost2010PropOp55
 70
     1
102
RTVSPost2010Prop56
140
1.0
102
RTVSPost2010PropOp56
 70
     1
102
RTVSPost2010Prop57
140
1.0
102
RTVSPost2010PropOp57
 70
     1
  0
XRECORD
  5
669
102
{ACAD_REACTORS
330
668
102
}
330
668
100
AcDbXrecord
280
     1
102
RTVSPost2010Prop28
280
     0
102
RTVSPost2010PropOp28
 70
     1
102
RTVSPost2010Prop29
280
     1
102
RTVSPost2010PropOp29
 70
     1
102
RTVSPost2010Prop30
280
     1
102
RTVSPost2010PropOp30
 70
     1
102
RTVSPost2010Prop31
280
     0
102
RTVSPost2010PropOp31
 70
     1
102
RTVSPost2010Prop32
280
     0
102
RTVSPost2010PropOp32
 70
     1
102
RTVSPost2010Prop33
280
     0
102
RTVSPost2010PropOp33
 70
     1
102
RTVSPost2010Prop34
280
     0
102
RTVSPost2010PropOp34
 70
     1
102
RTVSPost2010Prop35
280
     0
102
RTVSPost2010PropOp35
 70
     1
102
RTVSPost2010Prop36
280
     0
102
RTVSPost2010PropOp36
 70
     1
102
RTVSPost2010Prop37
 90
       50
102
RTVSPost2010PropOp37
 70
     1
102
RTVSPost2010Prop38
140
0.0
102
RTVSPost2010PropOp38
 70
     1
102
RTVSPost2010Prop39
140
1.0
102
RTVSPost2010PropOp39
 70
     1
102
RTVSPost2010Prop40
 90
        0
102
RTVSPost2010PropOp40
 70
     1
102
RTVSPost2010Prop41ColorIndex
 90
       18
102
RTVSPost2010Prop41ColorRGB
 90
        0
102
RTVSPost2010PropOp41
 70
     1
102
RTVSPost2010Prop42
 90
       50
102
RTVSPost2010PropOp42
 70
     1
102
RTVSPost2010Prop43
 90
        3
102
RTVSPost2010PropOp43
 70
     1
102
RTVSPost2010Prop44ColorIndex
 90
        5
102
RTVSPost2010Prop44ColorRGB
 90
      255
102
RTVSPost2010PropOp44
 70
     1
102
RTVSPost2010Prop45
280
     0
102
RTVSPost2010PropOp45
 70
     1
102
RTVSPost2010Prop46
 90
       50
102
RTVSPost2010PropOp46
 70
     1
102
RTVSPost2010Prop47
 90
       50
102
RTVSPost2010PropOp47
 70
     1
102
RTVSPost2010Prop48
 90
       50
102
RTVSPost2010PropOp48
 70
     1
102
RTVSPost2010Prop49
280
     0
102
RTVSPost2010PropOp49
 70
     1
102
RTVSPost2010Prop50
 90
       50
102
RTVSPost2010PropOp50
 70
     1
102
RTVSPost2010Prop51ColorIndex
 90
      256
102
RTVSPost2010Prop51ColorRGB
 90
-16777216
102
RTVSPost2010PropOp51
 70
     0
102
RTVSPost2010Prop52
140
1.0
102
RTVSPost2010PropOp52
 70
     0
102
RTVSPost2010Prop53
 90
        2
102
RTVSPost2010PropOp53
 70
     1
102
RTVSPost2010Prop54
  1
strokes_ogs.tif
102
RTVSPost2010PropOp54
 70
     1
102
RTVSPost2010Prop55
280
     0
102
RTVSPost2010PropOp55
 70
     1
102
RTVSPost2010Prop56
140
1.0
102
RTVSPost2010PropOp56
 70
     1
102
RTVSPost2010Prop57
140
1.0
102
RTVSPost2010PropOp57
 70
     1
  0
XRECORD
  5
677
102
{ACAD_REACTORS
330
676
102
}
330
676
100
AcDbXrecord
280
     1
102
RTVSPost2010Prop28
280
     0
102
RTVSPost2010PropOp28
 70
     1
102
RTVSPost2010Prop29
280
     1
102
RTVSPost2010PropOp29
 70
     1
102
RTVSPost2010Prop30
280
     1
102
RTVSPost2010PropOp30
 70
     1
102
RTVSPost2010Prop31
280
     0
102
RTVSPost2010PropOp31
 70
     1
102
RTVSPost2010Prop32
280
     0
102
RTVSPost2010PropOp32
 70
     1
102
RTVSPost2010Prop33
280
     0
102
RTVSPost2010PropOp33
 70
     1
102
RTVSPost2010Prop34
280
     0
102
RTVSPost2010PropOp34
 70
     1
102
RTVSPost2010Prop35
280
     0
102
RTVSPost2010PropOp35
 70
     1
102
RTVSPost2010Prop36
280
     0
102
RTVSPost2010PropOp36
 70
     1
102
RTVSPost2010Prop37
 90
       50
102
RTVSPost2010PropOp37
 70
     1
102
RTVSPost2010Prop38
140
0.0
102
RTVSPost2010PropOp38
 70
     1
102
RTVSPost2010Prop39
140
1.0
102
RTVSPost2010PropOp39
 70
     1
102
RTVSPost2010Prop40
 90
        0
102
RTVSPost2010PropOp40
 70
     1
102
RTVSPost2010Prop41ColorIndex
 90
       18
102
RTVSPost2010Prop41ColorRGB
 90
        0
102
RTVSPost2010PropOp41
 70
     1
102
RTVSPost2010Prop42
 90
       50
102
RTVSPost2010PropOp42
 70
     1
102
RTVSPost2010Prop43
 90
        3
102
RTVSPost2010PropOp43
 70
     1
102
RTVSPost2010Prop44ColorIndex
 90
        5
102
RTVSPost2010Prop44ColorRGB
 90
      255
102
RTVSPost2010PropOp44
 70
     1
102
RTVSPost2010Prop45
280
     0
102
RTVSPost2010PropOp45
 70
     1
102
RTVSPost2010Prop46
 90
       50
102
RTVSPost2010PropOp46
 70
     1
102
RTVSPost2010Prop47
 90
       50
102
RTVSPost2010PropOp47
 70
     1
102
RTVSPost2010Prop48
 90
       50
102
RTVSPost2010PropOp48
 70
     1
102
RTVSPost2010Prop49
280
     0
102
RTVSPost2010PropOp49
 70
     1
102
RTVSPost2010Prop50
 90
       50
102
RTVSPost2010PropOp50
 70
     1
102
RTVSPost2010Prop51ColorIndex
 90
      256
102
RTVSPost2010Prop51ColorRGB
 90
-16777216
102
RTVSPost2010PropOp51
 70
     0
102
RTVSPost2010Prop52
140
1.0
102
RTVSPost2010PropOp52
 70
     0
102
RTVSPost2010Prop53
 90
        2
102
RTVSPost2010PropOp53
 70
     1
102
RTVSPost2010Prop54
  1
strokes_ogs.tif
102
RTVSPost2010PropOp54
 70
     1
102
RTVSPost2010Prop55
280
     0
102
RTVSPost2010PropOp55
 70
     1
102
RTVSPost2010Prop56
140
1.0
102
RTVSPost2010PropOp56
 70
     1
102
RTVSPost2010Prop57
140
1.0
102
RTVSPost2010PropOp57
 70
     1
  0
XRECORD
  5
67F
102
{ACAD_REACTORS
330
67E
102
}
330
67E
100
AcDbXrecord
280
     1
102
RTVSPost2010Prop28
280
     0
102
RTVSPost2010PropOp28
 70
     1
102
RTVSPost2010Prop29
280
     1
102
RTVSPost2010PropOp29
 70
     1
102
RTVSPost2010Prop30
280
     1
102
RTVSPost2010PropOp30
 70
     1
102
RTVSPost2010Prop31
280
     0
102
RTVSPost2010PropOp31
 70
     1
102
RTVSPost2010Prop32
280
     0
102
RTVSPost2010PropOp32
 70
     1
102
RTVSPost2010Prop33
280
     0
102
RTVSPost2010PropOp33
 70
     1
102
RTVSPost2010Prop34
280
     0
102
RTVSPost2010PropOp34
 70
     1
102
RTVSPost2010Prop35
280
     0
102
RTVSPost2010PropOp35
 70
     1
102
RTVSPost2010Prop36
280
     0
102
RTVSPost2010PropOp36
 70
     1
102
RTVSPost2010Prop37
 90
       50
102
RTVSPost2010PropOp37
 70
     1
102
RTVSPost2010Prop38
140
0.0
102
RTVSPost2010PropOp38
 70
     1
102
RTVSPost2010Prop39
140
1.0
102
RTVSPost2010PropOp39
 70
     1
102
RTVSPost2010Prop40
 90
        0
102
RTVSPost2010PropOp40
 70
     1
102
RTVSPost2010Prop41ColorIndex
 90
       18
102
RTVSPost2010Prop41ColorRGB
 90
        0
102
RTVSPost2010PropOp41
 70
     1
102
RTVSPost2010Prop42
 90
       50
102
RTVSPost2010PropOp42
 70
     1
102
RTVSPost2010Prop43
 90
        3
102
RTVSPost2010PropOp43
 70
     1
102
RTVSPost2010Prop44ColorIndex
 90
        5
102
RTVSPost2010Prop44ColorRGB
 90
      255
102
RTVSPost2010PropOp44
 70
     1
102
RTVSPost2010Prop45
280
     0
102
RTVSPost2010PropOp45
 70
     1
102
RTVSPost2010Prop46
 90
       50
102
RTVSPost2010PropOp46
 70
     1
102
RTVSPost2010Prop47
 90
       50
102
RTVSPost2010PropOp47
 70
     1
102
RTVSPost2010Prop48
 90
       50
102
RTVSPost2010PropOp48
 70
     1
102
RTVSPost2010Prop49
280
     0
102
RTVSPost2010PropOp49
 70
     1
102
RTVSPost2010Prop50
 90
       50
102
RTVSPost2010PropOp50
 70
     1
102
RTVSPost2010Prop51ColorIndex
 90
      256
102
RTVSPost2010Prop51ColorRGB
 90
-16777216
102
RTVSPost2010PropOp51
 70
     0
102
RTVSPost2010Prop52
140
1.0
102
RTVSPost2010PropOp52
 70
     0
102
RTVSPost2010Prop53
 90
        2
102
RTVSPost2010PropOp53
 70
     1
102
RTVSPost2010Prop54
  1
strokes_ogs.tif
102
RTVSPost2010PropOp54
 70
     1
102
RTVSPost2010Prop55
280
     0
102
RTVSPost2010PropOp55
 70
     1
102
RTVSPost2010Prop56
140
1.0
102
RTVSPost2010PropOp56
 70
     1
102
RTVSPost2010Prop57
140
1.0
102
RTVSPost2010PropOp57
 70
     1
  0
XRECORD
  5
671
102
{ACAD_REACTORS
330
670
102
}
330
670
100
AcDbXrecord
280
     1
102
RTVSPost2010Prop28
280
     0
102
RTVSPost2010PropOp28
 70
     1
102
RTVSPost2010Prop29
280
     1
102
RTVSPost2010PropOp29
 70
     1
102
RTVSPost2010Prop30
280
     1
102
RTVSPost2010PropOp30
 70
     1
102
RTVSPost2010Prop31
280
     0
102
RTVSPost2010PropOp31
 70
     1
102
RTVSPost2010Prop32
280
     0
102
RTVSPost2010PropOp32
 70
     1
102
RTVSPost2010Prop33
280
     0
102
RTVSPost2010PropOp33
 70
     1
102
RTVSPost2010Prop34
280
     0
102
RTVSPost2010PropOp34
 70
     1
102
RTVSPost2010Prop35
280
     0
102
RTVSPost2010PropOp35
 70
     1
102
RTVSPost2010Prop36
280
     0
102
RTVSPost2010PropOp36
 70
     1
102
RTVSPost2010Prop37
 90
       50
102
RTVSPost2010PropOp37
 70
     1
102
RTVSPost2010Prop38
140
0.0
102
RTVSPost2010PropOp38
 70
     1
102
RTVSPost2010Prop39
140
1.0
102
RTVSPost2010PropOp39
 70
     1
102
RTVSPost2010Prop40
 90
        0
102
RTVSPost2010PropOp40
 70
     1
102
RTVSPost2010Prop41ColorIndex
 90
       18
102
RTVSPost2010Prop41ColorRGB
 90
        0
102
RTVSPost2010PropOp41
 70
     1
102
RTVSPost2010Prop42
 90
       50
102
RTVSPost2010PropOp42
 70
     1
102
RTVSPost2010Prop43
 90
        3
102
RTVSPost2010PropOp43
 70
     1
102
RTVSPost2010Prop44ColorIndex
 90
        5
102
RTVSPost2010Prop44ColorRGB
 90
      255
102
RTVSPost2010PropOp44
 70
     1
102
RTVSPost2010Prop45
280
     0
102
RTVSPost2010PropOp45
 70
     1
102
RTVSPost2010Prop46
 90
       50
102
RTVSPost2010PropOp46
 70
     1
102
RTVSPost2010Prop47
 90
       50
102
RTVSPost2010PropOp47
 70
     1
102
RTVSPost2010Prop48
 90
       50
102
RTVSPost2010PropOp48
 70
     1
102
RTVSPost2010Prop49
280
     0
102
RTVSPost2010PropOp49
 70
     1
102
RTVSPost2010Prop50
 90
       50
102
RTVSPost2010PropOp50
 70
     1
102
RTVSPost2010Prop51ColorIndex
 90
      256
102
RTVSPost2010Prop51ColorRGB
 90
-16777216
102
RTVSPost2010PropOp51
 70
     0
102
RTVSPost2010Prop52
140
1.0
102
RTVSPost2010PropOp52
 70
     0
102
RTVSPost2010Prop53
 90
        2
102
RTVSPost2010PropOp53
 70
     1
102
RTVSPost2010Prop54
  1
strokes_ogs.tif
102
RTVSPost2010PropOp54
 70
     1
102
RTVSPost2010Prop55
280
     0
102
RTVSPost2010PropOp55
 70
     1
102
RTVSPost2010Prop56
140
1.0
102
RTVSPost2010PropOp56
 70
     1
102
RTVSPost2010Prop57
140
1.0
102
RTVSPost2010PropOp57
 70
     1
  0
XRECORD
  5
675
102
{ACAD_REACTORS
330
674
102
}
330
674
100
AcDbXrecord
280
     1
102
RTVSPost2010Prop28
280
     0
102
RTVSPost2010PropOp28
 70
     1
102
RTVSPost2010Prop29
280
     1
102
RTVSPost2010PropOp29
 70
     1
102
RTVSPost2010Prop30
280
     1
102
RTVSPost2010PropOp30
 70
     1
102
RTVSPost2010Prop31
280
     0
102
RTVSPost2010PropOp31
 70
     1
102
RTVSPost2010Prop32
280
     0
102
RTVSPost2010PropOp32
 70
     1
102
RTVSPost2010Prop33
280
     0
102
RTVSPost2010PropOp33
 70
     1
102
RTVSPost2010Prop34
280
     0
102
RTVSPost2010PropOp34
 70
     1
102
RTVSPost2010Prop35
280
     0
102
RTVSPost2010PropOp35
 70
     1
102
RTVSPost2010Prop36
280
     0
102
RTVSPost2010PropOp36
 70
     1
102
RTVSPost2010Prop37
 90
       50
102
RTVSPost2010PropOp37
 70
     1
102
RTVSPost2010Prop38
140
0.0
102
RTVSPost2010PropOp38
 70
     1
102
RTVSPost2010Prop39
140
1.0
102
RTVSPost2010PropOp39
 70
     1
102
RTVSPost2010Prop40
 90
        0
102
RTVSPost2010PropOp40
 70
     1
102
RTVSPost2010Prop41ColorIndex
 90
       18
102
RTVSPost2010Prop41ColorRGB
 90
        0
102
RTVSPost2010PropOp41
 70
     1
102
RTVSPost2010Prop42
 90
       50
102
RTVSPost2010PropOp42
 70
     1
102
RTVSPost2010Prop43
 90
        3
102
RTVSPost2010PropOp43
 70
     1
102
RTVSPost2010Prop44ColorIndex
 90
        5
102
RTVSPost2010Prop44ColorRGB
 90
      255
102
RTVSPost2010PropOp44
 70
     1
102
RTVSPost2010Prop45
280
     0
102
RTVSPost2010PropOp45
 70
     1
102
RTVSPost2010Prop46
 90
       50
102
RTVSPost2010PropOp46
 70
     1
102
RTVSPost2010Prop47
 90
       50
102
RTVSPost2010PropOp47
 70
     1
102
RTVSPost2010Prop48
 90
       50
102
RTVSPost2010PropOp48
 70
     1
102
RTVSPost2010Prop49
280
     0
102
RTVSPost2010PropOp49
 70
     1
102
RTVSPost2010Prop50
 90
       50
102
RTVSPost2010PropOp50
 70
     1
102
RTVSPost2010Prop51ColorIndex
 90
      256
102
RTVSPost2010Prop51ColorRGB
 90
-16777216
102
RTVSPost2010PropOp51
 70
     0
102
RTVSPost2010Prop52
140
1.0
102
RTVSPost2010PropOp52
 70
     0
102
RTVSPost2010Prop53
 90
        2
102
RTVSPost2010PropOp53
 70
     1
102
RTVSPost2010Prop54
  1
strokes_ogs.tif
102
RTVSPost2010PropOp54
 70
     1
102
RTVSPost2010Prop55
280
     0
102
RTVSPost2010PropOp55
 70
     1
102
RTVSPost2010Prop56
140
1.0
102
RTVSPost2010PropOp56
 70
     1
102
RTVSPost2010Prop57
140
1.0
102
RTVSPost2010PropOp57
 70
     1
  0
XRECORD
  5
685
102
{ACAD_REACTORS
330
684
102
}
330
684
100
AcDbXrecord
280
     1
102
RTVSPost2010Prop28
280
     0
102
RTVSPost2010PropOp28
 70
     1
102
RTVSPost2010Prop29
280
     1
102
RTVSPost2010PropOp29
 70
     1
102
RTVSPost2010Prop30
280
     1
102
RTVSPost2010PropOp30
 70
     1
102
RTVSPost2010Prop31
280
     0
102
RTVSPost2010PropOp31
 70
     1
102
RTVSPost2010Prop32
280
     0
102
RTVSPost2010PropOp32
 70
     1
102
RTVSPost2010Prop33
280
     0
102
RTVSPost2010PropOp33
 70
     1
102
RTVSPost2010Prop34
280
     0
102
RTVSPost2010PropOp34
 70
     1
102
RTVSPost2010Prop35
280
     0
102
RTVSPost2010PropOp35
 70
     1
102
RTVSPost2010Prop36
280
     0
102
RTVSPost2010PropOp36
 70
     1
102
RTVSPost2010Prop37
 90
       50
102
RTVSPost2010PropOp37
 70
     1
102
RTVSPost2010Prop38
140
0.0
102
RTVSPost2010PropOp38
 70
     1
102
RTVSPost2010Prop39
140
1.0
102
RTVSPost2010PropOp39
 70
     1
102
RTVSPost2010Prop40
 90
        0
102
RTVSPost2010PropOp40
 70
     1
102
RTVSPost2010Prop41ColorIndex
 90
       18
102
RTVSPost2010Prop41ColorRGB
 90
        0
102
RTVSPost2010PropOp41
 70
     1
102
RTVSPost2010Prop42
 90
       50
102
RTVSPost2010PropOp42
 70
     1
102
RTVSPost2010Prop43
 90
        3
102
RTVSPost2010PropOp43
 70
     1
102
RTVSPost2010Prop44ColorIndex
 90
        5
102
RTVSPost2010Prop44ColorRGB
 90
      255
102
RTVSPost2010PropOp44
 70
     1
102
RTVSPost2010Prop45
280
     0
102
RTVSPost2010PropOp45
 70
     1
102
RTVSPost2010Prop46
 90
       50
102
RTVSPost2010PropOp46
 70
     1
102
RTVSPost2010Prop47
 90
       50
102
RTVSPost2010PropOp47
 70
     1
102
RTVSPost2010Prop48
 90
       50
102
RTVSPost2010PropOp48
 70
     1
102
RTVSPost2010Prop49
280
     0
102
RTVSPost2010PropOp49
 70
     1
102
RTVSPost2010Prop50
 90
       50
102
RTVSPost2010PropOp50
 70
     1
102
RTVSPost2010Prop51ColorIndex
 90
      256
102
RTVSPost2010Prop51ColorRGB
 90
-16777216
102
RTVSPost2010PropOp51
 70
     0
102
RTVSPost2010Prop52
140
1.0
102
RTVSPost2010PropOp52
 70
     0
102
RTVSPost2010Prop53
 90
        2
102
RTVSPost2010PropOp53
 70
     1
102
RTVSPost2010Prop54
  1
strokes_ogs.tif
102
RTVSPost2010PropOp54
 70
     1
102
RTVSPost2010Prop55
280
     0
102
RTVSPost2010PropOp55
 70
     1
102
RTVSPost2010Prop56
140
1.0
102
RTVSPost2010PropOp56
 70
     1
102
RTVSPost2010Prop57
140
1.0
102
RTVSPost2010PropOp57
 70
     1
  0
XRECORD
  5
67D
102
{ACAD_REACTORS
330
67C
102
}
330
67C
100
AcDbXrecord
280
     1
102
RTVSPost2010Prop28
280
     0
102
RTVSPost2010PropOp28
 70
     1
102
RTVSPost2010Prop29
280
     1
102
RTVSPost2010PropOp29
 70
     1
102
RTVSPost2010Prop30
280
     1
102
RTVSPost2010PropOp30
 70
     1
102
RTVSPost2010Prop31
280
     0
102
RTVSPost2010PropOp31
 70
     1
102
RTVSPost2010Prop32
280
     0
102
RTVSPost2010PropOp32
 70
     1
102
RTVSPost2010Prop33
280
     0
102
RTVSPost2010PropOp33
 70
     1
102
RTVSPost2010Prop34
280
     0
102
RTVSPost2010PropOp34
 70
     1
102
RTVSPost2010Prop35
280
     0
102
RTVSPost2010PropOp35
 70
     1
102
RTVSPost2010Prop36
280
     0
102
RTVSPost2010PropOp36
 70
     1
102
RTVSPost2010Prop37
 90
       50
102
RTVSPost2010PropOp37
 70
     1
102
RTVSPost2010Prop38
140
0.0
102
RTVSPost2010PropOp38
 70
     1
102
RTVSPost2010Prop39
140
1.0
102
RTVSPost2010PropOp39
 70
     1
102
RTVSPost2010Prop40
 90
        0
102
RTVSPost2010PropOp40
 70
     1
102
RTVSPost2010Prop41ColorIndex
 90
       18
102
RTVSPost2010Prop41ColorRGB
 90
        0
102
RTVSPost2010PropOp41
 70
     1
102
RTVSPost2010Prop42
 90
       50
102
RTVSPost2010PropOp42
 70
     1
102
RTVSPost2010Prop43
 90
        3
102
RTVSPost2010PropOp43
 70
     1
102
RTVSPost2010Prop44ColorIndex
 90
        5
102
RTVSPost2010Prop44ColorRGB
 90
      255
102
RTVSPost2010PropOp44
 70
     1
102
RTVSPost2010Prop45
280
     0
102
RTVSPost2010PropOp45
 70
     1
102
RTVSPost2010Prop46
 90
       50
102
RTVSPost2010PropOp46
 70
     1
102
RTVSPost2010Prop47
 90
       50
102
RTVSPost2010PropOp47
 70
     1
102
RTVSPost2010Prop48
 90
       50
102
RTVSPost2010PropOp48
 70
     1
102
RTVSPost2010Prop49
280
     0
102
RTVSPost2010PropOp49
 70
     1
102
RTVSPost2010Prop50
 90
       50
102
RTVSPost2010PropOp50
 70
     1
102
RTVSPost2010Prop51ColorIndex
 90
      256
102
RTVSPost2010Prop51ColorRGB
 90
-16777216
102
RTVSPost2010PropOp51
 70
     0
102
RTVSPost2010Prop52
140
1.0
102
RTVSPost2010PropOp52
 70
     0
102
RTVSPost2010Prop53
 90
        2
102
RTVSPost2010PropOp53
 70
     1
102
RTVSPost2010Prop54
  1
strokes_ogs.tif
102
RTVSPost2010PropOp54
 70
     1
102
RTVSPost2010Prop55
280
     0
102
RTVSPost2010PropOp55
 70
     1
102
RTVSPost2010Prop56
140
1.0
102
RTVSPost2010PropOp56
 70
     1
102
RTVSPost2010Prop57
140
1.0
102
RTVSPost2010PropOp57
 70
     1
  0
XRECORD
  5
661
102
{ACAD_REACTORS
330
660
102
}
330
660
100
AcDbXrecord
280
     1
102
RTVSPost2010Prop28
280
     0
102
RTVSPost2010PropOp28
 70
     1
102
RTVSPost2010Prop29
280
     1
102
RTVSPost2010PropOp29
 70
     1
102
RTVSPost2010Prop30
280
     1
102
RTVSPost2010PropOp30
 70
     1
102
RTVSPost2010Prop31
280
     0
102
RTVSPost2010PropOp31
 70
     1
102
RTVSPost2010Prop32
280
     0
102
RTVSPost2010PropOp32
 70
     1
102
RTVSPost2010Prop33
280
     0
102
RTVSPost2010PropOp33
 70
     1
102
RTVSPost2010Prop34
280
     0
102
RTVSPost2010PropOp34
 70
     1
102
RTVSPost2010Prop35
280
     0
102
RTVSPost2010PropOp35
 70
     1
102
RTVSPost2010Prop36
280
     0
102
RTVSPost2010PropOp36
 70
     1
102
RTVSPost2010Prop37
 90
       50
102
RTVSPost2010PropOp37
 70
     1
102
RTVSPost2010Prop38
140
0.0
102
RTVSPost2010PropOp38
 70
     1
102
RTVSPost2010Prop39
140
1.0
102
RTVSPost2010PropOp39
 70
     1
102
RTVSPost2010Prop40
 90
        0
102
RTVSPost2010PropOp40
 70
     1
102
RTVSPost2010Prop41ColorIndex
 90
       18
102
RTVSPost2010Prop41ColorRGB
 90
        0
102
RTVSPost2010PropOp41
 70
     1
102
RTVSPost2010Prop42
 90
       50
102
RTVSPost2010PropOp42
 70
     1
102
RTVSPost2010Prop43
 90
        3
102
RTVSPost2010PropOp43
 70
     1
102
RTVSPost2010Prop44ColorIndex
 90
        5
102
RTVSPost2010Prop44ColorRGB
 90
      255
102
RTVSPost2010PropOp44
 70
     1
102
RTVSPost2010Prop45
280
     0
102
RTVSPost2010PropOp45
 70
     1
102
RTVSPost2010Prop46
 90
       50
102
RTVSPost2010PropOp46
 70
     1
102
RTVSPost2010Prop47
 90
       50
102
RTVSPost2010PropOp47
 70
     1
102
RTVSPost2010Prop48
 90
       50
102
RTVSPost2010PropOp48
 70
     1
102
RTVSPost2010Prop49
280
     0
102
RTVSPost2010PropOp49
 70
     1
102
RTVSPost2010Prop50
 90
       50
102
RTVSPost2010PropOp50
 70
     1
102
RTVSPost2010Prop51ColorIndex
 90
      256
102
RTVSPost2010Prop51ColorRGB
 90
-16777216
102
RTVSPost2010PropOp51
 70
     0
102
RTVSPost2010Prop52
140
1.0
102
RTVSPost2010PropOp52
 70
     0
102
RTVSPost2010Prop53
 90
        2
102
RTVSPost2010PropOp53
 70
     1
102
RTVSPost2010Prop54
  1
strokes_ogs.tif
102
RTVSPost2010PropOp54
 70
     1
102
RTVSPost2010Prop55
280
     0
102
RTVSPost2010PropOp55
 70
     1
102
RTVSPost2010Prop56
140
1.0
102
RTVSPost2010PropOp56
 70
     1
102
RTVSPost2010Prop57
140
1.0
102
RTVSPost2010PropOp57
 70
     1
  0
XRECORD
  5
663
102
{ACAD_REACTORS
330
662
102
}
330
662
100
AcDbXrecord
280
     1
102
RTVSPost2010Prop28
280
     0
102
RTVSPost2010PropOp28
 70
     1
102
RTVSPost2010Prop29
280
     1
102
RTVSPost2010PropOp29
 70
     1
102
RTVSPost2010Prop30
280
     1
102
RTVSPost2010PropOp30
 70
     1
102
RTVSPost2010Prop31
280
     0
102
RTVSPost2010PropOp31
 70
     1
102
RTVSPost2010Prop32
280
     0
102
RTVSPost2010PropOp32
 70
     1
102
RTVSPost2010Prop33
280
     0
102
RTVSPost2010PropOp33
 70
     1
102
RTVSPost2010Prop34
280
     0
102
RTVSPost2010PropOp34
 70
     1
102
RTVSPost2010Prop35
280
     0
102
RTVSPost2010PropOp35
 70
     1
102
RTVSPost2010Prop36
280
     0
102
RTVSPost2010PropOp36
 70
     1
102
RTVSPost2010Prop37
 90
       50
102
RTVSPost2010PropOp37
 70
     1
102
RTVSPost2010Prop38
140
0.0
102
RTVSPost2010PropOp38
 70
     1
102
RTVSPost2010Prop39
140
1.0
102
RTVSPost2010PropOp39
 70
     1
102
RTVSPost2010Prop40
 90
        0
102
RTVSPost2010PropOp40
 70
     1
102
RTVSPost2010Prop41ColorIndex
 90
       18
102
RTVSPost2010Prop41ColorRGB
 90
        0
102
RTVSPost2010PropOp41
 70
     1
102
RTVSPost2010Prop42
 90
       50
102
RTVSPost2010PropOp42
 70
     1
102
RTVSPost2010Prop43
 90
        3
102
RTVSPost2010PropOp43
 70
     1
102
RTVSPost2010Prop44ColorIndex
 90
        5
102
RTVSPost2010Prop44ColorRGB
 90
      255
102
RTVSPost2010PropOp44
 70
     1
102
RTVSPost2010Prop45
280
     0
102
RTVSPost2010PropOp45
 70
     1
102
RTVSPost2010Prop46
 90
       50
102
RTVSPost2010PropOp46
 70
     1
102
RTVSPost2010Prop47
 90
       50
102
RTVSPost2010PropOp47
 70
     1
102
RTVSPost2010Prop48
 90
       50
102
RTVSPost2010PropOp48
 70
     1
102
RTVSPost2010Prop49
280
     0
102
RTVSPost2010PropOp49
 70
     1
102
RTVSPost2010Prop50
 90
       50
102
RTVSPost2010PropOp50
 70
     1
102
RTVSPost2010Prop51ColorIndex
 90
      256
102
RTVSPost2010Prop51ColorRGB
 90
-16777216
102
RTVSPost2010PropOp51
 70
     0
102
RTVSPost2010Prop52
140
1.0
102
RTVSPost2010PropOp52
 70
     0
102
RTVSPost2010Prop53
 90
        2
102
RTVSPost2010PropOp53
 70
     1
102
RTVSPost2010Prop54
  1
strokes_ogs.tif
102
RTVSPost2010PropOp54
 70
     1
102
RTVSPost2010Prop55
280
     0
102
RTVSPost2010PropOp55
 70
     1
102
RTVSPost2010Prop56
140
1.0
102
RTVSPost2010PropOp56
 70
     1
102
RTVSPost2010Prop57
140
1.0
102
RTVSPost2010PropOp57
 70
     1
  0
XRECORD
  5
665
102
{ACAD_REACTORS
330
664
102
}
330
664
100
AcDbXrecord
280
     1
102
RTVSPost2010Prop28
280
     0
102
RTVSPost2010PropOp28
 70
     1
102
RTVSPost2010Prop29
280
     1
102
RTVSPost2010PropOp29
 70
     1
102
RTVSPost2010Prop30
280
     1
102
RTVSPost2010PropOp30
 70
     1
102
RTVSPost2010Prop31
280
     0
102
RTVSPost2010PropOp31
 70
     1
102
RTVSPost2010Prop32
280
     0
102
RTVSPost2010PropOp32
 70
     1
102
RTVSPost2010Prop33
280
     0
102
RTVSPost2010PropOp33
 70
     1
102
RTVSPost2010Prop34
280
     0
102
RTVSPost2010PropOp34
 70
     1
102
RTVSPost2010Prop35
280
     0
102
RTVSPost2010PropOp35
 70
     1
102
RTVSPost2010Prop36
280
     0
102
RTVSPost2010PropOp36
 70
     1
102
RTVSPost2010Prop37
 90
       50
102
RTVSPost2010PropOp37
 70
     1
102
RTVSPost2010Prop38
140
0.0
102
RTVSPost2010PropOp38
 70
     1
102
RTVSPost2010Prop39
140
1.0
102
RTVSPost2010PropOp39
 70
     1
102
RTVSPost2010Prop40
 90
        0
102
RTVSPost2010PropOp40
 70
     1
102
RTVSPost2010Prop41ColorIndex
 90
       18
102
RTVSPost2010Prop41ColorRGB
 90
        0
102
RTVSPost2010PropOp41
 70
     1
102
RTVSPost2010Prop42
 90
       50
102
RTVSPost2010PropOp42
 70
     1
102
RTVSPost2010Prop43
 90
        3
102
RTVSPost2010PropOp43
 70
     1
102
RTVSPost2010Prop44ColorIndex
 90
        5
102
RTVSPost2010Prop44ColorRGB
 90
      255
102
RTVSPost2010PropOp44
 70
     1
102
RTVSPost2010Prop45
280
     0
102
RTVSPost2010PropOp45
 70
     1
102
RTVSPost2010Prop46
 90
       50
102
RTVSPost2010PropOp46
 70
     1
102
RTVSPost2010Prop47
 90
       50
102
RTVSPost2010PropOp47
 70
     1
102
RTVSPost2010Prop48
 90
       50
102
RTVSPost2010PropOp48
 70
     1
102
RTVSPost2010Prop49
280
     0
102
RTVSPost2010PropOp49
 70
     1
102
RTVSPost2010Prop50
 90
       50
102
RTVSPost2010PropOp50
 70
     1
102
RTVSPost2010Prop51ColorIndex
 90
      256
102
RTVSPost2010Prop51ColorRGB
 90
-16777216
102
RTVSPost2010PropOp51
 70
     0
102
RTVSPost2010Prop52
140
1.0
102
RTVSPost2010PropOp52
 70
     0
102
RTVSPost2010Prop53
 90
        2
102
RTVSPost2010PropOp53
 70
     1
102
RTVSPost2010Prop54
  1
strokes_ogs.tif
102
RTVSPost2010PropOp54
 70
     1
102
RTVSPost2010Prop55
280
     0
102
RTVSPost2010PropOp55
 70
     1
102
RTVSPost2010Prop56
140
1.0
102
RTVSPost2010PropOp56
 70
     1
102
RTVSPost2010Prop57
140
1.0
102
RTVSPost2010PropOp57
 70
     1
  0
XRECORD
  5
667
102
{ACAD_REACTORS
330
666
102
}
330
666
100
AcDbXrecord
280
     1
102
RTVSPost2010Prop28
280
     0
102
RTVSPost2010PropOp28
 70
     1
102
RTVSPost2010Prop29
280
     1
102
RTVSPost2010PropOp29
 70
     1
102
RTVSPost2010Prop30
280
     1
102
RTVSPost2010PropOp30
 70
     1
102
RTVSPost2010Prop31
280
     0
102
RTVSPost2010PropOp31
 70
     1
102
RTVSPost2010Prop32
280
     0
102
RTVSPost2010PropOp32
 70
     1
102
RTVSPost2010Prop33
280
     0
102
RTVSPost2010PropOp33
 70
     1
102
RTVSPost2010Prop34
280
     0
102
RTVSPost2010PropOp34
 70
     1
102
RTVSPost2010Prop35
280
     0
102
RTVSPost2010PropOp35
 70
     1
102
RTVSPost2010Prop36
280
     0
102
RTVSPost2010PropOp36
 70
     1
102
RTVSPost2010Prop37
 90
       50
102
RTVSPost2010PropOp37
 70
     1
102
RTVSPost2010Prop38
140
0.0
102
RTVSPost2010PropOp38
 70
     1
102
RTVSPost2010Prop39
140
1.0
102
RTVSPost2010PropOp39
 70
     1
102
RTVSPost2010Prop40
 90
        0
102
RTVSPost2010PropOp40
 70
     1
102
RTVSPost2010Prop41ColorIndex
 90
       18
102
RTVSPost2010Prop41ColorRGB
 90
        0
102
RTVSPost2010PropOp41
 70
     1
102
RTVSPost2010Prop42
 90
       50
102
RTVSPost2010PropOp42
 70
     1
102
RTVSPost2010Prop43
 90
        3
102
RTVSPost2010PropOp43
 70
     1
102
RTVSPost2010Prop44ColorIndex
 90
        5
102
RTVSPost2010Prop44ColorRGB
 90
      255
102
RTVSPost2010PropOp44
 70
     1
102
RTVSPost2010Prop45
280
     0
102
RTVSPost2010PropOp45
 70
     1
102
RTVSPost2010Prop46
 90
       50
102
RTVSPost2010PropOp46
 70
     1
102
RTVSPost2010Prop47
 90
       50
102
RTVSPost2010PropOp47
 70
     1
102
RTVSPost2010Prop48
 90
       50
102
RTVSPost2010PropOp48
 70
     1
102
RTVSPost2010Prop49
280
     0
102
RTVSPost2010PropOp49
 70
     1
102
RTVSPost2010Prop50
 90
       50
102
RTVSPost2010PropOp50
 70
     1
102
RTVSPost2010Prop51ColorIndex
 90
      256
102
RTVSPost2010Prop51ColorRGB
 90
-16777216
102
RTVSPost2010PropOp51
 70
     0
102
RTVSPost2010Prop52
140
1.0
102
RTVSPost2010PropOp52
 70
     0
102
RTVSPost2010Prop53
 90
        2
102
RTVSPost2010PropOp53
 70
     1
102
RTVSPost2010Prop54
  1
strokes_ogs.tif
102
RTVSPost2010PropOp54
 70
     1
102
RTVSPost2010Prop55
280
     0
102
RTVSPost2010PropOp55
 70
     1
102
RTVSPost2010Prop56
140
1.0
102
RTVSPost2010PropOp56
 70
     1
102
RTVSPost2010Prop57
140
1.0
102
RTVSPost2010PropOp57
 70
     1
  0
XRECORD
  5
66F
102
{ACAD_REACTORS
330
66E
102
}
330
66E
100
AcDbXrecord
280
     1
102
RTVSPost2010Prop28
280
     0
102
RTVSPost2010PropOp28
 70
     1
102
RTVSPost2010Prop29
280
     1
102
RTVSPost2010PropOp29
 70
     1
102
RTVSPost2010Prop30
280
     1
102
RTVSPost2010PropOp30
 70
     1
102
RTVSPost2010Prop31
280
     0
102
RTVSPost2010PropOp31
 70
     1
102
RTVSPost2010Prop32
280
     0
102
RTVSPost2010PropOp32
 70
     1
102
RTVSPost2010Prop33
280
     0
102
RTVSPost2010PropOp33
 70
     1
102
RTVSPost2010Prop34
280
     0
102
RTVSPost2010PropOp34
 70
     1
102
RTVSPost2010Prop35
280
     0
102
RTVSPost2010PropOp35
 70
     1
102
RTVSPost2010Prop36
280
     0
102
RTVSPost2010PropOp36
 70
     1
102
RTVSPost2010Prop37
 90
       50
102
RTVSPost2010PropOp37
 70
     1
102
RTVSPost2010Prop38
140
0.0
102
RTVSPost2010PropOp38
 70
     1
102
RTVSPost2010Prop39
140
1.0
102
RTVSPost2010PropOp39
 70
     1
102
RTVSPost2010Prop40
 90
        0
102
RTVSPost2010PropOp40
 70
     1
102
RTVSPost2010Prop41ColorIndex
 90
       18
102
RTVSPost2010Prop41ColorRGB
 90
        0
102
RTVSPost2010PropOp41
 70
     1
102
RTVSPost2010Prop42
 90
       50
102
RTVSPost2010PropOp42
 70
     1
102
RTVSPost2010Prop43
 90
        3
102
RTVSPost2010PropOp43
 70
     1
102
RTVSPost2010Prop44ColorIndex
 90
        5
102
RTVSPost2010Prop44ColorRGB
 90
      255
102
RTVSPost2010PropOp44
 70
     1
102
RTVSPost2010Prop45
280
     0
102
RTVSPost2010PropOp45
 70
     1
102
RTVSPost2010Prop46
 90
       50
102
RTVSPost2010PropOp46
 70
     1
102
RTVSPost2010Prop47
 90
       50
102
RTVSPost2010PropOp47
 70
     1
102
RTVSPost2010Prop48
 90
       50
102
RTVSPost2010PropOp48
 70
     1
102
RTVSPost2010Prop49
280
     0
102
RTVSPost2010PropOp49
 70
     1
102
RTVSPost2010Prop50
 90
       50
102
RTVSPost2010PropOp50
 70
     1
102
RTVSPost2010Prop51ColorIndex
 90
      256
102
RTVSPost2010Prop51ColorRGB
 90
-16777216
102
RTVSPost2010PropOp51
 70
     0
102
RTVSPost2010Prop52
140
1.0
102
RTVSPost2010PropOp52
 70
     0
102
RTVSPost2010Prop53
 90
        2
102
RTVSPost2010PropOp53
 70
     1
102
RTVSPost2010Prop54
  1
strokes_ogs.tif
102
RTVSPost2010PropOp54
 70
     1
102
RTVSPost2010Prop55
280
     0
102
RTVSPost2010PropOp55
 70
     1
102
RTVSPost2010Prop56
140
1.0
102
RTVSPost2010PropOp56
 70
     1
102
RTVSPost2010Prop57
140
1.0
102
RTVSPost2010PropOp57
 70
     1
  0
XRECORD
  5
681
102
{ACAD_REACTORS
330
680
102
}
330
680
100
AcDbXrecord
280
     1
102
RTVSPost2010Prop28
280
     0
102
RTVSPost2010PropOp28
 70
     1
102
RTVSPost2010Prop29
280
     1
102
RTVSPost2010PropOp29
 70
     1
102
RTVSPost2010Prop30
280
     1
102
RTVSPost2010PropOp30
 70
     1
102
RTVSPost2010Prop31
280
     0
102
RTVSPost2010PropOp31
 70
     1
102
RTVSPost2010Prop32
280
     0
102
RTVSPost2010PropOp32
 70
     1
102
RTVSPost2010Prop33
280
     0
102
RTVSPost2010PropOp33
 70
     1
102
RTVSPost2010Prop34
280
     0
102
RTVSPost2010PropOp34
 70
     1
102
RTVSPost2010Prop35
280
     0
102
RTVSPost2010PropOp35
 70
     1
102
RTVSPost2010Prop36
280
     0
102
RTVSPost2010PropOp36
 70
     1
102
RTVSPost2010Prop37
 90
       50
102
RTVSPost2010PropOp37
 70
     1
102
RTVSPost2010Prop38
140
0.0
102
RTVSPost2010PropOp38
 70
     1
102
RTVSPost2010Prop39
140
1.0
102
RTVSPost2010PropOp39
 70
     1
102
RTVSPost2010Prop40
 90
        0
102
RTVSPost2010PropOp40
 70
     1
102
RTVSPost2010Prop41ColorIndex
 90
       18
102
RTVSPost2010Prop41ColorRGB
 90
        0
102
RTVSPost2010PropOp41
 70
     1
102
RTVSPost2010Prop42
 90
       50
102
RTVSPost2010PropOp42
 70
     1
102
RTVSPost2010Prop43
 90
        3
102
RTVSPost2010PropOp43
 70
     1
102
RTVSPost2010Prop44ColorIndex
 90
        5
102
RTVSPost2010Prop44ColorRGB
 90
      255
102
RTVSPost2010PropOp44
 70
     1
102
RTVSPost2010Prop45
280
     0
102
RTVSPost2010PropOp45
 70
     1
102
RTVSPost2010Prop46
 90
       50
102
RTVSPost2010PropOp46
 70
     1
102
RTVSPost2010Prop47
 90
       50
102
RTVSPost2010PropOp47
 70
     1
102
RTVSPost2010Prop48
 90
       50
102
RTVSPost2010PropOp48
 70
     1
102
RTVSPost2010Prop49
280
     0
102
RTVSPost2010PropOp49
 70
     1
102
RTVSPost2010Prop50
 90
       50
102
RTVSPost2010PropOp50
 70
     1
102
RTVSPost2010Prop51ColorIndex
 90
      256
102
RTVSPost2010Prop51ColorRGB
 90
-16777216
102
RTVSPost2010PropOp51
 70
     0
102
RTVSPost2010Prop52
140
1.0
102
RTVSPost2010PropOp52
 70
     0
102
RTVSPost2010Prop53
 90
        2
102
RTVSPost2010PropOp53
 70
     1
102
RTVSPost2010Prop54
  1
strokes_ogs.tif
102
RTVSPost2010PropOp54
 70
     1
102
RTVSPost2010Prop55
280
     0
102
RTVSPost2010PropOp55
 70
     1
102
RTVSPost2010Prop56
140
1.0
102
RTVSPost2010PropOp56
 70
     1
102
RTVSPost2010Prop57
140
1.0
102
RTVSPost2010PropOp57
 70
     1
  0
XRECORD
  5
67B
102
{ACAD_REACTORS
330
67A
102
}
330
67A
100
AcDbXrecord
280
     1
102
RTVSPost2010Prop28
280
     0
102
RTVSPost2010PropOp28
 70
     1
102
RTVSPost2010Prop29
280
     1
102
RTVSPost2010PropOp29
 70
     1
102
RTVSPost2010Prop30
280
     1
102
RTVSPost2010PropOp30
 70
     1
102
RTVSPost2010Prop31
280
     0
102
RTVSPost2010PropOp31
 70
     1
102
RTVSPost2010Prop32
280
     0
102
RTVSPost2010PropOp32
 70
     1
102
RTVSPost2010Prop33
280
     0
102
RTVSPost2010PropOp33
 70
     1
102
RTVSPost2010Prop34
280
     0
102
RTVSPost2010PropOp34
 70
     1
102
RTVSPost2010Prop35
280
     0
102
RTVSPost2010PropOp35
 70
     1
102
RTVSPost2010Prop36
280
     0
102
RTVSPost2010PropOp36
 70
     1
102
RTVSPost2010Prop37
 90
       50
102
RTVSPost2010PropOp37
 70
     1
102
RTVSPost2010Prop38
140
0.0
102
RTVSPost2010PropOp38
 70
     1
102
RTVSPost2010Prop39
140
1.0
102
RTVSPost2010PropOp39
 70
     1
102
RTVSPost2010Prop40
 90
        0
102
RTVSPost2010PropOp40
 70
     1
102
RTVSPost2010Prop41ColorIndex
 90
       18
102
RTVSPost2010Prop41ColorRGB
 90
        0
102
RTVSPost2010PropOp41
 70
     1
102
RTVSPost2010Prop42
 90
       50
102
RTVSPost2010PropOp42
 70
     1
102
RTVSPost2010Prop43
 90
        3
102
RTVSPost2010PropOp43
 70
     1
102
RTVSPost2010Prop44ColorIndex
 90
        5
102
RTVSPost2010Prop44ColorRGB
 90
      255
102
RTVSPost2010PropOp44
 70
     1
102
RTVSPost2010Prop45
280
     0
102
RTVSPost2010PropOp45
 70
     1
102
RTVSPost2010Prop46
 90
       50
102
RTVSPost2010PropOp46
 70
     1
102
RTVSPost2010Prop47
 90
       50
102
RTVSPost2010PropOp47
 70
     1
102
RTVSPost2010Prop48
 90
       50
102
RTVSPost2010PropOp48
 70
     1
102
RTVSPost2010Prop49
280
     0
102
RTVSPost2010PropOp49
 70
     1
102
RTVSPost2010Prop50
 90
       50
102
RTVSPost2010PropOp50
 70
     1
102
RTVSPost2010Prop51ColorIndex
 90
      256
102
RTVSPost2010Prop51ColorRGB
 90
-16777216
102
RTVSPost2010PropOp51
 70
     0
102
RTVSPost2010Prop52
140
1.0
102
RTVSPost2010PropOp52
 70
     0
102
RTVSPost2010Prop53
 90
        2
102
RTVSPost2010PropOp53
 70
     1
102
RTVSPost2010Prop54
  1
strokes_ogs.tif
102
RTVSPost2010PropOp54
 70
     1
102
RTVSPost2010Prop55
280
     0
102
RTVSPost2010PropOp55
 70
     1
102
RTVSPost2010Prop56
140
1.0
102
RTVSPost2010PropOp56
 70
     1
102
RTVSPost2010Prop57
140
1.0
102
RTVSPost2010PropOp57
 70
     1
  0
XRECORD
  5
683
102
{ACAD_REACTORS
330
682
102
}
330
682
100
AcDbXrecord
280
     1
102
RTVSPost2010Prop28
280
     0
102
RTVSPost2010PropOp28
 70
     1
102
RTVSPost2010Prop29
280
     1
102
RTVSPost2010PropOp29
 70
     1
102
RTVSPost2010Prop30
280
     1
102
RTVSPost2010PropOp30
 70
     1
102
RTVSPost2010Prop31
280
     0
102
RTVSPost2010PropOp31
 70
     1
102
RTVSPost2010Prop32
280
     0
102
RTVSPost2010PropOp32
 70
     1
102
RTVSPost2010Prop33
280
     0
102
RTVSPost2010PropOp33
 70
     1
102
RTVSPost2010Prop34
280
     0
102
RTVSPost2010PropOp34
 70
     1
102
RTVSPost2010Prop35
280
     0
102
RTVSPost2010PropOp35
 70
     1
102
RTVSPost2010Prop36
280
     0
102
RTVSPost2010PropOp36
 70
     1
102
RTVSPost2010Prop37
 90
       50
102
RTVSPost2010PropOp37
 70
     1
102
RTVSPost2010Prop38
140
0.0
102
RTVSPost2010PropOp38
 70
     1
102
RTVSPost2010Prop39
140
1.0
102
RTVSPost2010PropOp39
 70
     1
102
RTVSPost2010Prop40
 90
        0
102
RTVSPost2010PropOp40
 70
     1
102
RTVSPost2010Prop41ColorIndex
 90
       18
102
RTVSPost2010Prop41ColorRGB
 90
        0
102
RTVSPost2010PropOp41
 70
     1
102
RTVSPost2010Prop42
 90
       50
102
RTVSPost2010PropOp42
 70
     1
102
RTVSPost2010Prop43
 90
        3
102
RTVSPost2010PropOp43
 70
     1
102
RTVSPost2010Prop44ColorIndex
 90
        5
102
RTVSPost2010Prop44ColorRGB
 90
      255
102
RTVSPost2010PropOp44
 70
     1
102
RTVSPost2010Prop45
280
     0
102
RTVSPost2010PropOp45
 70
     1
102
RTVSPost2010Prop46
 90
       50
102
RTVSPost2010PropOp46
 70
     1
102
RTVSPost2010Prop47
 90
       50
102
RTVSPost2010PropOp47
 70
     1
102
RTVSPost2010Prop48
 90
       50
102
RTVSPost2010PropOp48
 70
     1
102
RTVSPost2010Prop49
280
     0
102
RTVSPost2010PropOp49
 70
     1
102
RTVSPost2010Prop50
 90
       50
102
RTVSPost2010PropOp50
 70
     1
102
RTVSPost2010Prop51ColorIndex
 90
      256
102
RTVSPost2010Prop51ColorRGB
 90
-16777216
102
RTVSPost2010PropOp51
 70
     0
102
RTVSPost2010Prop52
140
1.0
102
RTVSPost2010PropOp52
 70
     0
102
RTVSPost2010Prop53
 90
        2
102
RTVSPost2010PropOp53
 70
     1
102
RTVSPost2010Prop54
  1
strokes_ogs.tif
102
RTVSPost2010PropOp54
 70
     1
102
RTVSPost2010Prop55
280
     0
102
RTVSPost2010PropOp55
 70
     1
102
RTVSPost2010Prop56
140
1.0
102
RTVSPost2010PropOp56
 70
     1
102
RTVSPost2010Prop57
140
1.0
102
RTVSPost2010PropOp57
 70
     1
  0
XRECORD
  5
673
102
{ACAD_REACTORS
330
672
102
}
330
672
100
AcDbXrecord
280
     1
102
RTVSPost2010Prop28
280
     0
102
RTVSPost2010PropOp28
 70
     1
102
RTVSPost2010Prop29
280
     1
102
RTVSPost2010PropOp29
 70
     1
102
RTVSPost2010Prop30
280
     1
102
RTVSPost2010PropOp30
 70
     1
102
RTVSPost2010Prop31
280
     0
102
RTVSPost2010PropOp31
 70
     1
102
RTVSPost2010Prop32
280
     0
102
RTVSPost2010PropOp32
 70
     1
102
RTVSPost2010Prop33
280
     0
102
RTVSPost2010PropOp33
 70
     1
102
RTVSPost2010Prop34
280
     0
102
RTVSPost2010PropOp34
 70
     1
102
RTVSPost2010Prop35
280
     0
102
RTVSPost2010PropOp35
 70
     1
102
RTVSPost2010Prop36
280
     0
102
RTVSPost2010PropOp36
 70
     1
102
RTVSPost2010Prop37
 90
       50
102
RTVSPost2010PropOp37
 70
     1
102
RTVSPost2010Prop38
140
0.0
102
RTVSPost2010PropOp38
 70
     1
102
RTVSPost2010Prop39
140
1.0
102
RTVSPost2010PropOp39
 70
     1
102
RTVSPost2010Prop40
 90
        0
102
RTVSPost2010PropOp40
 70
     1
102
RTVSPost2010Prop41ColorIndex
 90
       18
102
RTVSPost2010Prop41ColorRGB
 90
        0
102
RTVSPost2010PropOp41
 70
     1
102
RTVSPost2010Prop42
 90
       50
102
RTVSPost2010PropOp42
 70
     1
102
RTVSPost2010Prop43
 90
        3
102
RTVSPost2010PropOp43
 70
     1
102
RTVSPost2010Prop44ColorIndex
 90
        5
102
RTVSPost2010Prop44ColorRGB
 90
      255
102
RTVSPost2010PropOp44
 70
     1
102
RTVSPost2010Prop45
280
     0
102
RTVSPost2010PropOp45
 70
     1
102
RTVSPost2010Prop46
 90
       50
102
RTVSPost2010PropOp46
 70
     1
102
RTVSPost2010Prop47
 90
       50
102
RTVSPost2010PropOp47
 70
     1
102
RTVSPost2010Prop48
 90
       50
102
RTVSPost2010PropOp48
 70
     1
102
RTVSPost2010Prop49
280
     0
102
RTVSPost2010PropOp49
 70
     1
102
RTVSPost2010Prop50
 90
       50
102
RTVSPost2010PropOp50
 70
     1
102
RTVSPost2010Prop51ColorIndex
 90
      256
102
RTVSPost2010Prop51ColorRGB
 90
-16777216
102
RTVSPost2010PropOp51
 70
     0
102
RTVSPost2010Prop52
140
1.0
102
RTVSPost2010PropOp52
 70
     0
102
RTVSPost2010Prop53
 90
        2
102
RTVSPost2010PropOp53
 70
     1
102
RTVSPost2010Prop54
  1
strokes_ogs.tif
102
RTVSPost2010PropOp54
 70
     1
102
RTVSPost2010Prop55
280
     0
102
RTVSPost2010PropOp55
 70
     1
102
RTVSPost2010Prop56
140
1.0
102
RTVSPost2010PropOp56
 70
     1
102
RTVSPost2010Prop57
140
1.0
102
RTVSPost2010PropOp57
 70
     1
  0
XRECORD
  5
68F
102
{ACAD_REACTORS
330
68E
102
}
330
68E
100
AcDbXrecord
280
     1
102
RTVSPost2010Prop28
280
     0
102
RTVSPost2010PropOp28
 70
     1
102
RTVSPost2010Prop29
280
     1
102
RTVSPost2010PropOp29
 70
     1
102
RTVSPost2010Prop30
280
     1
102
RTVSPost2010PropOp30
 70
     1
102
RTVSPost2010Prop31
280
     0
102
RTVSPost2010PropOp31
 70
     1
102
RTVSPost2010Prop32
280
     0
102
RTVSPost2010PropOp32
 70
     1
102
RTVSPost2010Prop33
280
     0
102
RTVSPost2010PropOp33
 70
     1
102
RTVSPost2010Prop34
280
     0
102
RTVSPost2010PropOp34
 70
     1
102
RTVSPost2010Prop35
280
     0
102
RTVSPost2010PropOp35
 70
     1
102
RTVSPost2010Prop36
280
     0
102
RTVSPost2010PropOp36
 70
     1
102
RTVSPost2010Prop37
 90
       50
102
RTVSPost2010PropOp37
 70
     1
102
RTVSPost2010Prop38
140
0.0
102
RTVSPost2010PropOp38
 70
     1
102
RTVSPost2010Prop39
140
1.0
102
RTVSPost2010PropOp39
 70
     1
102
RTVSPost2010Prop40
 90
        0
102
RTVSPost2010PropOp40
 70
     1
102
RTVSPost2010Prop41ColorIndex
 90
       18
102
RTVSPost2010Prop41ColorRGB
 90
        0
102
RTVSPost2010PropOp41
 70
     1
102
RTVSPost2010Prop42
 90
       50
102
RTVSPost2010PropOp42
 70
     1
102
RTVSPost2010Prop43
 90
        3
102
RTVSPost2010PropOp43
 70
     1
102
RTVSPost2010Prop44ColorIndex
 90
        5
102
RTVSPost2010Prop44ColorRGB
 90
      255
102
RTVSPost2010PropOp44
 70
     1
102
RTVSPost2010Prop45
280
     0
102
RTVSPost2010PropOp45
 70
     1
102
RTVSPost2010Prop46
 90
       50
102
RTVSPost2010PropOp46
 70
     1
102
RTVSPost2010Prop47
 90
       50
102
RTVSPost2010PropOp47
 70
     1
102
RTVSPost2010Prop48
 90
       50
102
RTVSPost2010PropOp48
 70
     1
102
RTVSPost2010Prop49
280
     0
102
RTVSPost2010PropOp49
 70
     1
102
RTVSPost2010Prop50
 90
       50
102
RTVSPost2010PropOp50
 70
     1
102
RTVSPost2010Prop51ColorIndex
 90
      256
102
RTVSPost2010Prop51ColorRGB
 90
-16777216
102
RTVSPost2010PropOp51
 70
     0
102
RTVSPost2010Prop52
140
1.0
102
RTVSPost2010PropOp52
 70
     0
102
RTVSPost2010Prop53
 90
        2
102
RTVSPost2010PropOp53
 70
     1
102
RTVSPost2010Prop54
  1
strokes_ogs.tif
102
RTVSPost2010PropOp54
 70
     1
102
RTVSPost2010Prop55
280
     0
102
RTVSPost2010PropOp55
 70
     1
102
RTVSPost2010Prop56
140
1.0
102
RTVSPost2010PropOp56
 70
     1
102
RTVSPost2010Prop57
140
1.0
102
RTVSPost2010PropOp57
 70
     1
  0
XRECORD
  5
68D
102
{ACAD_REACTORS
330
68C
102
}
330
68C
100
AcDbXrecord
280
     1
102
RTVSPost2010Prop28
280
     0
102
RTVSPost2010PropOp28
 70
     1
102
RTVSPost2010Prop29
280
     1
102
RTVSPost2010PropOp29
 70
     1
102
RTVSPost2010Prop30
280
     1
102
RTVSPost2010PropOp30
 70
     1
102
RTVSPost2010Prop31
280
     0
102
RTVSPost2010PropOp31
 70
     1
102
RTVSPost2010Prop32
280
     0
102
RTVSPost2010PropOp32
 70
     1
102
RTVSPost2010Prop33
280
     0
102
RTVSPost2010PropOp33
 70
     1
102
RTVSPost2010Prop34
280
     0
102
RTVSPost2010PropOp34
 70
     1
102
RTVSPost2010Prop35
280
     0
102
RTVSPost2010PropOp35
 70
     1
102
RTVSPost2010Prop36
280
     0
102
RTVSPost2010PropOp36
 70
     1
102
RTVSPost2010Prop37
 90
       50
102
RTVSPost2010PropOp37
 70
     1
102
RTVSPost2010Prop38
140
0.0
102
RTVSPost2010PropOp38
 70
     1
102
RTVSPost2010Prop39
140
1.0
102
RTVSPost2010PropOp39
 70
     1
102
RTVSPost2010Prop40
 90
        0
102
RTVSPost2010PropOp40
 70
     1
102
RTVSPost2010Prop41ColorIndex
 90
       18
102
RTVSPost2010Prop41ColorRGB
 90
        0
102
RTVSPost2010PropOp41
 70
     1
102
RTVSPost2010Prop42
 90
       50
102
RTVSPost2010PropOp42
 70
     1
102
RTVSPost2010Prop43
 90
        3
102
RTVSPost2010PropOp43
 70
     1
102
RTVSPost2010Prop44ColorIndex
 90
        5
102
RTVSPost2010Prop44ColorRGB
 90
      255
102
RTVSPost2010PropOp44
 70
     1
102
RTVSPost2010Prop45
280
     0
102
RTVSPost2010PropOp45
 70
     1
102
RTVSPost2010Prop46
 90
       50
102
RTVSPost2010PropOp46
 70
     1
102
RTVSPost2010Prop47
 90
       50
102
RTVSPost2010PropOp47
 70
     1
102
RTVSPost2010Prop48
 90
       50
102
RTVSPost2010PropOp48
 70
     1
102
RTVSPost2010Prop49
280
     0
102
RTVSPost2010PropOp49
 70
     1
102
RTVSPost2010Prop50
 90
       50
102
RTVSPost2010PropOp50
 70
     1
102
RTVSPost2010Prop51ColorIndex
 90
      256
102
RTVSPost2010Prop51ColorRGB
 90
-16777216
102
RTVSPost2010PropOp51
 70
     0
102
RTVSPost2010Prop52
140
1.0
102
RTVSPost2010PropOp52
 70
     0
102
RTVSPost2010Prop53
 90
        2
102
RTVSPost2010PropOp53
 70
     1
102
RTVSPost2010Prop54
  1
strokes_ogs.tif
102
RTVSPost2010PropOp54
 70
     1
102
RTVSPost2010Prop55
280
     0
102
RTVSPost2010PropOp55
 70
     1
102
RTVSPost2010Prop56
140
1.0
102
RTVSPost2010PropOp56
 70
     1
102
RTVSPost2010Prop57
140
1.0
102
RTVSPost2010PropOp57
 70
     1
  0
XRECORD
  5
687
102
{ACAD_REACTORS
330
686
102
}
330
686
100
AcDbXrecord
280
     1
102
RTVSPost2010Prop28
280
     0
102
RTVSPost2010PropOp28
 70
     1
102
RTVSPost2010Prop29
280
     1
102
RTVSPost2010PropOp29
 70
     1
102
RTVSPost2010Prop30
280
     1
102
RTVSPost2010PropOp30
 70
     1
102
RTVSPost2010Prop31
280
     0
102
RTVSPost2010PropOp31
 70
     1
102
RTVSPost2010Prop32
280
     0
102
RTVSPost2010PropOp32
 70
     1
102
RTVSPost2010Prop33
280
     0
102
RTVSPost2010PropOp33
 70
     1
102
RTVSPost2010Prop34
280
     0
102
RTVSPost2010PropOp34
 70
     1
102
RTVSPost2010Prop35
280
     0
102
RTVSPost2010PropOp35
 70
     1
102
RTVSPost2010Prop36
280
     0
102
RTVSPost2010PropOp36
 70
     1
102
RTVSPost2010Prop37
 90
       50
102
RTVSPost2010PropOp37
 70
     1
102
RTVSPost2010Prop38
140
0.0
102
RTVSPost2010PropOp38
 70
     1
102
RTVSPost2010Prop39
140
1.0
102
RTVSPost2010PropOp39
 70
     1
102
RTVSPost2010Prop40
 90
        0
102
RTVSPost2010PropOp40
 70
     1
102
RTVSPost2010Prop41ColorIndex
 90
       18
102
RTVSPost2010Prop41ColorRGB
 90
        0
102
RTVSPost2010PropOp41
 70
     1
102
RTVSPost2010Prop42
 90
       50
102
RTVSPost2010PropOp42
 70
     1
102
RTVSPost2010Prop43
 90
        3
102
RTVSPost2010PropOp43
 70
     1
102
RTVSPost2010Prop44ColorIndex
 90
        5
102
RTVSPost2010Prop44ColorRGB
 90
      255
102
RTVSPost2010PropOp44
 70
     1
102
RTVSPost2010Prop45
280
     0
102
RTVSPost2010PropOp45
 70
     1
102
RTVSPost2010Prop46
 90
       50
102
RTVSPost2010PropOp46
 70
     1
102
RTVSPost2010Prop47
 90
       50
102
RTVSPost2010PropOp47
 70
     1
102
RTVSPost2010Prop48
 90
       50
102
RTVSPost2010PropOp48
 70
     1
102
RTVSPost2010Prop49
280
     0
102
RTVSPost2010PropOp49
 70
     1
102
RTVSPost2010Prop50
 90
       50
102
RTVSPost2010PropOp50
 70
     1
102
RTVSPost2010Prop51ColorIndex
 90
      256
102
RTVSPost2010Prop51ColorRGB
 90
-16777216
102
RTVSPost2010PropOp51
 70
     0
102
RTVSPost2010Prop52
140
1.0
102
RTVSPost2010PropOp52
 70
     0
102
RTVSPost2010Prop53
 90
        2
102
RTVSPost2010PropOp53
 70
     1
102
RTVSPost2010Prop54
  1
strokes_ogs.tif
102
RTVSPost2010PropOp54
 70
     1
102
RTVSPost2010Prop55
280
     0
102
RTVSPost2010PropOp55
 70
     1
102
RTVSPost2010Prop56
140
1.0
102
RTVSPost2010PropOp56
 70
     1
102
RTVSPost2010Prop57
140
1.0
102
RTVSPost2010PropOp57
 70
     1
  0
XRECORD
  5
689
102
{ACAD_REACTORS
330
688
102
}
330
688
100
AcDbXrecord
280
     1
102
RTVSPost2010Prop28
280
     0
102
RTVSPost2010PropOp28
 70
     1
102
RTVSPost2010Prop29
280
     1
102
RTVSPost2010PropOp29
 70
     1
102
RTVSPost2010Prop30
280
     1
102
RTVSPost2010PropOp30
 70
     1
102
RTVSPost2010Prop31
280
     0
102
RTVSPost2010PropOp31
 70
     1
102
RTVSPost2010Prop32
280
     0
102
RTVSPost2010PropOp32
 70
     1
102
RTVSPost2010Prop33
280
     0
102
RTVSPost2010PropOp33
 70
     1
102
RTVSPost2010Prop34
280
     0
102
RTVSPost2010PropOp34
 70
     1
102
RTVSPost2010Prop35
280
     0
102
RTVSPost2010PropOp35
 70
     1
102
RTVSPost2010Prop36
280
     0
102
RTVSPost2010PropOp36
 70
     1
102
RTVSPost2010Prop37
 90
       50
102
RTVSPost2010PropOp37
 70
     1
102
RTVSPost2010Prop38
140
0.0
102
RTVSPost2010PropOp38
 70
     1
102
RTVSPost2010Prop39
140
1.0
102
RTVSPost2010PropOp39
 70
     1
102
RTVSPost2010Prop40
 90
        0
102
RTVSPost2010PropOp40
 70
     1
102
RTVSPost2010Prop41ColorIndex
 90
       18
102
RTVSPost2010Prop41ColorRGB
 90
        0
102
RTVSPost2010PropOp41
 70
     1
102
RTVSPost2010Prop42
 90
       50
102
RTVSPost2010PropOp42
 70
     1
102
RTVSPost2010Prop43
 90
        3
102
RTVSPost2010PropOp43
 70
     1
102
RTVSPost2010Prop44ColorIndex
 90
        5
102
RTVSPost2010Prop44ColorRGB
 90
      255
102
RTVSPost2010PropOp44
 70
     1
102
RTVSPost2010Prop45
280
     0
102
RTVSPost2010PropOp45
 70
     1
102
RTVSPost2010Prop46
 90
       50
102
RTVSPost2010PropOp46
 70
     1
102
RTVSPost2010Prop47
 90
       50
102
RTVSPost2010PropOp47
 70
     1
102
RTVSPost2010Prop48
 90
       50
102
RTVSPost2010PropOp48
 70
     1
102
RTVSPost2010Prop49
280
     0
102
RTVSPost2010PropOp49
 70
     1
102
RTVSPost2010Prop50
 90
       50
102
RTVSPost2010PropOp50
 70
     1
102
RTVSPost2010Prop51ColorIndex
 90
      256
102
RTVSPost2010Prop51ColorRGB
 90
-16777216
102
RTVSPost2010PropOp51
 70
     0
102
RTVSPost2010Prop52
140
1.0
102
RTVSPost2010PropOp52
 70
     0
102
RTVSPost2010Prop53
 90
        2
102
RTVSPost2010PropOp53
 70
     1
102
RTVSPost2010Prop54
  1
strokes_ogs.tif
102
RTVSPost2010PropOp54
 70
     1
102
RTVSPost2010Prop55
280
     0
102
RTVSPost2010PropOp55
 70
     1
102
RTVSPost2010Prop56
140
1.0
102
RTVSPost2010PropOp56
 70
     1
102
RTVSPost2010Prop57
140
1.0
102
RTVSPost2010PropOp57
 70
     1
  0
XRECORD
  5
679
102
{ACAD_REACTORS
330
678
102
}
330
678
100
AcDbXrecord
280
     1
102
RTVSPost2010Prop28
280
     0
102
RTVSPost2010PropOp28
 70
     1
102
RTVSPost2010Prop29
280
     1
102
RTVSPost2010PropOp29
 70
     1
102
RTVSPost2010Prop30
280
     1
102
RTVSPost2010PropOp30
 70
     1
102
RTVSPost2010Prop31
280
     0
102
RTVSPost2010PropOp31
 70
     1
102
RTVSPost2010Prop32
280
     0
102
RTVSPost2010PropOp32
 70
     1
102
RTVSPost2010Prop33
280
     0
102
RTVSPost2010PropOp33
 70
     1
102
RTVSPost2010Prop34
280
     0
102
RTVSPost2010PropOp34
 70
     1
102
RTVSPost2010Prop35
280
     0
102
RTVSPost2010PropOp35
 70
     1
102
RTVSPost2010Prop36
280
     0
102
RTVSPost2010PropOp36
 70
     1
102
RTVSPost2010Prop37
 90
       50
102
RTVSPost2010PropOp37
 70
     1
102
RTVSPost2010Prop38
140
0.0
102
RTVSPost2010PropOp38
 70
     1
102
RTVSPost2010Prop39
140
1.0
102
RTVSPost2010PropOp39
 70
     1
102
RTVSPost2010Prop40
 90
        0
102
RTVSPost2010PropOp40
 70
     1
102
RTVSPost2010Prop41ColorIndex
 90
       18
102
RTVSPost2010Prop41ColorRGB
 90
        0
102
RTVSPost2010PropOp41
 70
     1
102
RTVSPost2010Prop42
 90
       50
102
RTVSPost2010PropOp42
 70
     1
102
RTVSPost2010Prop43
 90
        3
102
RTVSPost2010PropOp43
 70
     1
102
RTVSPost2010Prop44ColorIndex
 90
        5
102
RTVSPost2010Prop44ColorRGB
 90
      255
102
RTVSPost2010PropOp44
 70
     1
102
RTVSPost2010Prop45
280
     0
102
RTVSPost2010PropOp45
 70
     1
102
RTVSPost2010Prop46
 90
       50
102
RTVSPost2010PropOp46
 70
     1
102
RTVSPost2010Prop47
 90
       50
102
RTVSPost2010PropOp47
 70
     1
102
RTVSPost2010Prop48
 90
       50
102
RTVSPost2010PropOp48
 70
     1
102
RTVSPost2010Prop49
280
     0
102
RTVSPost2010PropOp49
 70
     1
102
RTVSPost2010Prop50
 90
       50
102
RTVSPost2010PropOp50
 70
     1
102
RTVSPost2010Prop51ColorIndex
 90
      256
102
RTVSPost2010Prop51ColorRGB
 90
-16777216
102
RTVSPost2010PropOp51
 70
     0
102
RTVSPost2010Prop52
140
1.0
102
RTVSPost2010PropOp52
 70
     0
102
RTVSPost2010Prop53
 90
        2
102
RTVSPost2010PropOp53
 70
     1
102
RTVSPost2010Prop54
  1
strokes_ogs.tif
102
RTVSPost2010PropOp54
 70
     1
102
RTVSPost2010Prop55
280
     0
102
RTVSPost2010PropOp55
 70
     1
102
RTVSPost2010Prop56
140
1.0
102
RTVSPost2010PropOp56
 70
     1
102
RTVSPost2010Prop57
140
1.0
102
RTVSPost2010PropOp57
 70
     1
  0
XRECORD
  5
66D
102
{ACAD_REACTORS
330
66C
102
}
330
66C
100
AcDbXrecord
280
     1
102
RTVSPost2010Prop28
280
     0
102
RTVSPost2010PropOp28
 70
     1
102
RTVSPost2010Prop29
280
     1
102
RTVSPost2010PropOp29
 70
     1
102
RTVSPost2010Prop30
280
     1
102
RTVSPost2010PropOp30
 70
     1
102
RTVSPost2010Prop31
280
     0
102
RTVSPost2010PropOp31
 70
     1
102
RTVSPost2010Prop32
280
     0
102
RTVSPost2010PropOp32
 70
     1
102
RTVSPost2010Prop33
280
     0
102
RTVSPost2010PropOp33
 70
     1
102
RTVSPost2010Prop34
280
     0
102
RTVSPost2010PropOp34
 70
     1
102
RTVSPost2010Prop35
280
     0
102
RTVSPost2010PropOp35
 70
     1
102
RTVSPost2010Prop36
280
     0
102
RTVSPost2010PropOp36
 70
     1
102
RTVSPost2010Prop37
 90
       50
102
RTVSPost2010PropOp37
 70
     1
102
RTVSPost2010Prop38
140
0.0
102
RTVSPost2010PropOp38
 70
     1
102
RTVSPost2010Prop39
140
1.0
102
RTVSPost2010PropOp39
 70
     1
102
RTVSPost2010Prop40
 90
        0
102
RTVSPost2010PropOp40
 70
     1
102
RTVSPost2010Prop41ColorIndex
 90
       18
102
RTVSPost2010Prop41ColorRGB
 90
        0
102
RTVSPost2010PropOp41
 70
     1
102
RTVSPost2010Prop42
 90
       50
102
RTVSPost2010PropOp42
 70
     1
102
RTVSPost2010Prop43
 90
        3
102
RTVSPost2010PropOp43
 70
     1
102
RTVSPost2010Prop44ColorIndex
 90
        5
102
RTVSPost2010Prop44ColorRGB
 90
      255
102
RTVSPost2010PropOp44
 70
     1
102
RTVSPost2010Prop45
280
     0
102
RTVSPost2010PropOp45
 70
     1
102
RTVSPost2010Prop46
 90
       50
102
RTVSPost2010PropOp46
 70
     1
102
RTVSPost2010Prop47
 90
       50
102
RTVSPost2010PropOp47
 70
     1
102
RTVSPost2010Prop48
 90
       50
102
RTVSPost2010PropOp48
 70
     1
102
RTVSPost2010Prop49
280
     0
102
RTVSPost2010PropOp49
 70
     1
102
RTVSPost2010Prop50
 90
       50
102
RTVSPost2010PropOp50
 70
     1
102
RTVSPost2010Prop51ColorIndex
 90
      256
102
RTVSPost2010Prop51ColorRGB
 90
-16777216
102
RTVSPost2010PropOp51
 70
     0
102
RTVSPost2010Prop52
140
1.0
102
RTVSPost2010PropOp52
 70
     0
102
RTVSPost2010Prop53
 90
        2
102
RTVSPost2010PropOp53
 70
     1
102
RTVSPost2010Prop54
  1
strokes_ogs.tif
102
RTVSPost2010PropOp54
 70
     1
102
RTVSPost2010Prop55
280
     0
102
RTVSPost2010PropOp55
 70
     1
102
RTVSPost2010Prop56
140
1.0
102
RTVSPost2010PropOp56
 70
     1
102
RTVSPost2010Prop57
140
1.0
102
RTVSPost2010PropOp57
 70
     1
  0
XRECORD
  5
68B
102
{ACAD_REACTORS
330
68A
102
}
330
68A
100
AcDbXrecord
280
     1
102
RTVSPost2010Prop28
280
     0
102
RTVSPost2010PropOp28
 70
     1
102
RTVSPost2010Prop29
280
     1
102
RTVSPost2010PropOp29
 70
     1
102
RTVSPost2010Prop30
280
     1
102
RTVSPost2010PropOp30
 70
     1
102
RTVSPost2010Prop31
280
     0
102
RTVSPost2010PropOp31
 70
     1
102
RTVSPost2010Prop32
280
     0
102
RTVSPost2010PropOp32
 70
     1
102
RTVSPost2010Prop33
280
     0
102
RTVSPost2010PropOp33
 70
     1
102
RTVSPost2010Prop34
280
     0
102
RTVSPost2010PropOp34
 70
     1
102
RTVSPost2010Prop35
280
     0
102
RTVSPost2010PropOp35
 70
     1
102
RTVSPost2010Prop36
280
     0
102
RTVSPost2010PropOp36
 70
     1
102
RTVSPost2010Prop37
 90
       50
102
RTVSPost2010PropOp37
 70
     1
102
RTVSPost2010Prop38
140
0.0
102
RTVSPost2010PropOp38
 70
     1
102
RTVSPost2010Prop39
140
1.0
102
RTVSPost2010PropOp39
 70
     1
102
RTVSPost2010Prop40
 90
        0
102
RTVSPost2010PropOp40
 70
     1
102
RTVSPost2010Prop41ColorIndex
 90
       18
102
RTVSPost2010Prop41ColorRGB
 90
        0
102
RTVSPost2010PropOp41
 70
     1
102
RTVSPost2010Prop42
 90
       50
102
RTVSPost2010PropOp42
 70
     1
102
RTVSPost2010Prop43
 90
        3
102
RTVSPost2010PropOp43
 70
     1
102
RTVSPost2010Prop44ColorIndex
 90
        5
102
RTVSPost2010Prop44ColorRGB
 90
      255
102
RTVSPost2010PropOp44
 70
     1
102
RTVSPost2010Prop45
280
     0
102
RTVSPost2010PropOp45
 70
     1
102
RTVSPost2010Prop46
 90
       50
102
RTVSPost2010PropOp46
 70
     1
102
RTVSPost2010Prop47
 90
       50
102
RTVSPost2010PropOp47
 70
     1
102
RTVSPost2010Prop48
 90
       50
102
RTVSPost2010PropOp48
 70
     1
102
RTVSPost2010Prop49
280
     0
102
RTVSPost2010PropOp49
 70
     1
102
RTVSPost2010Prop50
 90
       50
102
RTVSPost2010PropOp50
 70
     1
102
RTVSPost2010Prop51ColorIndex
 90
      256
102
RTVSPost2010Prop51ColorRGB
 90
-16777216
102
RTVSPost2010PropOp51
 70
     0
102
RTVSPost2010Prop52
140
1.0
102
RTVSPost2010PropOp52
 70
     0
102
RTVSPost2010Prop53
 90
        2
102
RTVSPost2010PropOp53
 70
     1
102
RTVSPost2010Prop54
  1
strokes_ogs.tif
102
RTVSPost2010PropOp54
 70
     1
102
RTVSPost2010Prop55
280
     0
102
RTVSPost2010PropOp55
 70
     1
102
RTVSPost2010Prop56
140
1.0
102
RTVSPost2010PropOp56
 70
     1
102
RTVSPost2010Prop57
140
1.0
102
RTVSPost2010PropOp57
 70
     1
  0
ACDBASSOCGEOMDEPENDENCY
  5
589
330
588
100
AcDbAssocDependency
 90
        2
 90
        0
290
     1
290
     1
290
     1
290
     1
 90
   -10000
330
585
290
     0
330
0
330
0
360
0
 90
      550
100
AcDbAssocGeomDependency
 90
        0
290
     1
  1
AcDbAssocSingleEdgePersSubentId
290
     0
  0
ACDBASSOCGEOMDEPENDENCY
  5
58A
330
588
100
AcDbAssocDependency
 90
        2
 90
        0
290
     1
290
     1
290
     1
290
     1
 90
   -10000
330
571
290
     0
330
0
330
0
360
0
 90
      549
100
AcDbAssocGeomDependency
 90
        0
290
     1
  1
AcDbAssocSingleEdgePersSubentId
290
     0
  0
ACDBASSOCGEOMDEPENDENCY
  5
58B
330
588
100
AcDbAssocDependency
 90
        2
 90
        0
290
     1
290
     1
290
     1
290
     1
 90
   -10000
330
570
290
     0
330
0
330
0
360
0
 90
      551
100
AcDbAssocGeomDependency
 90
        0
290
     1
  1
AcDbAssocSingleEdgePersSubentId
290
     0
  0
ENDSEC
  0
EOF
