  0
SECTION
  2
HEADER
  9
$ACADVER
  1
AC1018
  9
$ACADMAINTVER
 70
    39
  9
$DWGCODEPAGE
  3
ANSI_1251
  9
$INSBASE
 10
0.0
 20
0.0
 30
0.0
  9
$EXTMIN
 10
1.203005445659073
 20
35.14142177154054
 30
-0.0015258207003583
  9
$EXTMAX
 10
837.9492209827867
 20
1010.219241094099
 30
0.0000000349246037
  9
$LIMMIN
 10
0.0
 20
0.0
  9
$LIMMAX
 10
12.0
 20
9.0
  9
$ORTHOMODE
 70
     0
  9
$REGENMODE
 70
     1
  9
$FILLMODE
 70
     1
  9
$QTEXTMODE
 70
     0
  9
$MIRRTEXT
 70
     0
  9
$LTSCALE
 40
1.0
  9
$ATTMODE
 70
     1
  9
$TEXTSIZE
 40
0.2
  9
$TRACEWID
 40
0.05
  9
$TEXTSTYLE
  7
Standard
  9
$CLAYER
  8
0
  9
$CELTYPE
  6
Continuous
  9
$CECOLOR
 62
   256
  9
$CELTSCALE
 40
1.0
  9
$DISPSILH
 70
     0
  9
$DIMSCALE
 40
1.0
  9
$DIMASZ
 40
0.18
  9
$DIMEXO
 40
0.0625
  9
$DIMDLI
 40
0.38
  9
$DIMRND
 40
0.0
  9
$DIMDLE
 40
0.0
  9
$DIMEXE
 40
0.18
  9
$DIMTP
 40
0.0
  9
$DIMTM
 40
0.0
  9
$DIMTXT
 40
25.0
  9
$DIMCEN
 40
0.09
  9
$DIMTSZ
 40
0.0
  9
$DIMTOL
 70
     0
  9
$DIMLIM
 70
     0
  9
$DIMTIH
 70
     1
  9
$DIMTOH
 70
     1
  9
$DIMSE1
 70
     0
  9
$DIMSE2
 70
     0
  9
$DIMTAD
 70
     0
  9
$DIMZIN
 70
     0
  9
$DIMBLK
  1

  9
$DIMASO
 70
     1
  9
$DIMSHO
 70
     1
  9
$DIMPOST
  1

  9
$DIMAPOST
  1

  9
$DIMALT
 70
     0
  9
$DIMALTD
 70
     2
  9
$DIMALTF
 40
25.4
  9
$DIMLFAC
 40
1.0
  9
$DIMTOFL
 70
     0
  9
$DIMTVP
 40
0.0
  9
$DIMTIX
 70
     0
  9
$DIMSOXD
 70
     0
  9
$DIMSAH
 70
     0
  9
$DIMBLK1
  1

  9
$DIMBLK2
  1

  9
$DIMSTYLE
  2
Standard
  9
$DIMCLRD
 70
     0
  9
$DIMCLRE
 70
     0
  9
$DIMCLRT
 70
     0
  9
$DIMTFAC
 40
1.0
  9
$DIMGAP
 40
0.09
  9
$DIMJUST
 70
     0
  9
$DIMSD1
 70
     0
  9
$DIMSD2
 70
     0
  9
$DIMTOLJ
 70
     1
  9
$DIMTZIN
 70
     0
  9
$DIMALTZ
 70
     0
  9
$DIMALTTZ
 70
     0
  9
$DIMUPT
 70
     0
  9
$DIMDEC
 70
     4
  9
$DIMTDEC
 70
     4
  9
$DIMALTU
 70
     2
  9
$DIMALTTD
 70
     2
  9
$DIMTXSTY
  7
Standard
  9
$DIMAUNIT
 70
     0
  9
$DIMADEC
 70
     0
  9
$DIMALTRND
 40
0.0
  9
$DIMAZIN
 70
     0
  9
$DIMDSEP
 70
    46
  9
$DIMATFIT
 70
     3
  9
$DIMFRAC
 70
     0
  9
$DIMLDRBLK
  1

  9
$DIMLUNIT
 70
     2
  9
$DIMLWD
 70
    -2
  9
$DIMLWE
 70
    -2
  9
$DIMTMOVE
 70
     0
  9
$LUNITS
 70
     2
  9
$LUPREC
 70
     4
  9
$SKETCHINC
 40
0.1
  9
$FILLETRAD
 40
1.0
  9
$AUNITS
 70
     0
  9
$AUPREC
 70
     0
  9
$MENU
  1
.
  9
$ELEVATION
 40
0.0
  9
$PELEVATION
 40
0.0
  9
$THICKNESS
 40
0.0
  9
$LIMCHECK
 70
     0
  9
$CHAMFERA
 40
0.0
  9
$CHAMFERB
 40
0.0
  9
$CHAMFERC
 40
0.0
  9
$CHAMFERD
 40
0.0
  9
$SKPOLY
 70
     0
  9
$TDCREATE
 40
2458976.913105729
  9
$TDUCREATE
 40
2458976.788105729
  9
$TDUPDATE
 40
2458976.930705937
  9
$TDUUPDATE
 40
2458976.805705938
  9
$TDINDWG
 40
0.0176003125
  9
$TDUSRTIMER
 40
0.0176003125
  9
$USRTIMER
 70
     1
  9
$ANGBASE
 50
0.0
  9
$ANGDIR
 70
     0
  9
$PDMODE
 70
     0
  9
$PDSIZE
 40
0.0
  9
$PLINEWID
 40
0.0
  9
$SPLFRAME
 70
     0
  9
$SPLINETYPE
 70
     6
  9
$SPLINESEGS
 70
     8
  9
$HANDSEED
  5
1DA3
  9
$SURFTAB1
 70
     6
  9
$SURFTAB2
 70
     6
  9
$SURFTYPE
 70
     6
  9
$SURFU
 70
     6
  9
$SURFV
 70
     6
  9
$UCSBASE
  2

  9
$UCSNAME
  2

  9
$UCSORG
 10
0.0
 20
0.0
 30
0.0
  9
$UCSXDIR
 10
1.0
 20
0.0
 30
0.0
  9
$UCSYDIR
 10
0.0
 20
1.0
 30
0.0
  9
$UCSORTHOREF
  2

  9
$UCSORTHOVIEW
 70
     0
  9
$UCSORGTOP
 10
0.0
 20
0.0
 30
0.0
  9
$UCSORGBOTTOM
 10
0.0
 20
0.0
 30
0.0
  9
$UCSORGLEFT
 10
0.0
 20
0.0
 30
0.0
  9
$UCSORGRIGHT
 10
0.0
 20
0.0
 30
0.0
  9
$UCSORGFRONT
 10
0.0
 20
0.0
 30
0.0
  9
$UCSORGBACK
 10
0.0
 20
0.0
 30
0.0
  9
$PUCSBASE
  2

  9
$PUCSNAME
  2

  9
$PUCSORG
 10
0.0
 20
0.0
 30
0.0
  9
$PUCSXDIR
 10
1.0
 20
0.0
 30
0.0
  9
$PUCSYDIR
 10
0.0
 20
1.0
 30
0.0
  9
$PUCSORTHOREF
  2

  9
$PUCSORTHOVIEW
 70
     0
  9
$PUCSORGTOP
 10
0.0
 20
0.0
 30
0.0
  9
$PUCSORGBOTTOM
 10
0.0
 20
0.0
 30
0.0
  9
$PUCSORGLEFT
 10
0.0
 20
0.0
 30
0.0
  9
$PUCSORGRIGHT
 10
0.0
 20
0.0
 30
0.0
  9
$PUCSORGFRONT
 10
0.0
 20
0.0
 30
0.0
  9
$PUCSORGBACK
 10
0.0
 20
0.0
 30
0.0
  9
$USERI1
 70
     0
  9
$USERI2
 70
     0
  9
$USERI3
 70
     0
  9
$USERI4
 70
     0
  9
$USERI5
 70
     0
  9
$USERR1
 40
0.0
  9
$USERR2
 40
0.0
  9
$USERR3
 40
0.0
  9
$USERR4
 40
0.0
  9
$USERR5
 40
0.0
  9
$WORLDVIEW
 70
     1
  9
$SHADEDGE
 70
     3
  9
$SHADEDIF
 70
    70
  9
$TILEMODE
 70
     1
  9
$MAXACTVP
 70
    64
  9
$PINSBASE
 10
0.0
 20
0.0
 30
0.0
  9
$PLIMCHECK
 70
     0
  9
$PEXTMIN
 10
1.000000000000000E+20
 20
1.000000000000000E+20
 30
1.000000000000000E+20
  9
$PEXTMAX
 10
-1.000000000000000E+20
 20
-1.000000000000000E+20
 30
-1.000000000000000E+20
  9
$PLIMMIN
 10
0.0
 20
0.0
  9
$PLIMMAX
 10
12.0
 20
9.0
  9
$UNITMODE
 70
     0
  9
$VISRETAIN
 70
     1
  9
$PLINEGEN
 70
     0
  9
$PSLTSCALE
 70
     1
  9
$TREEDEPTH
 70
  3020
  9
$CMLSTYLE
  2
Standard
  9
$CMLJUST
 70
     0
  9
$CMLSCALE
 40
1.0
  9
$PROXYGRAPHICS
 70
     1
  9
$MEASUREMENT
 70
     0
  9
$CELWEIGHT
370
    -1
  9
$ENDCAPS
280
     0
  9
$JOINSTYLE
280
     0
  9
$LWDISPLAY
290
     0
  9
$INSUNITS
 70
     0
  9
$HYPERLINKBASE
  1

  9
$STYLESHEET
  1

  9
$XEDIT
290
     1
  9
$CEPSNTYPE
380
     0
  9
$PSTYLEMODE
290
     1
  9
$FINGERPRINTGUID
  2
{B3726A0E-E38F-41FA-B3A7-45835E02B0AD}
  9
$VERSIONGUID
  2
{4F4367CE-4CA6-4C19-A323-411A4B6DF344}
  9
$EXTNAMES
290
     1
  9
$PSVPSCALE
 40
0.0
  9
$OLESTARTUP
290
     0
  9
$SORTENTS
280
   127
  9
$INDEXCTL
280
     0
  9
$HIDETEXT
280
     0
  9
$XCLIPFRAME
290
     0
  9
$HALOGAP
280
     0
  9
$OBSCOLOR
 70
   257
  9
$OBSLTYPE
280
     0
  9
$INTERSECTIONDISPLAY
280
     0
  9
$INTERSECTIONCOLOR
 70
   257
  9
$DIMASSOC
280
     1
  9
$PROJECTNAME
  1

  0
ENDSEC
  0
SECTION
  2
CLASSES
  0
CLASS
  1
ACDBDICTIONARYWDFLT
  2
AcDbDictionaryWithDefault
  3
ObjectDBX Classes
 90
        0
 91
        1
280
     0
281
     0
  0
CLASS
  1
TABLESTYLE
  2
AcDbTableStyle
  3
ObjectDBX Classes
 90
     2047
 91
        1
280
     0
281
     0
  0
CLASS
  1
DICTIONARYVAR
  2
AcDbDictionaryVar
  3
ObjectDBX Classes
 90
        0
 91
        1
280
     0
281
     0
  0
CLASS
  1
SORTENTSTABLE
  2
AcDbSortentsTable
  3
ObjectDBX Classes
 90
        0
 91
        1
280
     0
281
     0
  0
ENDSEC
  0
SECTION
  2
TABLES
  0
TABLE
  2
VPORT
  5
8
330
0
100
AcDbSymbolTable
 70
    13
  0
VPORT
  5
1DA2
330
8
100
AcDbSymbolTableRecord
100
AcDbViewportTableRecord
  2
*Active
 70
     0
 10
0.0
 20
0.0
 11
1.0
 21
1.0
 12
419.5761132142228
 22
522.6803314328201
 13
0.0
 23
0.0
 14
1.0
 24
1.0
 15
0.0
 25
0.0
 16
0.0
 26
0.0
 36
1.0
 17
0.0
 27
0.0
 37
0.0
 40
982.9307950486469
 41
1.690860215053763
 42
50.0
 43
0.0
 44
0.0
 50
0.0
 51
0.0
 71
     0
 72
  1000
 73
     1
 74
     3
 75
     0
 76
     0
 77
     0
 78
     0
281
     0
 65
     1
110
0.0
120
0.0
130
0.0
111
1.0
121
0.0
131
0.0
112
0.0
122
1.0
132
0.0
 79
     0
146
0.0
  0
ENDTAB
  0
TABLE
  2
LTYPE
  5
5
330
0
100
AcDbSymbolTable
 70
     1
  0
LTYPE
  5
13
330
5
100
AcDbSymbolTableRecord
100
AcDbLinetypeTableRecord
  2
ByBlock
 70
     0
  3

 72
    65
 73
     0
 40
0.0
  0
LTYPE
  5
14
330
5
100
AcDbSymbolTableRecord
100
AcDbLinetypeTableRecord
  2
ByLayer
 70
     0
  3

 72
    65
 73
     0
 40
0.0
  0
LTYPE
  5
15
330
5
100
AcDbSymbolTableRecord
100
AcDbLinetypeTableRecord
  2
Continuous
 70
     0
  3
Solid line
 72
    65
 73
     0
 40
0.0
  0
ENDTAB
  0
TABLE
  2
LAYER
  5
2
330
0
100
AcDbSymbolTable
 70
     2
  0
LAYER
  5
10
330
2
100
AcDbSymbolTableRecord
100
AcDbLayerTableRecord
  2
0
 70
     0
 62
     7
  6
Continuous
370
    -3
390
F
  0
LAYER
  5
104D
330
2
100
AcDbSymbolTableRecord
100
AcDbLayerTableRecord
  2
Defpoints
 70
     0
 62
     7
  6
Continuous
290
     0
370
    -3
390
F
  0
ENDTAB
  0
TABLE
  2
STYLE
  5
3
330
0
100
AcDbSymbolTable
 70
     1
  0
STYLE
  5
11
330
3
100
AcDbSymbolTableRecord
100
AcDbTextStyleTableRecord
  2
Standard
 70
     0
 40
0.0
 41
1.0
 50
0.0
 71
     0
 42
0.2
  3
txt
  4

  0
ENDTAB
  0
TABLE
  2
VIEW
  5
6
330
0
100
AcDbSymbolTable
 70
     5
  0
ENDTAB
  0
TABLE
  2
UCS
  5
7
330
0
100
AcDbSymbolTable
 70
     0
  0
ENDTAB
  0
TABLE
  2
APPID
  5
9
330
0
100
AcDbSymbolTable
 70
     2
  0
APPID
  5
12
330
9
100
AcDbSymbolTableRecord
100
AcDbRegAppTableRecord
  2
ACAD
 70
     0
  0
APPID
  5
FDF
330
9
100
AcDbSymbolTableRecord
100
AcDbRegAppTableRecord
  2
ACAD_DSTYLE_DIMTEXT_FILL
 70
     0
  0
ENDTAB
  0
TABLE
  2
DIMSTYLE
  5
A
330
0
100
AcDbSymbolTable
 70
     1
100
AcDbDimStyleTable
 71
     1
340
FDA
  0
DIMSTYLE
105
FDA
330
A
100
AcDbSymbolTableRecord
100
AcDbDimStyleTableRecord
  2
Standard
 70
     0
140
25.0
340
11
  0
ENDTAB
  0
TABLE
  2
BLOCK_RECORD
  5
1
330
0
100
AcDbSymbolTable
 70
     2
  0
BLOCK_RECORD
  5
22
102
{ACAD_XDICTIONARY
360
1180
102
}
330
1
100
AcDbSymbolTableRecord
100
AcDbBlockTableRecord
  2
*Model_Space
340
25
  0
BLOCK_RECORD
  5
1E
330
1
100
AcDbSymbolTableRecord
100
AcDbBlockTableRecord
  2
*Paper_Space
340
21
  0
BLOCK_RECORD
  5
104E
330
1
100
AcDbSymbolTableRecord
100
AcDbBlockTableRecord
  2
*D0
340
0
  0
BLOCK_RECORD
  5
105C
330
1
100
AcDbSymbolTableRecord
100
AcDbBlockTableRecord
  2
*D1
340
0
  0
ENDTAB
  0
ENDSEC
  0
SECTION
  2
BLOCKS
  0
BLOCK
  5
23
330
22
100
AcDbEntity
  8
0
100
AcDbBlockBegin
  2
*Model_Space
 70
     0
 10
0.0
 20
0.0
 30
0.0
  3
*Model_Space
  1

  0
ENDBLK
  5
24
330
22
100
AcDbEntity
  8
0
100
AcDbBlockEnd
  0
BLOCK
  5
1F
330
1E
100
AcDbEntity
 67
     1
  8
0
100
AcDbBlockBegin
  2
*Paper_Space
 70
     0
 10
0.0
 20
0.0
 30
0.0
  3
*Paper_Space
  1

  0
ENDBLK
  5
20
330
1E
100
AcDbEntity
 67
     1
  8
0
100
AcDbBlockEnd
  0
BLOCK
  5
1059
330
104E
100
AcDbEntity
  8
0
100
AcDbBlockBegin
  2
*D0
 70
     1
 10
0.0
 20
0.0
 30
0.0
  3
*D0
  1

  0
LINE
  5
104F
330
104E
100
AcDbEntity
  8
0
  6
Continuous
 62
     0
370
    -2
100
AcDbLine
 10
398.4293390949225
 20
10.2255162961245
 30
0.0
 11
1275.110013630102
 21
10.22551629612425
 31
0.0
  0
LINE
  5
1050
330
104E
100
AcDbEntity
  8
0
  6
Continuous
 62
     0
370
    -2
100
AcDbLine
 10
594.7813212278569
 20
1300.933800525168
 30
0.0
 11
1275.110013630103
 21
1300.933800525168
 31
0.0
  0
LINE
  5
1051
330
104E
100
AcDbEntity
  8
0
  6
Continuous
 62
     0
370
    -2
100
AcDbLine
 10
1274.930013630102
 20
10.40551629612425
 30
0.0
 11
1274.930013630102
 21
642.9896584106461
 31
0.0
  0
LINE
  5
1052
330
104E
100
AcDbEntity
  8
0
  6
Continuous
 62
     0
370
    -2
100
AcDbLine
 10
1274.930013630102
 20
1300.753800525168
 30
0.0
 11
1274.930013630102
 21
668.1696584106462
 31
0.0
  0
SOLID
  5
1053
330
104E
100
AcDbEntity
  8
0
  6
Continuous
 62
     0
100
AcDbTrace
 10
1274.900013630102
 20
10.40551629612425
 30
0.0
 11
1274.960013630102
 21
10.40551629612425
 31
0.0
 12
1274.930013630102
 22
10.22551629612425
 32
0.0
 13
1274.930013630102
 23
10.22551629612425
 33
0.0
  0
SOLID
  5
1054
330
104E
100
AcDbEntity
  8
0
  6
Continuous
 62
     0
100
AcDbTrace
 10
1274.900013630102
 20
1300.753800525168
 30
0.0
 11
1274.960013630102
 21
1300.753800525168
 31
0.0
 12
1274.930013630102
 22
1300.933800525168
 32
0.0
 13
1274.930013630102
 23
1300.933800525168
 33
0.0
  0
MTEXT
  5
1055
330
104E
100
AcDbEntity
  8
0
  6
Continuous
 62
     0
100
AcDbMText
 10
1274.930013630102
 20
655.5796584106462
 30
0.0
 40
25.0
 41
0.0
 71
     5
 72
     1
  1
\A1;1290.7083
 73
     1
 44
1.0
  0
POINT
  5
1056
330
104E
100
AcDbEntity
  8
Defpoints
  6
Continuous
 62
     0
100
AcDbPoint
 10
398.3668390949225
 20
10.2255162961245
 30
0.0
  0
POINT
  5
1057
330
104E
100
AcDbEntity
  8
Defpoints
  6
Continuous
 62
     0
100
AcDbPoint
 10
594.718821227857
 20
1300.933800525168
 30
0.0
  0
POINT
  5
1058
330
104E
100
AcDbEntity
  8
Defpoints
  6
Continuous
 62
     0
100
AcDbPoint
 10
1274.930013630102
 20
1300.933800525168
 30
0.0
  0
ENDBLK
  5
105A
330
104E
100
AcDbEntity
  8
0
100
AcDbBlockEnd
  0
BLOCK
  5
1067
330
105C
100
AcDbEntity
  8
0
100
AcDbBlockBegin
  2
*D1
 70
     1
 10
0.0
 20
0.0
 30
0.0
  3
*D1
  1

  0
LINE
  5
105D
330
105C
100
AcDbEntity
  8
0
  6
Continuous
 62
     0
370
    -2
100
AcDbLine
 10
307.9094744037437
 20
8.812649086447622
 30
0.0
 11
1000.329879370992
 21
8.812649086447425
 31
0.0
  0
LINE
  5
105E
330
105C
100
AcDbEntity
  8
0
  6
Continuous
 62
     0
370
    -2
100
AcDbLine
 10
467.7955930776526
 20
1009.856869538303
 30
0.0
 11
1000.329879370992
 21
1009.856869538302
 31
0.0
  0
LINE
  5
105F
330
105C
100
AcDbEntity
  8
0
  6
Continuous
 62
     0
370
    -2
100
AcDbLine
 10
1000.149879370992
 20
8.992649086447425
 30
0.0
 11
1000.149879370992
 21
496.744759312375
 31
0.0
  0
LINE
  5
1060
330
105C
100
AcDbEntity
  8
0
  6
Continuous
 62
     0
370
    -2
100
AcDbLine
 10
1000.149879370992
 20
1009.676869538302
 30
0.0
 11
1000.149879370992
 21
521.924759312375
 31
0.0
  0
SOLID
  5
1061
330
105C
100
AcDbEntity
  8
0
  6
Continuous
 62
     0
100
AcDbTrace
 10
1000.119879370992
 20
8.992649086447425
 30
0.0
 11
1000.179879370992
 21
8.992649086447425
 31
0.0
 12
1000.149879370992
 22
8.812649086447425
 32
0.0
 13
1000.149879370992
 23
8.812649086447425
 33
0.0
  0
SOLID
  5
1062
330
105C
100
AcDbEntity
  8
0
  6
Continuous
 62
     0
100
AcDbTrace
 10
1000.119879370992
 20
1009.676869538302
 30
0.0
 11
1000.179879370992
 21
1009.676869538302
 31
0.0
 12
1000.149879370992
 22
1009.856869538302
 32
0.0
 13
1000.149879370992
 23
1009.856869538302
 33
0.0
  0
MTEXT
  5
1063
330
105C
100
AcDbEntity
  8
0
  6
Continuous
 62
     0
100
AcDbMText
 10
1000.149879370992
 20
509.3347593123751
 30
0.0
 40
25.0
 41
0.0
 71
     5
 72
     1
  1
\A1;1001.0442
 73
     1
 44
1.0
  0
POINT
  5
1064
330
105C
100
AcDbEntity
  8
Defpoints
  6
Continuous
 62
     0
100
AcDbPoint
 10
307.8469744037437
 20
8.812649086447622
 30
0.0
  0
POINT
  5
1065
330
105C
100
AcDbEntity
  8
Defpoints
  6
Continuous
 62
     0
100
AcDbPoint
 10
467.7330930776526
 20
1009.856869538303
 30
0.0
  0
POINT
  5
1066
330
105C
100
AcDbEntity
  8
Defpoints
  6
Continuous
 62
     0
100
AcDbPoint
 10
1000.149879370992
 20
1009.856869538302
 30
0.0
  0
ENDBLK
  5
1068
330
105C
100
AcDbEntity
  8
0
100
AcDbBlockEnd
  0
ENDSEC
  0
SECTION
  2
ENTITIES
  0
LWPOLYLINE
  5
98C
330
22
100
AcDbEntity
  8
0
 62
     7
100
AcDbPolyline
 90
       56
 70
     1
 43
0.0
 10
58.88094332614365
 20
383.9808875929477
 42
-0.030722
 10
61.13978297704367
 20
374.9292296580476
 42
-0.029753
 10
62.30273060534366
 20
365.5714714141477
 42
-0.030438
 10
62.33305510504365
 20
356.3709151656476
 42
-0.036549
 10
61.20586405234365
 20
347.7909345997477
 42
0.005462
 10
60.76267773134365
 20
345.5204215333477
 42
0.008584
 10
60.43687111414365
 20
343.5598851723477
 42
0.003462
 10
60.20072672504365
 20
341.8912470467477
 42
0.233895
 10
60.28998238154365
 20
341.6271105133477
 42
0.400097
 10
60.85989334594366
 20
341.6133057005477
 42
0.006688
 10
63.38189887934365
 20
343.9643905506476
 42
0.015528
 10
65.84659643874366
 20
346.4757096133477
 42
0.028868
 10
67.65630715054365
 20
348.6807056837477
 42
-0.006825
 10
68.65067110634367
 20
350.0074015757477
 42
-0.126993
 10
69.06030285594366
 20
350.3261940569477
 42
-0.480795
 10
69.29774532574366
 20
350.2002662628477
 42
-0.042852
 10
69.37638977384366
 20
349.4256464978477
 42
-0.061378
 10
69.06975021434366
 20
346.5727762551477
 42
-0.021065
 10
67.95223618644367
 20
342.5629972138476
 42
-0.021362
 10
66.41047710834365
 20
338.4248796571477
 42
-0.03336
 10
64.70251016354366
 20
335.0294256480477
 42
-0.025007
 10
63.39100639354366
 20
333.0396339775477
 42
-0.009458
 10
61.37055193094365
 20
330.3910776023477
 42
-0.00934
 10
59.06051529444366
 20
327.5880061734476
 42
-0.011253
 10
56.78317508394365
 20
325.0455805038477
 42
0.025107
 10
51.18951490534366
 20
318.4415705017477
 42
0.025521
 10
46.31861488754365
 20
311.3449912472477
 42
0.027161
 10
42.56665345004365
 20
304.4142963091476
 42
0.049246
 10
40.39772586704365
 20
298.3496252596477
 42
-0.021404
 10
40.15381859844366
 20
297.5258087792477
 42
-0.042551
 10
39.87915310204365
 20
296.9035804296476
 42
-0.069174
 10
39.61847630674366
 20
296.5526408596476
 42
-0.4166750000000001
 10
39.41381095654366
 20
296.5517819383476
 42
-0.207824
 10
38.55903141074365
 20
298.7196217095477
 42
-0.004425
 10
39.06414851794366
 20
310.4367514155476
 42
-0.01028
 10
39.87832987214365
 20
321.6482635588477
 42
-0.039848
 10
41.07485302114365
 20
328.5073056837476
 42
-0.025779
 10
41.81488006054364
 20
330.8669207784476
 42
-0.008186
 10
43.15455210414365
 20
334.3023088087477
 42
-0.008147
 10
44.77539789334365
 20
338.0885021783476
 42
-0.008982
 10
46.46896646184365
 20
341.6976056837477
 42
0.00743
 10
48.16276392084366
 20
345.2782577120477
 42
0.007001
 10
49.78435767764366
 20
348.9789422462477
 42
0.006982
 10
51.12925773544365
 20
352.2976605212477
 42
0.024035
 10
51.86640618584365
 20
354.4999556837477
 42
0.022262
 10
53.30697471364366
 20
360.6408534769477
 42
0.014571
 10
54.44237401244365
 20
367.8242202500477
 42
0.014292
 10
55.18373094444366
 20
375.2851466265477
 42
0.017528
 10
55.43165039194366
 20
382.2841719740477
 42
-0.006375
 10
55.47961730584365
 20
385.9440154599477
 42
-0.01619
 10
55.63428831544365
 20
388.5970332601477
 42
-0.015085
 10
55.85824021194365
 20
390.4422328620477
 42
-0.537707
 10
56.18669885534366
 20
390.5941207183477
 42
-0.15081
 10
56.56244317244365
 20
390.1638554600477
 42
-0.007905
 10
57.28830382964365
 20
388.4597874127477
 42
-0.011899
 10
58.08215582794366
 20
386.3702499177476
 42
-0.008325
  0
LWPOLYLINE
  5
9C6
330
22
100
AcDbEntity
  8
0
 62
     7
100
AcDbPolyline
 90
       24
 70
     1
 43
0.0
 10
38.18156149204366
 20
366.7203806837477
 42
-0.077214
 10
40.88889306814365
 20
362.7606021902476
 42
-0.062028
 10
42.52250008464365
 20
357.8587616081476
 42
-0.064329
 10
42.86579083244364
 20
352.9136785672477
 42
-0.102524
 10
41.76576093514365
 20
348.8361494897477
 42
-0.031151
 10
40.49102396254365
 20
346.6611233327476
 42
-0.033831
 10
38.98735769494365
 20
344.7238251767477
 42
-0.031737
 10
37.56910249934366
 20
343.3217265468477
 42
-0.32856
 10
36.79785867524365
 20
343.2588685601477
 42
-0.244739
 10
36.60948877684365
 20
343.5751370386477
 42
-0.020714
 10
36.59411276654366
 20
344.5535027123477
 42
-0.023762
 10
36.68431734874366
 20
345.7832343813476
 42
-0.01599
 10
36.89856118444365
 20
347.1752245860476
 42
0.052481
 10
37.17253069854366
 20
350.6000347716476
 42
0.010816
 10
36.88963135134365
 20
356.6570608784477
 42
0.011588
 10
36.32918481514366
 20
362.7664974784476
 42
0.038582
 10
35.56147909504366
 20
366.7203806837477
 42
-0.037438
 10
35.42998111484365
 20
367.3894640825477
 42
-0.065464
 10
35.43647772554365
 20
367.9533346654476
 42
-0.100202
 10
35.57053772754365
 20
368.3299200581477
 42
-0.2630949999999999
 10
35.81152606034365
 20
368.4661556837477
 42
-0.13473
 10
36.19386242384365
 20
368.3612260713476
 42
-0.024799
 10
36.80932104594365
 20
367.9533346654476
 42
-0.025037
 10
37.50048655874366
 20
367.3887502545477
 42
-0.020494
  0
LWPOLYLINE
  5
9E0
330
22
100
AcDbEntity
  8
0
 62
     7
100
AcDbPolyline
 90
       24
 70
     1
 43
0.0
 10
24.28783365564366
 20
327.5805862417477
 42
-0.046847
 10
29.19359330864365
 20
320.6155569527477
 42
-0.095322
 10
31.35421255444366
 20
314.3063788639476
 42
-0.089482
 10
31.08669620064365
 20
307.3828555695476
 42
-0.037666
 10
28.39179997384366
 20
298.4306812049476
 42
0.009354
 10
26.90887040964366
 20
294.3554410324477
 42
0.018992
 10
25.92627685684366
 20
291.0902156311477
 42
0.02398
 10
25.35943224924366
 20
288.3826745620477
 42
0.039627
 10
25.17467028584366
 20
286.0550762049477
 42
-0.032233
 10
24.98721284584366
 20
283.1502090237476
 42
-0.61135
 10
24.31968279884366
 20
282.9107212815476
 42
-0.127698
 10
23.36778850544366
 20
284.4163032462477
 42
-0.009819
 10
21.98644442464366
 20
289.0430337412476
 42
-0.032955
 10
21.02294965034366
 20
293.6860790855476
 42
-0.026463
 10
20.58554921564366
 20
298.7708171433476
 42
-0.026207
 10
20.68624318994366
 20
303.9330753701477
 42
-0.030275
 10
21.33591822614365
 20
308.8099280927476
 42
0.02905
 10
22.08185141634366
 20
314.3064820586476
 42
0.023079
 10
22.26545961644366
 20
320.2946734210477
 42
0.021976
 10
21.94603555264366
 20
325.6619252037477
 42
0.095318
 10
21.02761591294366
 20
328.7012806837477
 42
-0.040542
 10
20.18288194444366
 20
330.6855619124477
 42
-0.621157
 10
20.58872031894366
 20
331.0874990617477
 42
-0.1209
 10
21.87806516084366
 20
330.2579254033477
 42
-0.012795
  0
LWPOLYLINE
  5
A2E
330
22
100
AcDbEntity
  8
0
 62
     7
100
AcDbPolyline
 90
       24
 70
     1
 43
0.0
 10
524.3654905290436
 20
958.5843563068475
 42
0.016507
 10
523.4033667700436
 20
958.1273131877477
 42
0.01912
 10
522.5206168051435
 20
957.6280502460477
 42
0.018491
 10
521.8118414659436
 20
957.1535509287475
 42
0.097888
 10
521.4953464246435
 20
956.8129486744478
 42
0.500373
 10
521.6214100012435
 20
956.4920441934477
 42
0.012126
 10
523.4138584898436
 20
956.0451529499475
 42
0.016675
 10
525.7785712475436
 20
955.5983579180475
 42
0.009151
 10
528.6990503126436
 20
955.2014004949477
 42
-0.012511
 10
531.9482929498437
 20
954.7375007475476
 42
-0.010297
 10
535.3896429957436
 20
954.0848361686476
 42
-0.010436
 10
538.5260185635436
 20
953.3541338954476
 42
-0.027071
 10
540.7395572929437
 20
952.6599493557476
 42
0.008053
 10
542.4468732576436
 20
952.0523218923475
 42
0.012608
 10
543.9358556177436
 20
951.5907521726475
 42
0.006712
 10
545.1831311616436
 20
951.2563338413476
 42
0.264398
 10
545.4486061225436
 20
951.3293584457477
 42
0.370847
 10
545.5291965278436
 20
952.3997412040477
 42
0.028383
 10
543.5360653837436
 20
954.8055875243475
 42
0.034125
 10
541.0606743705436
 20
957.1300791778476
 42
0.076432
 10
538.8449763114436
 20
958.4377709511477
 42
0.059829
 10
535.5703951079436
 20
959.3127169138476
 42
0.032875
 10
531.4277268977435
 20
959.6275437701477
 42
0.032921
 10
527.3625819601435
 20
959.4009002765478
 42
0.072364
  0
LWPOLYLINE
  5
A48
330
22
100
AcDbEntity
  8
0
 62
     7
100
AcDbPolyline
 90
       32
 70
     1
 43
0.0
 10
548.0478618117436
 20
942.9158930029476
 42
-0.09018
 10
546.2547794128436
 20
941.4068350062477
 42
-0.038554
 10
543.4130798024437
 20
940.0597957921476
 42
-0.037822
 10
540.2146159407436
 20
939.1054217223475
 42
-0.053858
 10
537.2686702858437
 20
938.7897274098476
 42
-0.035886
 10
535.5653377917437
 20
938.9136029484475
 42
-0.014422
 10
533.2642984916437
 20
939.3161305576477
 42
-0.014184
 10
530.8008648733435
 20
939.8939339768475
 42
-0.017425
 10
528.5397952858436
 20
940.5775375682477
 42
0.00428
 10
526.5312656303435
 20
941.2428857844476
 42
0.007301
 10
524.8409348925435
 20
941.7597026877475
 42
0.002254
 10
523.4007434521436
 20
942.1701157686475
 42
0.4966640000000001
 10
523.3024702858435
 20
942.0955866941476
 42
0.198469
 10
523.3760597454437
 20
941.9174959189476
 42
0.0009
 10
524.8409348925435
 20
940.4528993199475
 42
0.00404
 10
526.5320252364436
 20
938.7952106951475
 42
0.002517
 10
528.5397952858436
 20
936.8780735247478
 42
-0.011721
 10
530.6871637114435
 20
934.7507178878476
 42
-0.010585
 10
532.8084572416436
 20
932.4528869342476
 42
-0.01067
 10
534.6212350861435
 20
930.3135777819477
 42
-0.03284
 10
535.7168702858436
 20
928.7657131467476
 42
0.012036
 10
536.5017792607436
 20
927.5528712689476
 42
0.017541
 10
537.2555443855435
 20
926.5266899818476
 42
0.013154
 10
537.9184361023435
 20
925.7315042114475
 42
0.206163
 10
538.2310066414436
 20
925.5832250660475
 42
0.247482
 10
539.1764927767436
 20
926.0386620721474
 42
0.007307
 10
541.8313269588436
 20
929.7411521256476
 42
0.014492
 10
544.5825162824436
 20
933.9543659397476
 42
0.015502
 10
547.0207424615437
 20
938.2277670927477
 42
0.009955
 10
548.7287008714436
 20
941.6103799568476
 42
0.058062
 10
549.3772772332436
 20
943.4936002105475
 42
0.654482
 10
549.0255431416436
 20
943.7486781114476
 42
0.087187
  0
LWPOLYLINE
  5
A7A
330
22
100
AcDbEntity
  8
0
 62
     7
100
AcDbPolyline
 90
       24
 70
     1
 43
0.0
 10
575.2877702858436
 20
917.9922710398477
 42
0.261207
 10
575.4442351762436
 20
917.7132023109477
 42
0.021261
 10
576.2046466604435
 20
917.2915573016476
 42
0.02427
 10
577.2130272497435
 20
916.8469836714475
 42
0.016049
 10
578.4090507191435
 20
916.4311392905476
 42
-0.024865
 10
582.2670365639436
 20
915.0130679832477
 42
-0.011627
 10
587.1174116990435
 20
912.8166316416477
 42
-0.011616
 10
591.8493519063437
 20
910.4028563992477
 42
-0.0255
 10
595.3217216583436
 20
908.2933821537476
 42
0.009287
 10
596.6275986015436
 20
907.4409209971475
 42
0.014954
 10
597.7740785282436
 20
906.7694043759477
 42
0.008725
 10
598.7328085006436
 20
906.2672318092475
 42
0.323209
 10
598.9629637176435
 20
906.3044152649476
 42
0.297537
 10
599.0094145229436
 20
906.5255956466476
 42
0.015256
 10
598.7092087262436
 20
907.2319191418475
 42
0.020183
 10
598.2697350867436
 20
908.0911965799476
 42
0.012831
 10
597.6930908621437
 20
909.0558474452477
 42
0.070665
 10
595.6659721944435
 20
911.4356537856476
 42
0.034542
 10
592.4986614936435
 20
913.8690779196476
 42
0.033387
 10
588.7908751467436
 20
915.9885721377476
 42
0.040992
 10
585.0747711518436
 20
917.4325266931475
 42
0.030003
 10
581.9312635112435
 20
918.1641957377475
 42
0.027898
 10
578.6453316666436
 20
918.5368046429477
 42
0.022072
 10
575.8508021208435
 20
918.5731159870474
 42
0.4051210000000001
  0
LWPOLYLINE
  5
A94
330
22
100
AcDbEntity
  8
0
 62
     7
100
AcDbPolyline
 90
       20
 70
     1
 43
0.0
 10
537.6660979043436
 20
910.7587811267476
 42
-0.064342
 10
532.8938892629436
 20
907.0237110322477
 42
-0.040772
 10
526.5373471345435
 20
903.9211088396477
 42
-0.037142
 10
519.0540616477436
 20
901.6199438437476
 42
-0.031475
 10
510.8857495689436
 20
900.2921050510476
 42
0.012503
 10
506.9821252861436
 20
899.8086347779477
 42
0.215757
 10
505.9279177151436
 20
899.1281115095475
 42
0.4066820000000001
 10
506.1089033732437
 20
898.2349862098477
 42
0.026528
 10
508.5896147327436
 20
896.7300063435477
 42
0.117261
 10
514.4504234885437
 20
895.1783522127476
 42
0.067495
 10
521.7477047960436
 20
895.9800780442476
 42
0.063046
 10
529.1251280386435
 20
898.8426842801477
 42
0.070724
 10
535.2425447701436
 20
903.3715419732477
 42
0.040002
 10
537.7642795144436
 20
906.2915361008476
 42
0.028052
 10
540.1330246244436
 20
909.9364357527475
 42
0.025688
 10
541.7725851216435
 20
913.1734703793476
 42
0.550658
 10
541.2797280103435
 20
913.9107996144476
 42
0.167842
 10
540.9606011162436
 20
913.7915127484477
 42
0.006745
 10
540.0039272788436
 20
912.9795085696477
 42
0.011201
 10
538.8893531360436
 20
911.9624658327476
 42
0.007629
  0
LWPOLYLINE
  5
AAA
330
22
100
AcDbEntity
  8
0
 62
     7
100
AcDbPolyline
 90
       22
 70
     1
 43
0.0
 10
561.7194099072436
 20
911.4506030509476
 42
0.047043
 10
559.0623923425436
 20
910.5960415330477
 42
0.042901
 10
556.5236335763436
 20
909.2388279422477
 42
0.041243
 10
554.1623766772436
 20
907.4095420493476
 42
0.036779
 10
552.0337555474436
 20
905.1505976519477
 10
550.1169900331436
 20
902.7908374639476
 10
552.0337555474436
 20
903.3150455906477
 42
-0.027611
 10
556.4472213925435
 20
904.2638215419476
 42
-0.016756
 10
561.7484029625436
 20
904.9193592785478
 42
-0.015556
 10
567.5988875929435
 20
905.2615195400475
 42
-0.013838
 10
573.6927286029437
 20
905.2592911552476
 42
0.005088
 10
577.2025107011436
 20
905.1965852449477
 42
0.008952
 10
580.1037583088437
 20
905.2262207454477
 42
0.003838
 10
582.4813145392436
 20
905.3113579247478
 42
0.573575
 10
582.5858880135436
 20
905.5094102792477
 42
0.100075
 10
582.3196953451436
 20
905.7921800511476
 42
0.006623
 10
581.3943492461436
 20
906.4291295514475
 42
0.009366
 10
580.2589289980436
 20
907.1583064052477
 42
0.006855
 10
578.9729422513436
 20
907.9264388703476
 42
0.037552
 10
574.5629733875436
 20
910.0548536107478
 42
0.043304
 10
570.0871375968437
 20
911.3809505079478
 42
0.046335
 10
565.7417251648436
 20
911.8559689023475
 42
0.058426
  0
LWPOLYLINE
  5
AC2
330
22
100
AcDbEntity
  8
0
 62
     7
100
AcDbPolyline
 90
       30
 70
     1
 43
0.0
 10
479.8520702858437
 20
905.7023471250477
 42
0.055015
 10
480.2704223755436
 20
901.9116612944477
 42
0.029979
 10
481.5647407364436
 20
897.4067315814476
 42
0.025406
 10
483.6855438978436
 20
892.2548805013477
 42
0.016082
 10
486.6483343417436
 20
886.4721459071475
 42
-0.006525
 10
491.2525241658437
 20
877.8937768855476
 42
-0.031004
 10
493.5105219652436
 20
872.8040575497477
 42
-0.045785
 10
494.6858289046437
 20
868.4570405565477
 42
-0.027104
 10
495.3206749400436
 20
863.1182945639475
 10
495.7703609753436
 20
856.1193056837476
 10
498.2939423616437
 20
860.3867556837476
 42
0.03131
 10
500.4951760929436
 20
864.7047866047476
 42
0.025925
 10
502.2993903291436
 20
869.5420544611474
 42
0.026746
 10
503.5137421083436
 20
874.2646567119477
 42
0.049592
 10
503.9049702858436
 20
878.1994426905475
 42
0.067084
 10
503.4618887113436
 20
881.4870388406475
 42
0.075604
 10
502.1663195996437
 20
884.3971293806477
 42
0.066599
 10
499.9068483661437
 20
887.0645990942476
 42
0.038623
 10
496.5776538893437
 20
889.6367425097476
 42
-0.028399
 10
492.4997989338437
 20
892.6563544383476
 42
-0.031433
 10
488.9345555036436
 20
896.0247504867474
 42
-0.032572
 10
485.9332028297437
 20
899.6924344421476
 42
-0.035893
 10
483.5394442555436
 20
903.6060693867476
 42
0.008774
 10
482.5301907787435
 20
905.4768581706477
 42
0.01353
 10
481.5862649783436
 20
907.0539400962475
 42
0.007837
 10
480.7531120932437
 20
908.3198853459476
 42
0.24687
 10
480.4339952858437
 20
908.4896856296476
 42
0.319006
 10
480.2074697290437
 20
908.3304608629477
 42
0.033689
 10
480.0230103666437
 20
907.6720887636474
 42
0.031822
 10
479.8941000129437
 20
906.7716335366476
 42
0.019646
  0
LWPOLYLINE
  5
AE2
330
22
100
AcDbEntity
  8
0
 62
     7
100
AcDbPolyline
 90
       20
 70
     1
 43
0.0
 10
547.5091117672435
 20
888.5730402504476
 42
0.077172
 10
544.1993551372436
 20
886.2502579046475
 42
0.028377
 10
540.3050432062435
 20
882.0539416407477
 42
0.027435
 10
536.5192020952437
 20
876.9317524417475
 42
0.030404
 10
533.4567333301436
 20
871.5935208708476
 42
0.007508
 10
531.2697008965436
 20
867.0081039472476
 42
0.070492
 10
530.6480536960435
 20
864.9193943375475
 42
0.7228050000000001
 10
531.1005104702436
 20
864.6909352379477
 42
0.037519
 10
532.7017546977437
 20
866.5476957498475
 42
-0.040136
 10
533.9288700319436
 20
867.9556811330476
 42
-0.004157
 10
537.1015383222436
 20
871.0038415262475
 42
-0.005149
 10
540.9548757501436
 20
874.5704443332476
 42
-0.004097
 10
545.1844781240437
 20
878.3425295131475
 42
0.00527
 10
549.2877197516436
 20
882.0192542553476
 42
0.008153
 10
552.7454436152436
 20
885.2890853990476
 42
0.003455
 10
555.6121660006436
 20
888.1289461264476
 42
0.19834
 10
555.8902702858436
 20
888.8024459480476
 42
0.356863
 10
555.1990853755436
 20
889.6475345028475
 42
0.056826
 10
552.9077968107436
 20
889.8454526266476
 42
0.049689
 10
550.0682557541436
 20
889.4838552942475
 42
0.058049
  0
LWPOLYLINE
  5
AF8
330
22
100
AcDbEntity
  8
0
 62
     7
100
AcDbPolyline
 90
       28
 70
     1
 43
0.0
 10
451.6392763197436
 20
996.5132315512475
 42
0.027932
 10
450.2277993865436
 20
995.9043285082476
 42
0.012204
 10
448.4254496380437
 20
994.9486881696476
 42
0.012033
 10
446.5559915226436
 20
993.8382193137476
 42
0.015732
 10
444.9058004195436
 20
992.7296739139475
 42
-0.019841
 10
440.4984983240437
 20
989.8212492312476
 42
-0.032087
 10
436.5139243942437
 20
987.7494635523476
 42
-0.038285
 10
432.9506463187437
 20
986.4938276859476
 42
-0.06566
 10
429.8323143054437
 20
986.0825556837475
 42
0.029244
 10
427.4012217509437
 20
985.9402439852477
 42
0.222832
 10
426.4528283183437
 20
985.3516532283476
 42
0.4162830000000001
 10
426.6177862101436
 20
984.5855202575476
 42
0.051664
 10
428.3052313758436
 20
983.7356513828476
 42
0.094095
 10
433.1723442257437
 20
982.8716688871477
 42
0.063718
 10
438.7661440663436
 20
983.6554892743476
 42
0.04824
 10
445.3665282877436
 20
986.1616571369475
 42
0.022843
 10
453.3410702041437
 20
990.5697514263477
 42
-0.00842
 10
456.0248679573437
 20
992.1559858683476
 42
-0.008591
 10
458.7428270357436
 20
993.6400513501478
 42
-0.008404
 10
461.1461563364437
 20
994.8481711005477
 42
-0.034987
 10
462.6518702041437
 20
995.4478952465475
 42
0.012907
 10
463.7955087850436
 20
995.8458978069478
 42
0.014289
 10
464.8784176729437
 20
996.2901378001475
 42
0.013747
 10
465.7777245679437
 20
996.7194184413477
 42
0.068572
 10
466.2350252858437
 20
997.0388859555475
 42
0.678022
 10
465.9756364845436
 20
997.7125200078475
 42
0.011898
 10
460.6185063173436
 20
997.6471349148475
 42
0.015238
 10
454.9602353939437
 20
997.2704672767475
 42
0.063706
  0
LWPOLYLINE
  5
B16
330
22
100
AcDbEntity
  8
0
 62
     7
100
AcDbPolyline
 90
       44
 70
     1
 43
0.0
 10
464.3340702858436
 20
987.6564734891477
 42
0.031787
 10
460.5379329818436
 20
986.6845865804478
 42
0.033203
 10
456.9523741619437
 20
985.2500933496475
 42
0.026263
 10
452.9475624324437
 20
983.0650293743476
 42
0.01082
 10
447.7544652842436
 20
979.7098329367475
 42
-0.012658
 10
440.6986207797436
 20
975.1878023877477
 42
-0.040398
 10
435.6995164772436
 20
972.6868090022476
 42
-0.055028
 10
431.2717957973436
 20
971.4462240440477
 42
-0.043651
 10
426.3149702858436
 20
971.0688262840475
 42
-0.017602
 10
423.8333061211436
 20
971.1841964068476
 42
-0.014329
 10
421.1883817338437
 20
971.4771506421476
 42
-0.014571
 10
418.7662097016437
 20
971.8882170308475
 42
-0.036228
 10
417.0344668531436
 20
972.3668813793475
 42
0.011871
 10
415.6816355455436
 20
972.8127313650476
 42
0.017931
 10
414.4826752946436
 20
973.1300892071477
 42
0.012941
 10
413.4988604752436
 20
973.3264702730476
 42
0.2438
 10
413.2080019458436
 20
973.2342204184474
 42
0.351562
 10
413.1791423453436
 20
972.9711554029478
 42
0.01661
 10
413.7172119255437
 20
972.1848009263478
 42
0.021199
 10
414.4794421193437
 20
971.2338703007477
 42
0.012924
 10
415.4543333128437
 20
970.1745798088477
 42
0.059252
 10
418.6080153301436
 20
967.6104537680476
 42
0.064734
 10
422.1854861684437
 20
965.9480562061474
 42
0.05306
 10
426.6398116834436
 20
965.0465620490477
 42
0.024867
 10
432.5221702858437
 20
964.7878979383476
 42
0.029021
 10
438.1087581359436
 20
965.1448313358475
 42
0.043882
 10
442.8723667017437
 20
966.1578549107476
 42
0.042396
 10
447.5026616813436
 20
968.0179199807477
 42
0.024914
 10
452.6955702858437
 20
970.9673983083476
 42
-0.025579
 10
462.1117887152436
 20
976.2991022325476
 42
-0.044294
 10
470.4721321645436
 20
979.5951611239475
 42
-0.05273
 10
478.1336721414436
 20
981.0023721589477
 42
-0.064005
 10
485.4203818114436
 20
980.6264105898476
 42
0.008641
 10
487.2410660769436
 20
980.3286566371475
 42
0.013044
 10
488.8364988134436
 20
980.1383237117475
 42
0.007784
 10
490.1605597490437
 20
980.0360600917477
 42
0.21495
 10
490.4784793427436
 20
980.1564308900477
 42
0.4708680000000001
 10
490.4130562306437
 20
980.8448838564475
 42
0.012053
 10
487.4363694177437
 20
982.7604304318475
 42
0.020218
 10
483.9922385462436
 20
984.6745951293474
 42
0.025934
 10
480.6746600683436
 20
986.1361959784476
 42
0.038311
 10
476.8481214505436
 20
987.2636663551476
 42
0.029304
 10
472.5335494917437
 20
987.9217583545475
 42
0.029459
 10
468.2039126585437
 20
988.0684500085477
 42
0.040535
  0
LWPOLYLINE
  5
B44
330
22
100
AcDbEntity
  8
0
 62
     7
100
AcDbPolyline
 90
       32
 70
     1
 43
0.0
 10
471.6161649026436
 20
970.9009479046477
 42
0.053164
 10
468.8511474892437
 20
969.5380842100476
 42
0.024232
 10
465.5512502205436
 20
967.2187747926477
 42
0.017649
 10
462.5959572983436
 20
964.7477970986477
 42
0.212913
 10
462.0063702858437
 20
963.4259901525476
 42
0.113293
 10
462.0737820296437
 20
963.1322988122477
 42
0.2708
 10
462.2528496629437
 20
963.0122383739475
 42
0.146198
 10
462.5499138405437
 20
963.0813617531476
 42
0.034917
 10
462.9762452858436
 20
963.3660534293476
 42
-0.093374
 10
465.3123661285436
 20
964.5596793677475
 42
-0.034878
 10
468.9239851017435
 20
965.3537773263476
 42
-0.031143
 10
473.3046730513437
 20
965.7245520039476
 42
-0.02407
 10
478.0956545932437
 20
965.6001573882477
 42
0.00458
 10
493.2864358380436
 20
964.6124304810477
 42
0.038685
 10
500.1343600918437
 20
964.7601044244476
 42
0.08588
 10
504.4958615862435
 20
965.9682823673476
 42
0.075203
 10
508.4261132052437
 20
968.6094707961474
 42
0.013985
 10
509.4874807814437
 20
969.6382102255476
 42
0.023186
 10
510.3157780843437
 20
970.5699807765476
 42
0.019658
 10
510.8904305736436
 20
971.3401864464476
 42
0.361375
 10
510.8644030081436
 20
971.6227568120475
 42
0.210402
 10
510.5462343505436
 20
971.7463980288476
 42
0.014376
 10
509.5579487953436
 20
971.6742657094476
 42
0.018587
 10
508.3467122546436
 20
971.5050845939476
 42
0.012765
 10
506.9875317573436
 20
971.2274745570475
 42
-0.046302
 10
503.9984483901435
 20
970.8230972022477
 42
-0.015109
 10
499.5436519038436
 20
970.7709078405475
 42
-0.008866
 10
492.6799225670436
 20
971.0197164694477
 42
-0.00184
 10
480.6279702858437
 20
971.7152293499475
 42
0.014208
 10
477.8101164101435
 20
971.8079990575475
 42
0.023656
 10
475.4377944011436
 20
971.7063809863477
 42
0.027778
 10
473.4028375916436
 20
971.4078674275476
 42
0.037649
  0
LWPOLYLINE
  5
B66
330
22
100
AcDbEntity
  8
0
 62
     7
100
AcDbPolyline
 90
       32
 70
     1
 43
0.0
 10
374.3594586386437
 20
955.5898610371475
 42
0.023601
 10
368.5700450972437
 20
951.6698559535477
 42
0.025322
 10
363.3162252391437
 20
947.3069803402475
 42
0.02725
 10
359.0495309657437
 20
942.9301780978477
 42
0.055917
 10
356.3236111533437
 20
939.0003966742476
 42
0.032733
 10
355.4068922864437
 20
936.9978204994477
 42
0.009932
 10
354.2800992704437
 20
933.8523956099477
 42
0.009902
 10
353.1543382014437
 20
930.2680759023475
 42
0.010637
 10
352.1997965372437
 20
926.7262056837475
 42
-0.00492
 10
350.3406726339437
 20
919.5000278522476
 42
-0.016043
 10
348.9103002080437
 20
914.7713580634475
 42
-0.024099
 10
347.6106583972437
 20
911.4600504093475
 42
-0.048685
 10
346.2208236427437
 20
909.0298082412475
 42
0.023805
 10
345.0812585368437
 20
907.2487476369476
 42
0.325156
 10
345.1588966426436
 20
906.5270070087477
 42
0.335162
 10
345.8602148069437
 20
906.3935103101478
 42
0.024445
 10
347.6877750982437
 20
907.4099540522476
 42
0.048799
 10
351.4512027859436
 20
910.2945989517476
 42
0.062962
 10
354.2326010001436
 20
913.6403953608477
 42
0.050167
 10
356.5094097191437
 20
918.1501015142474
 42
0.019398
 10
358.7713638326436
 20
924.7864556837475
 42
-0.034425
 10
361.8354922478437
 20
932.9635470710476
 42
-0.036393
 10
365.9455664508437
 20
940.4851441721476
 42
-0.034498
 10
371.3127437471437
 20
947.6664237742475
 42
-0.025659
 10
378.1488347500436
 20
954.8287046889475
 42
0.010426
 10
380.0263451556436
 20
956.6795264622475
 42
0.021027
 10
381.4114314021437
 20
958.2283198497476
 42
0.026136
 10
382.2401787270436
 20
959.3522878138477
 42
0.605711
 10
382.0886702858437
 20
959.6256288489474
 42
0.107866
 10
381.3523683423436
 20
959.4458753200477
 42
0.006715
 10
379.3381265110437
 20
958.4283352312477
 42
0.009681
 10
376.9591402969437
 20
957.1269336792475
 42
0.007017
  0
LWPOLYLINE
  5
B88
330
22
100
AcDbEntity
  8
0
 62
     7
100
AcDbPolyline
 90
       66
 70
     1
 43
0.0
 10
398.8618739759436
 20
950.3040190101476
 42
0.063129
 10
393.0093021745436
 20
948.1232791255475
 42
0.042765
 10
387.0038765213437
 20
944.2888558119475
 42
0.040589
 10
381.3905728824437
 20
939.2161248066475
 42
0.041204
 10
376.7015120127437
 20
933.3271446736475
 42
0.017182
 10
374.3080979381436
 20
929.4730662612476
 42
0.020722
 10
372.3405218364437
 20
925.6930203473476
 42
0.017289
 10
370.4396669275437
 20
921.2456717251477
 42
0.007558
 10
368.2142127018437
 20
915.2280271987475
 42
-0.028814
 10
365.6662983156437
 20
909.1461109958475
 42
-0.02913
 10
362.4441671762436
 20
903.4203833264477
 42
-0.024277
 10
358.0698307440437
 20
897.2848245011476
 42
-0.011813
 10
351.9317820556437
 20
889.8709556837475
 42
0.013815
 10
346.8972400724437
 20
883.7401647639476
 42
0.032752
 10
343.5918214993437
 20
878.8503126127475
 42
0.043231
 10
341.5489427508437
 20
874.5393113457476
 42
0.05527
 10
340.4807394956437
 20
870.2794806837475
 42
0.033329
 10
340.3165776772437
 20
867.8914412684475
 42
0.163289
 10
340.7384484734437
 20
866.6256923214474
 42
0.513737
 10
341.4050753728437
 20
866.6415587005475
 42
0.072757
 10
342.1172732069437
 20
868.1062235787477
 42
-0.138982
 10
344.6262288782437
 20
871.9064103048475
 42
-0.012209
 10
353.6328062472437
 20
879.2894409767475
 42
-0.011564
 10
363.0124929769437
 20
886.2601638199475
 42
-0.155226
 10
367.0458779998436
 20
887.5432556837475
 42
-0.299529
 10
367.9304497779437
 20
886.9611165353475
 42
-0.06162
 10
368.4797218023437
 20
885.0766168225476
 42
-0.032383
 10
368.7969896400436
 20
881.7743802153476
 42
-0.007424
 10
368.8877753713437
 20
876.1678587183476
 42
-0.029015
 10
368.4068741031436
 20
867.6908175813476
 42
-0.070372
 10
366.8280037280437
 20
861.6387905982477
 42
-0.062967
 10
363.5149425399437
 20
855.8721598085476
 42
-0.019684
 10
357.1814322271436
 20
848.1450221420475
 42
0.046194
 10
351.3960735391437
 20
840.2707179707476
 42
0.051174
 10
347.3829457134436
 20
831.7255869533475
 42
0.053238
 10
345.3033893960437
 20
822.8612025701476
 42
0.058477
 10
345.2395863631437
 20
814.0398170131476
 10
345.8172850358437
 20
808.7894056837477
 10
347.2934790121438
 20
814.1183636978476
 42
-0.041362
 10
350.8838716890437
 20
823.8660264338475
 42
-0.048096
 10
355.8904098894437
 20
832.3774492516475
 42
-0.04858
 10
362.3826344267436
 20
839.7067341064476
 42
-0.043681
 10
370.3893862798437
 20
845.9400423655475
 42
0.017236
 10
373.2864960128436
 20
847.9591087430476
 42
0.046308
 10
375.1471849064437
 20
849.6433897885477
 42
0.046831
 10
376.6544443669437
 20
851.6303098531475
 42
0.017957
 10
378.3776150722437
 20
854.6435772474476
 42
0.053481
 10
381.5828377988437
 20
862.7459230841477
 42
0.046039
 10
383.2038224741437
 20
871.7651546062477
 42
0.035372
 10
383.3723277807437
 20
882.9231482711476
 42
0.015044
 10
382.0922285632437
 20
897.8239306837476
 42
-0.033045
 10
381.5637072084436
 20
908.4458573663477
 42
-0.03782
 10
382.4970955109437
 20
918.5679011631476
 42
-0.040978
 10
384.8018443889437
 20
927.6140998656476
 42
-0.059856
 10
388.3813946392436
 20
935.0064335785477
 42
-0.040596
 10
391.3076758845436
 20
938.8425002483476
 42
-0.030591
 10
395.0913211985437
 20
942.5617908645476
 42
-0.03043
 10
399.3289580169437
 20
945.8155872588475
 42
-0.038537
 10
403.6198952858436
 20
948.2550059962475
 42
0.004974
 10
405.4789144426436
 20
949.1526749663476
 42
0.007976
 10
407.0447659916437
 20
949.9594402683475
 42
0.002786
 10
408.3651196770436
 20
950.6760909925477
 42
0.273517
 10
408.4692702858436
 20
950.8522389141477
 42
0.423499
 10
408.1049154048436
 20
951.2052594479477
 42
0.006351
 10
404.8345721671436
 20
951.0602933955476
 42
0.015085
 10
401.5141678614436
 20
950.7701246412477
 42
0.02832
  0
LWPOLYLINE
  5
BEA
330
22
100
AcDbEntity
  8
0
 62
     7
100
AcDbPolyline
 90
       64
 70
     1
 43
0.0
 10
452.3076202858436
 20
940.7161404647476
 42
-0.164562
 10
452.0266893969436
 20
939.8856869357476
 42
-0.127495
 10
451.2704600137436
 20
939.2929676149476
 42
-0.053113
 10
449.7414303510437
 20
938.8115503732477
 42
-0.008251
 10
446.6179502412437
 20
938.2354329847476
 42
0.015034
 10
442.0115040999436
 20
937.3210169890477
 42
0.017096
 10
437.6638888878436
 20
936.1634572103477
 42
0.016668
 10
433.3116780200436
 20
934.6837134915476
 42
0.013027
 10
428.6893848971437
 20
932.7992230895475
 42
0.02806
 10
425.0891390661436
 20
930.9736700515475
 42
0.0231
 10
421.4658443497437
 20
928.6431713802475
 42
0.016957
 10
418.4196935375436
 20
926.3193888993475
 42
0.217884
 10
417.8040618897437
 20
925.0646779057476
 42
0.29085
 10
418.4144143139437
 20
924.0441412911476
 42
0.029986
 10
421.1133584110436
 20
922.8846790056476
 42
0.03492
 10
424.3013468468437
 20
921.9817773659476
 42
0.051591
 10
427.1906851654437
 20
921.6828556837477
 42
-0.011377
 10
429.1458158311436
 20
921.6383640259476
 42
-0.146049
 10
429.8292223439436
 20
921.4000323747477
 42
-0.262724
 10
430.0653682848436
 20
920.8869731551477
 42
-0.04088
 10
429.8758516062436
 20
919.7431056837476
 42
0.150022
 10
429.9461326282436
 20
918.3906320660476
 42
0.316475
 10
430.7665910134436
 20
917.8195758732476
 42
0.108509
 10
432.5552360402437
 20
918.2216674266475
 42
0.020504
 10
435.5439749078437
 20
919.7711855047476
 42
-0.01112
 10
437.5495576951436
 20
920.8592044700477
 42
-0.07746
 10
438.6052130955437
 20
921.2092866705475
 42
-0.148385
 10
439.3998177168437
 20
921.1061936134477
 42
-0.078139
 10
440.2402136284435
 20
920.5560704267474
 42
0.068769
 10
441.0575978978436
 20
919.9989750026476
 42
0.16213
 10
441.7793431814437
 20
919.8976641878477
 42
0.090829
 10
442.6848440861436
 20
920.2417742860475
 42
0.013131
 10
444.3543194078436
 20
921.3132370971475
 42
-0.007201
 10
445.4718582645436
 20
922.0493233404475
 42
-0.010163
 10
446.4898080285436
 20
922.6702388672476
 42
-0.006693
 10
447.3537796616437
 20
923.1580603875476
 42
-0.125812
 10
447.6533639624436
 20
923.2346556837477
 42
-0.5588840000000001
 10
447.8781631417437
 20
922.8692463546476
 42
-0.002173
 10
445.1998424666436
 20
917.6239388954476
 42
-0.007727
 10
442.5930946870436
 20
912.7590870181476
 42
-0.029084
 10
440.7396511476435
 20
909.8386638178476
 42
-0.099054
 10
438.7242315001437
 20
907.9623420910477
 42
-0.083496
 10
436.0187194095437
 20
906.8641130576477
 42
-0.064964
 10
432.5098854611436
 20
906.5501125348475
 42
-0.032609
 10
428.0769716825436
 20
907.0203808694476
 42
-0.041155
 10
421.4930233508436
 20
908.7236396530474
 42
-0.048017
 10
415.6271409849437
 20
911.4236056104475
 42
-0.053338
 10
410.9728714712436
 20
914.8450367515476
 42
-0.088496
 10
408.0181364211436
 20
918.7014405362475
 42
-0.091404
 10
407.4317274950436
 20
920.6316275687477
 42
-0.130399
 10
407.6922110912436
 20
922.3946360836476
 42
-0.069123
 10
408.9954298010437
 20
924.5489084674476
 42
-0.011948
 10
412.0950711592436
 20
928.1846680173476
 42
-0.029291
 10
415.2248996828436
 20
931.2955909615476
 42
-0.021848
 10
419.0101099871437
 20
934.3572644291477
 42
-0.022047
 10
422.9896452223435
 20
937.0352918140476
 42
-0.032928
 10
426.7029202858436
 20
938.9799121383475
 42
-0.043191
 10
430.6681626671436
 20
940.3392726444476
 42
-0.01937
 10
436.0664853653436
 20
941.4628255020476
 42
-0.019225
 10
441.7968024832437
 20
942.2004604417477
 42
-0.028166
 10
446.8763202858436
 20
942.3694631002476
 42
-0.006975
 10
450.0328630464436
 20
942.2525947145476
 42
-0.061211
 10
451.4082870102436
 20
942.0119237248474
 42
-0.172259
 10
452.0586813057437
 20
941.5310403023475
 42
-0.149336
  0
LWPOLYLINE
  5
C2C
330
22
100
AcDbEntity
  8
0
 62
     7
100
AcDbPolyline
 90
       32
 70
     1
 43
0.0
 10
392.9664181815437
 20
908.0399476090475
 42
0.03236
 10
393.3017194870437
 20
903.5706573107475
 42
0.007928
 10
394.4443276727437
 20
896.2789973987476
 42
0.008423
 10
395.8533310367437
 20
888.8783398306475
 42
0.022365
 10
397.1831949284436
 20
883.6637556837475
 42
-0.008453
 10
399.4066962138437
 20
875.8585151473475
 42
-0.021539
 10
400.6768910678435
 20
870.1121206055475
 42
-0.029051
 10
401.2195733735437
 20
865.4705029172477
 42
-0.039225
 10
401.1346301692436
 20
861.2462402871475
 42
-0.040817
 10
400.2713933134436
 20
856.5051731681476
 42
-0.02234
 10
398.4887871163437
 20
850.8697819839476
 42
-0.021726
 10
396.0939182292437
 20
845.1170801510476
 42
-0.02658
 10
393.3470529963437
 20
839.9805236117476
 42
0.003458
 10
392.3032960224436
 20
838.2285794308476
 42
0.005266
 10
391.4235937927437
 20
836.6916340363475
 42
0.002098
 10
390.6907197754437
 20
835.3663176945476
 42
0.125892
 10
390.6235702858437
 20
835.1038493461476
 42
0.6322810000000001
 10
391.4931307266437
 20
834.6911155483475
 42
0.012832
 10
396.2743033407437
 20
838.8018166785478
 42
0.018274
 10
401.3116858938436
 20
843.7093764195477
 42
0.031714
 10
405.0660976235437
 20
848.1803651629476
 42
0.041879
 10
407.7630484335437
 20
852.5655812649475
 42
0.059051
 10
409.3337392708437
 20
856.8724229320476
 42
0.058945
 10
409.8558563470436
 20
861.4330630409476
 42
0.041539
 10
409.4080060911436
 20
866.5797722317476
 42
0.045831
 10
408.0160981318437
 20
871.7821801799475
 42
0.00212
 10
401.6105579184436
 20
888.9421451912475
 42
0.00107
 10
394.7730152066437
 20
906.9087552400477
 42
0.10529
 10
393.3008613416437
 20
909.1774977026476
 42
0.4153100000000001
 10
393.1705349704437
 20
909.1772540700475
 42
0.124566
 10
393.0584119891437
 20
908.9875488477476
 42
0.052143
 10
392.9848675317436
 20
908.5873784227477
 42
0.021941
  0
LWPOLYLINE
  5
C4E
330
22
100
AcDbEntity
  8
0
 62
     7
100
AcDbPolyline
 90
       32
 70
     1
 43
0.0
 10
455.1174148882437
 20
898.3369627468475
 42
0.017012
 10
452.1988623828437
 20
891.3472582860476
 42
0.027702
 10
450.2617613054437
 20
885.2184924652474
 42
0.030992
 10
449.1599468381436
 20
879.4513495815477
 42
0.030751
 10
448.7756396886437
 20
873.5770556837476
 42
0.010461
 10
448.8219500560437
 20
870.8651462976476
 42
0.010611
 10
448.9817156250436
 20
868.1704013713476
 42
0.010448
 10
449.2192512028436
 20
865.8343922582476
 42
0.042131
 10
449.5128036570436
 20
864.4326978722476
 42
0.068285
 10
451.6664281643437
 20
859.6995620030476
 42
0.053907
 10
455.1691472448436
 20
855.2881600519478
 42
0.052005
 10
459.6819150996436
 20
851.5780941108474
 42
0.053449
 10
464.8232597178437
 20
848.9185921143477
 42
0.02273
 10
468.8257763351436
 20
847.5693958982477
 42
0.012378
 10
473.8454078480437
 20
846.2613433314476
 42
0.005117
 10
478.8474791921437
 20
845.1431573741476
 42
0.23853
 10
479.8284084394436
 20
845.4026524737477
 42
0.4038860000000001
 10
479.8455806582437
 20
845.6276712327476
 42
0.019431
 10
479.2949151174436
 20
846.2425099107475
 42
0.022676
 10
478.5068746101436
 20
846.9858283179476
 42
0.013246
 10
477.5007084394437
 20
847.8067693129476
 42
-0.028762
 10
471.6109849942435
 20
852.9245630384476
 42
-0.031222
 10
466.5176228079437
 20
858.5536399484476
 42
-0.032296
 10
462.3196360313437
 20
864.5794888414474
 42
-0.036091
 10
459.1039619317436
 20
870.8824426604477
 42
-0.051249
 10
456.9479321344436
 20
877.9219560217475
 42
-0.039566
 10
456.0206749937436
 20
885.9001113044476
 42
-0.03955
 10
456.3616489041436
 20
893.9287101738477
 42
-0.051064
 10
457.9963538191436
 20
901.1191764319477
 42
0.01442
 10
459.1466736749437
 20
904.8811648251476
 42
0.7629770000000001
 10
458.7349144075436
 20
905.1253040878476
 42
0.087529
 10
457.5603461249436
 20
903.5071227392474
 42
0.005923
  0
LWPOLYLINE
  5
C70
330
22
100
AcDbEntity
  8
0
 62
     7
100
AcDbPolyline
 90
       20
 70
     1
 43
0.0
 10
446.9377932910437
 20
894.9143056837476
 42
-0.037658
 10
442.8277532276437
 20
887.6803618691477
 42
-0.034313
 10
437.5614375000436
 20
880.9026014764475
 42
-0.03612
 10
431.9251672211436
 20
875.4435196010476
 42
-0.07691
 10
426.7452223538437
 20
872.3123805823476
 42
0.026073
 10
423.8735838660437
 20
870.9523264216477
 42
0.287898
 10
423.2738985150437
 20
869.8944496195474
 42
0.365545
 10
423.9966951431437
 20
869.1120778376477
 42
0.032179
 10
426.8968952858436
 20
868.9386959995477
 42
0.079018
 10
432.1830647426437
 20
869.8044289256475
 42
0.072968
 10
437.1005529000436
 20
872.2759109546476
 42
0.067989
 10
441.3834596039436
 20
876.2432242130476
 42
0.055206
 10
444.8034894696436
 20
881.4911611973474
 42
0.03197
 10
446.4565211426436
 20
885.3647837548477
 42
0.022832
 10
447.8218684931436
 20
889.8779923208476
 42
0.021734
 10
448.6972885307436
 20
894.0957265283476
 42
0.088333
 10
448.6580706652437
 20
896.7066269247476
 42
0.25922
 10
448.4271279097437
 20
896.9816446797477
 42
0.3013889999999999
 10
448.0994327519436
 20
896.9082135037476
 42
0.067128
 10
447.6058493982437
 20
896.2324371915476
 42
0.013846
  0
LWPOLYLINE
  5
C86
330
22
100
AcDbEntity
  8
0
 62
     7
100
AcDbPolyline
 90
       76
 70
     1
 43
0.0
 10
416.4944947661437
 20
852.4337806837475
 42
0.03003
 10
417.9701727689436
 20
839.9511697629476
 42
0.033568
 10
420.9054094520436
 20
828.2025292061476
 42
0.033978
 10
425.3466812254437
 20
817.0786728135476
 42
0.032309
 10
431.3187400750436
 20
806.4617056837475
 42
0.028834
 10
437.3980081312436
 20
798.2045445200475
 42
0.042872
 10
443.6948951881436
 20
791.8135516557477
 42
0.04134
 10
451.1641244705437
 20
786.4303908194476
 42
0.024505
 10
460.8425202858437
 20
781.2324528311476
 42
-0.02827
 10
473.6895667812436
 20
774.2076815698476
 42
-0.062395
 10
482.3577795915436
 20
767.1759737625476
 42
-0.073211
 10
488.1727419681436
 20
759.0043128993475
 42
-0.053672
 10
492.1507657501436
 20
748.5960760598475
 42
0.017842
 10
493.4423358732437
 20
744.3227098223476
 42
0.664458
 10
494.1895275732437
 20
744.2713242930475
 42
0.121098
 10
494.6591720842437
 20
746.3186380859475
 42
0.006154
 10
494.4676621185436
 20
753.1968263192474
 42
0.010069
 10
494.2007168271437
 20
757.6198318548476
 42
0.035616
 10
493.7712802300437
 20
760.4304233065476
 42
0.041267
 10
492.9819400902436
 20
762.9349726417475
 42
0.017104
 10
491.5267629172436
 20
766.1760947095475
 42
0.047477
 10
488.3087386165437
 20
771.4120362798476
 42
0.037998
 10
483.9318106783436
 20
776.3830623131476
 42
0.033604
 10
478.3043856594437
 20
781.1783175122476
 42
0.022776
 10
471.3171702858437
 20
785.8870474469475
 42
-0.009497
 10
464.1441416043437
 20
790.4488607166476
 42
-0.020333
 10
458.8282691437436
 20
794.2930774400476
 42
-0.025921
 10
454.7952976755436
 20
797.8202187489475
 42
-0.03723
 10
451.6460165630436
 20
801.3681099515476
 42
-0.034375
 10
449.5553353914436
 20
804.5397633646475
 42
-0.020311
 10
447.4866773654436
 20
808.5775469646474
 42
-0.011599
 10
445.7763540123436
 20
812.5164925431477
 42
-0.301641
 10
445.9950003046436
 20
813.5980187772476
 42
-0.262975
 10
446.2566718037436
 20
813.6707469878476
 42
-0.019856
 10
446.9901820590436
 20
813.4575048390475
 42
-0.023304
 10
447.8907047893436
 20
813.1090303033474
 42
-0.015358
 10
448.8925414380436
 20
812.6293611643475
 42
0.018913
 10
450.2317719945436
 20
811.9998106464475
 42
0.005954
 10
452.2791540666436
 20
811.1589391081476
 42
0.005937
 10
454.5878010662437
 20
810.2743223278476
 42
0.006549
 10
456.8428605323435
 20
809.4742243345475
 42
-0.029772
 10
464.5533179006436
 20
806.3284448587475
 42
-0.035352
 10
471.3854952639436
 20
802.4385640926476
 42
-0.038888
 10
476.9468004125437
 20
798.0688008150476
 42
-0.063113
 10
480.8179672465437
 20
793.4822177137476
 42
0.01035
 10
481.7627876596437
 20
792.0882109449475
 42
0.01774
 10
482.6147320668437
 20
790.9717769698476
 42
0.01236
 10
483.3339261912436
 20
790.1384626975477
 42
0.428538
 10
483.5672338899437
 20
790.1327854372476
 42
0.245389
 10
483.9278590196436
 20
791.2817629860477
 42
0.01654
 10
483.1873974762436
 20
794.7521076390476
 42
0.023149
 10
482.0382779377436
 20
798.6087519527475
 42
0.026477
 10
480.5797038745436
 20
802.1691289381475
 42
0.029194
 10
479.1734890951436
 20
804.7424175820475
 42
0.023565
 10
477.3800676279437
 20
807.3325029091476
 42
0.020631
 10
475.1125037574436
 20
810.0576856165476
 42
0.013133
 10
472.2651687853437
 20
813.0443691250476
 42
0.026599
 10
467.1107207679437
 20
817.6555986898474
 42
0.027774
 10
461.5670533781437
 20
821.6225759835475
 42
0.024583
 10
455.0431534992436
 20
825.3269638884477
 42
0.014231
 10
446.8763202858436
 20
829.1598245394476
 42
-0.008858
 10
439.8362987100437
 20
832.3720148480475
 42
-0.030385
 10
435.4426105559436
 20
834.8096684129478
 42
-0.040406
 10
432.0670157073435
 20
837.3654209409476
 42
-0.02694
 10
428.6261893939436
 20
840.7876116881475
 42
-0.041467
 10
425.5631239617436
 20
844.8055206096475
 42
-0.014392
 10
421.8159110322437
 20
851.0611709092476
 42
-0.010368
 10
418.4352635228436
 20
857.3965418302476
 42
-0.117902
 10
417.7800702858436
 20
860.1364658617477
 42
0.085885
 10
417.7122605053437
 20
860.5283240700476
 42
0.093847
 10
417.5172838184436
 20
860.8612123265476
 42
0.100319
 10
417.2267278900436
 20
861.0838576074476
 42
0.113956
 10
416.8854785351435
 20
861.1626556837476
 42
0.369985
 10
416.4686278119437
 20
860.8052776955474
 42
0.027148
 10
416.3076386486436
 20
859.1851907365477
 42
0.020391
 10
416.2973618531436
 20
856.6062015553477
 42
0.00521
  0
LWPOLYLINE
  5
CD4
330
22
100
AcDbEntity
  8
0
 62
     7
100
AcDbPolyline
 90
       44
 70
     1
 43
0.0
 10
437.9534702858436
 20
856.7912506017476
 42
0.057035
 10
438.2972219182437
 20
853.7875438472477
 42
0.0465
 10
439.3185158112436
 20
850.7142078267476
 42
0.043309
 10
440.9803725708437
 20
847.6745427626477
 42
0.036372
 10
443.2313244223436
 20
844.7718193931477
 42
0.033073
 10
445.4137906844436
 20
842.6455119971477
 42
0.032117
 10
447.8781375370436
 20
840.8029015735476
 42
0.023549
 10
451.1670759941436
 20
838.8726322956475
 42
0.00816
 10
456.0811610541436
 20
836.3929963335477
 42
0.003261
 10
460.0768683730436
 20
834.4899968370475
 42
0.002818
 10
464.2959371285437
 20
832.5431861470473
 42
0.002837
 10
468.1403470510436
 20
830.8217177663475
 42
0.008248
 10
470.8228211188437
 20
829.6912454325477
 42
-0.04548
 10
475.2430303108436
 20
827.4278613353475
 42
-0.043508
 10
479.2522499282437
 20
824.3730522550475
 42
-0.044023
 10
482.6283956658437
 20
820.7105885548475
 42
-0.049286
 10
485.1687698558436
 20
816.6429328048476
 42
0.012031
 10
485.8969295047436
 20
815.2572560984477
 42
0.021193
 10
486.5731116126436
 20
814.1550529052477
 42
0.017956
 10
487.1481272231436
 20
813.3640174239475
 42
0.4500930000000001
 10
487.3865325848436
 20
813.3495849080476
 42
0.17504
 10
487.5402802734436
 20
813.6771590254475
 42
0.007048
 10
487.6443959667437
 20
815.0064495270475
 42
0.011636
 10
487.7098811508436
 20
816.6106266565474
 42
0.007901
 10
487.7130359602436
 20
818.4386462806475
 42
0.04367
 10
487.3144755277436
 20
822.3572873320476
 42
0.058441
 10
486.2410202054436
 20
825.7623019809475
 42
0.059512
 10
484.4279847621437
 20
828.7798593263476
 42
0.047624
 10
481.8270585602436
 20
831.5434335657476
 42
0.024982
 10
479.2426047153437
 20
833.5934141269476
 42
0.036954
 10
476.7723253313437
 20
835.0969275422476
 42
0.030153
 10
473.7587328349436
 20
836.4160079757477
 42
0.010919
 10
469.3389604746436
 20
837.9321778718475
 42
-0.02868
 10
460.3968611715437
 20
841.3591093680475
 42
-0.032042
 10
452.2435425843436
 20
845.6805643357476
 42
-0.034902
 10
445.5143915507437
 20
850.4969139281476
 42
-0.06434
 10
440.9276695633436
 20
855.4075733896477
 42
0.004617
 10
439.9656730519437
 20
856.7213552020476
 42
0.007292
 10
439.1140102964437
 20
857.8281618099477
 42
0.002588
 10
438.3673058616436
 20
858.7598827033476
 42
0.226249
 10
438.2098897178436
 20
858.8349556837476
 42
0.362007
 10
438.1084058773436
 20
858.7503988776477
 42
0.014165
 10
438.0287938819436
 20
858.2346170249476
 42
0.019428
 10
437.9719320504437
 20
857.5747963203477
 42
0.011779
  0
LWPOLYLINE
  5
D02
330
22
100
AcDbEntity
  8
0
 62
     7
100
AcDbPolyline
 90
       20
 70
     1
 43
0.0
 10
344.6217612460437
 20
852.9406645152475
 42
0.036329
 10
341.1704649380437
 20
849.8240324988476
 42
0.029009
 10
337.9182956060437
 20
846.0071453011474
 42
0.029296
 10
335.1690142205437
 20
841.8930604710476
 42
0.040152
 10
333.2318813312436
 20
837.8856556837476
 42
0.042042
 10
331.9527605236436
 20
833.5354342235476
 42
0.027881
 10
331.1942530980437
 20
828.3840991169476
 42
0.027363
 10
331.0213476625437
 20
823.5474737057478
 42
0.089962
 10
331.6485790153437
 20
820.4279056837476
 42
0.044617
 10
332.2569272898436
 20
819.2214393762476
 42
0.5384470000000001
 10
332.6886458088436
 20
819.2098978637476
 42
0.079307
 10
333.1509665997437
 20
820.1636069872476
 42
0.002446
 10
334.3951866494437
 20
824.3605082797476
 42
-0.016059
 10
337.3759546963437
 20
833.4948639643476
 42
-0.018852
 10
340.7983207969437
 20
841.9345858631476
 42
-0.020079
 10
344.2806189653436
 20
848.9087537023475
 42
-0.060768
 10
347.3791042325436
 20
853.2066213100476
 42
0.035004
 10
348.6871847317437
 20
854.8373520652475
 42
0.6385100000000001
 10
348.4331380019437
 20
855.2705005679477
 42
0.12805
 10
347.1563774821437
 20
854.8031860846476
 42
0.01407
  0
LWPOLYLINE
  5
D18
330
22
100
AcDbEntity
  8
0
 62
     7
100
AcDbPolyline
 90
       68
 70
     1
 43
0.0
 10
494.1606501270435
 20
831.2438469372477
 42
0.030091
 10
497.6283132696436
 20
814.6450081505475
 42
0.036599
 10
502.9134306060436
 20
799.6698045135477
 42
0.039894
 10
509.7976204258436
 20
786.8310252326477
 42
0.054397
 10
518.0553293749436
 20
776.6324070889476
 42
0.02864
 10
522.7555135470436
 20
772.4747756472476
 42
0.033693
 10
527.6618046915436
 20
769.1211007495475
 42
0.02791
 10
533.6886746689436
 20
766.0107325738477
 42
0.012259
 10
541.9764862103436
 20
762.5446445082476
 42
-0.024185
 10
552.0924322090436
 20
758.0277108463477
 42
-0.03865
 10
560.1784251773436
 20
753.1192440782477
 42
-0.043657
 10
566.6730674190436
 20
747.5358350904476
 42
-0.045954
 10
571.9770825758436
 20
740.9982204031475
 42
0.004238
 10
573.7850645824436
 20
738.3454400283475
 42
0.080327
 10
574.4801119229435
 20
737.6243596910476
 42
0.480072
 10
574.8824874557437
 20
737.7278267319476
 42
0.077197
 10
575.1325328692436
 20
738.6317890269476
 42
0.066663
 10
575.1140734323436
 20
739.6953182605476
 42
0.01745
 10
574.7988617296437
 20
741.3761442233476
 42
0.017411
 10
574.3016968215437
 20
743.2826088892475
 42
0.017029
 10
573.6698426565436
 20
745.1642432033476
 42
0.07258
 10
571.1264595263436
 20
749.7876311211475
 42
0.029455
 10
566.4476700208435
 20
755.2672277925475
 42
0.027725
 10
560.5045002559434
 20
760.8009574551476
 42
0.027223
 10
553.9505202858435
 20
765.6793464597476
 10
547.7433202858436
 20
769.7945028077476
 10
552.0107702858435
 20
769.2181208373475
 42
-0.027807
 10
559.8274894868437
 20
767.7160040420475
 42
-0.023461
 10
567.8951975957436
 20
765.2876861059476
 42
-0.024231
 10
575.1365062531435
 20
762.3302827357477
 42
-0.051832
 10
580.3112595735436
 20
759.2300912644476
 42
0.004485
 10
582.8367364835436
 20
757.3718146439476
 42
0.061731
 10
583.8314053680436
 20
756.8257300167475
 42
0.490883
 10
584.1523626102437
 20
757.0154585160477
 42
0.119019
 10
584.0711049309435
 20
757.7336819895475
 42
0.084534
 10
581.2307196951435
 20
762.7147380821476
 42
0.029268
 10
575.5974094747436
 20
768.8173056394476
 42
0.029307
 10
568.8258663687435
 20
774.6170037353476
 42
0.042507
 10
562.1798747453436
 20
778.8272016261475
 42
0.02211
 10
556.2891697866436
 20
781.5681863129476
 42
0.016369
 10
549.5608955200435
 20
784.0896944944476
 42
0.016631
 10
543.0081437996436
 20
786.0634653817476
 42
0.033766
 10
537.7274723702436
 20
787.0889243059476
 42
-0.027582
 10
534.9640843468437
 20
787.5901983804476
 42
-0.070726
 10
533.0780242991436
 20
788.3343733812475
 42
-0.050741
 10
531.1371476923437
 20
789.7153683070476
 42
-0.00911
 10
527.8486181345435
 20
792.7062719356476
 42
-0.018489
 10
523.8593461302436
 20
796.7585237429476
 42
-0.013596
 10
519.7347757875435
 20
801.5242792240474
 42
-0.007728
 10
516.0933234593436
 20
806.1134685734476
 42
-0.165307
 10
515.5434702858435
 20
807.7311525701476
 42
-0.349647
 10
515.7538307420436
 20
807.9951952196475
 42
-0.034621
 10
516.6114384433436
 20
808.1302025955476
 42
-0.031395
 10
517.7969368292435
 20
808.1588480476476
 42
-0.017816
 10
519.2289952858437
 20
808.0523379269475
 42
0.000773
 10
527.0476837210436
 20
807.2020896371476
 42
0.0206
 10
529.1405521547436
 20
807.0646428316475
 42
0.393303
 10
529.4576182584436
 20
807.3455783759476
 42
0.273073
 10
529.2416457175436
 20
807.8081148670475
 42
0.003783
 10
528.3605398847436
 20
808.4022052031476
 42
0.000463
 10
526.4199782933436
 20
809.6868038647476
 42
0.000548
 10
524.1113840549436
 20
811.2083266949476
 42
0.000452
 10
521.6466864955436
 20
812.8256677438475
 42
-0.014128
 10
517.2721366908436
 20
815.8705918581476
 42
-0.00769
 10
512.0678107178437
 20
819.8409838877475
 42
-0.005731
 10
505.4765021987436
 20
825.1553402397476
 42
-0.002327
 10
496.6177050714436
 20
832.5366243607478
 10
493.5978898570436
 20
835.0766889666475
  0
LWPOLYLINE
  5
D5E
330
22
100
AcDbEntity
  8
0
 62
     7
100
AcDbPolyline
 90
       32
 70
     1
 43
0.0
 10
367.4255041446437
 20
824.2787633352474
 42
0.035356
 10
365.3344854565437
 20
821.5273078779476
 42
0.023388
 10
363.3187042396437
 20
818.1057704385477
 42
0.023273
 10
361.6156526213437
 20
814.4797445541476
 42
0.032968
 10
360.4720543872437
 20
811.1041124623476
 42
0.015564
 10
360.0261454331437
 20
809.1963217833475
 42
0.001889
 10
359.1933385994437
 20
804.9732377453475
 42
0.002242
 10
358.2449808582437
 20
799.9457292956476
 42
0.001846
 10
357.2769230160437
 20
794.5730508683476
 42
-0.006435
 10
356.2282103688437
 20
789.0440417813477
 42
-0.008642
 10
355.1273704319437
 20
784.0651721749476
 42
-0.00812
 10
354.0850806849437
 20
780.0023130387476
 42
-0.051139
 10
353.3133511474437
 20
778.0099865029478
 42
0.012448
 10
352.7278934747437
 20
776.7881829801476
 42
0.019249
 10
352.2900437939437
 20
775.7028695781476
 42
0.01421
 10
351.9980733998437
 20
774.8115381592476
 42
0.275018
 10
352.0667816725437
 20
774.5409104464475
 42
0.441836
 10
353.0419452069437
 20
774.5864743980476
 42
0.01021
 10
356.2520258434437
 20
778.6250245872476
 42
0.019162
 10
359.3890547190437
 20
783.0861927643476
 42
0.032646
 10
361.6103896916436
 20
787.0642056837477
 42
0.022195
 10
363.8398126458437
 20
792.3428783947477
 42
0.028899
 10
365.3771646119437
 20
797.3578847677475
 42
0.030381
 10
366.2712388373437
 20
802.3012336721476
 42
0.029555
 10
366.5706702858437
 20
807.3624309239475
 42
-0.021785
 10
366.7806544305437
 20
812.1796115052475
 42
-0.025629
 10
367.4105626383437
 20
816.7027546948474
 42
-0.027829
 10
368.4227210847437
 20
820.7464809129477
 42
-0.041886
 10
369.7856359887436
 20
824.1134306837476
 42
0.022841
 10
370.8075793100437
 20
826.3854660659475
 42
0.507295
 10
370.4772554030437
 20
826.9100931786477
 42
0.220036
 10
369.5310631987436
 20
826.5504487865475
 42
0.013466
  0
LWPOLYLINE
  5
D80
330
22
100
AcDbEntity
  8
0
 62
     7
100
AcDbPolyline
 90
       46
 70
     1
 43
0.0
 10
380.7541509941437
 20
819.6356644538477
 42
0.009786
 10
378.1909568092437
 20
812.0623768947476
 42
0.00388
 10
374.9553397519437
 20
801.5660304030475
 42
0.003856
 10
371.8977118269437
 20
791.0730986472477
 42
0.010449
 10
369.9430249760437
 20
783.5726556837475
 42
0.046536
 10
367.6895615362437
 20
767.7009275291476
 42
0.054074
 10
368.6036516539437
 20
752.4869926524476
 42
0.044369
 10
373.0463929819437
 20
735.5639432748476
 42
0.019639
 10
381.7242075547436
 20
714.1296056837476
 42
-0.005814
 10
389.3460594707437
 20
696.7043581347476
 42
-0.022291
 10
393.4730071710437
 20
685.6099781831476
 42
-0.03477
 10
395.5862158232437
 20
677.0502261061475
 42
-0.040967
 10
396.3415397311436
 20
668.7394556837475
 42
-0.008126
 10
396.3214175405437
 20
666.0580414953476
 42
-0.008858
 10
396.2134013979437
 20
663.4548496654477
 42
-0.008411
 10
396.0441682971437
 20
661.2325735261475
 42
-0.042616
 10
395.8243162562436
 20
660.0105806837476
 42
0.026964
 10
395.6505557789437
 20
659.1924422395475
 42
0.047574
 10
395.6089807292437
 20
658.5036370145474
 42
0.067907
 10
395.6906046333437
 20
658.0292595135476
 42
0.327176
 10
395.8985807488437
 20
657.8768556837476
 42
0.284836
 10
396.2247807473436
 20
658.0790901392475
 42
0.009311
 10
396.9114506955437
 20
659.5292806029476
 42
0.015267
 10
397.6647541598437
 20
661.3459914845475
 42
0.009711
 10
398.4350381956437
 20
663.5021306837476
 42
0.017842
 10
399.3621401563438
 20
666.6315223756476
 42
0.027229
 10
399.9188445268437
 20
669.4078632736475
 42
0.025304
 10
400.1949081950436
 20
672.3725081185476
 42
0.012932
 10
400.2561887770436
 20
676.1105056837476
 42
0.033664
 10
399.7495982357437
 20
682.6960818536475
 42
0.030883
 10
398.3601995370436
 20
689.3509769295475
 42
0.017019
 10
395.4856149569437
 20
698.5912538267475
 42
0.003014
 10
389.4081625067436
 20
715.6814056837475
 42
-0.006802
 10
383.1638333640437
 20
733.6714122211475
 42
-0.032199
 10
380.4009085529438
 20
744.2225613057477
 42
-0.039824
 10
379.3011246159437
 20
753.9896067996476
 42
-0.014144
 10
379.2415106671437
 20
768.0546556837476
 42
-0.005322
 10
379.4831872232437
 20
775.0183124056476
 42
-0.005297
 10
379.8733120709437
 20
781.9863374445475
 42
-0.005297
 10
380.3449894399437
 20
788.0906515527477
 42
-0.018878
 10
380.8353776374437
 20
791.9788268906476
 42
0.010047
 10
382.1485511442436
 20
801.0915272062476
 42
0.011046
 10
383.0473924992436
 20
809.9664459837477
 42
0.009656
 10
383.4998872925437
 20
817.5583551428475
 42
0.068217
 10
383.1463857007437
 20
821.2291915799475
 10
382.4261340246437
 20
824.2747239998475
  0
LWPOLYLINE
  5
DB0
330
22
100
AcDbEntity
  8
0
 62
     7
100
AcDbPolyline
 90
       28
 70
     1
 43
0.0
 10
411.1341290959436
 20
819.8459806837476
 42
-0.015868
 10
413.0616074615437
 20
808.9988660959477
 42
-0.023193
 10
414.0082380493437
 20
799.3453751188476
 42
-0.015111
 10
414.2688543244436
 20
787.0261664103476
 42
-0.003125
 10
413.9366721369436
 20
765.3390056837475
 42
0.012272
 10
413.9693142499437
 20
754.3793972344476
 42
0.032334
 10
414.6917213762436
 20
746.5636339422476
 42
0.041308
 10
416.2691640953436
 20
740.1003473713476
 42
0.035326
 10
418.9514364291436
 20
733.6224513793475
 42
0.0181
 10
421.0744074551437
 20
729.7307387133476
 42
0.025891
 10
423.2530834457437
 20
726.4581445897476
 42
0.02313
 10
425.1812919332436
 20
724.0997624001477
 42
0.43005
 10
426.0458625611436
 20
724.0765148843475
 42
0.231257
 10
426.1610969014436
 20
724.4119845601477
 42
0.014506
 10
425.9974479529437
 20
725.4756208679476
 42
0.019008
 10
425.7068477982436
 20
726.7770837160477
 42
0.012789
 10
425.2811324175436
 20
728.2395155540475
 42
-0.030222
 10
422.8361962552437
 20
737.8779711409476
 42
-0.027445
 10
421.4731362579437
 20
748.0564989059476
 42
-0.025701
 10
421.1802658198436
 20
758.9586217001476
 42
-0.020123
 10
421.9464205158436
 20
770.7703056837476
 42
0.012356
 10
422.6306774150436
 20
779.2728079792476
 42
0.030135
 10
422.6014182260437
 20
785.5553307994477
 42
0.031674
 10
421.8217434725437
 20
791.6020389880476
 42
0.015002
 10
420.0937389102437
 20
799.2732109875476
 42
0.021752
 10
417.3851193401436
 20
808.1851324360476
 42
0.018047
 10
413.7570272340437
 20
817.4117589245474
 42
0.085464
 10
411.8970963947437
 20
820.2428791384477
 42
0.759187
  0
LWPOLYLINE
  5
DCE
330
22
100
AcDbEntity
  8
0
 62
     7
100
AcDbPolyline
 90
       34
 70
     1
 43
0.0
 10
391.9889106532437
 20
789.0039556837475
 42
0.028924
 10
389.7431061223437
 20
779.7049610022476
 42
0.020733
 10
388.2750482334436
 20
769.1097439012476
 42
0.021032
 10
387.7179225492437
 20
758.8339415532476
 42
0.040252
 10
388.2818420138437
 20
750.5969056837476
 42
0.035097
 10
390.1435977699437
 20
742.2313598249476
 42
0.028688
 10
393.2575537072437
 20
733.6072864138476
 42
0.021396
 10
398.1872002176437
 20
723.3144010755475
 42
0.008274
 10
405.8561314179437
 20
709.4742056837476
 42
-0.007177
 10
409.9895633145436
 20
702.0530139221476
 42
-0.014563
 10
412.9837971059436
 20
696.0803560777476
 42
-0.015877
 10
414.9650181850437
 20
691.4439353676477
 42
-0.09329
 10
415.4523702858437
 20
688.8546274923476
 42
0.017562
 10
415.4849976567437
 20
687.9260024399476
 42
0.200394
 10
415.6462017443436
 20
687.6053136591476
 42
0.346894
 10
415.9203574744436
 20
687.5938885316477
 42
0.040002
 10
416.4222452858437
 20
688.0219052317475
 42
0.135312
 10
416.8349953775437
 20
688.7499973773475
 42
0.028406
 10
417.1140547956436
 20
690.2015510973475
 42
0.024562
 10
417.2778581482437
 20
692.1465632511475
 42
0.012836
 10
417.3003126942436
 20
694.5782602317475
 42
0.039929
 10
416.8267072137436
 20
699.4835644314475
 42
0.027763
 10
415.5486548204437
 20
704.9034261136475
 42
0.023442
 10
413.4189691558436
 20
711.0415205801476
 42
0.013924
 10
410.3415239689436
 20
718.1476333179476
 42
-0.003627
 10
404.1977173266436
 20
731.5694766200476
 42
-0.014491
 10
400.7343922409436
 20
739.9225304888476
 42
-0.02069
 10
398.4086552679437
 20
746.8779618948475
 42
-0.014655
 10
396.3559078473437
 20
754.8504236233476
 42
-0.013092
 10
395.3228606211437
 20
760.0394116051477
 42
-0.015792
 10
394.6355210712436
 20
764.9612882529477
 42
-0.012793
 10
394.1677759634437
 20
770.6815799669477
 42
-0.005124
 10
393.8084388277437
 20
778.5293056837475
 10
393.2847311565437
 20
793.2714056837476
  0
LWPOLYLINE
  5
DF2
330
22
100
AcDbEntity
  8
0
 62
     7
100
AcDbPolyline
 90
       32
 70
     1
 43
0.0
 10
501.7480769118436
 20
767.1705750503477
 42
0.030575
 10
502.7198101923437
 20
765.6362397834477
 42
0.011633
 10
504.2509565102436
 20
763.6177638658475
 42
0.01147
 10
506.0209372625437
 20
761.4956339154477
 42
0.013778
 10
507.7844702858437
 20
759.5860602182476
 42
0.020809
 10
510.3857852136436
 20
757.1335101492476
 42
0.041146
 10
512.6736093849435
 20
755.4580122917475
 42
0.034517
 10
515.4551294154437
 20
754.0068822131476
 42
0.01077
 10
519.8109202858436
 20
752.2148069324475
 42
-0.020559
 10
531.2432683112436
 20
747.2474563374476
 42
-0.026829
 10
541.2239764917436
 20
741.7345983848475
 42
-0.027102
 10
548.8213891095435
 20
736.3965064759476
 42
-0.150315
 10
551.6296629479436
 20
732.3416973022476
 42
0.040267
 10
551.8688892118436
 20
731.7560922085476
 42
0.050157
 10
552.1852352803436
 20
731.2609640379477
 42
0.058624
 10
552.5267973229436
 20
730.9197379600476
 42
0.168516
 10
552.8389566350435
 20
730.8114556837475
 42
0.492838
 10
553.6930021794436
 20
731.9233312463476
 42
0.047629
 10
552.3144978926435
 20
735.6305915330475
 42
0.040526
 10
549.7581199892436
 20
739.9718024665475
 42
0.055779
 10
546.7596071093436
 20
743.3587580429477
 42
0.027915
 10
542.2362614098435
 20
747.0083604247475
 42
0.018066
 10
536.6345202327436
 20
750.7343548169476
 42
0.013163
 10
529.1347360083436
 20
755.0733575390475
 42
0.004989
 10
518.4484996301436
 20
760.7485322198475
 42
-0.001709
 10
512.3879788697435
 20
763.9163177714475
 42
-0.002617
 10
507.1592089431436
 20
766.7072130016476
 42
-0.000895
 10
502.6622011691436
 20
769.1482642326477
 42
-0.071697
 10
502.0224025640437
 20
769.6268634055476
 42
0.065497
 10
501.0259514372436
 20
770.3916152743476
 42
0.540913
 10
500.6058559002436
 20
770.1793321379477
 42
0.134556
 10
500.7724555964436
 20
769.1220038971476
 42
0.019914
  0
LWPOLYLINE
  5
E14
330
22
100
AcDbEntity
  8
0
 62
     7
100
AcDbPolyline
 90
       26
 70
     1
 43
0.0
 10
451.5317202858437
 20
767.4173345273476
 42
-0.032752
 10
457.2913136625436
 20
763.4323982522476
 42
-0.027529
 10
462.8436866503436
 20
758.5055418782477
 42
-0.027676
 10
467.7875158368437
 20
753.0324984582477
 42
-0.034335
 10
471.7219138654437
 20
747.4111223557477
 42
-0.03386
 10
474.0513891246437
 20
742.8739089955476
 42
-0.021196
 10
476.1788324382437
 20
737.2938068935476
 42
-0.02127
 10
477.7709272529437
 20
731.7430345874476
 42
-0.046302
 10
478.4073212088436
 20
727.3620905908476
 42
0.013493
 10
478.5187474319436
 20
725.9492279002476
 42
0.019231
 10
478.6995305801436
 20
724.7037493407476
 42
0.015538
 10
478.9158856397436
 20
723.7066697349476
 42
0.195555
 10
479.1386279081436
 20
723.4018046587475
 42
0.390228
 10
479.9917982373436
 20
723.5663583066476
 42
0.039779
 10
481.1797143276437
 20
725.4753368885476
 42
0.036983
 10
482.3248294462437
 20
728.1598732985476
 42
0.030635
 10
483.1480236548436
 20
731.1575218258476
 42
0.096697
 10
483.2392943236436
 20
737.6948346880475
 42
0.061337
 10
480.9710802489436
 20
744.9923611799476
 42
0.055426
 10
476.6583595875437
 20
752.2757748267475
 42
0.048965
 10
470.6868718003436
 20
758.7737363686476
 42
0.038562
 10
466.3155675853436
 20
762.1151892895475
 42
0.022329
 10
460.6086927341435
 20
765.4660150824476
 42
0.021882
 10
454.9108501348436
 20
768.1659701772475
 42
0.065192
 10
450.7558202858437
 20
769.3094582335477
 10
447.6522202858436
 20
769.7416275504476
  0
LWPOLYLINE
  5
E30
330
22
100
AcDbEntity
  8
0
 62
     7
100
AcDbPolyline
 90
       24
 70
     1
 43
0.0
 10
447.2920669033436
 20
729.6476056837477
 42
0.019308
 10
447.6982210691437
 20
718.5638493549475
 42
0.025645
 10
448.9708406106436
 20
708.5588586080476
 42
0.028677
 10
451.0612517690437
 20
699.8330771213476
 42
0.044095
 10
453.9445078075436
 20
692.6270230322476
 42
0.030783
 10
455.6143912526436
 20
689.7788617266476
 42
0.018568
 10
457.9176022968438
 20
686.6130795488477
 42
0.009606
 10
460.2631534281436
 20
683.7438393679477
 42
0.438105
 10
460.9477866388437
 20
683.7161389620476
 42
0.2627739999999999
 10
461.0165616389436
 20
683.9632281965475
 42
0.00528
 10
460.6795688714436
 20
685.2665625154477
 42
0.011066
 10
460.2256021958436
 20
686.8119776343476
 42
0.007029
 10
459.6321007678437
 20
688.5915733394476
 42
-0.024398
 10
458.2595359955436
 20
693.2389908802475
 42
-0.013338
 10
457.0106008015437
 20
699.0497517583475
 42
-0.010583
 10
455.8040344029437
 20
706.3465139887475
 42
-0.005204
 10
454.5626859591436
 20
715.6745886263475
 42
0.01557
 10
453.4209149695437
 20
723.0774613889475
 42
0.017848
 10
451.8601447896437
 20
730.0617492918476
 42
0.01775
 10
450.1228294273436
 20
735.8614931658475
 42
0.080345
 10
448.4758443430436
 20
738.9725635310477
 42
0.36803
 10
447.9028297786436
 20
739.0996606064475
 42
0.244055
 10
447.4973157303436
 20
738.5132656465477
 42
0.028886
 10
447.3333378002436
 20
736.1237481417475
 42
0.002194
  0
LWPOLYLINE
  5
E4A
330
22
100
AcDbEntity
  8
0
 62
     7
100
AcDbPolyline
 90
       48
 70
     1
 43
0.0
 10
357.2728347989437
 20
720.1110940460477
 42
0.080062
 10
357.6954139918437
 20
717.2539998037475
 42
0.004723
 10
360.4279002459437
 20
708.8986547022476
 42
0.007812
 10
363.5950503354437
 20
699.9776722935475
 42
0.010718
 10
366.7395216438436
 20
692.0636754059476
 42
-0.01409
 10
367.9770743848437
 20
688.8867544077476
 42
-0.011224
 10
369.1371558385437
 20
685.3958654745476
 42
-0.011386
 10
370.0659515889437
 20
682.1117562190476
 42
-0.027854
 10
370.5578279626436
 20
679.6492754059475
 42
-0.039492
 10
370.8741763588437
 20
674.5956928367474
 42
-0.013846
 10
370.5530965244437
 20
667.3224411522475
 42
-0.012655
 10
369.7153689329437
 20
658.7235138842475
 42
-0.009598
 10
368.3777925952437
 20
649.3419556837476
 42
0.014747
 10
367.9172299937436
 20
645.8550820330475
 42
0.007272
 10
367.5274597323436
 20
641.4011041212476
 42
0.007209
 10
367.2566147675436
 20
636.7627832320476
 42
0.010442
 10
367.1621318727436
 20
632.6601056837476
 42
0.006959
 10
367.2223067972437
 20
627.5503813182475
 42
0.024144
 10
367.4665158909436
 20
624.2550703944475
 42
0.033729
 10
367.9721404367437
 20
621.6214826820475
 42
0.027215
 10
368.8553706837437
 20
618.8786723025477
 42
0.016288
 10
369.5637937643437
 20
617.1961603090476
 42
0.027944
 10
370.2758402979437
 20
615.8514045686477
 42
0.028271
 10
370.9128611810437
 20
614.9190101940476
 42
0.384552
 10
371.2852629209436
 20
614.8509885928476
 42
0.193121
 10
371.5653209223437
 20
615.2305511138475
 42
0.022074
 10
371.7914375798437
 20
616.2914740993476
 42
0.024085
 10
371.9497103172437
 20
617.6301010056477
 42
0.017384
 10
372.0019702858437
 20
619.1327539478476
 42
-0.028532
 10
372.2629395954437
 20
623.7023269934476
 42
-0.008513
 10
373.1764695133437
 20
630.6294077893475
 42
-0.007967
 10
374.5402704951437
 20
638.8664902128477
 42
-0.00606
 10
376.2872543473437
 20
647.8468530244477
 42
0.013993
 10
377.8847742548436
 20
656.8156665645475
 42
0.022544
 10
378.6841739381437
 20
664.5337921525476
 42
0.026477
 10
378.7186642449437
 20
671.1871835342475
 42
0.04063
 10
377.9778496670437
 20
676.8992204481476
 42
0.024334
 10
376.4153096592437
 20
682.8003038452476
 42
0.018569
 10
374.1574716952437
 20
689.0901340916476
 42
0.017827
 10
371.3201450572437
 20
695.4879323748476
 42
0.01743
 10
368.0144075892437
 20
701.7166015278476
 42
-0.001952
 10
366.2300075113437
 20
704.8412423840476
 42
-0.001263
 10
364.1881095004437
 20
708.4707947339476
 42
-0.00127
 10
362.2108563739437
 20
712.0274815389475
 42
-0.002403
 10
360.6384523494436
 20
714.9055056837475
 42
0.006486
 10
359.3500735030437
 20
717.2185768651477
 42
0.013192
 10
358.2668325299437
 20
718.9951170760476
 42
0.014621
 10
357.4574392546437
 20
720.1701741756476
 42
0.7200540000000001
  0
LWPOLYLINE
  5
E7C
330
22
100
AcDbEntity
  8
0
 62
     7
100
AcDbPolyline
 90
       28
 70
     1
 43
0.0
 10
563.0714924713436
 20
693.5504006729477
 42
-0.032318
 10
553.1100328180436
 20
689.2032478972476
 42
-0.016605
 10
540.1512683611436
 20
684.9997716281476
 42
-0.01557
 10
525.5704655567436
 20
681.2872359973475
 42
-0.014828
 10
510.5481438404437
 20
678.4210419998475
 42
0.003987
 10
507.5400129041437
 20
677.9144211984475
 42
0.005727
 10
504.8846798183435
 20
677.4139874236475
 42
0.003208
 10
502.6560125907436
 20
676.9525821947476
 42
0.085964
 10
502.0964459251437
 20
676.7277411168476
 42
0.346171
 10
501.9968801094436
 20
676.4555740184476
 42
0.104544
 10
502.2326326690436
 20
676.0477547712476
 42
0.057461
 10
502.7913155845435
 20
675.5542614219475
 42
0.028218
 10
503.6002223705436
 20
675.0557495514475
 42
0.101215
 10
507.4069359674436
 20
673.9025922293475
 42
0.018314
 10
514.8237555325436
 20
673.4885006065476
 42
0.02074
 10
522.8358075585435
 20
673.6673921105476
 42
0.03394
 10
529.5651246347436
 20
674.5584775691476
 42
0.025452
 10
539.6910727603435
 20
677.1483650417475
 42
0.028917
 10
549.0673416505436
 20
680.6680988333475
 42
0.030584
 10
557.4713946504437
 20
685.0228399110477
 42
0.037638
 10
564.6856763831435
 20
690.1131737596476
 42
0.015527
 10
567.7726635882436
 20
692.8248286505476
 42
0.02827
 10
570.0901193805436
 20
695.2511222635477
 42
0.053824
 10
571.1947782972436
 20
696.8713884554476
 42
0.6211090000000001
 10
570.8536445514436
 20
697.3484746233475
 42
0.071869
 10
570.4234087773436
 20
697.2130094664475
 42
0.001379
 10
568.3163320628437
 20
696.1918366138476
 42
0.003307
 10
565.8643895235436
 20
694.9750198003475
 42
0.002206
  0
LWPOLYLINE
  5
E9A
330
22
100
AcDbEntity
  8
0
 62
     7
100
AcDbPolyline
 90
       24
 70
     1
 43
0.0
 10
568.6207541001436
 20
668.0177305735476
 42
-0.034456
 10
566.0260684619436
 20
665.0841131937475
 42
-0.020444
 10
562.5670007395435
 20
661.9455232073476
 42
-0.020368
 10
558.8271673949436
 20
659.0713870974476
 42
-0.031703
 10
555.3646903679436
 20
656.9431205539475
 42
0.015104
 10
554.0797720355437
 20
656.2109114829477
 42
0.021884
 10
552.9959840529436
 20
655.4822350846475
 42
0.018537
 10
552.1765009740436
 20
654.8293175623475
 42
0.218631
 10
552.0107702858435
 20
654.4684138845475
 42
0.3820909999999999
 10
552.2402318482436
 20
654.2119812622476
 42
0.017454
 10
553.5122562744436
 20
654.1151202339476
 42
0.021356
 10
555.1761994291437
 20
654.1177978648476
 42
0.0122
 10
557.1814167675436
 20
654.2558002147476
 42
0.045151
 10
561.4166056214436
 20
655.0411561080476
 42
0.066052
 10
564.8964263411436
 20
656.5350429320475
 42
0.073252
 10
567.6030223640436
 20
658.7402050450475
 42
0.073653
 10
569.5529312227436
 20
661.6283228729477
 42
0.039952
 10
570.5421160460437
 20
664.2019203250477
 42
0.022157
 10
571.3513626762436
 20
667.4693942845475
 42
0.013611
 10
571.8866041009436
 20
670.5641653184476
 42
0.4570580000000001
 10
571.4513048034436
 20
671.0671556837476
 42
0.199267
 10
571.1675798986436
 20
670.9494066515476
 42
0.008961
 10
570.4190047689436
 20
670.1713868927476
 42
0.013866
 10
569.5541175738436
 20
669.1861932990477
 42
0.009363
  0
LWPOLYLINE
  5
EB4
330
22
100
AcDbEntity
  8
0
 62
     7
100
AcDbPolyline
 90
       32
 70
     1
 43
0.0
 10
414.7240422666436
 20
621.7481786171475
 42
0.046647
 10
411.7411288562436
 20
618.5000354302476
 42
0.068119
 10
409.8352205106436
 20
615.1213618104476
 42
0.062243
 10
408.8017589538437
 20
611.1281668557475
 42
0.032242
 10
408.4692702858436
 20
605.9773647924475
 42
0.068164
 10
409.8555227100437
 20
595.8560456862476
 42
0.052191
 10
413.9667661943437
 20
585.4579195996475
 42
0.050696
 10
420.3072037423436
 20
575.8247742723475
 42
0.055177
 10
428.2979192942436
 20
567.9649654648476
 42
0.028791
 10
431.4110085512437
 20
565.7922600247476
 42
0.024673
 10
434.9143832672436
 20
563.8672862643476
 42
0.017378
 10
438.1305710126436
 20
562.4374181734475
 42
0.300861
 10
439.2025831609436
 20
562.6557354841475
 42
0.329148
 10
439.2495297663436
 20
562.9675440894476
 42
0.012625
 10
438.6418192816436
 20
564.0494931890475
 42
0.018269
 10
437.7986091807437
 20
565.3547998457476
 42
0.011331
 10
436.7194944438437
 20
566.8263368702476
 42
-0.039823
 10
433.4646482568436
 20
571.8400932683477
 42
-0.013898
 10
429.5778400547437
 20
579.5221604556476
 42
-0.014195
 10
425.9934691377436
 20
587.7192405787476
 42
-0.025892
 10
423.6132880376436
 20
594.6217253446476
 42
-0.017556
 10
422.0213693522437
 20
600.9839168009476
 42
-0.011728
 10
420.6281741748436
 20
608.3625388090475
 42
-0.011705
 10
419.6350811432437
 20
615.4221937584476
 42
-0.029095
 10
419.3318702858436
 20
620.6285487099476
 42
0.018751
 10
419.2760101412436
 20
622.1175652096476
 42
0.030408
 10
419.1046060722436
 20
623.3720519681476
 42
0.031241
 10
418.8598344510437
 20
624.2956996220477
 42
0.322888
 10
418.5582056537437
 20
624.5131556837476
 42
0.144464
 10
418.1066528030437
 20
624.3799088249476
 42
0.012723
 10
417.1127830955437
 20
623.7009435637475
 42
0.015826
 10
415.9526931069436
 20
622.8072200451475
 42
0.01166
  0
LWPOLYLINE
  5
ED6
330
22
100
AcDbEntity
  8
0
 62
     7
100
AcDbPolyline
 90
       28
 70
     1
 43
0.0
 10
552.3987202858436
 20
606.8793330244476
 42
-0.018963
 10
546.9089166499436
 20
601.3328095467476
 42
-0.012947
 10
540.2802392350436
 20
595.4396799005475
 42
-0.012903
 10
533.3139723855436
 20
589.8633905711476
 42
-0.018065
 10
526.7940202858437
 20
585.2763566719476
 42
-0.015025
 10
521.3011037391436
 20
581.9318404978475
 42
-0.008035
 10
514.3301721788437
 20
578.1163250913476
 42
-0.003693
 10
507.3811582417437
 20
574.5219970496476
 42
-0.118034
 10
505.5334672249436
 20
574.0796556837477
 42
0.089819
 10
505.2079570015437
 20
574.0207059053476
 42
0.095292
 10
504.9313207191437
 20
573.8517350587475
 42
0.099783
 10
504.7462328777436
 20
573.5997685168475
 42
0.109091
 10
504.6808702858436
 20
573.3037556837476
 42
0.4106790000000001
 10
505.4602377829437
 20
572.5149144476477
 42
0.010024
 10
511.0731713175436
 20
572.5596272369476
 42
0.019145
 10
516.9395820713437
 20
572.9491344682476
 42
0.034168
 10
521.7010988107436
 20
573.7806719295476
 42
0.059405
 10
531.7186948290436
 20
577.5498707614477
 42
0.051575
 10
541.0984894088436
 20
583.7167084434476
 42
0.051054
 10
549.1072857584436
 20
591.7460366588475
 42
0.055467
 10
555.0705350394435
 20
601.0233876098476
 42
0.031573
 10
556.4932182963437
 20
604.4135142895476
 42
0.020214
 10
557.7302116134436
 20
608.5021930500476
 42
0.012303
 10
558.6166827947436
 20
612.3095040899475
 42
0.514081
 10
558.1294587174436
 20
612.8371983353475
 42
0.170914
 10
557.9305420103436
 20
612.7379009810477
 42
0.000817
 10
556.3225358143437
 20
611.0716239191475
 42
0.003633
 10
554.5023900234435
 20
609.1516089356475
 42
0.002274
  0
LWPOLYLINE
  5
EF4
330
22
100
AcDbEntity
  8
0
 62
     7
100
AcDbPolyline
 90
       32
 70
     1
 43
0.0
 10
333.3415966948436
 20
500.4675956685476
 42
-0.015499
 10
327.2532637989437
 20
493.0417236781477
 42
-0.016226
 10
320.8056286828437
 20
486.1233213237476
 42
-0.016642
 10
314.0939912640437
 20
479.8093931751476
 42
-0.018598
 10
307.2143202858437
 20
474.1957977978477
 42
0.014354
 10
303.8515045102437
 20
471.4990448423477
 42
0.01769
 10
300.8829848207437
 20
468.7885049197476
 42
0.018658
 10
298.2528071888437
 20
466.0106913635476
 42
0.02014
 10
295.9064863647437
 20
463.1122897570477
 42
0.015647
 10
292.5999652377437
 20
458.3708308085475
 42
0.010752
 10
289.1392138123436
 20
452.8034519147476
 42
0.003904
 10
285.9659364405437
 20
447.3482037612476
 42
0.5758320000000001
 10
286.2655052233437
 20
446.8320556837476
 42
0.168865
 10
286.5532997236437
 20
446.9321056610476
 42
0.006673
 10
287.4312747999437
 20
447.6457171849476
 42
0.011152
 10
288.4554527132437
 20
448.5406293823475
 42
0.007584
 10
289.5819741642437
 20
449.6019674743476
 42
-0.027231
 10
291.2178343943436
 20
451.0261505459476
 42
-0.006403
 10
294.1089921984437
 20
453.2198223558477
 42
-0.006577
 10
297.5040264456437
 20
455.6595972313476
 42
-0.006427
 10
300.9880409048437
 20
458.0284059651476
 42
0.013994
 10
313.4451642865437
 20
466.7766241521476
 42
0.030542
 10
322.3572727269437
 20
474.3029464842477
 42
0.038465
 10
328.8884016661437
 20
481.5783435322477
 42
0.044115
 10
333.8995549197437
 20
489.4573768140475
 42
0.021911
 10
336.2121202143437
 20
494.4406155133476
 42
0.01618
 10
338.3446417934437
 20
500.1351520027476
 42
0.01205
 10
339.9890392512436
 20
505.4161632763475
 42
0.123812
 10
340.0602366111437
 20
507.6832010866476
 42
0.5832600000000001
 10
339.6634475583437
 20
507.8058468237476
 42
0.016199
 10
338.0922873015437
 20
506.2244237376476
 42
0.016463
 10
335.9935290109437
 20
503.8161162625477
 42
0.007038
  0
LWPOLYLINE
  5
F16
330
22
100
AcDbEntity
  8
0
 62
     7
100
AcDbPolyline
 90
       40
 70
     1
 43
0.0
 10
388.3698430400436
 20
505.6622360818476
 42
0.066025
 10
390.3754630705437
 20
502.8721392527477
 42
0.0264
 10
393.7838296074437
 20
499.6138278963477
 42
0.026301
 10
397.7263520849437
 20
496.5696843374476
 42
0.039391
 10
401.4861702858437
 20
494.3859735317476
 42
0.033306
 10
407.6458301169436
 20
491.9196124427476
 42
0.037077
 10
413.8631400939436
 20
490.3971476699475
 42
0.032896
 10
420.8383049646437
 20
489.6954485387476
 42
0.01857
 10
429.3431419432436
 20
489.7179108437476
 42
0.019316
 10
439.8689260809436
 20
490.5448728227476
 42
0.03084
 10
448.7447433506436
 20
492.1480079185476
 42
0.03317
 10
456.8748431303436
 20
494.7224728268476
 42
0.027718
 10
465.1128209424436
 20
498.4847048526476
 42
0.010292
 10
467.1931205720436
 20
499.6331175462477
 42
0.015639
 10
468.9466631069437
 20
500.7234052431477
 42
0.010254
 10
470.3307290449436
 20
501.6867448374476
 42
0.240016
 10
470.5412702858437
 20
502.1000776300477
 42
0.215462
 10
470.4299782934436
 20
502.3463506177476
 42
0.138175
 10
470.1424088041437
 20
502.4843110690476
 42
0.087955
 10
469.7037133923436
 20
502.4831022168476
 42
0.047869
 10
469.1834452858437
 20
502.3369366230475
 42
-0.03284
 10
461.5676888402437
 20
499.9486008139476
 42
-0.014786
 10
451.3143231925437
 20
497.7774960555476
 42
-0.014817
 10
440.8865212586436
 20
496.2072280837475
 42
-0.030771
 10
432.6764067914436
 20
495.7279701717476
 42
-0.025732
 10
427.0842340131436
 20
496.0339851317477
 42
-0.011294
 10
419.7257054873436
 20
496.9863465169477
 42
-0.011331
 10
412.3590563921437
 20
498.2809015273477
 42
-0.023603
 10
406.7034918079437
 20
499.6877921156476
 42
-0.013354
 10
404.1000020324436
 20
500.5439682814476
 42
-0.006773
 10
400.8690683075436
 20
501.7526171956476
 42
-0.006723
 10
397.5661008025436
 20
503.0909073613476
 42
-0.009972
 10
394.7128558001436
 20
504.3594495483477
 42
0.002422
 10
392.2344061891437
 20
505.5064811399477
 42
0.003722
 10
390.0765685448437
 20
506.4731190851476
 42
0.001289
 10
388.2083557489437
 20
507.2876340763476
 42
0.102497
 10
387.8964323104437
 20
507.3522556837477
 42
0.435391
 10
387.7909572403437
 20
507.2389269538476
 42
0.050383
 10
387.8576846403437
 20
506.8558123626476
 42
0.035846
 10
388.0534248128437
 20
506.3107674414476
 42
0.01874
  0
LWPOLYLINE
  5
F40
330
22
100
AcDbEntity
  8
0
 62
     7
100
AcDbPolyline
 90
       32
 70
     1
 43
0.0
 10
370.2171993277437
 20
491.2523306837477
 42
0.054539
 10
371.3097720501437
 20
489.0362423469476
 42
0.019237
 10
373.3286219515437
 20
486.1197552873476
 42
0.019408
 10
375.7151468100437
 20
483.1851889818477
 42
0.028635
 10
378.0468349360437
 20
480.8226704693477
 42
0.028663
 10
381.4199818201436
 20
478.1094024823477
 42
0.030974
 10
384.9979732873436
 20
475.8753256799476
 42
0.029434
 10
388.9854777914436
 20
474.0108092716476
 42
0.021662
 10
393.5922971406437
 20
472.4059602127476
 42
0.05083
 10
400.0668769360436
 20
471.1585706115476
 42
0.029207
 10
408.0182039244436
 20
470.9171097556476
 42
0.028948
 10
416.1037988560437
 20
471.6135413017476
 42
0.043054
 10
423.0173952858437
 20
473.2312540067476
 42
0.007724
 10
425.1737478575437
 20
473.9731261363476
 42
0.012316
 10
426.9902453666436
 20
474.6806763294476
 42
0.006187
 10
428.4736040035436
 20
475.3226373678477
 42
0.295688
 10
428.6426702858436
 20
475.5835283115477
 42
0.358863
 10
428.4545866945436
 20
475.8118353347477
 42
0.003909
 10
426.3258646977436
 20
476.2097253896476
 42
0.00991
 10
423.7796216001436
 20
476.6131794234476
 42
0.006025
 10
420.7556723905436
 20
476.9939981265476
 42
-0.017855
 10
408.1238279673436
 20
478.8893169889476
 42
-0.021289
 10
396.3891955091437
 20
481.6023902250476
 42
-0.022987
 10
385.8351414549437
 20
485.0501538603476
 42
-0.031793
 10
376.7637578143437
 20
489.1587577328476
 42
0.001649
 10
374.2564827424437
 20
490.4817944804475
 42
0.002618
 10
372.0999905087436
 20
491.5963073271476
 42
0.000585
 10
370.2029638904438
 20
492.5613787302476
 42
0.117901
 10
369.9989836599437
 20
492.6101556837476
 42
0.4197600000000001
 10
369.9207155233437
 20
492.5303939396476
 42
0.035127
 10
369.9492306242437
 20
492.2112942020476
 42
0.030509
 10
370.0473610249437
 20
491.7731745080476
 42
0.016935
  0
LWPOLYLINE
  5
F62
330
22
100
AcDbEntity
  8
0
 62
     7
100
AcDbPolyline
 90
       36
 70
     1
 43
0.0
 10
302.7332735507437
 20
380.2986306837476
 42
0.045194
 10
306.1068642496437
 20
374.3272616092477
 42
0.032033
 10
310.8804788218437
 20
368.2848829426476
 42
0.023175
 10
317.8151533510436
 20
361.2610621588477
 42
0.008647
 10
328.1636202858436
 20
352.0344775689476
 42
-0.006495
 10
333.9560582854437
 20
346.9145920170476
 42
-0.013718
 10
338.2839602062436
 20
342.7658399749477
 42
-0.016123
 10
341.9083706668437
 20
338.8506671965477
 42
-0.013883
 10
345.4646865916437
 20
334.5139401891476
 42
0.01444
 10
346.7088018948436
 20
333.0002547248477
 42
0.025867
 10
347.8272780387436
 20
331.8434654148477
 42
0.026303
 10
348.7277968895436
 20
331.0881663357477
 42
0.441349
 10
349.0693240166437
 20
331.1524155111477
 42
0.173771
 10
349.4151154901437
 20
332.7790029603477
 42
0.009836
 10
348.6122343435437
 20
337.9407351269477
 42
0.01611
 10
347.4850262210436
 20
343.3296973675477
 42
0.027451
 10
346.1551693124437
 20
347.7330082334477
 42
0.019473
 10
344.4216589637437
 20
351.9848564362476
 42
0.023451
 10
342.4560303710437
 20
355.8261837080476
 42
0.02516
 10
340.2855540916437
 20
359.2111514286477
 42
0.03182
 10
337.9365439981437
 20
362.0917313880477
 42
0.058328
 10
335.6791669187436
 20
364.0185246339477
 42
0.021922
 10
332.1213930778437
 20
366.1812217399476
 42
0.019762
 10
328.5017668166437
 20
367.9873733984476
 42
0.104386
 10
326.3471188972437
 20
368.4585759166476
 42
-0.119012
 10
323.9814091080437
 20
369.0480286984477
 42
-0.007562
 10
317.6493528318437
 20
372.4762792246476
 42
-0.012044
 10
311.3557796438437
 20
376.2098890753476
 42
-0.029697
 10
306.9829531130437
 20
379.3244168509477
 42
0.003519
 10
305.1087426101437
 20
380.8130415211477
 42
0.005471
 10
303.4698455074437
 20
382.0673777550477
 42
0.001886
 10
302.0449330898437
 20
383.1250605821476
 42
0.160038
 10
301.7916653636437
 20
383.2082556837477
 42
0.4923640000000001
 10
301.6990011784437
 20
383.0878065195477
 42
0.013425
 10
301.9150233769437
 20
382.3535537279477
 42
0.017767
 10
302.2561268626437
 20
381.4147628337476
 42
0.009972
  0
LWPOLYLINE
  5
F88
330
22
100
AcDbEntity
  8
0
 62
     7
100
AcDbPolyline
 90
       24
 70
     1
 43
0.0
 10
316.1924523849437
 20
277.8019916198476
 42
-0.026092
 10
313.7928427488437
 20
272.9364414325477
 42
-0.017887
 10
310.5945340671436
 20
267.6741953004476
 42
-0.017868
 10
307.0216255208436
 20
262.6442807848477
 42
-0.025695
 10
303.4832437486437
 20
258.4835286733476
 42
-0.020247
 10
301.3325280904437
 20
256.3804827593477
 42
-0.006583
 10
297.9920846154437
 20
253.4475031693476
 42
-0.006549
 10
294.1907611958437
 20
250.2827141435476
 42
-0.007329
 10
290.4461692565437
 20
247.3371960095477
 42
0.011145
 10
284.0265107667436
 20
242.2076489508476
 42
0.018981
 10
278.9291154522437
 20
237.6053368047476
 42
0.01609
 10
275.3392015056436
 20
233.8753162674476
 42
0.5408380000000001
 10
275.6024504094437
 20
232.8756125678476
 42
0.192552
 10
277.1820679762437
 20
232.9684373643476
 42
0.004587
 10
283.9577613713437
 20
236.2274214260476
 42
0.010899
 10
290.6977734531437
 20
239.7302530120476
 42
0.020381
 10
295.9637702858437
 20
242.9000574554476
 42
0.049089
 10
305.4248597881437
 20
250.5618170120476
 42
0.054377
 10
312.8515681987437
 20
259.6830700733477
 42
0.059093
 10
317.6274553820437
 20
269.4041830631477
 42
0.084854
 10
319.2407702858437
 20
278.8421049673477
 42
0.029855
 10
319.0959089799437
 20
281.2660406202477
 42
0.4769750000000001
 10
318.4881348714437
 20
281.6481822328476
 42
0.198228
 10
317.6146250996437
 20
280.8817396779477
 42
0.013302
  0
LWPOLYLINE
  5
FA2
330
22
100
AcDbEntity
  8
0
 62
     7
100
AcDbPolyline
 90
       28
 70
     1
 43
0.0
 10
277.3927791392436
 20
216.5119366567477
 42
-0.052758
 10
275.5143275669437
 20
213.0580162549477
 42
-0.013164
 10
271.7243012513437
 20
207.8583891323476
 42
-0.013572
 10
267.1400543849436
 20
202.2279233613476
 42
-0.015056
 10
262.4078146802437
 20
197.0513303820476
 42
0.00484
 10
260.0666435044437
 20
194.5931069322476
 42
0.004711
 10
257.7521788066436
 20
192.0680583190476
 42
0.004652
 10
255.7600532289436
 20
189.8112592851476
 42
0.017477
 10
254.5742452589436
 20
188.3416689937476
 42
0.064875
 10
252.5325598446436
 20
184.7291321308476
 42
0.031644
 10
250.8561681503437
 20
179.6970357844476
 42
0.028301
 10
249.6307435022437
 20
173.7048314672476
 42
0.022361
 10
248.9672667568437
 20
167.1201056837476
 42
0.003812
 10
248.6812451880437
 20
161.1761957102476
 42
0.379027
 10
249.1708916251437
 20
160.5757872204476
 42
0.383844
 10
249.8177586792436
 20
160.9912622729476
 42
0.003832
 10
251.3400069759437
 20
166.7321556837476
 42
-0.037377
 10
253.1519654700437
 20
172.0876083551476
 42
-0.024127
 10
255.9969642072437
 20
177.9890471144476
 42
-0.02419
 10
259.3779042309437
 20
183.5554545814476
 42
-0.03927
 10
262.8242130537437
 20
187.8814035619476
 42
0.014386
 10
268.5834805524437
 20
194.4158153340476
 42
0.035883
 10
272.2902954725437
 20
199.5870398612476
 42
0.040512
 10
274.9569970451437
 20
204.8471351985476
 42
0.02334
 10
277.3372332341437
 20
211.5428177856477
 42
0.014198
 10
278.3888392124437
 20
215.3950860233476
 42
0.056791
 10
278.6923402564437
 20
217.8175451385476
 42
0.713097
 10
278.2564698965437
 20
217.9732255940476
 42
0.070673
  0
LWPOLYLINE
  5
FC0
330
22
100
AcDbEntity
  8
0
 62
     7
100
AcDbPolyline
 90
       24
 70
     1
 43
0.0
 10
593.9093702858436
 20
602.8830003301475
 42
-0.052379
 10
593.6287908796436
 20
600.2120142377475
 42
-0.018225
 10
592.6860855699437
 20
596.4538812916475
 42
-0.010244
 10
590.8848065634436
 20
590.6861890707475
 42
-0.001969
 10
587.3653070936436
 20
580.3141006363476
 42
0.01398
 10
586.1270762160437
 20
576.3549288966475
 42
0.032926
 10
585.4842128059435
 20
573.3288118224476
 42
0.068165
 10
585.4714058005437
 20
571.5931390404476
 42
0.5448840000000001
 10
586.0644168597437
 20
571.3108836902476
 42
0.11721
 10
586.3642851399435
 20
571.6116714119476
 42
0.027573
 10
586.7043070210436
 20
572.2409705382476
 42
0.026918
 10
587.0243106821436
 20
573.0274491588476
 42
0.02364
 10
587.2739068495437
 20
573.8783499805475
 42
-0.054552
 10
587.7101674871436
 20
575.0845144629476
 42
-0.008647
 10
588.8591233107437
 20
577.3277957670476
 42
-0.0095
 10
590.3148676666436
 20
579.9325564667475
 42
-0.008183
 10
591.9408157742435
 20
582.6145556837476
 42
0.017791
 10
595.2157213039436
 20
588.2583234843475
 42
0.053223
 10
596.8845215926436
 20
592.3900740056475
 42
0.070749
 10
597.3900452714437
 20
596.0772733978476
 42
0.05384
 10
596.9314123332436
 20
600.1336747183476
 42
0.02174
 10
595.9703050032437
 20
603.6943946515475
 42
0.132137
 10
594.9496232953435
 20
605.2872777806476
 42
0.562865
 10
594.1925970628435
 20
605.0637161618475
 42
0.064667
  0
ARC
  5
10E4
330
22
100
AcDbEntity
  8
0
 62
     7
100
AcDbCircle
 10
561.6928233060388
 20
638.2305984802606
 30
0.0
 40
88.25425382846438
100
AcDbArc
 50
73.01828703694829
 51
81.25905247710997
  0
ARC
  5
10E5
330
22
100
AcDbEntity
  8
0
 62
     7
100
AcDbCircle
 10
562.372347839775
 20
613.4439238158728
 30
0.0
 40
112.7371813462094
100
AcDbArc
 50
83.51533567372554
 51
88.69197881826108
  0
ARC
  5
10E6
330
22
100
AcDbEntity
  8
0
 62
     7
100
AcDbCircle
 10
564.9863020957559
 20
666.8221723452334
 30
0.0
 40
59.32956994664334
100
AcDbArc
 50
90.03908227176898
 51
92.58841012630767
  0
ARC
  5
10E7
330
22
100
AcDbEntity
  8
0
 62
     7
100
AcDbCircle
 10
565.2061816931448
 20
661.9587519095805
 30
0.0
 40
64.19795832175774
100
AcDbArc
 50
92.58842685852869
 51
94.99132379954998
  0
ARC
  5
10E8
330
22
100
AcDbEntity
  8
0
 62
     7
100
AcDbCircle
 10
564.5625041163259
 20
669.3298046599315
 30
0.0
 40
56.79885435817215
100
AcDbArc
 50
94.99140546232492
 51
97.39888556089512
  0
ARC
  5
10E9
330
22
100
AcDbEntity
  8
0
 62
     7
100
AcDbCircle
 10
558.6653723352937
 20
714.7421437246639
 30
0.0
 40
11.00522267675778
100
AcDbArc
 50
97.39890148540863
 51
105.5214155795581
  0
ARC
  5
10EA
330
22
100
AcDbEntity
  8
0
 62
     7
100
AcDbCircle
 10
558.9509713251069
 20
713.7137897978632
 30
0.0
 40
12.07249892110235
100
AcDbArc
 50
105.5214029182012
 51
118.5195490447931
  0
ARC
  5
10EB
330
22
100
AcDbEntity
  8
0
 62
     7
100
AcDbCircle
 10
561.8146278304886
 20
708.4438994467266
 30
0.0
 40
18.07018788384092
100
AcDbArc
 50
118.5195795232764
 51
128.1272624343902
  0
ARC
  5
10EC
330
22
100
AcDbEntity
  8
0
 62
     7
100
AcDbCircle
 10
560.6444942279074
 20
709.934776902621
 30
0.0
 40
16.1749495778962
100
AcDbArc
 50
128.1272891936459
 51
137.6583295361636
  0
ARC
  5
10ED
330
22
100
AcDbEntity
  8
0
 62
     7
100
AcDbCircle
 10
550.2690194657109
 20
719.3895385851524
 30
0.0
 40
2.137749179868116
100
AcDbArc
 50
137.6583916593899
 51
179.9999510973483
  0
ARC
  5
10EE
330
22
100
AcDbEntity
  8
0
 62
     7
100
AcDbCircle
 10
551.6687798001264
 20
719.3895388219593
 30
0.0
 40
3.53750951428323
100
AcDbArc
 50
179.9999742831604
 51
206.293913523877
  0
ARC
  5
10EF
330
22
100
AcDbEntity
  8
0
 62
     7
100
AcDbCircle
 10
577.6855979286286
 20
732.2443904743277
 30
0.0
 40
32.55684852356995
100
AcDbArc
 50
206.2938786398383
 51
211.4368011038873
  0
ARC
  5
10F0
330
22
100
AcDbEntity
  8
0
 62
     7
100
AcDbCircle
 10
579.6087860719848
 20
733.4199280805728
 30
0.0
 40
34.81085413455224
100
AcDbArc
 50
211.4366920879148
 51
216.9193104444706
  0
ARC
  5
10F1
330
22
100
AcDbEntity
  8
0
 62
     7
100
AcDbCircle
 10
575.6027174863624
 20
730.4099416778418
 30
0.0
 40
29.80000553810536
100
AcDbArc
 50
216.9192594258376
 51
223.0795926771468
  0
LINE
  5
10F2
330
22
100
AcDbEntity
  8
0
 62
     7
100
AcDbLine
 10
553.8366267007436
 20
710.0561306837476
 30
0.0
 11
556.1946822364436
 21
707.5344556837476
 31
0.0
  0
LINE
  5
10F3
330
22
100
AcDbEntity
  8
0
 62
     7
100
AcDbLine
 10
556.1946822364436
 20
707.5344556837476
 30
0.0
 11
553.1328512611436
 21
707.5375755776477
 31
0.0
  0
ARC
  5
10F4
330
22
100
AcDbEntity
  8
0
 62
     7
100
AcDbCircle
 10
553.1639058373969
 20
738.0317403093361
 30
0.0
 40
30.49418054432776
100
AcDbArc
 50
262.304202140748
 51
269.9416512780578
  0
ARC
  5
10F5
330
22
100
AcDbEntity
  8
0
 62
     7
100
AcDbCircle
 10
576.4423593177205
 20
910.2998923733062
 30
0.0
 40
204.3280167556984
100
AcDbArc
 50
260.4295953281926
 51
262.3042714215811
  0
ARC
  5
10F6
330
22
100
AcDbEntity
  8
0
 62
     7
100
AcDbCircle
 10
591.8476356641298
 20
1001.668788501302
 30
0.0
 40
296.9865172775292
100
AcDbArc
 50
258.7724152503859
 51
260.4296094939871
  0
ARC
  5
10F7
330
22
100
AcDbEntity
  8
0
 62
     7
100
AcDbCircle
 10
664.5682229756793
 20
1368.006073945061
 30
0.0
 40
670.4718456709088
100
AcDbArc
 50
257.8707675799175
 51
258.7723693151848
  0
ARC
  5
10F8
330
22
100
AcDbEntity
  8
0
 62
     7
100
AcDbCircle
 10
459.1675424464328
 20
412.278580657856
 30
0.0
 40
307.0783990670393
100
AcDbArc
 50
77.87069844655881
 51
80.70921539756293
  0
ARC
  5
10F9
330
22
100
AcDbEntity
  8
0
 62
     7
100
AcDbCircle
 10
496.0686727492008
 20
637.8480368814896
 30
0.0
 40
78.51052512443209
100
AcDbArc
 50
80.70919201966921
 51
88.53389968853749
  0
ARC
  5
10FA
330
22
100
AcDbEntity
  8
0
 62
     7
100
AcDbCircle
 10
496.9922510617085
 20
673.9319398213268
 30
0.0
 40
42.41480448796382
100
AcDbArc
 50
88.53396966052988
 51
99.65208001742604
  0
ARC
  5
10FB
330
22
100
AcDbEntity
  8
0
 62
     7
100
AcDbCircle
 10
494.252189521661
 20
690.0431392465265
 30
0.0
 40
26.07226233070887
100
AcDbArc
 50
99.65210102321407
 51
115.6601262704433
  0
ARC
  5
10FC
330
22
100
AcDbEntity
  8
0
 62
     7
100
AcDbCircle
 10
491.8750239171732
 20
694.9913315064995
 30
0.0
 40
20.5826791996492
100
AcDbArc
 50
115.6601231253684
 51
131.5290217308677
  0
ARC
  5
10FD
330
22
100
AcDbEntity
  8
0
 62
     7
100
AcDbCircle
 10
497.5007857806443
 20
688.639036340692
 30
0.0
 40
29.06801068509884
100
AcDbArc
 50
131.5290027533691
 51
143.78044955063
  0
ARC
  5
10FE
330
22
100
AcDbEntity
  8
0
 62
     7
100
AcDbCircle
 10
498.5757692613686
 20
687.851651218006
 30
0.0
 40
30.40051389842615
100
AcDbArc
 50
143.7803693912026
 51
155.7692205955338
  0
ARC
  5
10FF
330
22
100
AcDbEntity
  8
0
 62
     7
100
AcDbCircle
 10
494.4099919785561
 20
689.7264889726845
 30
0.0
 40
25.83228481314203
100
AcDbArc
 50
155.7691653832255
 51
169.3150513591968
  0
ARC
  5
1100
330
22
100
AcDbEntity
  8
0
 62
     7
100
AcDbCircle
 10
489.8937605332328
 20
690.5785877850584
 30
0.0
 40
21.23637153576844
100
AcDbArc
 50
169.3149896213283
 51
181.2556148654523
  0
ARC
  5
1101
330
22
100
AcDbEntity
  8
0
 62
     7
100
AcDbCircle
 10
519.0789905118565
 20
691.2182297931762
 30
0.0
 40
50.42861007279936
100
AcDbArc
 50
181.2555655283669
 51
187.5127721055586
  0
ARC
  5
1102
330
22
100
AcDbEntity
  8
0
 62
     7
100
AcDbCircle
 10
520.2858861320127
 20
691.3773521297807
 30
0.0
 40
51.64595018724974
100
AcDbArc
 50
187.5127256990183
 51
193.7383284565591
  0
ARC
  5
1103
330
22
100
AcDbEntity
  8
0
 62
     7
100
AcDbCircle
 10
496.3326719104784
 20
685.5212077780408
 30
0.0
 40
26.98726209945562
100
AcDbArc
 50
193.7383254346878
 51
203.8572842600915
  0
ARC
  5
1104
330
22
100
AcDbEntity
  8
0
 62
     7
100
AcDbCircle
 10
36.46815893604338
 20
482.1472820965365
 30
0.0
 40
475.8410624212704
100
AcDbArc
 50
23.37142293960511
 51
23.85729042198264
  0
ARC
  5
1105
330
22
100
AcDbEntity
  8
0
 62
     7
100
AcDbCircle
 10
470.7055073992502
 20
669.8014839914314
 30
0.0
 40
2.791197936391542
100
AcDbArc
 50
4.787364202188238
 51
23.37132078223055
  0
ARC
  5
1106
330
22
100
AcDbEntity
  8
0
 62
     7
100
AcDbCircle
 10
473.1104655911027
 20
670.0028996140183
 30
0.0
 40
0.3778201877619242
100
AcDbArc
 50
282.1285224410662
 51
4.787401782743688
  0
ARC
  5
1107
330
22
100
AcDbEntity
  8
0
 62
     7
100
AcDbCircle
 10
472.0776543471245
 20
674.8088775268215
 30
0.0
 40
5.293521843073918
100
AcDbArc
 50
269.9999870733975
 51
282.1284818501935
  0
ARC
  5
1108
330
22
100
AcDbEntity
  8
0
 62
     7
100
AcDbCircle
 10
472.077658850231
 20
677.84009909182
 30
0.0
 40
8.324743408074271
100
AcDbArc
 50
248.282716971761
 51
269.99996078723
  0
ARC
  5
1109
330
22
100
AcDbEntity
  8
0
 62
     7
100
AcDbCircle
 10
490.7188172352453
 20
724.6421892201683
 30
0.0
 40
58.70259991584184
100
AcDbArc
 50
243.1439273891993
 51
248.2827266324609
  0
ARC
  5
110A
330
22
100
AcDbEntity
  8
0
 62
     7
100
AcDbCircle
 10
501.734430008207
 20
746.3965786923838
 30
0.0
 40
83.08696347265696
100
AcDbArc
 50
238.528379394864
 51
243.1439616453624
  0
ARC
  5
110B
330
22
100
AcDbEntity
  8
0
 62
     7
100
AcDbCircle
 10
544.3373510549609
 20
815.9956750676123
 30
0.0
 40
164.6899235780549
100
AcDbArc
 50
235.7620607808095
 51
238.5283958440297
  0
ARC
  5
110C
330
22
100
AcDbEntity
  8
0
 62
     7
100
AcDbCircle
 10
353.7657918935042
 20
535.9769005454845
 30
0.0
 40
174.0253451154658
100
AcDbArc
 50
55.76210990082665
 51
59.12902603012002
  0
ARC
  5
110D
330
22
100
AcDbEntity
  8
0
 62
     7
100
AcDbCircle
 10
432.0202784244642
 20
666.8810169744826
 30
0.0
 40
21.51419024384643
100
AcDbArc
 50
59.12909759866727
 51
74.82943201452792
  0
ARC
  5
110E
330
22
100
AcDbEntity
  8
0
 62
     7
100
AcDbCircle
 10
434.9456062302474
 20
677.6698488132119
 30
0.0
 40
10.33579880253972
100
AcDbArc
 50
74.82952516652044
 51
100.0120841214367
  0
ARC
  5
110F
330
22
100
AcDbEntity
  8
0
 62
     7
100
AcDbCircle
 10
436.3157528799176
 20
669.9089997257248
 30
0.0
 40
18.21666680043665
100
AcDbArc
 50
100.0121206263072
 51
116.4880714553017
  0
ARC
  5
1110
330
22
100
AcDbEntity
  8
0
 62
     7
100
AcDbCircle
 10
436.5620886701044
 20
669.4146610467264
 30
0.0
 40
18.76898197410931
100
AcDbArc
 50
116.4880608119208
 51
139.1420793237601
  0
ARC
  5
1111
330
22
100
AcDbEntity
  8
0
 62
     7
100
AcDbCircle
 10
447.0074571557293
 20
660.3800063443893
 30
0.0
 40
32.57951087024146
100
AcDbArc
 50
139.1420638418974
 51
154.1328300909434
  0
ARC
  5
1112
330
22
100
AcDbEntity
  8
0
 62
     7
100
AcDbCircle
 10
473.2223468740317
 20
647.6692812299502
 30
0.0
 40
61.71339107658333
100
AcDbArc
 50
154.1328166699172
 51
164.5486584868766
  0
ARC
  5
1113
330
22
100
AcDbEntity
  8
0
 62
     7
100
AcDbCircle
 10
632.8819871172174
 20
603.5378272814118
 30
0.0
 40
227.3599604651252
100
AcDbArc
 50
164.5486823137151
 51
168.4964293956225
  0
ARC
  5
1114
330
22
100
AcDbEntity
  8
0
 62
     7
100
AcDbCircle
 10
243.1936572581727
 20
682.8462033923281
 30
0.0
 40
170.316808971681
100
AcDbArc
 50
343.9447310625052
 51
348.4963967964796
  0
ARC
  5
1115
330
22
100
AcDbEntity
  8
0
 62
     7
100
AcDbCircle
 10
374.426181198798
 20
645.0788456825835
 30
0.0
 40
33.75785229654164
100
AcDbArc
 50
328.8391824519564
 51
343.9447315257539
  0
ARC
  5
1116
330
22
100
AcDbEntity
  8
0
 62
     7
100
AcDbCircle
 10
384.7253290709704
 20
638.8510771793553
 30
0.0
 40
21.72217419256088
100
AcDbArc
 50
308.8955248801255
 51
328.8391945291218
  0
ARC
  5
1117
330
22
100
AcDbEntity
  8
0
 62
     7
100
AcDbCircle
 10
372.3858168655376
 20
654.1461432470619
 30
0.0
 40
41.37421244515954
100
AcDbArc
 50
296.5816065803629
 51
308.8954408340655
  0
ARC
  5
11E1
330
22
100
AcDbEntity
  8
0
 62
     7
100
AcDbCircle
 10
505.2775882874313
 20
357.0782606628549
 30
0.0
 40
284.9853327764019
100
AcDbArc
 50
78.03597066131759
 51
81.39074269727087
  0
ARC
  5
11E2
330
22
100
AcDbEntity
  8
0
 62
     7
100
AcDbCircle
 10
506.3903700215398
 20
364.4262840982722
 30
0.0
 40
277.5535273756485
100
AcDbArc
 50
81.39080051302688
 51
84.81270852542596
  0
ARC
  5
11E3
330
22
100
AcDbEntity
  8
0
 62
     7
100
AcDbCircle
 10
521.0503080189734
 20
525.9086858801463
 30
0.0
 40
115.4070507955784
100
AcDbArc
 50
84.81270942126718
 51
91.8748138053813
  0
ARC
  5
11E4
330
22
100
AcDbEntity
  8
0
 62
     7
100
AcDbCircle
 10
519.7504931906162
 20
565.6166937210598
 30
0.0
 40
75.67777437025428
100
AcDbArc
 50
91.87478473072014
 51
101.5632259917292
  0
ARC
  5
11E5
330
22
100
AcDbEntity
  8
0
 62
     7
100
AcDbCircle
 10
516.3712633322074
 20
582.1326579303433
 30
0.0
 40
58.81965264223271
100
AcDbArc
 50
101.563192688615
 51
112.58298400629
  0
ARC
  5
11E6
330
22
100
AcDbEntity
  8
0
 62
     7
100
AcDbCircle
 10
507.283016508813
 20
603.9839464072636
 30
0.0
 40
35.15374808691387
100
AcDbArc
 50
112.5829142668589
 51
128.7861530169428
  0
ARC
  5
11E7
330
22
100
AcDbEntity
  8
0
 62
     7
100
AcDbCircle
 10
500.3487887574514
 20
612.6126588312784
 30
0.0
 40
24.08405104480398
100
AcDbArc
 50
128.7861574751664
 51
136.5062488749972
  0
ARC
  5
11E8
330
22
100
AcDbEntity
  8
0
 62
     7
100
AcDbCircle
 10
498.5319389092395
 20
614.3364179017854
 30
0.0
 40
21.57959727121388
100
AcDbArc
 50
136.5062671673273
 51
144.8890247040841
  0
ARC
  5
11E9
330
22
100
AcDbEntity
  8
0
 62
     7
100
AcDbCircle
 10
494.9279434311814
 20
616.8703535295628
 30
0.0
 40
17.17396301823733
100
AcDbArc
 50
144.8889528694553
 51
153.9575765346744
  0
ARC
  5
11EA
330
22
100
AcDbEntity
  8
0
 62
     7
100
AcDbCircle
 10
483.2275753026959
 20
622.5877307741854
 30
0.0
 40
4.151405016853659
100
AcDbArc
 50
153.9575565625074
 51
179.9999523175856
  0
ARC
  5
11EB
330
22
100
AcDbEntity
  8
0
 62
     7
100
AcDbCircle
 10
479.9370034616628
 20
622.5877343612109
 30
0.0
 40
0.8608331758191626
100
AcDbArc
 50
180.0000087966032
 51
251.1572322909632
  0
ARC
  5
11EC
330
22
100
AcDbEntity
  8
0
 62
     7
100
AcDbCircle
 10
480.6274661880439
 20
624.6110076983532
 30
0.0
 40
2.998676428565286
100
AcDbArc
 50
251.1572576162586
 51
279.4663971647984
  0
ARC
  5
11ED
330
22
100
AcDbEntity
  8
0
 62
     7
100
AcDbCircle
 10
477.7318178578267
 20
641.9771618397322
 30
0.0
 40
20.60458705296558
100
AcDbArc
 50
279.4664516866072
 51
287.9519731422515
  0
ARC
  5
11EE
330
22
100
AcDbEntity
  8
0
 62
     7
100
AcDbCircle
 10
375.8382034618792
 20
956.4699182569052
 30
0.0
 40
351.1919469043986
100
AcDbArc
 50
287.9519872953504
 51
289.0261607039051
  0
ARC
  5
11EF
330
22
100
AcDbEntity
  8
0
 62
     7
100
AcDbCircle
 10
520.7412277431081
 20
536.2645133627163
 30
0.0
 40
93.29592553774871
100
AcDbArc
 50
100.5663058902982
 51
109.0261939023803
  0
ARC
  5
11F0
330
22
100
AcDbEntity
  8
0
 62
     7
100
AcDbCircle
 10
526.8740976802403
 20
503.3870689401798
 30
0.0
 40
126.7404833225661
100
AcDbArc
 50
93.84241334845539
 51
100.5663204434507
  0
ARC
  5
11F1
330
22
100
AcDbEntity
  8
0
 62
     7
100
AcDbCircle
 10
527.5428320086448
 20
493.4275731842904
 30
0.0
 40
136.722405045543
100
AcDbArc
 50
87.35864447132824
 51
93.84233805157711
  0
ARC
  5
11F2
330
22
100
AcDbEntity
  8
0
 62
     7
100
AcDbCircle
 10
527.4306698294306
 20
490.9962856225255
 30
0.0
 40
139.1562784116898
100
AcDbArc
 50
80.9601398918236
 51
87.35864467652476
  0
ARC
  5
11F3
330
22
100
AcDbEntity
  8
0
 62
     7
100
AcDbCircle
 10
445.7116047795781
 20
-22.64855195567492
 30
0.0
 40
659.2610993500051
100
AcDbArc
 50
80.19678757997889
 51
80.96019372274643
  0
ARC
  5
11F4
330
22
100
AcDbEntity
  8
0
 62
     7
100
AcDbCircle
 10
538.7601099441595
 20
515.8652146867653
 30
0.0
 40
112.7676399410516
100
AcDbArc
 50
77.37794333340247
 51
80.19675353858202
  0
ARC
  5
130C
330
22
100
AcDbEntity
  8
0
 62
     7
100
AcDbCircle
 10
388.4552084120088
 20
594.1592270006797
 30
0.0
 40
11.620839555629
100
AcDbArc
 50
129.4013102216841
 51
145.0970824465501
  0
ARC
  5
130D
330
22
100
AcDbEntity
  8
0
 62
     7
100
AcDbCircle
 10
399.694810935218
 20
580.4765542066299
 30
0.0
 40
29.32801888122341
100
AcDbArc
 50
120.1446055940214
 51
129.4013168166175
  0
ARC
  5
130E
330
22
100
AcDbEntity
  8
0
 62
     7
100
AcDbCircle
 10
467.0674681971146
 20
464.4606067521806
 30
0.0
 40
163.4875321863897
100
AcDbArc
 50
117.5498567266094
 51
120.1445571234427
  0
ARC
  5
130F
330
22
100
AcDbEntity
  8
0
 62
     7
100
AcDbCircle
 10
355.2191137550596
 20
678.8636372929564
 30
0.0
 40
78.33619265562382
100
AcDbArc
 50
297.5498375317986
 51
306.5775013282482
  0
ARC
  5
1310
330
22
100
AcDbEntity
  8
0
 62
     7
100
AcDbCircle
 10
383.6969274840461
 20
640.4866924143657
 30
0.0
 40
30.54732603384973
100
AcDbArc
 50
306.5775709318063
 51
324.8149570138198
  0
ARC
  5
1311
330
22
100
AcDbEntity
  8
0
 62
     7
100
AcDbCircle
 10
380.9640466660086
 20
642.4134324574175
 30
0.0
 40
33.89112099745844
100
AcDbArc
 50
324.814994423699
 51
341.9064266146685
  0
ARC
  5
1312
330
22
100
AcDbEntity
  8
0
 62
     7
100
AcDbCircle
 10
309.1686449981208
 20
665.8709084713604
 30
0.0
 40
109.4214651089327
100
AcDbArc
 50
341.9064094257878
 51
349.0438427176834
  0
ARC
  5
1313
330
22
100
AcDbEntity
  8
0
 62
     7
100
AcDbCircle
 10
816.1574229699684
 20
567.7252200351924
 30
0.0
 40
406.9797327479646
100
AcDbArc
 50
168.4019579009157
 51
169.0438981357814
  0
ARC
  5
1314
330
22
100
AcDbEntity
  8
0
 62
     7
100
AcDbCircle
 10
813.4734008857382
 20
568.2761488607485
 30
0.0
 40
404.2397515228094
100
AcDbArc
 50
167.7568193740055
 51
168.4019681472251
  0
ARC
  5
1315
330
22
100
AcDbEntity
  8
0
 62
     7
100
AcDbCircle
 10
771.3792104689758
 20
577.4098115601289
 30
0.0
 40
361.1660395778593
100
AcDbArc
 50
167.1271563571087
 51
167.7567207988353
  0
ARC
  5
1316
330
22
100
AcDbEntity
  8
0
 62
     7
100
AcDbCircle
 10
471.1864215639097
 20
646.0133989590488
 30
0.0
 40
53.23396473893939
100
AcDbArc
 50
164.539090363451
 51
167.1271452995469
  0
ARC
  5
1317
330
22
100
AcDbEntity
  8
0
 62
     7
100
AcDbCircle
 10
490.9672372894323
 20
640.5422418094431
 30
0.0
 40
73.75746910156101
100
AcDbArc
 50
157.3705318458881
 51
164.5391036894616
  0
ARC
  5
1318
330
22
100
AcDbEntity
  8
0
 62
     7
100
AcDbCircle
 10
454.2132877689731
 20
655.8636485752207
 30
0.0
 40
33.93789714714261
100
AcDbArc
 50
144.5618250425754
 51
157.3705799985418
  0
ARC
  5
1319
330
22
100
AcDbEntity
  8
0
 62
     7
100
AcDbCircle
 10
442.5396408322284
 20
664.171390800318
 30
0.0
 40
19.60986121466291
100
AcDbArc
 50
127.4466939848541
 51
144.5618287239088
  0
ARC
  5
131A
330
22
100
AcDbEntity
  8
0
 62
     7
100
AcDbCircle
 10
434.7877340266599
 20
674.2933596499735
 30
0.0
 40
6.860496033776001
100
AcDbArc
 50
89.99995581375154
 51
127.4467064786735
  0
ARC
  5
131B
330
22
100
AcDbEntity
  8
0
 62
     7
100
AcDbCircle
 10
434.7877377826679
 20
676.4779272084647
 30
0.0
 40
4.675928475283082
100
AcDbArc
 50
66.28341998943383
 51
89.99998119385876
  0
ARC
  5
131C
330
22
100
AcDbEntity
  8
0
 62
     7
100
AcDbCircle
 10
424.2140562920767
 20
652.409368370209
 30
0.0
 40
30.96467634989706
100
AcDbArc
 50
60.41209143924739
 51
66.28339486931778
  0
ARC
  5
131D
330
22
100
AcDbEntity
  8
0
 62
     7
100
AcDbCircle
 10
407.2270766987713
 20
622.4922330330375
 30
0.0
 40
65.36805499917587
100
AcDbArc
 50
56.32960212937798
 51
60.41206752426273
  0
ARC
  5
131E
330
22
100
AcDbEntity
  8
0
 62
     7
100
AcDbCircle
 10
257.2610176579724
 20
397.3763358058042
 30
0.0
 40
335.8620217500616
100
AcDbArc
 50
55.11557389651246
 51
56.32954551896411
  0
ARC
  5
131F
330
22
100
AcDbEntity
  8
0
 62
     7
100
AcDbCircle
 10
517.0900088712513
 20
770.0483040099303
 30
0.0
 40
118.4456939669924
100
AcDbArc
 50
235.1155768986013
 51
238.9790090844452
  0
ARC
  5
1320
330
22
100
AcDbEntity
  8
0
 62
     7
100
AcDbCircle
 10
483.1606024359622
 20
713.6271346968623
 30
0.0
 40
52.60837197023423
100
AcDbArc
 50
238.9790168190495
 51
246.0658494027657
  0
ARC
  5
1321
330
22
100
AcDbEntity
  8
0
 62
     7
100
AcDbCircle
 10
477.0409211869163
 20
699.8394599026599
 30
0.0
 40
37.52359571002731
100
AcDbArc
 50
246.0658359774069
 51
254.5914092631649
  0
ARC
  5
1322
330
22
100
AcDbEntity
  8
0
 62
     7
100
AcDbCircle
 10
474.511963657327
 20
690.6634321050059
 30
0.0
 40
28.00544923452136
100
AcDbArc
 50
254.5913660888837
 51
265.2077786010033
  0
ARC
  5
1323
330
22
100
AcDbEntity
  8
0
 62
     7
100
AcDbCircle
 10
474.6535957558444
 20
692.3527319191121
 30
0.0
 40
29.70067591942235
100
AcDbArc
 50
265.2077620930015
 51
273.2840389928452
  0
ARC
  5
1324
330
22
100
AcDbEntity
  8
0
 62
     7
100
AcDbCircle
 10
472.7430599798297
 20
725.6491342301456
 30
0.0
 40
63.05184612092363
100
AcDbArc
 50
273.2840239658306
 51
277.8835698814249
  0
ARC
  5
1325
330
22
100
AcDbEntity
  8
0
 62
     7
100
AcDbCircle
 10
466.3095416557094
 20
772.1121981767546
 30
0.0
 40
109.9582046378053
100
AcDbArc
 50
277.8834744746899
 51
280.3924710126393
  0
ARC
  5
1326
330
22
100
AcDbEntity
  8
0
 62
     7
100
AcDbCircle
 10
485.9929661319977
 20
664.786225725993
 30
0.0
 40
0.8422041538462357
100
AcDbArc
 50
280.3924432348638
 51
359.9999513141035
  0
ARC
  5
1327
330
22
100
AcDbEntity
  8
0
 62
     7
100
AcDbCircle
 10
486.2836168830518
 20
664.7862255941937
 30
0.0
 40
0.5515534027921625
100
AcDbArc
 50
359.9999393496263
 51
35.20549471793013
  0
ARC
  5
1328
330
22
100
AcDbEntity
  8
0
 62
     7
100
AcDbCircle
 10
422.2418078819258
 20
619.6004282268561
 30
0.0
 40
78.92954510874739
100
AcDbArc
 50
35.20553753231031
 51
36.24166734975861
  0
ARC
  5
1329
330
22
100
AcDbEntity
  8
0
 62
     7
100
AcDbCircle
 10
446.48185550617
 20
637.3685053454673
 30
0.0
 40
48.87485373923289
100
AcDbArc
 50
36.24170626664854
 51
38.23234076885921
  0
ARC
  5
132A
330
22
100
AcDbEntity
  8
0
 62
     7
100
AcDbCircle
 10
419.5095101936195
 20
616.1186774584114
 30
0.0
 40
83.21233467317439
100
AcDbArc
 50
38.23235250892219
 51
39.56870412485443
  0
ARC
  5
132B
330
22
100
AcDbEntity
  8
0
 62
     7
100
AcDbCircle
 10
526.8698601299072
 20
704.8361055152231
 30
0.0
 40
56.06087444997195
100
AcDbArc
 50
213.6458316760409
 51
219.5686671742926
  0
ARC
  5
132C
330
22
100
AcDbEntity
  8
0
 62
     7
100
AcDbCircle
 10
499.9656772958506
 20
686.9299777377948
 30
0.0
 40
23.74269897625632
100
AcDbArc
 50
202.3907795154247
 51
213.6458437465569
  0
ARC
  5
132D
330
22
100
AcDbEntity
  8
0
 62
     7
100
AcDbCircle
 10
497.9138021007055
 20
686.0846598583837
 30
0.0
 40
21.52352026930046
100
AcDbArc
 50
190.4568263106681
 51
202.3908232594251
  0
ARC
  5
132E
330
22
100
AcDbEntity
  8
0
 62
     7
100
AcDbCircle
 10
515.57770161406
 20
689.3447005877965
 30
0.0
 40
39.48573649044944
100
AcDbArc
 50
182.8795801108509
 51
190.4568204749667
  0
ARC
  5
132F
330
22
100
AcDbEntity
  8
0
 62
     7
100
AcDbCircle
 10
565.0387614360199
 20
691.8326298310989
 30
0.0
 40
89.0093291572896
100
AcDbArc
 50
180.4299431544156
 51
182.8795882116151
  0
ARC
  5
1330
330
22
100
AcDbEntity
  8
0
 62
     7
100
AcDbCircle
 10
491.7929986434383
 20
691.2829846704969
 30
0.0
 40
15.76150409149255
100
AcDbArc
 50
171.6084449798592
 51
180.4299277672
  0
ARC
  5
1331
330
22
100
AcDbEntity
  8
0
 62
     7
100
AcDbCircle
 10
487.8350269162037
 20
691.866833656471
 30
0.0
 40
11.76070169302084
100
AcDbArc
 50
160.948497832655
 51
171.6083613829696
  0
ARC
  5
1332
330
22
100
AcDbEntity
  8
0
 62
     7
100
AcDbCircle
 10
508.5554273529626
 20
684.7113914452039
 30
0.0
 40
33.68181816774493
100
AcDbArc
 50
156.0857387108405
 51
160.9485037956367
  0
ARC
  5
1333
330
22
100
AcDbEntity
  8
0
 62
     7
100
AcDbCircle
 10
494.3414307896516
 20
691.0144160174048
 30
0.0
 40
18.13299772826363
100
AcDbArc
 50
143.9598015678092
 51
156.0857823825691
  0
ARC
  5
1334
330
22
100
AcDbEntity
  8
0
 62
     7
100
AcDbCircle
 10
494.2712945465919
 20
691.0654276748685
 30
0.0
 40
18.04627240606228
100
AcDbArc
 50
131.790116949643
 51
143.9597488715576
  0
ARC
  5
1335
330
22
100
AcDbEntity
  8
0
 62
     7
100
AcDbCircle
 10
494.4907466921725
 20
690.8198650099827
 30
0.0
 40
18.37560546862058
100
AcDbArc
 50
119.7358297879499
 51
131.7900471843095
  0
ARC
  5
1336
330
22
100
AcDbEntity
  8
0
 62
     7
100
AcDbCircle
 10
495.1134207041544
 20
689.7297575866501
 30
0.0
 40
19.63101660423316
100
AcDbArc
 50
108.2644501095771
 51
119.7357890120184
  0
ARC
  5
1337
330
22
100
AcDbEntity
  8
0
 62
     7
100
AcDbCircle
 10
493.606225409604
 20
694.2965867447493
 30
0.0
 40
14.82190377387002
100
AcDbArc
 50
89.80548124181721
 51
108.2644362562605
  0
ARC
  5
1338
330
22
100
AcDbEntity
  8
0
 62
     7
100
AcDbCircle
 10
493.2678680515829
 20
594.6589735597029
 30
0.0
 40
114.4600914677139
100
AcDbArc
 50
85.71334962724938
 51
89.80543765191207
  0
ARC
  5
1339
330
22
100
AcDbEntity
  8
0
 62
     7
100
AcDbCircle
 10
492.1857358516624
 20
580.225113100488
 30
0.0
 40
128.9344597720235
100
AcDbArc
 50
81.50706533439498
 51
85.71324914578639
  0
ARC
  5
133A
330
22
100
AcDbEntity
  8
0
 62
     7
100
AcDbCircle
 10
491.7222608865555
 20
577.1230462613431
 30
0.0
 40
132.0709590393163
100
AcDbArc
 50
77.37591757513619
 51
81.50695419162399
  0
ARC
  5
133B
330
22
100
AcDbEntity
  8
0
 62
     7
100
AcDbCircle
 10
634.902316612501
 20
1216.407110042469
 30
0.0
 40
523.0508941776469
100
AcDbArc
 50
257.3758124951204
 51
259.2227592593501
  0
ARC
  5
133C
330
22
100
AcDbEntity
  8
0
 62
     7
100
AcDbCircle
 10
561.7871989542099
 20
832.2946050705095
 30
0.0
 40
132.0416399317378
100
AcDbArc
 50
259.2226985280575
 51
264.3614977713192
  0
ARC
  5
133D
330
22
100
AcDbEntity
  8
0
 62
     7
100
AcDbCircle
 10
555.4683548437306
 20
768.292647492899
 30
0.0
 40
67.728512464188
100
AcDbArc
 50
264.3614743944671
 51
271.6626110658376
  0
ARC
  5
133E
330
22
100
AcDbEntity
  8
0
 62
     7
100
AcDbCircle
 10
556.8247583349087
 20
721.5624891480265
 30
0.0
 40
20.97867257817719
100
AcDbArc
 50
271.6625966620677
 51
289.1453015351703
  0
ARC
  5
133F
330
22
100
AcDbEntity
  8
0
 62
     7
100
AcDbCircle
 10
559.7225791876854
 20
713.215396304124
 30
0.0
 40
12.14287467197301
100
AcDbArc
 50
289.145356458642
 51
297.1758533101808
  0
ARC
  5
1340
330
22
100
AcDbEntity
  8
0
 62
     7
100
AcDbCircle
 10
551.2742433278304
 20
729.6710648722561
 30
0.0
 40
30.64053416783141
100
AcDbArc
 50
297.1759129410845
 51
301.1988093563587
  0
ARC
  5
1341
330
22
100
AcDbEntity
  8
0
 62
     7
100
AcDbCircle
 10
550.4037604033779
 20
731.1085178213875
 30
0.0
 40
32.32101371312747
100
AcDbArc
 50
301.1987658394582
 51
305.172173765613
  0
ARC
  5
1342
330
22
100
AcDbEntity
  8
0
 62
     7
100
AcDbCircle
 10
557.2720662495256
 20
721.3620314815971
 30
0.0
 40
20.39760727168045
100
AcDbArc
 50
305.1721678631341
 51
310.781679325606
  0
LINE
  5
1343
330
22
100
AcDbEntity
  8
0
 62
     7
100
AcDbLine
 10
570.5953451137436
 20
705.9168826407476
 30
0.0
 11
574.0498699416437
 21
708.8968228023475
 31
0.0
  0
LINE
  5
1344
330
22
100
AcDbEntity
  8
0
 62
     7
100
AcDbLine
 10
574.0498699416437
 20
708.8968228023475
 30
0.0
 11
570.6328847075436
 21
709.4741187829477
 31
0.0
  0
ARC
  5
1345
330
22
100
AcDbEntity
  8
0
 62
     7
100
AcDbCircle
 10
574.0861341475174
 20
729.9138122645857
 30
0.0
 40
20.72935120349869
100
AcDbArc
 50
256.0728465784812
 51
260.4105357947231
  0
ARC
  5
1346
330
22
100
AcDbEntity
  8
0
 62
     7
100
AcDbCircle
 10
579.0109124006057
 20
749.7735462706712
 30
0.0
 40
41.19059446080249
100
AcDbArc
 50
253.4779149812871
 51
256.0728445318612
  0
ARC
  5
1347
330
22
100
AcDbEntity
  8
0
 62
     7
100
AcDbCircle
 10
578.9799927944671
 20
749.6692407742775
 30
0.0
 40
41.08180264942899
100
AcDbArc
 50
250.8813535065736
 51
253.4778871331877
  0
ARC
  5
1348
330
22
100
AcDbEntity
  8
0
 62
     7
100
AcDbCircle
 10
572.1405025357994
 20
729.9387959537541
 30
0.0
 40
20.19953553559634
100
AcDbArc
 50
246.4653638673004
 51
250.8814051255452
  0
ARC
  5
1349
330
22
100
AcDbEntity
  8
0
 62
     7
100
AcDbCircle
 10
569.872661090386
 20
724.7316792359026
 30
0.0
 40
14.51999600018174
100
AcDbArc
 50
234.6453456330937
 51
246.4652870683732
  0
ARC
  5
134A
330
22
100
AcDbEntity
  8
0
 62
     7
100
AcDbCircle
 10
574.8385861972759
 20
731.7310636291917
 30
0.0
 40
23.10205834270984
100
AcDbArc
 50
226.2984125738084
 51
234.6452362720044
  0
ARC
  5
134B
330
22
100
AcDbEntity
  8
0
 62
     7
100
AcDbCircle
 10
573.9899664013825
 20
730.8430319135878
 30
0.0
 40
21.87374409766286
100
AcDbArc
 50
218.731610684963
 51
226.2983201292965
  0
ARC
  5
134C
330
22
100
AcDbEntity
  8
0
 62
     7
100
AcDbCircle
 10
557.5330066771281
 20
717.6436076849736
 30
0.0
 40
0.7773860391577116
100
AcDbArc
 50
134.82413587621
 51
218.7316304491014
  0
ARC
  5
134D
330
22
100
AcDbEntity
  8
0
 62
     7
100
AcDbCircle
 10
557.5593360262595
 20
717.6171168960093
 30
0.0
 40
0.8147356914374505
100
AcDbArc
 50
95.00712165765134
 51
134.8241700498499
  0
ARC
  5
134E
330
22
100
AcDbEntity
  8
0
 62
     7
100
AcDbCircle
 10
565.8539576399067
 20
622.9451603609527
 30
0.0
 40
95.84936149639972
100
AcDbArc
 50
93.66896110326734
 51
95.00714612172172
  0
ARC
  5
134F
330
22
100
AcDbEntity
  8
0
 62
     7
100
AcDbCircle
 10
563.8218272247334
 20
654.6378874035391
 30
0.0
 40
64.09155141126683
100
AcDbArc
 50
91.27211699800515
 51
93.66905583134011
  0
ARC
  5
1350
330
22
100
AcDbEntity
  8
0
 62
     7
100
AcDbCircle
 10
564.8218613693276
 20
609.6006942646741
 30
0.0
 40
109.139845875259
100
AcDbArc
 50
89.66323892153932
 51
91.27207798253648
  0
ARC
  5
136F
330
22
100
AcDbEntity
  8
0
 62
     7
100
AcDbCircle
 10
662.38990553073
 20
664.6058395712944
 30
0.0
 40
46.87072258785685
100
AcDbArc
 50
122.478144651828
 51
141.349601109295
  0
ARC
  5
1370
330
22
100
AcDbEntity
  8
0
 62
     7
100
AcDbCircle
 10
590.1172893642044
 20
723.4436373692147
 30
0.0
 40
46.32736699974451
100
AcDbArc
 50
318.6132544610097
 51
320.3458458260437
  0
ARC
  5
1371
330
22
100
AcDbEntity
  8
0
 62
     7
100
AcDbCircle
 10
644.7534485487206
 20
675.2978348214926
 30
0.0
 40
26.49521324429855
100
AcDbArc
 50
138.6132426961555
 51
146.7323233579721
  0
ARC
  5
1372
330
22
100
AcDbEntity
  8
0
 62
     7
100
AcDbCircle
 10
687.530088856248
 20
647.2333537538183
 30
0.0
 40
77.65629272467487
100
AcDbArc
 50
146.7323154378276
 51
150.3732704777362
  0
ARC
  5
1373
330
22
100
AcDbEntity
  8
0
 62
     7
100
AcDbCircle
 10
688.5139621241233
 20
646.6738422387166
 30
0.0
 40
78.78813182217671
100
AcDbArc
 50
150.3732790563254
 51
153.8565942055359
  0
ARC
  5
1374
330
22
100
AcDbEntity
  8
0
 62
     7
100
AcDbCircle
 10
630.6750350827228
 20
675.0631916110062
 30
0.0
 40
14.35757510347105
100
AcDbArc
 50
153.8565867612807
 51
166.1427696565697
  0
ARC
  5
1375
330
22
100
AcDbEntity
  8
0
 62
     7
100
AcDbCircle
 10
618.9859951784358
 20
677.946683155684
 30
0.0
 40
2.318132534476995
100
AcDbArc
 50
166.1428855788096
 51
190.2872172100234
  0
ARC
  5
1376
330
22
100
AcDbEntity
  8
0
 62
     7
100
AcDbCircle
 10
616.9893182327032
 20
677.5842855803419
 30
0.0
 40
0.2888344222633271
100
AcDbArc
 50
190.2872109819998
 51
297.7679830551003
  0
ARC
  5
1377
330
22
100
AcDbEntity
  8
0
 62
     7
100
AcDbCircle
 10
614.0443243389196
 20
683.1775324338707
 30
0.0
 40
6.610020972186658
100
AcDbArc
 50
297.7680025390851
 51
310.3727254650074
  0
ARC
  5
1378
330
22
100
AcDbEntity
  8
0
 62
     7
100
AcDbCircle
 10
342.39489668917
 20
1002.6715702309
 30
0.0
 40
425.9784171708984
100
AcDbArc
 50
310.3728106493339
 51
311.0101672575439
  0
ARC
  5
1379
330
22
100
AcDbEntity
  8
0
 62
     7
100
AcDbCircle
 10
730.6177729436487
 20
556.2322394604571
 30
0.0
 40
165.6507552894034
100
AcDbArc
 50
124.0210981664082
 51
131.0101618175263
  0
ARC
  5
137A
330
22
100
AcDbEntity
  8
0
 62
     7
100
AcDbCircle
 10
771.0102762179777
 20
496.395321162523
 30
0.0
 40
237.8450148406841
100
AcDbArc
 50
118.6917032056682
 51
124.0210833552635
  0
ARC
  5
137B
330
22
100
AcDbEntity
  8
0
 62
     7
100
AcDbCircle
 10
779.4678622342269
 20
480.9427571479395
 30
0.0
 40
255.4607037484118
100
AcDbArc
 50
113.5360439473276
 51
118.6917941880752
  0
ARC
  5
137C
330
22
100
AcDbEntity
  8
0
 62
     7
100
AcDbCircle
 10
775.9219845146732
 20
489.0838250924915
 30
0.0
 40
246.5809382065972
100
AcDbArc
 50
108.2417207885494
 51
113.5360547543373
  0
ARC
  5
137D
330
22
100
AcDbEntity
  8
0
 62
     7
100
AcDbCircle
 10
774.0957514368444
 20
494.6242359761976
 30
0.0
 40
240.7473046914516
100
AcDbArc
 50
107.3948552392782
 51
108.2416830065754
  0
ARC
  5
137E
330
22
100
AcDbEntity
  8
0
 62
     7
100
AcDbCircle
 10
783.3675811240343
 20
465.0279370526777
 30
0.0
 40
271.7619421340424
100
AcDbArc
 50
106.6215601841938
 51
107.3948210902758
  0
ARC
  5
137F
330
22
100
AcDbEntity
  8
0
 62
     7
100
AcDbCircle
 10
775.0819801000853
 20
492.7824788457577
 30
0.0
 40
242.7970362233892
100
AcDbArc
 50
105.8482451467381
 51
106.6215060528202
  0
ARC
  5
1380
330
22
100
AcDbEntity
  8
0
 62
     7
100
AcDbCircle
 10
722.301239723624
 20
678.7078415207107
 30
0.0
 40
49.5250852307656
100
AcDbArc
 50
103.3348571996259
 51
105.8482076940526
  0
ARC
  5
1381
330
22
100
AcDbEntity
  8
0
 62
     7
100
AcDbCircle
 10
703.4772207641745
 20
758.1231903384405
 30
0.0
 40
32.090730133828
100
AcDbArc
 50
283.3348653778517
 51
286.2762691855813
  0
ARC
  5
1382
330
22
100
AcDbEntity
  8
0
 62
     7
100
AcDbCircle
 10
706.4789671066687
 20
747.8421281193991
 30
0.0
 40
21.38042101337673
100
AcDbArc
 50
286.2763331470304
 51
290.2639461405909
  0
ARC
  5
1383
330
22
100
AcDbEntity
  8
0
 62
     7
100
AcDbCircle
 10
706.5625116921718
 20
747.6158053093199
 30
0.0
 40
21.13917070357191
100
AcDbArc
 50
290.2639789378347
 51
293.568112193602
  0
ARC
  5
1384
330
22
100
AcDbEntity
  8
0
 62
     7
100
AcDbCircle
 10
714.6856101443264
 20
728.9945239894055
 30
0.0
 40
0.8232447719588844
100
AcDbArc
 50
293.5681483778789
 51
328.2824859769723
  0
ARC
  5
1385
330
22
100
AcDbEntity
  8
0
 62
     7
100
AcDbCircle
 10
715.1113720121819
 20
728.7313883017252
 30
0.0
 40
0.3227314771796097
100
AcDbArc
 50
328.2824822691537
 51
48.43923548723342
  0
ARC
  5
1386
330
22
100
AcDbEntity
  8
0
 62
     7
100
AcDbCircle
 10
714.86956966679
 20
728.4586655719563
 30
0.0
 40
0.6872120137917786
100
AcDbArc
 50
48.43913917999308
 51
94.62566480393556
  0
ARC
  5
1387
330
22
100
AcDbEntity
  8
0
 62
     7
100
AcDbCircle
 10
716.9208414900517
 20
703.1063040853521
 30
0.0
 40
26.12242282558415
100
AcDbArc
 50
94.62575029613699
 51
98.45412733834915
  0
ARC
  5
1388
330
22
100
AcDbEntity
  8
0
 62
     7
100
AcDbCircle
 10
1544.116717851554
 20
-4862.290217627592
 30
0.0
 40
5652.657010097215
100
AcDbArc
 50
98.45409315372199
 51
98.53934926970476
  0
ARC
  5
1389
330
22
100
AcDbEntity
  8
0
 62
     7
100
AcDbCircle
 10
745.4094621130344
 20
456.9907282438852
 30
0.0
 40
273.7460551287972
100
AcDbArc
 50
98.53929395697882
 51
102.8609460799371
  0
ARC
  5
138A
330
22
100
AcDbEntity
  8
0
 62
     7
100
AcDbCircle
 10
720.8025903595085
 20
564.7680011671394
 30
0.0
 40
163.1954391366317
100
AcDbArc
 50
102.860985239801
 51
109.2274292657887
  0
ARC
  5
138B
330
22
100
AcDbEntity
  8
0
 62
     7
100
AcDbCircle
 10
712.4041273160226
 20
588.8483244706048
 30
0.0
 40
137.6925735745665
100
AcDbArc
 50
109.2274767628801
 51
116.2080685126424
  0
ARC
  5
138C
330
22
100
AcDbEntity
  8
0
 62
     7
100
AcDbCircle
 10
709.5970912609729
 20
594.551139933163
 30
0.0
 40
131.3363517717354
100
AcDbArc
 50
116.2081055532124
 51
123.4405563897954
  0
ARC
  5
13DC
330
22
100
AcDbEntity
  8
0
 62
     7
100
AcDbCircle
 10
570.0556521943115
 20
359.25547478498
 30
0.0
 40
153.3366236379656
100
AcDbArc
 50
214.692917625529
 51
223.9103097129738
  0
ARC
  5
13DD
330
22
100
AcDbEntity
  8
0
 62
     7
100
AcDbCircle
 10
586.5887733114087
 20
369.8117151390564
 30
0.0
 40
172.9403166717541
100
AcDbArc
 50
207.7852867825688
 51
214.4508020365143
  0
ARC
  5
13DE
330
22
100
AcDbEntity
  8
0
 62
     7
100
AcDbCircle
 10
588.2048239035282
 20
370.6630093260326
 30
0.0
 40
174.7668766271831
100
AcDbArc
 50
201.1519946629693
 51
207.7852222914933
  0
ARC
  5
13DF
330
22
100
AcDbEntity
  8
0
 62
     7
100
AcDbCircle
 10
558.5569412836309
 20
359.1918419749551
 30
0.0
 40
142.9771829477398
100
AcDbArc
 50
193.4410303182925
 51
201.1519647792729
  0
ARC
  5
13E0
330
22
100
AcDbEntity
  8
0
 62
     7
100
AcDbCircle
 10
-11459.80522122457
 20
-2513.085196695055
 30
0.0
 40
12213.84297662729
100
AcDbArc
 50
13.44104294277179
 51
13.45662739477533
  0
ARC
  5
13E1
330
22
100
AcDbEntity
  8
0
 62
     7
100
AcDbCircle
 10
-9640.583944828909
 20
-2077.7843340897
 30
0.0
 40
10343.26742523273
100
AcDbArc
 50
13.45662347238748
 51
13.47427057244263
  0
ARC
  5
13E2
330
22
100
AcDbEntity
  8
0
 62
     7
100
AcDbCircle
 10
-8984.590517961931
 20
-1920.605282913607
 30
0.0
 40
9668.706360375706
100
AcDbArc
 50
13.47426774095491
 51
13.49031055919237
  0
ARC
  5
13E3
330
22
100
AcDbEntity
  8
0
 62
     7
100
AcDbCircle
 10
-376.8648617223135
 20
144.3878703347069
 30
0.0
 40
816.7496447085701
100
AcDbArc
 50
13.49027141091131
 51
13.58836177944818
  0
ARC
  5
13E4
330
22
100
AcDbEntity
  8
0
 62
     7
100
AcDbCircle
 10
416.7604988981572
 20
336.2154198169672
 30
0.0
 40
0.2699929349690161
100
AcDbArc
 50
13.58830407780012
 51
164.1960887213218
  0
ARC
  5
13E5
330
22
100
AcDbEntity
  8
0
 62
     7
100
AcDbCircle
 10
425.1005899924374
 20
333.854795927094
 30
0.0
 40
8.937729929729067
100
AcDbArc
 50
164.196082189525
 51
179.1736125578922
  0
ARC
  5
13E6
330
22
100
AcDbEntity
  8
0
 62
     7
100
AcDbCircle
 10
500.3619636176818
 20
332.769152987321
 30
0.0
 40
84.20693333026294
100
AcDbArc
 50
179.1735722882703
 51
183.16828780405
  0
ARC
  5
13E7
330
22
100
AcDbEntity
  8
0
 62
     7
100
AcDbCircle
 10
550.3642343486901
 20
335.5369281241468
 30
0.0
 40
134.2857477877229
100
AcDbArc
 50
183.16827724396
 51
185.9843376673317
  0
ARC
  5
13E8
330
22
100
AcDbEntity
  8
0
 62
     7
100
AcDbCircle
 10
565.8301039479726
 20
337.1580911483089
 30
0.0
 40
149.8363520205356
100
AcDbArc
 50
185.9843030393272
 51
195.2748778569666
  0
ARC
  5
13E9
330
22
100
AcDbEntity
  8
0
 62
     7
100
AcDbCircle
 10
551.5255780317058
 20
333.2513854591239
 30
0.0
 40
135.0079397319284
100
AcDbArc
 50
195.2748079182878
 51
205.320569990748
  0
ARC
  5
13EA
330
22
100
AcDbEntity
  8
0
 62
     7
100
AcDbCircle
 10
551.3574701323482
 20
333.1718167156717
 30
0.0
 40
134.8219519635342
100
AcDbArc
 50
205.3205582157715
 51
215.3736400560567
  0
ARC
  5
13EB
330
22
100
AcDbEntity
  8
0
 62
     7
100
AcDbCircle
 10
562.8595157260964
 20
341.338004811205
 30
0.0
 40
148.9281095143779
100
AcDbArc
 50
215.3736624601931
 51
224.7038205601142
  0
ARC
  5
1451
330
22
100
AcDbEntity
  8
0
  6
Continuous
 62
     7
100
AcDbCircle
 10
439.8319343117921
 20
219.5169728282617
 30
0.0
 40
24.20813853093811
100
AcDbArc
 50
354.3466122389459
 51
44.80282713307051
  0
ARC
  5
1452
330
22
100
AcDbEntity
  8
0
  6
Continuous
 62
     7
100
AcDbCircle
 10
434.5975229618471
 20
229.4719164980263
 30
0.0
 40
34.26285122442004
100
AcDbArc
 50
355.7832960329204
 51
43.16616934461817
  0
ARC
  5
1453
330
22
100
AcDbEntity
  8
0
  6
Continuous
 62
     7
100
AcDbCircle
 10
456.2663139335021
 20
227.015150913259
 30
0.0
 40
12.50147002165221
100
AcDbArc
 50
307.7638867326478
 51
359.7133432274873
  0
LWPOLYLINE
  5
1454
330
22
100
AcDbEntity
  8
0
 62
     7
100
AcDbPolyline
 90
       45
 70
     1
 43
0.0
 10
571.3661063280436
 20
579.4173402451475
 42
0.0133479999999999
 10
571.9159773472435
 20
583.3837666498476
 42
0.0117490000000002
 10
572.3149187466435
 20
587.9282261401475
 42
0.008103
 10
572.5621096240437
 20
593.0892056837474
 42
0.0026400000000002
 10
572.6909804068436
 20
597.9741246627476
 42
0.01672
 10
572.6603028726437
 20
600.4600601569476
 42
0.5008770000001515
 10
572.4603837027436
 20
600.5957549802475
 42
0.2697860000000661
 10
572.2304659111435
 20
600.3290168541475
 42
-0.031947
 10
569.9379289232437
 20
591.2844033153476
 42
-0.030355
 10
566.4808490566436
 20
582.4448593706476
 42
-0.0316580000000001
 10
562.1872861421436
 20
574.5252108274476
 42
-0.0468840000000001
 10
557.3872599339436
 20
568.2604056837476
 42
0.0466820000000001
 10
556.3397949339436
 20
566.8944352855475
 42
0.0418190000000002
 10
555.5192930983436
 20
565.3079517796476
 42
0.0351359999999999
 10
554.8672081167435
 20
563.3628209131476
 42
0.019021
 10
554.3279708070436
 20
560.8956823723475
 42
-0.089467
 10
549.4956725901436
 20
547.8844422466476
 42
-0.0826400000000001
 10
540.3194850329437
 20
536.9672964766476
 42
-0.0730920000000002
 10
527.0194937222436
 20
528.6104181967476
 42
-0.0507700000000001
 10
510.1121702858436
 20
523.1270359092476
 42
-0.0430519999999999
 10
501.3766116832434
 20
522.0194945240475
 42
-0.0095329999999999
 10
486.2848088978434
 20
521.7025859280477
 42
-0.0100739999999999
 10
471.0310494018436
 20
521.9804970141475
 42
-0.0332579999999999
 10
461.0364952858437
 20
523.0323318829475
 42
0.007336
 10
458.4330024067436
 20
523.4435992297476
 42
0.012438
 10
456.2416753666437
 20
523.7014416623475
 42
0.006179
 10
454.4451526271436
 20
523.8452803320475
 42
0.4341359999999414
 10
454.2473702858436
 20
523.6604244847476
 42
0.3366420000000085
 10
454.7619533730436
 20
522.9827503211477
 42
0.0033850000000001
 10
460.9602041424436
 20
521.2998146862475
 42
0.0100460000000001
 10
467.8158742059436
 20
519.6347239754476
 42
0.0091179999999999
 10
474.9574525568436
 20
518.1875300375476
 42
0.013575
 10
479.3993241009436
 20
517.4955102588475
 42
0.0125450000000001
 10
483.9905168241436
 20
517.0241098861476
 42
0.01144
 10
488.9866114105436
 20
516.7523074607475
 42
0.0078679999999998
 10
494.6581199638437
 20
516.6630556837476
 42
0.020098
 10
506.2633043696437
 20
517.1297378085475
 42
0.0336349999999999
 10
515.9198329952435
 20
518.5657494756475
 42
0.0354439999999999
 10
524.9358197035436
 20
521.2143632674475
 42
0.0256349999999999
 10
534.5530202858436
 20
525.3697205462475
 42
0.0189179999999999
 10
539.6632295888436
 20
528.1411593080475
 42
0.0279580000000001
 10
543.8980855816436
 20
530.9807414873476
 42
0.026156
 10
547.9875425698436
 20
534.4173585432476
 42
0.0140390000000001
 10
552.6785230161436
 20
539.0509906687476
 42
0.1178221955106628
 10
570.6585196676435
 20
576.0194056837478
 42
0.020432
  0
ARC
  5
18CF
330
22
100
AcDbEntity
  8
0
 62
     7
100
AcDbCircle
 10
621.5308662307042
 20
903.7071668691133
 30
0.0
 40
4.009488814634568
100
AcDbArc
 50
90.00002004265464
 51
104.2060481199884
  0
ARC
  5
18D0
330
22
100
AcDbEntity
  8
0
 62
     7
100
AcDbCircle
 10
626.8366878973085
 20
882.747953869045
 30
0.0
 40
25.62985775551807
100
AcDbArc
 50
104.2059858684079
 51
107.8132594137117
  0
ARC
  5
18D1
330
22
100
AcDbEntity
  8
0
 62
     7
100
AcDbCircle
 10
628.0013063013862
 20
879.1233963759175
 30
0.0
 40
29.43692395504868
100
AcDbArc
 50
107.8132130365694
 51
111.4358380308014
  0
ARC
  5
18D2
330
22
100
AcDbEntity
  8
0
 62
     7
100
AcDbCircle
 10
628.3904709656185
 20
878.13215911421
 30
0.0
 40
30.50181852483305
100
AcDbArc
 50
111.4358163851639
 51
114.9631243999995
  0
ARC
  5
18D3
330
22
100
AcDbEntity
  8
0
 62
     7
100
AcDbCircle
 10
606.3005322286851
 20
925.5838855408972
 30
0.0
 40
21.83967299264923
100
AcDbArc
 50
289.3751547563614
 51
294.9631358598148
  0
ARC
  5
18D4
330
22
100
AcDbEntity
  8
0
 62
     7
100
AcDbCircle
 10
606.0943095083776
 20
926.1702192917564
 30
0.0
 40
22.46121549087532
100
AcDbArc
 50
283.9035976904478
 51
289.3752215390887
  0
ARC
  5
18D5
330
22
100
AcDbEntity
  8
0
 62
     7
100
AcDbCircle
 10
606.568617048303
 20
924.254060827611
 30
0.0
 40
20.48722691399037
100
AcDbArc
 50
278.1993203849598
 51
283.9036558619692
  0
ARC
  5
18D6
330
22
100
AcDbEntity
  8
0
 62
     7
100
AcDbCircle
 10
607.655126024944
 20
916.7134658247531
 30
0.0
 40
12.86875759574531
100
AcDbArc
 50
270.1178496054849
 51
278.1993911696149
  0
ARC
  5
18D7
330
22
100
AcDbEntity
  8
0
 62
     7
100
AcDbCircle
 10
607.7466464511435
 20
872.2274646330964
 30
0.0
 40
31.61733773765805
100
AcDbArc
 50
90.1178834184143
 51
95.0083671066435
  0
ARC
  5
18D8
330
22
100
AcDbEntity
  8
0
 62
     7
100
AcDbCircle
 10
605.072276864521
 20
902.7443300795825
 30
0.0
 40
0.9835111832627447
100
AcDbArc
 50
95.00841593209072
 51
154.9093596780631
  0
ARC
  5
18D9
330
22
100
AcDbEntity
  8
0
 62
     7
100
AcDbCircle
 10
604.8501367104068
 20
902.8483432826721
 30
0.0
 40
0.7382256466193531
100
AcDbArc
 50
154.9093174114728
 51
228.1912445054542
  0
ARC
  5
18DA
330
22
100
AcDbEntity
  8
0
 62
     7
100
AcDbCircle
 10
618.9181063950411
 20
918.5776632413347
 30
0.0
 40
21.84081499981873
100
AcDbArc
 50
228.1912273396077
 51
234.5466790480251
  0
ARC
  5
18DB
330
22
100
AcDbEntity
  8
0
 62
     7
100
AcDbCircle
 10
610.6966875672672
 20
907.0317908047034
 30
0.0
 40
7.666934166950254
100
AcDbArc
 50
234.5467530577128
 51
253.9214432586699
  0
ARC
  5
18DC
330
22
100
AcDbEntity
  8
0
 62
     7
100
AcDbCircle
 10
611.6484015244189
 20
910.3337098506784
 30
0.0
 40
11.10327362084683
100
AcDbArc
 50
253.9214305433793
 51
268.6008990658292
  0
ARC
  5
18DD
330
22
100
AcDbEntity
  8
0
 62
     7
100
AcDbCircle
 10
611.736405805297
 20
913.9361990479189
 30
0.0
 40
14.7068375746911
100
AcDbArc
 50
268.6008293348551
 51
281.2183476936996
  0
ARC
  5
18DE
330
22
100
AcDbEntity
  8
0
 62
     7
100
AcDbCircle
 10
609.7493322132499
 20
923.9549472597309
 30
0.0
 40
24.9207387486552
100
AcDbArc
 50
281.2182884949085
 51
289.7186864052581
  0
ARC
  5
18DF
330
22
100
AcDbEntity
  8
0
 62
     7
100
AcDbCircle
 10
631.0518415990435
 20
864.5204687720578
 30
0.0
 40
38.21605036223957
100
AcDbArc
 50
106.6925184747274
 51
109.7187056626573
  0
ARC
  5
18E0
330
22
100
AcDbEntity
  8
0
 62
     7
100
AcDbCircle
 10
621.7512230060963
 20
895.5357709380871
 30
0.0
 40
5.836265392887375
100
AcDbArc
 50
94.5665728663053
 51
106.6925536810653
  0
ARC
  5
18E1
330
22
100
AcDbEntity
  8
0
 62
     7
100
AcDbCircle
 10
621.4692288340622
 20
899.066345724565
 30
0.0
 40
2.294446787151531
100
AcDbArc
 50
73.18929552615088
 51
94.56647599645535
  0
ARC
  5
18E2
330
22
100
AcDbEntity
  8
0
 62
     7
100
AcDbCircle
 10
621.6741069573067
 20
899.7444780302101
 30
0.0
 40
1.586041204632879
100
AcDbArc
 50
45.00000079188082
 51
73.18928371014343
  0
ARC
  5
18E3
330
22
100
AcDbEntity
  8
0
 62
     7
100
AcDbCircle
 10
621.1437116873966
 20
899.2140814776988
 30
0.0
 40
2.336134295694526
100
AcDbArc
 50
30.03025142373132
 51
45.00002278103969
  0
ARC
  5
18E4
330
22
100
AcDbEntity
  8
0
 62
     7
100
AcDbCircle
 10
622.1185731619724
 20
899.7776023648166
 30
0.0
 40
1.210118894013136
100
AcDbArc
 50
5.542009419772206
 51
30.03033924754963
  0
ARC
  5
18E5
330
22
100
AcDbEntity
  8
0
 62
     7
100
AcDbCircle
 10
622.1761420713944
 20
899.7831875002775
 30
0.0
 40
1.152279693901002
100
AcDbArc
 50
340.3196358807298
 51
5.542045255438379
  0
ARC
  5
18E6
330
22
100
AcDbEntity
  8
0
 62
     7
100
AcDbCircle
 10
621.3623424861558
 20
900.0742597368422
 30
0.0
 40
2.016567152923379
100
AcDbArc
 50
323.7302546564013
 51
340.31951779078
  0
ARC
  5
18E7
330
22
100
AcDbEntity
  8
0
 62
     7
100
AcDbCircle
 10
682.2260402995093
 20
855.4149066829308
 30
0.0
 40
73.47414437312543
100
AcDbArc
 50
143.7302649149079
 51
144.2447801505466
  0
ARC
  5
18E8
330
22
100
AcDbEntity
  8
0
 62
     7
100
AcDbCircle
 10
899.2037444127598
 20
699.1836871887768
 30
0.0
 40
340.8456425304012
100
AcDbArc
 50
144.2448333810758
 51
144.40961601456
  0
ARC
  5
18E9
330
22
100
AcDbEntity
  8
0
 62
     7
100
AcDbCircle
 10
931.041378654668
 20
676.398195739139
 30
0.0
 40
379.9968056640876
100
AcDbArc
 50
144.4096080211011
 51
144.5741614715855
  0
ARC
  5
18EA
330
22
100
AcDbEntity
  8
0
 62
     7
100
AcDbCircle
 10
888.4920320966832
 20
706.6653435805555
 30
0.0
 40
327.7804563952472
100
AcDbArc
 50
144.5741632678661
 51
144.7579680891361
  0
ARC
  5
18EB
330
22
100
AcDbEntity
  8
0
 62
     7
100
AcDbCircle
 10
624.9863840406902
 20
892.8377857444353
 30
0.0
 40
5.14226154121148
100
AcDbArc
 50
144.7580179030592
 51
176.9182817718878
  0
ARC
  5
18EC
330
22
100
AcDbEntity
  8
0
 62
     7
100
AcDbCircle
 10
621.4103361389986
 20
893.0303126650539
 30
0.0
 40
1.561034766717205
100
AcDbArc
 50
176.9182616597761
 51
254.2297030509608
  0
ARC
  5
18ED
330
22
100
AcDbEntity
  8
0
 62
     7
100
AcDbCircle
 10
622.0581830109457
 20
895.3242958154246
 30
0.0
 40
3.944742857838398
100
AcDbArc
 50
254.2297121898896
 51
296.6129026480148
  0
ARC
  5
18EE
330
22
100
AcDbEntity
  8
0
 62
     7
100
AcDbCircle
 10
618.4018526499725
 20
902.6216826530296
 30
0.0
 40
12.1068875739141
100
AcDbArc
 50
296.6129686476879
 51
314.99996876687
  0
ARC
  5
18EF
330
22
100
AcDbEntity
  8
0
 62
     7
100
AcDbCircle
 10
619.2272562576286
 20
901.7962817314822
 30
0.0
 40
10.9395924969022
100
AcDbArc
 50
314.9999554863099
 51
334.5496196040899
  0
ARC
  5
18F0
330
22
100
AcDbEntity
  8
0
 62
     7
100
AcDbCircle
 10
622.019144259579
 20
900.4676000662719
 30
0.0
 40
7.847662099451378
100
AcDbArc
 50
334.5495279242606
 51
359.6245284052053
  0
ARC
  5
18F1
330
22
100
AcDbEntity
  8
0
 62
     7
100
AcDbCircle
 10
622.0669154622338
 20
900.4332227908619
 30
0.0
 40
7.799741024841171
100
AcDbArc
 50
359.8747546749655
 51
37.80942097459483
  0
ARC
  5
191C
330
22
100
AcDbEntity
  8
0
  6
Continuous
 62
     7
100
AcDbCircle
 10
477.0670981779885
 20
331.9426026267181
 30
0.0
 40
316.2164237079408
100
AcDbArc
 50
65.19949404494655
 51
73.9762114389503
  0
ARC
  5
191D
330
22
100
AcDbEntity
  8
0
  6
Continuous
 62
     7
100
AcDbCircle
 10
510.2995767008551
 20
370.5842303573819
 30
0.0
 40
260.7870213436945
100
AcDbArc
 50
72.6203884043604
 51
78.2510614518847
  0
ARC
  5
191E
330
22
100
AcDbEntity
  8
0
  6
Continuous
 62
     7
100
AcDbCircle
 10
600.8295571114834
 20
705.1763280416495
 30
0.0
 40
86.63680093813621
100
AcDbArc
 50
261.6157664762456
 51
275.8814487285385
  0
ARC
  5
1920
330
22
100
AcDbEntity
  8
0
  6
Continuous
 62
     7
100
AcDbCircle
 10
560.1700925462576
 20
812.6814237100219
 30
0.0
 40
94.09177559392354
100
AcDbArc
 50
273.2249445398359
 51
286.8657340140372
  0
ARC
  5
1921
330
22
100
AcDbEntity
  8
0
  6
Continuous
 62
     7
100
AcDbCircle
 10
404.4247692774341
 20
592.9928711774786
 30
0.0
 40
27.68154766601016
100
AcDbArc
 50
119.24847670897
 51
155.9419418702289
  0
ARC
  5
1922
330
22
100
AcDbEntity
  8
0
  6
Continuous
 62
     7
100
AcDbCircle
 10
383.6853198838936
 20
602.2440111925326
 30
0.0
 40
4.972341016510894
100
AcDbArc
 50
155.8593404494309
 51
196.7797653885386
  0
ARC
  5
1925
330
22
100
AcDbEntity
  8
0
  6
Continuous
 62
     7
100
AcDbCircle
 10
621.0847580205062
 20
896.3048211796007
 30
0.0
 40
11.42055074351709
100
AcDbArc
 50
51.27582331746958
 51
87.76134945149905
  0
LWPOLYLINE
  5
1D8B
330
22
100
AcDbEntity
  8
0
 62
     7
100
AcDbPolyline
 90
     1000
 70
     1
 43
0.0
 10
495.3680769987436
 20
275.4303205909476
 42
0.018632
 10
494.9030917672437
 20
287.3086349870476
 42
0.017624
 10
493.4549388169436
 20
300.2273490377476
 42
0.017717
 10
491.1022362153437
 20
312.9893056837476
 42
0.014703
 10
489.3860827496435
 20
319.7914347677476
 42
0.003355
 10
486.0674358574435
 20
331.1926257527476
 42
0.003431
 10
482.5835889926437
 20
342.5829254294477
 42
0.013403
 10
480.1948644576436
 20
349.5456262425477
 42
0.010266
 10
472.2773868826435
 20
369.4941820610477
 42
0.007555
 10
462.7224755523434
 20
391.2713215829476
 42
0.007646
 10
452.7603920754437
 20
412.2214673139476
 42
0.012602
 10
443.6298794235437
 20
429.5743482217476
 10
440.9167270456436
 20
434.4297907597477
 10
443.0602167471437
 20
438.1092482217477
 42
-0.03697
 10
448.9932198943437
 20
446.7554665947477
 42
-0.036761
 10
456.1453171215437
 20
454.4512610048477
 42
-0.0288840000000001
 10
465.7797015611436
 20
462.4151730912476
 42
-0.012037
 10
479.6190442388432
 20
472.0658273779474
 42
0.004248
 10
497.5677046170432
 20
484.1709396717472
 42
0.0068959999999999
 10
512.5846058959433
 20
494.7932232683475
 42
0.007112
 10
526.970384683543
 20
505.5861420170471
 42
0.004918
 10
542.9502740740434
 20
518.1870404446474
 42
-0.003023
 10
548.4322038767436
 20
522.5435808344475
 42
-0.002797
 10
554.1097380694436
 20
526.9487142894475
 42
-0.002791
 10
559.2081746417436
 20
530.8140323892476
 42
-0.009346
 10
562.6106808059436
 20
533.2658717338476
 10
569.2184353014436
 20
537.8422377839476
 10
574.3868277936436
 20
535.2674904480474
 42
0.0148759999999996
 10
578.6683464124434
 20
533.2912700444476
 42
0.021797
 10
582.5521029998435
 20
531.8334206718476
 42
0.0251170000000002
 10
585.9213517623437
 20
530.9180379047476
 42
0.0538169999999998
 10
588.5965936662436
 20
530.6292556837475
 42
0.0947630000000015
 10
590.0331313935437
 20
530.9039832521476
 42
0.00517
 10
594.3110156967436
 20
532.6537448263475
 42
0.0078869999999998
 10
599.3748013509434
 20
534.8810255206474
 42
0.0056679999999999
 10
604.9611541033437
 20
537.5211346725476
 42
-0.003884
 10
618.055100513644
 20
543.7666113713476
 42
-0.0056029999999999
 10
629.7386221111438
 20
549.0696574290478
 42
-0.005278
 10
642.0494239431435
 20
554.3374434871473
 42
-0.002943
 10
657.1452202858442
 20
560.5053123402477
 42
-0.0044579999999999
 10
680.2179009870437
 20
569.5362095188475
 42
-0.016707
 10
694.9328825061436
 20
574.5888470418475
 42
-0.0586872007078779
 10
706.3648418390312
 20
577.0450940155842
 42
-0.0623520745293006
 10
715.7294550429258
 20
575.8335367101473
 42
0.6494166971844161
 10
716.8670222457168
 20
577.2633059715375
 42
0.1150050058497686
 10
711.8400040653563
 20
583.1253458534441
 42
-0.7541407188943288
 10
712.9228029769206
 20
584.7144420366789
 42
-0.1184152346771372
 10
720.8044505161574
 20
579.8238803583675
 42
0.2025769519138939
 10
722.2434880325202
 20
579.2300928569763
 42
0.0840253596461513
 10
727.6516676164436
 20
580.1921966596475
 42
0.0322679999999999
 10
730.1727257759437
 20
581.2826139318477
 42
0.0244249999999999
 10
731.8518897609436
 20
582.2475619668475
 42
0.018042
 10
733.6130943083436
 20
583.4693445403476
 42
0.018323
 10
735.1966736205436
 20
584.7478826470476
 42
0.0384610000000001
 10
736.3063464030436
 20
585.8739858879475
 42
0.0398779999999998
 10
738.1197651409437
 20
588.4063264093476
 42
0.0186059999999999
 10
740.0724897407435
 20
591.9425899745475
 42
0.0158370000000004
 10
741.6995210047437
 20
595.4379760241476
 42
0.0992959999999994
 10
742.1005340571436
 20
597.3566556837475
 42
-0.199178000000028
 10
742.3467185922437
 20
597.9368217184476
 42
-0.026536
 10
743.3653247676436
 20
598.8360254187475
 42
-0.027362
 10
744.7518774651435
 20
599.8163983457475
 42
-0.019811
 10
746.3929726925437
 20
600.7584658656476
 42
0.0505330000000001
 10
750.6329519530436
 20
603.5514296452475
 42
0.0399439999999998
 10
754.6034114859438
 20
607.3502313898476
 42
0.0402569999999999
 10
757.8839492737436
 20
611.6909860941476
 42
0.0543190000000004
 10
760.0594828693437
 20
616.1023019203477
 42
-0.0427590000000001
 10
761.6335108525437
 20
619.4886670368475
 42
-0.0847650000000018
 10
763.5122378693436
 20
621.7663920937475
 42
-0.0801680000000006
 10
766.1137700491435
 20
623.3685014497476
 42
-0.035007
 10
769.9704671240437
 20
624.6551407283476
 10
773.3938139622437
 20
625.5366174413475
 10
771.6541522783436
 20
626.9453096694476
 42
0.0623150000000002
 10
769.8898782705436
 20
628.0420761313475
 42
0.02979
 10
767.3990437437436
 20
629.0143665080476
 42
0.02944
 10
764.7036393024436
 20
629.7133453338476
 42
0.0436860000000002
 10
762.2796702858436
 20
629.9750649387475
 42
-0.1040019999999973
 10
761.2099082475436
 20
630.2227205802475
 42
-0.0496859999999994
 10
759.9894291860436
 20
630.9444689674474
 42
-0.0373050000000005
 10
758.5898382649436
 20
632.1423809774476
 42
-0.0035643405024818
 10
758.2466788264834
 20
632.4884459528493
 42
0.372186817956795
 10
755.640704725524
 20
632.708227239572
 42
-0.1958645342354514
 10
749.1748607057789
 20
631.1147268885884
 42
-0.5867754401065638
 10
749.0634260984287
 20
631.4396152067367
 42
0.0977757798426762
 10
753.5744400624436
 20
637.7517236468476
 10
755.2114051741435
 20
641.5569521711476
 42
0.0272780000000001
 10
755.8385053998436
 20
643.2658044178476
 42
0.0188279999999999
 10
756.3675116921436
 20
645.2582442350476
 42
0.0190329999999999
 10
756.7319224379436
 20
647.2184415277475
 42
0.0364520000000006
 10
756.8483702858436
 20
648.8135825258476
 42
-0.030247
 10
756.9686984096436
 20
650.8008323479475
 42
-0.083555000000001
 10
757.3651825337436
 20
652.1408302695475
 42
-0.0747089999999994
 10
758.2064784893437
 20
653.3612526903477
 42
-0.0208530000000001
 10
759.8661984203437
 20
654.9914108313477
 42
-0.0156529999999999
 10
761.1417500879436
 20
656.0732482013476
 42
-0.015801
 10
762.4785761303437
 20
657.0696248417475
 42
-0.015802
 10
763.6952788865436
 20
657.8620918585476
 42
-0.0596639999999989
 10
764.5215984203437
 20
658.2375824563476
 42
0.0338450000000003
 10
765.1484852735435
 20
658.4843388297477
 42
0.0445140000000004
 10
765.6781332351435
 20
658.7958269883475
 42
0.0515340000000029
 10
766.0475625021437
 20
659.1221837186476
 42
0.1882389999999973
 10
766.1591702858436
 20
659.4081331287476
 42
0.3634740000000828
 10
765.6012725811437
 20
660.0741951729477
 42
0.014069
 10
762.1866150470435
 20
660.5838125001477
 42
0.022726
 10
758.6611077835435
 20
660.8471956346476
 42
0.0614090000000004
 10
756.1665807486437
 20
660.6131756597476
 42
-0.0576380000000002
 10
754.9189607051435
 20
660.4866667165476
 42
-0.0510719999999994
 10
753.6216054716435
 20
660.6380347198475
 42
-0.042698
 10
752.1853222395436
 20
661.0879217132477
 42
-0.023311
 10
750.5100618074436
 20
661.8674280964476
 42
0.0334189999999999
 10
748.5225505070436
 20
662.7438389583476
 42
0.0417439999999998
 10
746.5770045340437
 20
663.2719459825477
 42
0.0330499999999999
 10
744.2389641147436
 20
663.5432976100477
 42
0.0124299999999999
 10
740.9424202858436
 20
663.6244396802474
 42
0.012785
 10
737.4461574692436
 20
663.5341575080475
 42
0.0389160000000002
 10
735.0913731279436
 20
663.2282690197476
 42
0.0452369999999999
 10
733.0106327871436
 20
662.5905855180475
 42
0.022465
 10
730.5034686689436
 20
661.4325004550476
 42
0.053604
 10
725.9182883948435
 20
658.3972603486476
 42
0.0402339999999999
 10
721.5797364706436
 20
654.1711340067474
 42
0.0311630000000001
 10
717.0547900894436
 20
648.2898996834476
 42
0.0141110000000001
 10
711.8461702858436
 20
640.0784537718475
 42
-0.007821
 10
709.1504314316434
 20
635.7080201166475
 42
-0.0097459999999999
 10
706.5045837233436
 20
631.7377111083476
 42
-0.0082220000000001
 10
704.1752256250437
 20
628.5006927756476
 42
-0.0706750000000002
 10
702.9233202858436
 20
627.2385308143475
 42
-0.065688
 10
699.2971112890436
 20
625.1758774784477
 42
-0.0209020000000001
 10
693.4355770667435
 20
623.0747565723476
 42
-0.0160150000000001
 10
685.3249205651435
 20
620.8268718535475
 42
-0.006609
 10
674.2150202858436
 20
618.2826693729476
 42
-0.0054860000000003
 10
666.8527775267435
 20
616.7831215825474
 42
-0.0024860000000003
 10
657.1807991803425
 20
614.9732184475473
 42
-0.0024719999999998
 10
647.5689856717433
 20
613.2730299002475
 42
-0.006021
 10
640.4633702858437
 20
612.1402663337476
 42
0.0012520000000001
 10
638.0505043982439
 20
611.7791756640476
 42
0.0012119999999999
 10
635.6127833300437
 20
611.4020758496475
 42
0.001196
 10
633.4688319680436
 20
611.0598426535476
 42
0.0044600000000001
 10
632.1224452858436
 20
610.8292762095476
 42
-0.0184959999999999
 10
630.7279287507436
 20
610.6305752026476
 42
-0.1291209999999945
 10
630.0536600122436
 20
610.7340492266476
 42
-0.2251160000000148
 10
629.7115338903436
 20
611.1250329956476
 42
-0.0691099999999968
 10
629.6007702858436
 20
611.9225596563476
 42
-0.0864090000000029
 10
629.7627999310436
 20
612.8531322177476
 42
-0.009492
 10
630.5367601810436
 20
614.8861003955476
 42
-0.011369
 10
631.5669381290437
 20
617.2859327149475
 42
-0.00896
 10
632.7871184690437
 20
619.8369933756476
 42
-0.011696
 10
634.6160179637436
 20
623.2869675500475
 42
-0.03983
 10
636.0310461912436
 20
625.3982403317476
 42
-0.0539330000000001
 10
637.5147384651436
 20
626.9045260377476
 42
-0.0378909999999997
 10
639.4675321200436
 20
628.2677644920475
 42
-0.0274153679367417
 10
651.6723690146918
 20
634.9085366087116
 42
0.1130782272255165
 10
662.9002041971537
 20
642.3633483936768
 42
0.3892019999999812
 10
662.8402341102537
 20
643.7548459018767
 42
0.1221499999999977
 10
662.2842319292537
 20
644.0898717628766
 42
0.009886
 10
660.6326348953538
 20
644.5637844997767
 42
0.01285
 10
658.6120430984537
 20
645.0453491624767
 42
0.009517
 10
656.3563124788537
 20
645.4773718342766
 10
650.6068065780538
 20
646.4654812601765
 10
655.2622065780537
 20
648.6824316218767
 42
0.0608475445695366
 10
689.7208433112437
 20
669.9033056837476
 42
0.00092
 10
693.8468839844433
 20
673.7077730501473
 42
0.0006069999999998
 10
698.5773158421418
 20
678.0963247462459
 42
0.000611
 10
703.1671127212425
 20
682.3752448759466
 42
0.0011830000000001
 10
706.8242320222435
 20
685.8092556837476
 42
-0.00388
 10
715.5334790799438
 20
693.8992259154478
 42
-0.0027090000000001
 10
725.4748421473439
 20
702.892592811048
 42
-0.00255
 10
734.7292931857436
 20
711.0892042905475
 42
-0.0100490000000001
 10
740.5544702858436
 20
715.9922793295475
 42
-0.009084
 10
745.3318526284436
 20
719.7107048172476
 42
-0.0588680000000002
 10
747.9665731548436
 20
721.2389834087475
 42
-0.102632
 10
750.2173496529437
 20
721.7033867152475
 42
-0.0563399999999999
 10
753.0248018132436
 20
721.3829842415476
 42
0.0513360000000001
 10
757.8384334279435
 20
720.7849042276476
 42
0.0248419999999999
 10
764.0491924812436
 20
720.9628421505475
 42
0.024643
 10
770.0972507358437
 20
721.7387429264475
 42
0.0629899999999999
 10
774.3061202858436
 20
723.0530802832476
 42
0.0211050000000001
 10
777.8132216495436
 20
724.8376642494477
 42
0.0199300000000004
 10
781.2268999978437
 20
726.9435996150477
 42
0.019201
 10
784.5818931496436
 20
729.3949897135476
 42
0.0165690000000001
 10
787.9131771251437
 20
732.2154203531477
 42
-0.012909
 10
790.0271011571436
 20
734.0318961370476
 42
-0.0864199999999993
 10
791.2307610343437
 20
734.7077585741476
 42
-0.1130609999999964
 10
792.4499078755436
 20
734.8474159187476
 42
-0.0289509999999999
 10
794.4197108102436
 20
734.5113239711476
 42
0.0354499999999999
 10
796.0849838575438
 20
734.2493948732476
 42
0.0106349999999999
 10
798.6483394296437
 20
734.0854433237476
 42
0.0106030000000003
 10
801.5413136156436
 20
734.0235303832476
 42
0.0113079999999997
 10
804.3728078133437
 20
734.0870308151477
 42
0.009712
 10
808.4023723046437
 20
734.3471388757476
 42
0.0464289999999999
 10
810.6688499151436
 20
734.7517854678476
 42
0.0612030000000003
 10
812.5195405613435
 20
735.5162401669477
 42
0.0250079999999999
 10
814.8229843755435
 20
736.9731770811475
 10
818.4834734102437
 20
739.5533277846476
 10
825.8789968480437
 20
739.0698629428476
 42
-0.004365
 10
828.8733206438436
 20
738.8478515722477
 42
-0.004875
 10
831.7547758184437
 20
738.5805912654476
 42
-0.004507
 10
834.2044884211436
 20
738.3069282318476
 42
-0.025621
 10
835.4964464942437
 20
738.0831641031476
 42
0.0073169999999999
 10
836.9804708533436
 20
737.7698114568476
 42
0.295884999999947
 10
837.2739387344436
 20
737.8876714427475
 42
0.299455999999772
 10
837.2838881001436
 20
738.2021173321476
 42
0.007439
 10
836.4766347570437
 20
739.4750604239475
 42
0.0658889999999999
 10
834.7557909758437
 20
741.4705611666477
 42
0.020176
 10
831.6713882936435
 20
744.0019240540476
 42
0.019433
 10
827.8857675382436
 20
746.6366585466476
 42
0.018011
 10
823.8116128498436
 20
749.0410205702476
 42
-0.0177939999999997
 10
821.2741544920437
 20
750.5370116350476
 42
-0.076405
 10
819.9599723152436
 20
751.6915159195475
 42
-0.0795049999999985
 10
819.0791178740436
 20
753.1650120915476
 42
-0.0202079999999999
 10
818.1480014067437
 20
755.7996472689476
 42
-0.0070779999999998
 10
817.3436243249437
 20
758.5436944330476
 42
-0.066484999999999
 10
817.1746077002437
 20
759.7587344355475
 42
-0.1415269999999994
 10
817.4090637309436
 20
760.5873397707476
 42
-0.0696879999999995
 10
818.1173331833436
 20
761.4349468969476
 42
0.0543120000000011
 10
818.7682434523434
 20
762.1671148452476
 42
0.012506
 10
819.6931666858437
 20
763.5390395000476
 42
0.012778
 10
820.6840468506436
 20
765.1823049197475
 42
0.0121669999999999
 10
821.6067261813435
 20
766.9008310876477
 42
-0.011399
 10
823.0628010706436
 20
769.6228481230475
 42
-0.1054290000000004
 10
823.9429680644436
 20
770.6181734189475
 42
-0.1368399999999989
 10
825.0648317877438
 20
771.0464135782476
 42
-0.0237539999999999
 10
827.3538035151435
 20
771.1498573421476
 42
-0.0242150000000001
 10
828.9963628658437
 20
771.0664108489476
 42
-0.013645
 10
830.9765985519435
 20
770.8146297471476
 42
-0.013595
 10
832.9656321681436
 20
770.4507419579477
 42
-0.0216210000000001
 10
834.6412107192437
 20
770.0204510949475
 42
0.004375
 10
836.9400798270437
 20
769.3448012544475
 42
0.0865040000000001
 10
837.6685746647437
 20
769.2683735526476
 42
0.4567710000000144
 10
837.8674471455436
 20
769.5322687811475
 42
0.0726500000000014
 10
837.6105272580435
 20
770.2228252124476
 42
0.0684450000000002
 10
836.1787939035437
 20
772.1542350633476
 42
0.0144820000000001
 10
833.1534814376436
 20
775.0717082918476
 42
0.016009
 10
829.7740714887435
 20
777.9546004332476
 42
0.0301240000000001
 10
826.8432070021436
 20
780.0206793676476
 42
-0.0314000000000002
 10
825.5106561687437
 20
780.9651428667475
 42
-0.0290610000000002
 10
824.2700130180434
 20
782.0922159826476
 42
-0.0303430000000001
 10
823.2833521974436
 20
783.2296046890476
 42
-0.0779470000000002
 10
822.7644170871437
 20
784.1833394172476
 42
0.024976
 10
821.7230708345436
 20
786.6975642254478
 42
0.025115
 10
820.4379274911435
 20
789.0906081957476
 42
0.025432
 10
818.9370164444435
 20
791.3134243614475
 42
0.027274
 10
817.2504767540436
 20
793.3186153192475
 42
-0.0252839999999999
 10
816.1009343500436
 20
794.6743655626477
 42
-0.0789949999999995
 10
815.5344559672437
 20
795.7235949592476
 42
-0.0918300000000033
 10
815.3662571411436
 20
796.8053896547476
 42
-0.0421489999999991
 10
815.5279911684438
 20
798.2286843208474
 42
-0.0979080000000014
 10
816.2876927041436
 20
800.0633371140477
 42
-0.1233469999999976
 10
817.6438502950437
 20
801.2955733882476
 42
-0.0662950000000004
 10
820.0788045038436
 20
802.2112890164475
 42
-0.0125340000000001
 10
824.7396202858435
 20
803.1669922029475
 42
0.0084110000000002
 10
826.5693585284436
 20
803.5264868463476
 42
0.0112489999999999
 10
828.2154521036437
 20
803.9176808842475
 42
0.0085900000000001
 10
829.5676541563436
 20
804.2962812892476
 42
0.1056640000000056
 10
830.0348693244437
 20
804.5519612885478
 42
0.5273479999998179
 10
829.9325475119436
 20
805.4696151149476
 42
0.028897
 10
826.8056092158436
 20
806.9090003952476
 42
0.030068
 10
822.7823659818437
 20
808.2133154517475
 42
0.0373279999999999
 10
818.9113807084437
 20
808.9127737837477
 42
-0.019637
 10
816.2664206297437
 20
809.2947152141476
 42
-0.0423759999999999
 10
814.2840659607436
 20
809.8377652964474
 42
-0.0464249999999996
 10
812.5364365597437
 20
810.6709267164475
 42
-0.0285879999999998
 10
810.6475964623436
 20
811.9488091876476
 42
0.08617
 10
803.9192531406436
 20
815.4521202798475
 42
0.0886060000000003
 10
796.4702182075436
 20
816.4365108170477
 42
0.075702
 10
788.1966537419436
 20
814.7897041897476
 42
0.044371
 10
779.0247181167436
 20
810.5133825491476
 10
773.6566151717436
 20
807.4043496973475
 10
768.4950195635435
 20
809.0667526905475
 42
0.027707
 10
763.8359495565437
 20
810.2871355404477
 42
0.0533959999999999
 10
760.0002118683436
 20
810.6491177192475
 42
0.0617350000000004
 10
756.5610599471437
 20
810.1788012788476
 42
0.052572
 10
753.1370512662436
 20
808.8732696111476
 42
0.025654
 10
750.3412756250437
 20
807.2702229679476
 42
0.0566719999999999
 10
748.4390062504436
 20
805.7156995589476
 42
0.0472859999999995
 10
746.7366467349436
 20
803.6016304336476
 42
0.013419
 10
744.5040356076435
 20
800.0134995052475
 42
0.0381349999999999
 10
741.7880162792435
 20
794.4412083885477
 42
0.0254709999999999
 10
739.5115939584436
 20
787.7155372664475
 42
0.025643
 10
737.9569301115436
 20
780.8965354610476
 42
0.043248
 10
737.4508702858435
 20
775.0568024769477
 42
-0.0507159999999996
 10
737.2909355706436
 20
773.4840857647476
 42
-0.0766200000000013
 10
736.8125427871436
 20
772.1960816780477
 42
-0.0581520000000001
 10
735.8626836794435
 20
770.8788385757476
 42
-0.0182160000000001
 10
734.1532952858436
 20
769.1416962391476
 42
-0.013523
 10
730.5789233921436
 20
765.9430616794476
 42
-0.0124249999999999
 10
726.7364586509436
 20
762.8479577844475
 42
-0.009675
 10
721.9526960826435
 20
759.3314897559475
 42
-0.0039760000000001
 10
715.3377202858437
 20
754.7417045153476
 42
-0.00416
 10
707.1520358060432
 20
749.2572344160473
 42
-0.0274999999999996
 10
702.8967232097437
 20
746.7810659510477
 42
-0.040362
 10
699.0825120911436
 20
745.2072482367475
 42
-0.015238
 10
693.5335949619436
 20
743.6105329375476
 42
0.004094
 10
690.3941336398437
 20
742.7824327132476
 42
0.0042669999999999
 10
687.3118196804437
 20
741.9140283634476
 42
0.0041080000000001
 10
684.6603117816435
 20
741.1188286268476
 42
0.018636
 10
683.1378702858436
 20
740.5856689418476
 42
-0.0031
 10
681.7111593320436
 20
740.0357117977476
 42
-0.0009060000000001
 10
679.5105377858435
 20
739.2076278673475
 42
-0.000911
 10
677.0300716107437
 20
738.2845155844476
 42
-0.0009760000000001
 10
674.6029702858432
 20
737.3916750400474
 42
0.0019180000000001
 10
672.2043483704436
 20
736.5041757912475
 42
0.00191
 10
669.8093630983436
 20
735.5971122239477
 42
0.00187
 10
667.7225490123436
 20
734.7886717538476
 42
0.0075059999999999
 10
666.4560202858435
 20
734.2704978014475
 42
-0.0047530000000001
 10
665.2095485743434
 20
733.7524992024476
 42
-0.0012710000000002
 10
663.2166377858434
 20
732.9523220673475
 42
-0.0012880000000003
 10
660.9471295099434
 20
732.0545491266475
 42
-0.00133
 10
658.6970202858435
 20
731.1780482603476
 42
0.007109
 10
655.8328149200438
 20
730.0240358964477
 42
0.001956
 10
651.3593642459436
 20
728.1266725375476
 42
0.0019760000000001
 10
646.3070688948437
 20
725.9367545318475
 42
0.002064
 10
641.3446972501435
 20
723.7380168708473
 42
-0.0016289999999999
 10
636.7350008637436
 20
721.6907457524476
 42
-0.0025639999999999
 10
632.7619506007429
 20
719.965962726947
 42
-0.0006429999999998
 10
629.2815223513435
 20
718.4814883458472
 42
-0.1008079999999975
 10
628.8669954486437
 20
718.3970556837476
 42
-0.2234649999999651
 10
628.5510815564435
 20
718.5456676902475
 42
-0.0084099999999998
 10
627.7130048099436
 20
719.5936385770474
 42
-0.013758
 10
626.7531257296436
 20
720.9095013532476
 42
-0.00909
 10
625.7202383388437
 20
722.4705306837476
 42
0.011035
 10
624.4867994196436
 20
724.3189913933475
 42
0.006106
 10
622.9040410096437
 20
726.5233768304476
 42
0.006085
 10
621.2450861160436
 20
728.7188611427476
 42
0.009745
 10
619.7703151403437
 20
730.5472555265476
 42
-0.0075899999999999
 10
618.4836712063436
 20
732.1284241174476
 42
-0.0109970000000001
 10
617.4000399555437
 20
733.5661202634476
 42
-0.0068530000000001
 10
616.5422770742435
 20
734.7929104955476
 42
-0.1537259999999903
 10
616.4193721865436
 20
735.2026555265475
 42
-0.2178079999999849
 10
616.5747787493436
 20
735.5305718158476
 42
-0.0219390000000001
 10
617.2778085490437
 20
736.0710808256476
 42
-0.024339
 10
618.2172651654436
 20
736.6638800641476
 42
-0.016964
 10
619.3292082313436
 20
737.2432104545476
 42
0.0496340000000001
 10
622.1224676288436
 20
738.9388056738477
 42
0.0120130000000001
 10
626.3674956706436
 20
742.2935598484476
 42
0.005876
 10
630.6355974266436
 20
745.9219429170475
 42
0.216930999999997
 10
631.1525702858435
 20
747.0574314443475
 42
0.3406030000000741
 10
630.9551200297436
 20
747.3136592290476
 42
0.0121779999999999
 10
629.6689912933437
 20
747.6193149473475
 42
0.017931
 10
628.0382558827435
 20
747.9044729394477
 42
0.0110370000000001
 10
626.1020882130436
 20
748.1284791489476
 42
-0.055078
 10
621.0740110286437
 20
749.1642567672477
 42
-0.0752609999999996
 10
616.9433669407436
 20
751.2285100089475
 42
-0.0496000000000003
 10
612.4865748396437
 20
755.0809807565475
 42
-0.0118709999999999
 10
605.9155809343437
 20
762.3480384313475
 42
0.011494
 10
599.2307787929436
 20
769.7521805663476
 42
0.022469
 10
593.5167245390437
 20
775.2762533775477
 42
0.027443
 10
588.2238326846436
 20
779.4583101512476
 42
0.034243
 10
582.8688432255436
 20
782.7073914012475
 42
-0.0090720000000001
 10
579.7894171659436
 20
784.3699309528476
 42
-0.0878630000000012
 10
578.6474459941437
 20
785.3094961952475
 42
-0.1417619999999895
 10
578.1464613303436
 20
786.4152343888477
 42
-0.0359560000000003
 10
578.0034202858436
 20
788.4017750383476
 42
0.04021
 10
577.8423713782436
 20
790.4011428666477
 42
0.1413119999999858
 10
577.2962332139436
 20
791.5566597006476
 42
0.0792450000000004
 10
576.0450851531436
 20
792.5900234940476
 42
0.007465
 10
572.5721202858436
 20
794.5659156919476
 42
0.018985
 10
569.9413715915436
 20
795.8836631292476
 42
0.008973
 10
566.4570584108436
 20
797.3916666778476
 42
0.008879
 10
562.7494435378435
 20
798.8414738469477
 42
0.012398
 10
559.3818202858436
 20
799.9957329470475
 42
-0.0108729999999999
 10
553.8772970510435
 20
801.8636834887475
 42
-0.0520599999999999
 10
550.8998599428435
 20
803.3127085506476
 42
-0.1097799999999963
 10
549.4355465473436
 20
804.7487101310476
 42
-0.1816010000000026
 10
549.0669901678436
 20
806.4188954012475
 42
-0.0870689999999984
 10
549.3327165203436
 20
807.2321751596476
 42
-0.1703999999999821
 10
549.8281426365436
 20
807.6879512340475
 42
-0.0970440000000001
 10
550.7150584085436
 20
807.8794930116476
 42
-0.0178149999999999
 10
552.3987202858434
 20
807.8518616608475
 42
0.0053200000000001
 10
561.8435663216435
 20
807.4606567603476
 42
0.015472
 10
568.3750607097437
 20
807.4618601812476
 42
0.022065
 10
573.0936391431436
 20
807.8175932614474
 42
0.0542360000000004
 10
576.4762039014437
 20
808.6015246023475
 42
0.0755660000000002
 10
582.2505960188436
 20
811.6589166537476
 42
0.0822
 10
586.6659085059437
 20
816.2217246272476
 42
0.0814369999999997
 10
589.4044941099436
 20
822.0024232598476
 42
0.0723930000000001
 10
590.3030739866436
 20
828.5994672317475
 42
0.01776
 10
590.2008142461436
 20
830.8870400114475
 42
0.022564
 10
589.9366482285436
 20
832.9841107195475
 42
0.0250589999999997
 10
589.5392493183436
 20
834.7567636714474
 42
0.0574610000000014
 10
589.0255003236436
 20
836.0229851415475
 42
-0.0299020000000001
 10
588.5194637749436
 20
837.0966228003476
 42
-0.015862
 10
588.0164540121436
 20
838.4791671984476
 42
-0.0157330000000001
 10
587.5901489474436
 20
839.9301878751476
 42
-0.0234800000000001
 10
587.3179733141437
 20
841.2240096600475
 42
0.0571740000000001
 10
586.6443509003436
 20
843.6149998230476
 42
0.2289870000000166
 10
585.5441751338436
 20
844.6030270035475
 42
0.2354319999999889
 10
584.1114331093435
 20
844.3409613472475
 42
0.059934
 10
582.3535051876436
 20
842.6597986438476
 42
-0.0316590000000002
 10
581.1284436607436
 20
841.3481761611475
 42
-0.0848149999999991
 10
580.0678085341436
 20
840.6426417562476
 42
-0.0797659999999993
 10
578.7943153292436
 20
840.3058189108476
 42
-0.0257690000000001
 10
576.8395702858436
 20
840.2122220938478
 42
-0.0263899999999999
 10
572.5374709195436
 20
840.4553371685477
 42
-0.0192820000000001
 10
567.8028026478435
 20
841.1601554177476
 42
-0.0186970000000001
 10
563.5237971691436
 20
842.1337811183475
 42
-0.066681
 10
560.9362567940435
 20
843.2103749561473
 42
-0.0664759999999999
 10
558.7173806485435
 20
844.9331747812475
 42
-0.0530899999999999
 10
556.8310335178436
 20
847.3055829151476
 42
-0.0547109999999999
 10
555.5445874383436
 20
849.9260144671476
 42
-0.0869809999999998
 10
555.1143702858436
 20
852.3803421230477
 42
-0.1065139999999995
 10
556.1041013427435
 20
856.9736561568475
 42
-0.048341
 10
559.1808520991436
 20
862.3341032965477
 42
-0.0475080000000001
 10
563.3945834385436
 20
867.2106410037475
 42
-0.0751539999999996
 10
567.9041491540437
 20
870.3840774350478
 42
-0.061544
 10
571.4953906655437
 20
871.6554586401477
 42
-0.0409619999999998
 10
575.8274126153436
 20
872.2458137936476
 42
-0.0392700000000001
 10
580.4286974698436
 20
872.1310535282476
 42
-0.0424150000000001
 10
584.8348465779436
 20
871.2918214666474
 42
-0.015708
 10
586.9196883261436
 20
870.6368245323476
 42
-0.0983450000000012
 10
587.8778930142435
 20
870.0729725710475
 42
-0.1547039999999915
 10
588.3330429373436
 20
869.3065245848476
 42
-0.0572890000000008
 10
588.4780702858436
 20
868.0449189438476
 42
0.1022149999999984
 10
588.7850233089436
 20
866.5591076870475
 42
0.2426619999999992
 10
589.6328546702436
 20
865.8633015163477
 42
0.141509000000001
 10
591.1071903660436
 20
865.9667390730476
 42
0.032394
 10
593.4161360871436
 20
866.9866860036476
 42
-0.005133
 10
594.2893393784436
 20
867.4307506434475
 42
-0.007338
 10
595.0736245297437
 20
867.8052791252477
 42
-0.004339
 10
595.7386204873436
 20
868.1039773482476
 42
-0.1037420000000028
 10
595.9378110871437
 20
868.1457556837477
 42
-0.4457080000000505
 10
596.2866184839436
 20
867.7577420599476
 42
-0.0454559999999987
 10
596.0138205788435
 20
866.3921355588476
 42
-0.0287989999999998
 10
595.2504125688436
 20
864.2718491468475
 42
-0.009674
 10
593.9010053079437
 20
861.2705709593475
 10
591.5661654761436
 20
856.3351362349477
 10
593.6327828851435
 20
856.8538246090476
 42
0.0841979999999997
 10
597.0537795222436
 20
858.3566071265476
 42
0.0278500000000002
 10
601.4767765229437
 20
861.6331901520474
 42
0.0230749999999999
 10
605.4290869789435
 20
865.2377887820476
 42
0.1988699999999948
 10
606.3237702858436
 20
867.3982412093476
 42
-0.2484899999999576
 10
606.4920435983435
 20
867.7159249294476
 42
-0.0281310000000002
 10
607.2136616343437
 20
868.1487979876477
 42
-0.0288060000000004
 10
608.1925510405437
 20
868.5935679205474
 42
-0.019448
 10
609.3531880386437
 20
868.9910995096475
 42
0.0868540000000004
 10
614.4919807217436
 20
871.5651299139477
 42
0.0556909999999999
 10
619.3911328103435
 20
876.1191756487477
 42
0.0570790000000003
 10
622.9917208132436
 20
881.4208669850476
 42
-0.1393545883651045
 10
631.0465770882546
 20
893.8639615293256
 42
0.503890098661187
 10
628.5671293987352
 20
911.0270376620134
 42
-0.1343305448380875
 10
620.1675565428436
 20
916.2082154615475
 42
0.01924
 10
614.6272821637436
 20
921.9301621702475
 42
0.020069
 10
608.2798250484435
 20
927.5301746421476
 42
0.033525
 10
602.4679189419436
 20
931.6422646333476
 42
0.014781
 10
599.2781831793437
 20
933.4650973659476
 42
0.0068510000000001
 10
595.0354882688436
 20
935.6518978054477
 42
0.00678
 10
590.5125995744437
 20
937.8291841591476
 42
0.009378
 10
586.3940921143437
 20
939.6503308610476
 42
-0.0062090000000002
 10
581.1842417333434
 20
941.9146871609475
 42
-0.0291830000000002
 10
578.2910712446436
 20
943.4237195529478
 42
-0.050526
 10
576.4401734331435
 20
944.8020290888477
 42
-0.0613630000000003
 10
575.0359876322436
 20
946.4450625144477
 42
0.051146
 10
567.8566617463436
 20
955.2005407977476
 42
0.041429
 10
558.5528339837435
 20
963.0208027581474
 42
0.038285
 10
547.3164852814436
 20
969.7506350319477
 42
0.030918
 10
534.3639745785436
 20
975.2465100853475
 42
-0.0124089999999999
 10
531.5330235108436
 20
976.3259623387476
 42
-0.0729179999999999
 10
530.1683550728435
 20
977.1341498654477
 42
-0.1108170000000028
 10
529.3674920421437
 20
978.1454222340476
 42
-0.0465430000000004
 10
528.7590754884436
 20
979.7813786757476
 42
0.0768490000000001
 10
526.4768758162436
 20
984.9412595449477
 42
0.0613670000000003
 10
522.5893336127436
 20
989.6284869629477
 42
0.0487569999999999
 10
516.8187705618436
 20
994.0920146519477
 42
0.02464
 10
508.7946990689436
 20
998.5979119122475
 42
0.01738
 10
502.3605405599436
 20
1001.530394150347
 42
0.018861
 10
495.9094534647436
 20
1003.923067240447
 42
0.016498
 10
488.5951054608436
 20
1006.061669547847
 42
0.008907
 10
479.4641202858437
 20
1008.234791646247
 42
0.026324
 10
471.8683983541437
 20
1009.485516065647
 42
0.021004
 10
463.5858419834437
 20
1010.054256196947
 42
0.021501
 10
455.8305608721437
 20
1009.926773499247
 42
0.0473670000000001
 10
449.9799202858437
 20
1009.018021573548
 42
0.0198219999999999
 10
446.0570195434436
 20
1007.854230541947
 42
0.0102879999999999
 10
441.2547975382437
 20
1006.108841164247
 42
0.008355
 10
435.4196206389437
 20
1003.738206737748
 42
0.0044110000000001
 10
428.2547202858435
 20
1000.611938819247
 42
-0.0060909999999999
 10
417.8824836545435
 20
996.1276387354475
 42
-0.030191
 10
411.8824132631436
 20
994.0353770555477
 42
-0.043951
 10
406.7622864063436
 20
993.0649410798476
 42
-0.0234530000000001
 10
400.3223202858435
 20
992.7260946872475
 42
-0.0075069999999999
 10
395.1520307181436
 20
992.7744053248474
 42
-0.0360420000000001
 10
392.2214471073436
 20
993.0578190937476
 42
-0.0447269999999999
 10
389.6589481288437
 20
993.7336225624475
 42
-0.0157190000000002
 10
386.1208922346437
 20
995.1413868141475
 10
380.4543634075437
 20
997.6050687204477
 10
379.7197172346437
 20
995.6728015000477
 42
0.030865
 10
379.4379056992437
 20
994.7669498885478
 42
0.017039
 10
379.2008729046437
 20
993.6316359387475
 42
0.016934
 10
379.0383001294437
 20
992.4600804758476
 42
0.0260110000000001
 10
378.9850702858437
 20
991.4375513500477
 42
0.0844470000000006
 10
379.3985838631436
 20
989.0066411320475
 42
0.027991
 10
380.7884775860437
 20
985.6535714363475
 42
0.028436
 10
382.5770108832437
 20
982.4241871837477
 42
0.0684389999999998
 10
384.3325063584437
 20
980.3370254945477
 42
-0.0172920000000001
 10
384.9588493057437
 20
979.7303935108477
 42
-0.0223589999999998
 10
385.4876942108436
 20
979.1299609681477
 42
-0.020899
 10
385.8765985678437
 20
978.6027819203477
 42
-0.149549000000002
 10
385.9681702858436
 20
978.3034699604476
 42
-0.2514639999999643
 10
385.8038525115437
 20
977.9974076705475
 42
-0.0069540000000001
 10
384.4935381962437
 20
977.1548268245476
 42
-0.0127189999999997
 10
382.8721865202437
 20
976.2002254160476
 42
-0.008193
 10
380.9481469434436
 20
975.1732271062476
 42
0.024494
 10
375.8228533685437
 20
972.2189676828476
 42
0.0204249999999999
 10
370.6801904962436
 20
968.6038532801477
 42
0.020066
 10
365.7498123121437
 20
964.5040000078475
 42
0.021234
 10
361.2600793765438
 20
960.0954564723476
 42
0.0302870000000001
 10
353.1900932252437
 20
950.3475376893476
 42
0.0242860000000001
 10
345.6957053853437
 20
938.9679601747475
 42
0.016436
 10
337.0994960950437
 20
923.2682312044479
 42
0.004917
 10
325.0270088444436
 20
898.7938056837476
 42
-0.0121999999999999
 10
322.1302661121437
 20
893.1306915925476
 42
-0.0186179999999999
 10
319.3189747986437
 20
888.3810988843476
 42
-0.0214539999999999
 10
316.5471938649436
 20
884.4536955942475
 42
-0.0319910000000001
 10
313.7712222953437
 20
881.2978076932475
 42
-0.0694791532295029
 10
304.667320975991
 20
874.1523232177387
 42
0.5848125324506652
 10
305.0520504523694
 20
871.3575111123342
 42
0.2431029575178031
 10
320.2106452858437
 20
874.2608796307477
 42
-0.7480974662552188
 10
322.4583232897238
 20
872.2936310502317
 42
-0.0060555014477733
 10
321.2323434227437
 20
869.7998231832476
 42
0.055111
 10
316.1399433524437
 20
856.2260012445475
 42
0.0514710000000002
 10
313.9824331379437
 20
841.5488557130476
 42
0.042707
 10
314.7059040231436
 20
824.4400838078476
 42
0.0221600000000002
 10
318.3668376485439
 20
803.3581056837476
 42
-0.001448
 10
321.8172447751431
 20
787.4321747069475
 42
-0.007813
 10
323.5320186906437
 20
778.7427006848475
 42
-0.014355
 10
324.3995206687437
 20
773.0222662052477
 42
-0.030458
 10
324.6720702858437
 20
768.5522644066476
 42
-0.0335909999999998
 10
324.3137728561436
 20
763.2250056135476
 42
-0.0575790000000001
 10
323.2162560989436
 20
758.9149757733475
 42
-0.0588630000000001
 10
321.1857870950437
 20
755.0334343804477
 42
-0.036854
 10
317.9853539991437
 20
751.0204500962475
 42
0.007879
 10
316.3853799199437
 20
749.2367149646476
 42
0.01146
 10
315.0361363739437
 20
747.6101259636475
 42
0.0071589999999999
 10
313.9667731482437
 20
746.2186144892475
 42
0.1616139999999991
 10
313.8094702858437
 20
745.7446629573475
 42
0.3234689999999778
 10
314.4731309195437
 20
744.8261494337477
 42
0.024476
 10
317.6048371211437
 20
743.9578412955476
 42
0.0313770000000001
 10
321.1063644192437
 20
743.3970929342475
 42
0.0574119999999997
 10
323.9937955756437
 20
743.4509062546476
 42
0.0338019999999999
 10
325.4917395807436
 20
743.7559753925476
 42
0.015826
 10
327.3830400570437
 20
744.3413143525476
 42
0.0156000000000001
 10
329.3350430698437
 20
745.0827193903476
 42
0.0211039999999999
 10
331.0453004714437
 20
745.8803391590476
 42
-0.0031289999999999
 10
332.5462146217437
 20
746.6471595772476
 42
-0.004742
 10
333.8620067910437
 20
747.2934866049476
 42
-0.0019110000000001
 10
334.9948037212437
 20
747.8313350536476
 42
-0.1103099999999863
 10
335.2183249932437
 20
747.8812556837477
 42
-0.3827789999999346
 10
335.3450162729437
 20
747.7676158179477
 42
-0.006488
 10
335.4417438464437
 20
746.7581450891477
 42
-0.01288
 10
335.5119193460437
 20
745.5238744051476
 42
-0.007759
 10
335.5346702858437
 20
744.0578990318475
 42
0.0314920000000002
 10
336.0498663340437
 20
735.8862249783476
 42
0.027648
 10
337.5911559926437
 20
727.4738814869476
 42
0.025727
 10
340.1872498893437
 20
718.7080969239475
 42
0.0200310000000001
 10
343.8692942019437
 20
709.4742056837476
 42
-0.018746
 10
348.8981597007437
 20
696.9562563974476
 42
-0.039213
 10
351.6573958832438
 20
686.8340201774477
 42
-0.034851
 10
352.9808779974437
 20
675.6766379217475
 42
-0.012015
 10
353.3768570106437
 20
659.4286556837475
 42
0.004445
 10
353.4482118782437
 20
651.6959633491477
 42
0.007784
 10
353.6638150907437
 20
645.2978477228477
 42
0.009301
 10
354.0150262257437
 20
640.1298369734478
 42
0.0219410000000002
 10
354.5169109335437
 20
636.3007658180475
 42
-0.009522
 10
354.9268879586437
 20
633.6797213050476
 42
-0.010571
 10
355.2208058617436
 20
631.1346474887476
 42
-0.009989
 10
355.3818268369437
 20
628.9584458432475
 42
-0.0528300000000001
 10
355.3201373556437
 20
627.7658658180476
 42
0.005042
 10
354.0261565112436
 20
619.0363786329477
 42
0.00938
 10
353.1816553127437
 20
611.9320574482476
 42
0.011125
 10
352.7483958563437
 20
606.3388705686476
 42
0.034847
 10
352.8034428577437
 20
602.5703428902476
 42
0.036109
 10
353.5396066910437
 20
597.9035984563475
 42
0.0353319999999999
 10
354.9427015765437
 20
593.3561455438475
 42
0.0366360000000001
 10
356.9031828486437
 20
589.2256519805475
 42
0.047925
 10
359.3036669240437
 20
585.8068961426475
 10
362.1109499381437
 20
582.5272172761475
 10
359.9428541199436
 20
577.3335614799474
 42
-0.011443
 10
356.7892869358437
 20
570.2403325616476
 42
-0.0132570000000001
 10
353.4570555864437
 20
563.6435547234476
 42
-0.0128630000000002
 10
349.6912870084437
 20
557.0662069730476
 42
-0.0096800000000001
 10
345.2280906287437
 20
550.0267556837476
 42
-0.0182930000000001
 10
337.4893385151436
 20
539.2098018807474
 42
-0.0212529999999999
 10
329.3389427432436
 20
529.5350357256475
 42
-0.020044
 10
319.9910764484436
 20
520.1360345172477
 42
-0.01346
 10
308.6115610058437
 20
510.1327748032477
 42
0.043748
 10
287.4307751203437
 20
489.1103664016476
 42
0.0381499999999999
 10
269.1380791303437
 20
463.7800347283478
 42
0.0382400000000001
 10
254.9480506019437
 20
436.0337467577476
 42
0.04455
 10
245.9933778393437
 20
407.8129121399475
 42
0.026535
 10
243.4033584637437
 20
392.2738208502477
 42
0.027713
 10
242.5236461473437
 20
376.7723700213477
 42
0.029229
 10
243.3586394672437
 20
362.1815720731477
 42
0.040989
 10
245.9187610881437
 20
349.3904966760476
 42
-0.030306
 10
246.4975312787437
 20
346.7885812016476
 42
-0.0686660000000002
 10
246.5401204297437
 20
344.7767477639477
 42
-0.038544
 10
246.0390876601436
 20
342.2130445886476
 42
-0.004481
 10
244.4276341404437
 20
336.5881466760478
 42
-0.014995
 10
229.6936011727435
 20
291.8215665567473
 42
-0.0177619999999999
 10
213.0300895692437
 20
250.5182610896476
 42
-0.01938
 10
195.3443351470435
 20
214.6184838338475
 42
-0.0331669999999999
 10
177.5333830526436
 20
186.3860394243476
 42
-0.022106
 10
171.1327535103436
 20
178.3619353436476
 42
-0.014772
 10
163.1477757389436
 20
169.7401143702475
 42
-0.014693
 10
155.1346832310436
 20
162.0504906928475
 42
-0.0386710000000001
 10
148.8409517594436
 20
157.1848776576476
 42
-0.0675780000000002
 10
131.1014445370435
 20
148.7060969528476
 42
-0.0496829999999996
 10
109.7700114593436
 20
144.1231784272476
 42
-0.0497919999999999
 10
88.0137521823436
 20
143.8437737336476
 42
-0.0689359999999999
 10
69.0130202858436
 20
148.1788379873476
 42
-0.0464959999999998
 10
55.65978594124366
 20
154.7099506326476
 42
-0.0513850000000001
 10
44.22151469524361
 20
163.4143816790476
 42
-0.0529759999999999
 10
35.08749885484367
 20
174.0032938166476
 42
-0.055565
 10
28.55175098294365
 20
186.1134044582476
 42
-0.0497389999999998
 10
24.54549607944367
 20
199.8139642306476
 42
-0.0394230000000003
 10
22.90816629474367
 20
215.1613205436477
 42
-0.0372540000000001
 10
23.67587744614366
 20
231.4845650816477
 42
-0.03361
 10
26.84815468284366
 20
248.0988597963476
 42
-0.013801
 10
27.58660043804366
 20
250.6338189802477
 42
-0.010658
 10
28.52584911324366
 20
253.3548405359477
 42
-0.010804
 10
29.51281796614367
 20
255.8600129188477
 42
-0.025261
 10
30.38402331494366
 20
257.6754955507476
 42
-0.0583320000000001
 10
33.11067635284368
 20
261.5399081752477
 42
-0.017124
 10
38.14917077064365
 20
266.7857758342476
 42
-0.0142140000000001
 10
45.12236175174367
 20
273.1899683093477
 42
-0.00713
 10
54.2709202858436
 20
280.8988886197476
 42
0.0196029999999997
 10
67.45237657764358
 20
292.5804743467476
 42
0.0362159999999999
 10
77.03630656794363
 20
303.2028782078477
 42
0.042834
 10
83.86715714224365
 20
313.7197076836476
 42
0.045844
 10
88.62703595674364
 20
325.0157556837476
 42
0.01455
 10
89.83491285044364
 20
329.2469067540475
 42
0.0121410000000001
 10
90.87642514564365
 20
333.8037821961477
 42
0.0051339999999999
 10
91.70251966844366
 20
338.0957110652476
 42
0.2444589999999902
 10
91.45013802004365
 20
338.9126592788476
 42
0.3471720000000068
 10
90.36700101754366
 20
339.0469419641476
 42
0.016694
 10
87.10931658834367
 20
336.9203063624476
 42
0.02166
 10
83.21727338894367
 20
333.9304695963476
 42
0.014151
 10
78.98530141644356
 20
330.1686177615476
 42
-0.0045449999999995
 10
76.49911685834367
 20
327.8716271076477
 42
-0.008125
 10
74.40828516214361
 20
326.0358849508476
 42
-0.0036329999999999
 10
72.67293825814367
 20
324.5830773764477
 42
-0.6341250000002225
 10
72.50457028584367
 20
324.6624503946476
 42
-0.092528
 10
72.57720538844367
 20
325.0515937288477
 42
-0.004795
 10
73.05073172714367
 20
326.2418064831477
 42
-0.007471
 10
73.65158713534367
 20
327.6504428464477
 42
-0.0053459999999999
 10
74.36384238604367
 20
329.2083383168476
 42
0.0217149999999999
 10
79.33278047244366
 20
341.0904096207476
 42
0.025015
 10
82.99409816834362
 20
352.8165723545476
 42
0.0272689999999999
 10
85.11422629674367
 20
363.3785413646477
 42
0.060588
 10
85.29895256874366
 20
371.5697556837477
 42
0.016239
 10
84.65459399934365
 20
376.4620449368476
 42
0.0119
 10
83.63536012084367
 20
381.8420269108477
 42
0.011519
 10
82.46793865314367
 20
386.7381638520476
 42
0.04012
 10
81.3929532560436
 20
389.8034056837478
 42
-0.007028
 10
78.98852605684365
 20
395.4362930386477
 42
-0.0171700000000001
 10
77.42090080044366
 20
399.6644157712476
 42
-0.02307
 10
76.49867769894365
 20
402.9382334891476
 42
-0.0533839999999999
 10
76.18882746524366
 20
405.4699276858476
 42
0.018084
 10
76.12305830174367
 20
406.7513490369477
 42
0.029258
 10
75.96437200964365
 20
407.8309409523477
 42
0.0292300000000001
 10
75.74931735844366
 20
408.6300713983477
 42
0.3229399999999731
 10
75.49569271824366
 20
408.8129556837476
 42
0.3320199999999994
 10
74.15451542864366
 20
407.8120206308476
 42
0.0165070000000001
 10
72.67907407534366
 20
402.1638247689477
 42
0.02282
 10
71.44588809954367
 20
395.2644203260477
 42
0.019141
 10
70.75593143894366
 20
387.8636556837477
 10
70.56482028584366
 20
384.3721056837476
 10
69.10202843024366
 20
388.2516056837476
 42
0.02481
 10
65.18881402344366
 20
397.2506614781477
 42
0.035014
 10
60.77148109274363
 20
404.7934639262476
 42
0.027962
 10
54.62165191464364
 20
412.7881645005476
 42
0.009865
 10
44.96160691024363
 20
423.5534627610476
 42
-0.0093299999999999
 10
40.3485043228436
 20
428.6833388013476
 42
-0.0212430000000002
 10
37.10852670754362
 20
432.7622815686477
 42
-0.0253509999999998
 10
35.02704693404366
 20
435.9525317529477
 42
-0.132621
 10
34.48547028584366
 20
437.9584450736477
 42
0.2060319999999978
 10
34.13631994124365
 20
438.7697982723476
 42
0.3778809999999979
 10
33.46714498624365
 20
438.7935330533476
 42
0.1121599999999996
 10
32.58676074044366
 20
437.6598120262476
 42
0.054224
 10
31.99074229284366
 20
435.9114455202475
 42
0.0424740000000001
 10
31.44768057204364
 20
431.9223938715476
 42
0.0143869999999999
 10
31.32081471484366
 20
426.0603840225476
 42
0.0140539999999999
 10
31.52553748164365
 20
420.2533715173475
 42
0.0495650000000001
 10
32.12869265744365
 20
416.5719556837476
 42
0.0294249999999997
 10
32.79143850504366
 20
414.5739061095476
 42
0.0048170000000002
 10
34.33669301264368
 20
410.8011994337475
 42
0.0052889999999999
 10
36.24707131814364
 20
406.3932199775477
 42
0.0046420000000002
 10
38.33340046664367
 20
401.8298556837477
 42
-0.008796
 10
41.61198143464363
 20
394.4982640782476
 42
-0.017628
 10
43.89222273524366
 20
388.5783395014477
 42
-0.013979
 10
45.34025076564365
 20
383.9701196527477
 42
-0.2718929999999992
 10
44.97878999164365
 20
382.5803423148477
 42
-0.3519119999999492
 10
44.66174328544364
 20
382.5457604518477
 42
-0.016273
 10
43.70475365674365
 20
383.2013874169477
 42
-0.0209630000000002
 10
42.54794262154365
 20
384.1275435555476
 42
-0.01278
 10
41.25832854234364
 20
385.3112232318476
 42
0.023019
 10
39.72055914204366
 20
386.6657374665477
 42
0.0142800000000001
 10
37.80130143694365
 20
388.1173175671476
 42
0.014319
 10
35.82061960834366
 20
389.4444758955476
 42
0.024967
 10
34.09752028584364
 20
390.4123444181477
 42
0.019972
 10
31.04906582654366
 20
391.7807317448477
 42
0.0165180000000001
 10
27.70329812574367
 20
392.9980505656477
 42
0.00863
 10
24.58260194514366
 20
393.9588033093476
 42
0.2732070000000013
 10
23.83580362644366
 20
393.7665220990476
 42
0.2533799999999938
 10
23.76432151124368
 20
393.5261777632476
 42
0.001754
 10
24.22762226384367
 20
391.3603545561477
 42
0.0061570000000001
 10
24.80377767144367
 20
388.8609587487477
 42
0.0038320000000002
 10
25.53795054534368
 20
385.9436104401477
 42
-0.017459
 10
27.04426573554366
 20
379.1849302043477
 42
-0.0523760000000001
 10
27.42045464334366
 20
374.4758627531477
 42
-0.0643400000000001
 10
26.78238474344367
 20
370.3501665795477
 42
-0.03777
 10
25.03208081514366
 20
365.6638492922477
 42
0.018281
 10
23.69976818304367
 20
362.4806900580476
 42
0.0375070000000001
 10
22.94041037104367
 20
359.8874522492477
 42
0.031951
 10
22.50958413704365
 20
356.9575615171477
 42
0.010031
 10
22.23452060394366
 20
352.5307998496477
 42
0.0105300000000002
 10
22.16766362864365
 20
349.3377913408476
 42
0.010929
 10
22.23699572494366
 20
346.1841737232476
 42
0.0106849999999999
 10
22.41476915704366
 20
343.4617369259477
 42
0.0457379999999999
 10
22.70251710334366
 20
341.8621748496476
 42
-0.012493
 10
22.97801669224366
 20
340.7575330027476
 42
-0.021763
 10
23.14323683824365
 20
339.8280203207476
 42
-0.018475
 10
23.21150517564365
 20
339.1149402883477
 42
-0.4314539999998946
 10
23.08608171654365
 20
338.9819556837477
 42
-0.1591790000000051
 10
22.81539193174369
 20
339.0703725923477
 42
-0.0035880000000002
 10
21.70641280384363
 20
339.8936381837477
 42
-0.0077159999999997
 10
20.4178710184437
 20
340.8961715906477
 42
-0.005102
 10
18.96747028584364
 20
342.0855556837476
 42
0.009128
 10
17.49358306024365
 20
343.2744796681477
 42
0.012798
 10
16.13212141694366
 20
344.2774731837476
 42
0.00911
 10
14.97177072594366
 20
345.0562812569477
 42
0.1442140000000007
 10
14.52066479364366
 20
345.1891556837476
 42
0.3268509999999804
 10
13.65704153964367
 20
344.5570772836477
 42
0.004788
 10
11.69485483934369
 20
338.1595365992478
 42
0.0124539999999999
 10
9.836807109343652
 20
331.2616234361477
 42
0.014555
 10
8.42907466954368
 20
324.6278056837478
 42
0.0312300000000001
 10
7.480211041543654
 20
316.5933968751476
 42
0.0255400000000002
 10
7.445200105843639
 20
307.9398284014477
 42
0.026239
 10
8.266864239643638
 20
299.7082533161476
 42
0.0445910000000001
 10
9.917738134743657
 20
292.9935448851477
 42
-0.014101
 10
10.70885430964365
 20
290.4540963438476
 42
-0.013084
 10
11.37729681504366
 20
287.8101961445477
 42
-0.013196
 10
11.84802525834365
 20
285.4278564906477
 42
-0.0421970000000001
 10
11.98437028584365
 20
283.8151436852477
 42
-0.0462329999999999
 10
11.80021817984368
 20
281.8278302393476
 42
-0.0042849999999999
 10
10.85106979654364
 20
276.9807185396476
 42
-0.00549
 10
9.603809770643636
 20
271.2116545275477
 42
-0.004282
 10
8.126325472643657
 20
264.9707913301477
 42
0.006685
 10
4.409967758443713
 20
248.9293971225477
 42
0.018339
 10
2.35621477144366
 20
237.4881014183477
 42
0.023461
 10
1.430118377143656
 20
227.6675840000477
 42
0.019449
 10
1.343815796043656
 20
217.1656556837477
 42
0.0166510000000002
 10
2.039526531043662
 20
206.3056526210476
 42
0.027028
 10
3.433051465943634
 20
197.1666570544477
 42
0.0276370000000002
 10
5.777179596643634
 20
188.3766892402476
 42
0.0184600000000001
 10
9.376706168343645
 20
178.6005478706476
 42
0.0249970000000002
 10
13.43282506124362
 20
169.9778959083477
 42
0.0281710000000001
 10
18.18716162204365
 20
162.1533447727476
 42
0.0277049999999998
 10
23.86496117254361
 20
154.8031230323477
 42
0.0227350000000003
 10
30.69079400154364
 20
147.6010454307476
 42
0.0163769999999998
 10
37.34477506724355
 20
141.5981748162477
 42
0.0243050000000002
 10
43.58072138634361
 20
136.8314649781476
 42
0.02434
 10
50.24300147844358
 20
132.6973433064476
 42
0.01649
 10
58.19441769534363
 20
128.6209338526476
 42
0.0637900000000001
 10
83.58518654734362
 20
120.3938706258476
 42
0.067409
 10
109.7476228648436
 20
119.0499800139476
 42
0.067878
 10
135.1688178594436
 20
124.7036692478476
 42
0.0661589999999999
 10
158.3899887508436
 20
136.9857371751475
 42
0.043228
 10
171.5286960562435
 20
148.1660069290475
 42
0.02161
 10
186.1928499181436
 20
164.3509348776476
 42
0.0200820000000001
 10
200.9952908852436
 20
183.7110892588474
 42
0.0184180000000001
 10
214.6535811774436
 20
204.7512556837476
 42
0.012509
 10
226.0428023531434
 20
224.9259273838471
 42
0.0075690000000002
 10
238.5599974646435
 20
249.3390079228473
 42
0.007539
 10
250.4545855873439
 20
274.3730606293477
 42
0.0114659999999998
 10
259.9541480911436
 20
296.4985226105477
 42
-0.0113990000000001
 10
260.5599591726437
 20
297.9100468736476
 42
-0.01749
 10
261.1543629723437
 20
299.1002247124477
 42
-0.012169
 10
261.6914386246437
 20
300.0328316836477
 42
-0.26024599999999
 10
261.9587788491437
 20
300.1840476105477
 42
-0.3491230000000135
 10
262.5319361791437
 20
299.7334762733476
 42
-0.00147
 10
264.4701266201437
 20
291.4500524464477
 42
-0.007082
 10
266.1860806795437
 20
283.5063308298476
 42
-0.01499
 10
267.2428657903437
 20
277.2979056837477
 42
-0.024569
 10
267.8471886956437
 20
270.5633249019476
 42
-0.01295
 10
267.9686930838436
 20
262.1652533151476
 42
-0.012932
 10
267.6521289874437
 20
253.6810692427475
 42
-0.0222349999999999
 10
266.8924934032436
 20
246.6498556837476
 42
-0.0321310000000001
 10
264.4185540989437
 20
235.3924056050477
 42
-0.0253400000000001
 10
260.3599414634436
 20
223.5906764184476
 42
-0.024518
 10
254.9517570762437
 20
211.8271416852476
 42
-0.024702
 10
248.4301414469436
 20
200.6797832816476
 42
-0.014479
 10
244.8929328355437
 20
195.5938813738476
 42
-0.005051
 10
239.5188275281435
 20
188.4767462006475
 42
-0.0049360000000001
 10
234.0536408715435
 20
181.5318802249475
 42
-0.0168789999999999
 10
230.3062339670437
 20
177.1751396529476
 42
0.0076759999999999
 10
227.3985448375437
 20
173.9178633471476
 42
0.1110790000000013
 10
226.6719199188437
 20
172.5626034725476
 42
0.1377520000000008
 10
226.6760632248437
 20
171.1263287753476
 42
0.0139029999999997
 10
227.7113528020436
 20
167.8317673709476
 42
-0.014591
 10
229.8001981942436
 20
161.1524182547476
 42
-0.002747
 10
233.1930917333437
 20
148.8172795433476
 42
-0.0030220000000001
 10
236.4859453818435
 20
136.2819671668475
 42
-0.009882
 10
238.4492967080436
 20
127.9371556837476
 42
-0.014257
 10
242.6437632263438
 20
105.2476423349476
 42
-0.0299978767606
 10
246.6747784133278
 20
60.63518623199266
 42
0.043999
 10
247.8389881615532
 20
54.57806857957844
 42
0.0816999999999999
 10
249.9687081709788
 20
50.06443946552632
 42
0.0843449999999998
 10
253.378710429984
 20
46.56320110186594
 42
0.0496240000000002
 10
258.4299906128102
 20
43.59583544166415
 42
0.0296710000000002
 10
262.2666355733104
 20
42.09605055163484
 42
0.0343
 10
266.0739583557369
 20
41.14515285842659
 42
0.0271049999999998
 10
270.6481374160871
 20
40.58441367270044
 42
0.010539
 10
277.0186811025602
 20
40.28665606056381
 42
-0.00582
 10
280.1303730380078
 20
40.17063426357748
 42
-0.004308
 10
283.5681333546434
 20
39.97265913099898
 42
-0.004354
 10
286.811985545351
 20
39.72940235596923
 42
-0.0097670000000001
 10
289.2685486417755
 20
39.47524987215299
 42
0.0162640000000004
 10
293.8839859251433
 20
39.05827702953832
 42
0.0291100000000002
 10
297.6906182441083
 20
39.06067920672741
 42
0.03588
 10
300.73290325112
 20
39.46016333033487
 42
0.0754610000000001
 10
302.9638717325019
 20
40.28194269066441
 42
-0.09956
 10
304.3931740702498
 20
40.73207587163236
 42
-0.050823
 10
306.2826624693996
 20
40.74166503647062
 42
-0.0293029999999999
 10
309.0551325921252
 20
40.30825243952948
 42
-0.006897
 10
313.6279316039427
 20
39.24983142303566
 42
0.0049410000000002
 10
318.2880713958835
 20
38.15197357266388
 42
0.0325629999999998
 10
320.6537613385764
 20
37.77898172556475
 42
0.0862940000000003
 10
321.900117370467
 20
37.88001343240433
 42
0.3269790000000091
 10
322.3664406982611
 20
38.44998841963715
 42
0.1164799999999994
 10
322.1036862229885
 20
39.90844017525239
 42
0.009136
 10
320.4520151427666
 20
43.52476652552116
 42
0.013458
 10
318.5895513672881
 20
47.15865322559589
 42
0.0315519999999999
 10
316.9599016750604
 20
49.73721358309877
 42
-0.0891920000000026
 10
316.564479457764
 20
50.55834307090523
 42
-0.2033770000000215
 10
316.6522165661066
 20
51.22730959445223
 42
-0.0997939999999966
 10
317.2960941400898
 20
51.94589751535404
 42
-0.0138800000000002
 10
318.9397670852813
 20
53.10325177455148
 42
-0.0310360000000001
 10
320.9144440426291
 20
54.24354666554368
 42
-0.0974390000000005
 10
322.384693512729
 20
54.64627890946085
 42
-0.0606980000000001
 10
324.2495981893939
 20
54.55641591986061
 42
-0.007077
 10
328.3610683699665
 20
53.79316365950448
 42
-0.013101
 10
330.9901702152068
 20
53.19445943681234
 42
-0.0133660000000001
 10
333.5666446839812
 20
52.46240450193159
 42
-0.0132329999999998
 10
335.7673135492374
 20
51.70854587438125
 42
-0.0527620000000001
 10
337.0423475223012
 20
51.07377887758308
 10
339.2861696930663
 20
49.64394484483628
 10
339.1399041241523
 20
51.82911763903693
 42
0.0905039999999997
 10
338.0898468386848
 20
55.98739318465999
 42
0.0365329999999999
 10
335.2682887723125
 20
61.14119617298613
 42
0.036407
 10
331.5775040274193
 20
66.02944380353864
 42
0.0612889999999999
 10
327.7485551540035
 20
69.44830105966321
 42
-0.0503590000000002
 10
325.7284530022901
 20
71.1744228337153
 42
-0.0998029999999996
 10
324.6063477107035
 20
72.94787883261621
 42
-0.1340990000000007
 10
324.4372583802051
 20
74.65759168902024
 42
-0.1337339999999998
 10
325.1602794125813
 20
76.21793389024421
 42
-0.078273
 10
326.0085751926993
 20
76.95411923054106
 42
-0.1087509999999997
 10
326.9534280036753
 20
77.29035003335019
 42
-0.0613799999999999
 10
328.3288864212013
 20
77.29396015548221
 42
-0.0113460000000001
 10
330.8410776386447
 20
76.93308849624087
 42
-0.015263
 10
332.8337328537844
 20
76.53768278015133
 42
-0.0094450000000001
 10
335.149647047666
 20
75.95791323966304
 42
-0.0094710000000001
 10
337.4174366203241
 20
75.29810860345046
 42
-0.016795
 10
339.2554418002147
 20
74.6569026233313
 10
343.2168360420428
 20
73.12385844170626
 10
342.4407064128699
 20
75.52412136448203
 42
0.0774650000000011
 10
341.1170154238849
 20
78.1471090805296
 42
0.0462679999999999
 10
338.8224599520516
 20
80.79274799073516
 42
0.0432730000000001
 10
335.8643092709318
 20
83.17211800999931
 42
0.0433650000000001
 10
332.5428021513718
 20
85.00489002644165
 42
-0.0021350000000001
 10
328.7165828383852
 20
86.72188921657999
 42
-0.0077049999999997
 10
326.3005105637714
 20
87.86372978125113
 42
-0.0070830000000001
 10
323.8233958366707
 20
89.12533683896599
 42
-0.0016000000000001
 10
319.6518409068407
 20
91.3419846849398
 42
0.0370470000000001
 10
314.3644823429469
 20
93.68777092244981
 42
0.0202790000000001
 10
307.5940358456455
 20
95.80406019861774
 42
0.018969
 10
299.9925407687304
 20
97.53960934005569
 42
0.017922
 10
292.136296047939
 20
98.73255361310407
 42
-0.013966546535841
 10
286.9510654453348
 20
99.47801044569366
 42
-0.2910857626131942
 10
285.3617353655681
 20
100.9211749442429
 42
-0.0242082153783938
 10
278.4044301470437
 20
132.2338656486475
 42
-0.020572
 10
276.1923415747436
 20
149.2744056837477
 42
0.00237
 10
275.9802555169437
 20
151.5558814412476
 42
0.002126
 10
275.7390615706437
 20
153.9196452732476
 42
0.002131
 10
275.5045038970437
 20
156.0395010607476
 42
0.00668
 10
275.3218034999437
 20
157.4610561590476
 10
275.1004321201831
 20
159.018637222531
 42
-0.2789216279025288
 10
275.9120554418362
 20
160.9232226107377
 10
285.6409600363435
 20
167.9268383979474
 42
0.0043980000000001
 10
293.5125842490433
 20
173.6992349005474
 42
0.005491
 10
300.7145640872435
 20
179.2028542118475
 42
0.0060330000000001
 10
307.0464054391436
 20
184.2768708834476
 42
0.0099499999999998
 10
312.2576702858434
 20
188.7337467817473
 42
0.0043360000000003
 10
320.8687473719438
 20
196.5350279004477
 42
0.0080089999999998
 10
327.7088202936436
 20
203.0464241508476
 42
0.008808
 10
333.8826069360437
 20
209.3326061154475
 42
0.0068110000000002
 10
340.3932536670437
 20
216.3897556837476
 42
0.0078609999999999
 10
350.0702086360437
 20
227.5170562964476
 42
0.013668
 10
357.6959198786436
 20
237.0883988610476
 42
0.0135840000000001
 10
364.8188696464435
 20
247.1030511147473
 42
0.00765
 10
372.9406300529437
 20
259.6145875875476
 42
-0.003415
 10
375.4455316467438
 20
263.5458921028477
 42
-0.005474
 10
377.6424800823436
 20
266.8622819019478
 42
-0.0014689999999998
 10
379.5867528034436
 20
269.7105448504476
 42
-0.2316610000000062
 10
379.9142089840437
 20
269.8952625875476
 42
-0.21709699999997
 10
380.2592307647437
 20
269.7617395083477
 42
-0.002763
 10
381.9262992446437
 20
268.0372295996476
 42
-0.007451
 10
383.8380431341437
 20
265.9770172451477
 42
-0.004742
 10
386.0039105675437
 20
263.5256806837477
 42
-0.029456
 10
396.9884029057437
 20
249.2332380107476
 42
-0.034112
 10
405.6373051168437
 20
234.4100324078477
 42
-0.035978
 10
411.8073713187436
 20
219.3162844411476
 42
-0.041689
 10
415.3879604991437
 20
204.2146797110476
 42
-0.025984
 10
416.0016368789436
 20
197.9415336423476
 42
-0.01108
 10
416.1990483400436
 20
189.5065967188476
 42
-0.0108359999999999
 10
416.0296530761436
 20
181.2165676552476
 42
-0.032752
 10
415.4234455097436
 20
175.6035317018475
 42
-0.023619
 10
414.3469905580436
 20
170.7963718690476
 42
-0.021743
 10
412.7972583315436
 20
165.9750394468475
 42
-0.0218240000000001
 10
410.8418002360436
 20
161.3256193081476
 42
-0.0243070000000001
 10
408.5503642502436
 20
157.0334056837476
 42
0.070338
 10
405.9922335887436
 20
150.9578883281476
 42
0.1750760000000002
 10
406.4125013755436
 20
146.2246593509476
 42
0.1000699999999999
 10
410.1275439392436
 20
141.1790879492476
 42
0.0150580000000001
 10
419.7331944741438
 20
132.9805056837476
 42
-0.007245
 10
431.8523257291437
 20
122.9596291602476
 42
-0.019924
 10
440.0033336861437
 20
115.4383245734476
 42
-0.025231
 10
446.3723297854436
 20
108.3964043703476
 42
-0.0198610000000001
 10
452.5572730939436
 20
100.1771373867476
 42
-0.017602
 10
456.3606402341437
 20
94.24567983234764
 42
-0.017032
 10
459.7817416177436
 20
87.99702737484762
 42
-0.014988
 10
463.1263105530436
 20
80.83485974154761
 42
-0.008829
 10
466.7114837506437
 20
72.09435012104762
 42
0.009346
 10
468.4095610740437
 20
67.96667385064768
 42
0.0097380000000001
 10
470.2386848038436
 20
63.96202661194765
 42
0.009476
 10
471.9511449855437
 20
60.56460647224759
 42
0.0414650000000001
 10
473.1614465667436
 20
58.67101010784764
 42
0.0418590000000001
 10
476.2150537779437
 20
55.29478134894763
 42
0.0347099999999999
 10
479.9767356906436
 20
52.23744438644764
 42
0.3054269022884528
 10
524.9130253133436
 20
42.01288868164758
 42
0.1128570000000004
 10
532.3675256860435
 20
45.37283905854762
 42
-0.012155
 10
533.3627555462436
 20
46.08924149474762
 42
-0.0157649999999999
 10
534.3103141104436
 20
46.69403304364762
 42
-0.013464
 10
535.1209798617436
 20
47.14708648494762
 42
-0.1212639999999921
 10
535.5128947107437
 20
47.24355568374762
 42
-0.1988019999999903
 10
536.6409369257436
 20
46.77658570004761
 42
-0.0610522615204172
 10
551.528293833761
 20
39.82774150382257
 42
0.587534575244637
 10
553.0583318823984
 20
40.67106747482782
 42
0.207623672557816
 10
549.7887618320436
 20
48.30222778334762
 42
-0.017768
 10
552.0462351230436
 20
49.43661220494762
 42
0.0305499999999997
 10
553.7126619336436
 20
50.32802509334761
 42
0.0324999999999999
 10
555.2222219376436
 20
51.39947083464762
 42
0.0345160000000001
 10
556.4872267965437
 20
52.58087324444762
 42
0.0492850000000006
 10
557.4188297531436
 20
53.80110091434762
 42
-0.016084
 10
558.5011978387435
 20
55.43264093324762
 42
-0.1451819999999942
 10
559.1681568233435
 20
55.95514207994763
 42
-0.1708249999999992
 10
559.9616410450436
 20
55.98515777144761
 42
-0.024368
 10
561.5153427759436
 20
55.41924424384763
 42
-0.0418220000000003
 10
562.7338572586436
 20
54.78235836734762
 42
-0.0128740000000001
 10
564.4571373658436
 20
53.62611761864762
 42
-0.012782
 10
566.3264783203437
 20
52.22769520294763
 42
-0.0136889999999999
 10
568.0786374255435
 20
50.76615642584762
 42
0.0136669999999998
 10
569.6655034501437
 20
49.44237403834762
 42
0.0283379999999999
 10
570.9861193897436
 20
48.51688517374762
 42
0.0411540000000005
 10
571.9147514252437
 20
48.04243628994763
 42
0.5336679999998467
 10
572.1841702858435
 20
48.22296727064762
 42
0.0786610000000005
 10
571.8888239508436
 20
50.08869485884762
 42
0.005883
 10
570.2381199778436
 20
54.97538676934761
 42
0.008799
 10
568.4269024682436
 20
59.85938863454762
 42
0.02476
 10
566.9341771665436
 20
63.18206477544761
 42
0.0422620000000001
 10
565.3908057682436
 20
65.66459717224763
 42
0.016208
 10
562.8550055087436
 20
68.84500816864762
 42
0.012526
 10
559.2845829460436
 20
72.83011591764765
 42
0.005507
 10
554.3711061916436
 20
77.93153892904763
 42
0.065467
 10
549.2649207060436
 20
81.91414672824766
 42
0.0326910000000001
 10
541.9318556664436
 20
85.60495871084762
 42
0.028374
 10
532.8330757727435
 20
88.86661419624758
 42
0.0199030000000001
 10
522.2784041021436
 20
91.53547354674762
 42
-0.0101580000000001
 10
519.0836971482436
 20
92.27737516054762
 42
-0.011106
 10
516.0161260647436
 20
93.12869884774764
 42
-0.0106100000000001
 10
513.4290900246436
 20
93.96922821414763
 42
-0.053021
 10
512.0519202858436
 20
94.61976760294763
 42
-0.0805400000000001
 10
504.1079674510435
 20
101.4199491779476
 42
-0.012291
 10
490.9982966513436
 20
117.7145381771476
 42
-0.0145449999999999
 10
478.4216807901437
 20
135.1890406340476
 42
-0.0378630000000002
 10
470.7405563213436
 20
148.6338513520477
 42
-0.0130840000000001
 10
469.1847751784436
 20
152.1440539880476
 42
-0.0443530000000003
 10
468.4393928772437
 20
154.5334675222476
 42
-0.044006
 10
468.1241431554437
 20
157.0265250025476
 42
-0.012734
 10
468.0761467573436
 20
160.9091860191476
 42
-0.017083
 10
468.2196742911436
 20
163.9433150367476
 42
-0.008654
 10
468.5967570357437
 20
167.7498889716476
 42
-0.008585
 10
469.1221212534435
 20
171.6702726944476
 42
-0.012663
 10
469.7290651489437
 20
175.0889043883476
 42
-0.0074989999999999
 10
470.9075765553436
 20
180.4590192420477
 42
-0.008776
 10
472.1911099062436
 20
185.5156410115476
 42
-0.0049800000000001
 10
474.1413702476437
 20
192.3990339820477
 42
-0.000838
 10
478.0265149201436
 20
205.5271556837482
 42
0.001838
 10
484.445808736943
 20
227.378757552747
 42
0.0031769999999999
 10
489.601557162743
 20
245.6031037358466
 42
0.002651
 10
493.5109603487433
 20
260.063241675847
 42
0.029267
 10
494.7032874305436
 20
265.9383293193476
 42
0.0359090000000001
  0
ARC
  5
1D8F
330
22
100
AcDbEntity
  8
0
  6
Continuous
100
AcDbCircle
 10
597.8501840552622
 20
540.5607142383637
 30
0.0
 40
20.59428841687146
100
AcDbArc
 50
118.4411290407749
 51
172.7072780550748
  0
ARC
  5
1D91
330
22
100
AcDbEntity
  8
0
  6
Continuous
100
AcDbCircle
 10
562.0033899505606
 20
609.9961738285074
 30
0.0
 40
57.55386622408185
100
AcDbArc
 50
296.8992002903123
 51
334.8636489868306
  0
ARC
  5
1D92
330
22
100
AcDbEntity
  8
0
  6
Continuous
100
AcDbCircle
 10
600.9602474444402
 20
589.2190957567136
 30
0.0
 40
13.64935650967987
100
AcDbArc
 50
344.4012291931936
 51
18.33531500555858
  0
ARC
  5
1D93
330
22
100
AcDbEntity
  8
0
  6
Continuous
100
AcDbCircle
 10
611.6128122092291
 20
584.723511676309
 30
0.0
 40
9.086287426785482
100
AcDbArc
 50
24.09060838974868
 51
75.31225320208683
  0
ARC
  5
1D94
330
22
100
AcDbEntity
  8
0
  6
Continuous
100
AcDbCircle
 10
616.7663683115546
 20
591.2000959347771
 30
0.0
 40
4.186679953420573
100
AcDbArc
 50
318.6176069705362
 51
14.98652761046283
  0
ARC
  5
1D95
330
22
100
AcDbEntity
  8
0
  6
Continuous
100
AcDbCircle
 10
639.9831426129106
 20
594.968498291197
 30
0.0
 40
19.35969949924242
100
AcDbArc
 50
148.0883953247783
 51
187.9743326151526
  0
ARC
  5
1D96
330
22
100
AcDbEntity
  8
0
  6
Continuous
100
AcDbCircle
 10
574.4006175869875
 20
547.4254188837868
 30
0.0
 40
5.21521083618269
100
AcDbArc
 50
305.4107905755843
 51
345.7966938212635
  0
ARC
  5
1D97
330
22
100
AcDbEntity
  8
0
  6
Continuous
100
AcDbCircle
 10
598.7414358032236
 20
537.6784893182112
 30
0.0
 40
21.06199644539568
100
AcDbArc
 50
113.1238257332689
 51
156.2955868193582
  0
ARC
  5
1D98
330
22
100
AcDbEntity
  8
0
  6
Continuous
100
AcDbCircle
 10
578.8985021805773
 20
594.8483589135391
 30
0.0
 40
39.53152333687361
100
AcDbArc
 50
287.0205774031294
 51
345.8839201147784
  0
ARC
  5
1D99
330
22
100
AcDbEntity
  8
0
  6
Continuous
100
AcDbCircle
 10
614.0170407432947
 20
581.1071511281612
 30
0.0
 40
6.693663113327407
100
AcDbArc
 50
20.62500252096163
 51
42.62987193465581
  0
ARC
  5
1D9A
330
22
100
AcDbEntity
  8
0
  6
Continuous
100
AcDbCircle
 10
613.0723231999511
 20
592.3972000338353
 30
0.0
 40
11.47863731770299
100
AcDbArc
 50
308.9076728314767
 51
13.2116122543711
  0
ARC
  5
1D9B
330
22
100
AcDbEntity
  8
0
  6
Continuous
100
AcDbCircle
 10
654.4394302112777
 20
602.2044941854842
 30
0.0
 40
31.03516965901505
100
AcDbArc
 50
174.4570604362536
 51
193.3839391648671
  0
ARC
  5
1D9C
330
22
100
AcDbEntity
  8
0
  6
Continuous
100
AcDbCircle
 10
618.2061197213551
 20
584.9632394263771
 30
0.0
 40
1.0
100
AcDbArc
 50
42.62987193465635
 51
165.8839201147801
  0
ENDSEC
  0
SECTION
  2
OBJECTS
  0
DICTIONARY
  5
C
330
0
100
AcDbDictionary
281
     1
  3
ACAD_COLOR
350
1B
  3
ACAD_GROUP
350
D
  3
ACAD_LAYOUT
350
19
  3
ACAD_MATERIAL
350
1A
  3
ACAD_MLINESTYLE
350
16
  3
ACAD_PLOTSETTINGS
350
18
  3
ACAD_PLOTSTYLENAME
350
E
  3
ACAD_TABLESTYLE
350
1C
  3
AcDbVariableDictionary
350
1018
  0
DICTIONARY
  5
1180
330
22
100
AcDbDictionary
280
     1
281
     1
  3
ACAD_SORTENTS
360
1181
  0
DICTIONARY
  5
1B
102
{ACAD_REACTORS
330
C
102
}
330
C
100
AcDbDictionary
281
     1
  0
DICTIONARY
  5
D
102
{ACAD_REACTORS
330
C
102
}
330
C
100
AcDbDictionary
281
     1
  0
DICTIONARY
  5
19
102
{ACAD_REACTORS
330
C
102
}
330
C
100
AcDbDictionary
281
     1
  3
Model
350
25
  3
Лист1
350
21
  0
DICTIONARY
  5
1A
102
{ACAD_REACTORS
330
C
102
}
330
C
100
AcDbDictionary
281
     1
  0
DICTIONARY
  5
16
102
{ACAD_REACTORS
330
C
102
}
330
C
100
AcDbDictionary
281
     1
  3
Standard
350
17
  0
DICTIONARY
  5
18
102
{ACAD_REACTORS
330
C
102
}
330
C
100
AcDbDictionary
281
     1
  0
ACDBDICTIONARYWDFLT
  5
E
102
{ACAD_REACTORS
330
C
102
}
330
C
100
AcDbDictionary
281
     1
  3
Normal
350
F
100
AcDbDictionaryWithDefault
340
F
  0
DICTIONARY
  5
1C
102
{ACAD_REACTORS
330
C
102
}
330
C
100
AcDbDictionary
281
     1
  3
Standard
350
1D
  0
DICTIONARY
  5
1018
102
{ACAD_REACTORS
330
C
102
}
330
C
100
AcDbDictionary
281
     1
  3
CTABLESTYLE
350
1019
  0
SORTENTSTABLE
  5
1181
102
{ACAD_REACTORS
330
1180
102
}
330
1180
100
AcDbSortentsTable
330
22
331
1338
  5
1CFE
331
137C
  5
1D24
331
1102
  5
1CA7
331
E7C
  5
1D68
331
B16
  5
1D54
331
132E
  5
1CF4
331
18E5
  5
1C76
331
130C
  5
1CD2
331
1349
  5
1D0F
331
F16
  5
1D6D
331
13EB
  5
1D48
331
11EA
  5
1CC6
331
131D
  5
1CE3
331
1113
  5
1CB8
331
10F1
  5
1C96
331
FA2
  5
1D71
331
E14
  5
1D65
331
A94
  5
1D4F
331
137A
  5
1D22
331
1100
  5
1CA5
331
CD4
  5
1D5D
331
132C
  5
1CF2
331
18E3
  5
1C74
331
D18
  5
1D5F
331
1347
  5
1D0D
331
10EF
  5
1C94
331
138B
  5
1D37
331
1111
  5
1CB6
331
13E9
  5
1D46
331
11E8
  5
1CC4
331
131B
  5
1CE1
331
1378
  5
1D20
331
EB4
  5
1D6A
331
132A
  5
1CF0
331
18E1
  5
1C72
331
1925
  5
1D89
331
ED6
  5
1D6B
331
1345
  5
1D0B
331
1389
  5
1D35
331
110F
  5
1CB4
331
10ED
  5
1C92
331
13E7
  5
1D44
331
1319
  5
1CDF
331
11E6
  5
1CC2
331
10FE
  5
1CA3
331
FC0
  5
1D72
331
18DF
  5
1C70
331
1328
  5
1CEE
331
1343
  5
1D09
331
10EB
  5
1C90
331
1454
  5
1CD1
331
1D9B
  5
1D9F
331
1387
  5
1D33
331
110D
  5
1CB2
331
13E5
  5
1D42
331
1317
  5
1CDD
331
18D7
  5
1C68
331
11E4
  5
1CC0
331
1376
  5
1D1E
331
10FC
  5
1CA1
331
18F0
  5
1C87
331
E30
  5
1D66
331
C70
  5
1D5B
331
11F3
  5
1CCF
331
1326
  5
1CEC
331
18DD
  5
1C6E
331
1921
  5
1D7A
331
10E9
  5
1C8E
331
1452
  5
1D74
331
EF4
  5
1D6C
331
110B
  5
1CB0
331
1D99
  5
1D9B
331
13E3
  5
1D40
331
11E2
  5
1CBE
331
1385
  5
1D31
331
1341
  5
1D07
331
1315
  5
1CDB
331
DB0
  5
1D62
331
1337
  5
1CFD
331
18EE
  5
1C85
331
C4E
  5
1D5A
331
1374
  5
1D1C
331
10FA
  5
1C9F
331
18D5
  5
1C66
331
11F1
  5
1CCD
331
1324
  5
1CEA
331
18DB
  5
1C6C
331
133F
  5
1D05
331
10E7
  5
1C8C
331
1D97
  5
1D98
331
1383
  5
1D2F
331
1109
  5
1CAE
331
1313
  5
1CD9
331
18D3
  5
1C64
331
A2E
  5
1D4C
331
1335
  5
1CFB
331
18EC
  5
1C83
331
13E1
  5
1D3E
331
DF2
  5
1D64
331
1372
  5
1D1A
331
1350
  5
1D16
331
10F8
  5
1C9D
331
1322
  5
1CE8
331
18D9
  5
1C6A
331
191D
  5
1D77
331
10E5
  5
1C8A
331
1D95
  5
1D96
331
1381
  5
1D29
331
1107
  5
1CAC
331
133D
  5
1D03
331
1311
  5
1CD7
331
18D1
  5
1C62
331
1333
  5
1CF9
331
18EA
  5
1C81
331
13DF
  5
1D3C
331
DCE
  5
1D63
331
134E
  5
1D14
331
1370
  5
1D18
331
11EF
  5
1CCB
331
10F6
  5
1C9B
331
B44
  5
1D55
331
133B
  5
1D01
331
1320
  5
1CE6
331
B66
  5
1D56
331
1105
  5
1CAA
331
1D93
  5
1D94
331
B88
  5
1D57
331
13DD
  5
1D3A
331
137F
  5
1D27
331
130F
  5
1CD5
331
BEA
  5
1D58
331
1331
  5
1CF7
331
18E8
  5
1C7F
331
18CF
  5
1C60
331
134C
  5
1D12
331
AAA
  5
1D50
331
11ED
  5
1CC9
331
1116
  5
1CBB
331
10F4
  5
1C99
331
1339
  5
1CFF
331
1D91
  5
1D92
331
137D
  5
1D25
331
1103
  5
1CA8
331
132F
  5
1CF5
331
18E6
  5
1C77
331
130D
  5
1CD3
331
134A
  5
1D10
331
E4A
  5
1D67
331
C2C
  5
1D59
331
1114
  5
1CB9
331
131E
  5
1CE4
331
11EB
  5
1CC7
331
10F2
  5
1C97
331
1D8F
  5
1D91
331
137B
  5
1D23
331
1101
  5
1CA6
331
132D
  5
1CF3
331
18E4
  5
1C75
331
A48
  5
1D4D
331
1348
  5
1D0E
331
138C
  5
1D38
331
1112
  5
1CB7
331
AE2
  5
1D52
331
13EA
  5
1D47
331
131C
  5
1CE2
331
11E9
  5
1CC5
331
10F0
  5
1C95
331
9E0
  5
1D4B
331
1379
  5
1D21
331
98C
  5
1D49
331
132B
  5
1CF1
331
18E2
  5
1C73
331
1346
  5
1D0C
331
138A
  5
1D36
331
1110
  5
1CB5
331
13E8
  5
1D45
331
11E7
  5
1CC3
331
131A
  5
1CE0
331
10FF
  5
1CA4
331
C86
  5
1D5C
331
10EE
  5
1C93
331
1329
  5
1CEF
331
18E0
  5
1C71
331
1D8B
  5
1C5F
331
1344
  5
1D0A
331
10EC
  5
1C91
331
1D9C
  5
1D9A
331
1388
  5
1D34
331
110E
  5
1CB3
331
13E6
  5
1D43
331
1318
  5
1CDE
331
11E5
  5
1CC1
331
1377
  5
1D1F
331
10FD
  5
1CA2
331
18F1
  5
1C88
331
11F4
  5
1CD0
331
1327
  5
1CED
331
18DE
  5
1C6F
331
1922
  5
1D7B
331
10EA
  5
1C8F
331
1453
  5
1D75
331
1D9A
  5
1D9C
331
1386
  5
1D32
331
110C
  5
1CB1
331
1342
  5
1D08
331
13E4
  5
1D41
331
11E3
  5
1CBF
331
1316
  5
1CDC
331
18D6
  5
1C67
331
AC2
  5
1D51
331
D02
  5
1D5E
331
1375
  5
1D1D
331
10FB
  5
1CA0
331
18EF
  5
1C86
331
F40
  5
1D6E
331
D80
  5
1D61
331
F62
  5
1D6F
331
11F2
  5
1CCE
331
1325
  5
1CEB
331
18DC
  5
1C6D
331
1920
  5
1D79
331
10E8
  5
1C8D
331
1451
  5
1D73
331
1D98
  5
1D99
331
1384
  5
1D30
331
110A
  5
1CAF
331
1340
  5
1D06
331
13E2
  5
1D3F
331
1314
  5
1CDA
331
18D4
  5
1C65
331
11E1
  5
1CBD
331
1336
  5
1CFC
331
D5E
  5
1D60
331
1373
  5
1D1B
331
10F9
  5
1C9E
331
18ED
  5
1C84
331
11F0
  5
1CCC
331
1323
  5
1CE9
331
18DA
  5
1C6B
331
191E
  5
1D78
331
10E6
  5
1C8B
331
1D96
  5
1D97
331
A7A
  5
1D4E
331
1382
  5
1D2D
331
1108
  5
1CAD
331
133E
  5
1D04
331
13E0
  5
1D3D
331
1312
  5
1CD8
331
18D2
  5
1C63
331
1334
  5
1CFA
331
18EB
  5
1C82
331
F88
  5
1D70
331
1371
  5
1D19
331
134F
  5
1D15
331
10F7
  5
1C9C
331
1321
  5
1CE7
331
18D8
  5
1C69
331
191C
  5
1D76
331
10E4
  5
1C89
331
9C6
  5
1D4A
331
1106
  5
1CAB
331
133C
  5
1D02
331
1D94
  5
1D95
331
13DE
  5
1D3B
331
1380
  5
1D28
331
AF8
  5
1D53
331
1310
  5
1CD6
331
E9A
  5
1D69
331
1332
  5
1CF8
331
18E9
  5
1C80
331
134D
  5
1D13
331
136F
  5
1D17
331
1117
  5
1CBC
331
11EE
  5
1CCA
331
10F5
  5
1C9A
331
18D0
  5
1C61
331
133A
  5
1D00
331
1D92
  5
1D93
331
137E
  5
1D26
331
1104
  5
1CA9
331
130E
  5
1CD4
331
1330
  5
1CF6
331
18E7
  5
1C7E
331
13DC
  5
1D39
331
134B
  5
1D11
331
131F
  5
1CE5
331
11EC
  5
1CC8
331
1115
  5
1CBA
331
10F3
  5
1C98
  0
LAYOUT
  5
25
102
{ACAD_REACTORS
330
19
102
}
330
19
100
AcDbPlotSettings
  1

  2
Microsoft XPS Document Writer
  4

  6

 40
0.0
 41
0.0
 42
0.0
 43
0.0
 44
0.0
 45
0.0
 46
0.0
 47
0.0
 48
0.0
 49
0.0
140
0.0
141
0.0
142
1.0
143
1.0
 70
  1712
 72
     0
 73
     0
 74
     0
  7

 75
     0
147
1.0
 76
     0
 77
     2
 78
   300
148
0.0
149
0.0
100
AcDbLayout
  1
Model
 70
     1
 71
     0
 10
0.0
 20
0.0
 11
12.0
 21
9.0
 12
0.0
 22
0.0
 32
0.0
 14
0.0
 24
0.0
 34
0.0
 15
0.0
 25
0.0
 35
0.0
146
0.0
 13
0.0
 23
0.0
 33
0.0
 16
1.0
 26
0.0
 36
0.0
 17
0.0
 27
1.0
 37
0.0
 76
     0
330
22
  0
LAYOUT
  5
21
102
{ACAD_REACTORS
330
19
102
}
330
19
100
AcDbPlotSettings
  1

  2
Microsoft XPS Document Writer
  4

  6

 40
0.0
 41
0.0
 42
0.0
 43
0.0
 44
0.0
 45
0.0
 46
0.0
 47
0.0
 48
0.0
 49
0.0
140
0.0
141
0.0
142
1.0
143
1.0
 70
   688
 72
     0
 73
     0
 74
     5
  7

 75
    16
147
1.0
 76
     0
 77
     2
 78
   300
148
0.0
149
0.0
100
AcDbLayout
  1
Лист1
 70
     1
 71
     1
 10
0.0
 20
0.0
 11
12.0
 21
9.0
 12
0.0
 22
0.0
 32
0.0
 14
1.000000000000000E+20
 24
1.000000000000000E+20
 34
1.000000000000000E+20
 15
-1.000000000000000E+20
 25
-1.000000000000000E+20
 35
-1.000000000000000E+20
146
0.0
 13
0.0
 23
0.0
 33
0.0
 16
1.0
 26
0.0
 36
0.0
 17
0.0
 27
1.0
 37
0.0
 76
     0
330
1E
  0
MLINESTYLE
  5
17
102
{ACAD_REACTORS
330
16
102
}
330
16
100
AcDbMlineStyle
  2
STANDARD
 70
     0
  3

 62
   256
 51
90.0
 52
90.0
 71
     2
 49
0.5
 62
   256
  6
BYLAYER
 49
-0.5
 62
   256
  6
BYLAYER
  0
ACDBPLACEHOLDER
  5
F
102
{ACAD_REACTORS
330
E
102
}
330
E
  0
TABLESTYLE
  5
1D
102
{ACAD_REACTORS
330
1C
102
}
330
1C
100
AcDbTableStyle
  3
Standard
 70
     0
 71
     0
 40
0.06
 41
0.06
280
     0
281
     0
  7
Standard
140
0.18
170
     2
 62
     0
 63
     7
283
     0
274
    -2
284
     1
 64
     0
275
    -2
285
     1
 65
     0
276
    -2
286
     1
 66
     0
277
    -2
287
     1
 67
     0
278
    -2
288
     1
 68
     0
279
    -2
289
     1
 69
     0
  7
Standard
140
0.25
170
     5
 62
     0
 63
     7
283
     0
274
    -2
284
     1
 64
     0
275
    -2
285
     1
 65
     0
276
    -2
286
     1
 66
     0
277
    -2
287
     1
 67
     0
278
    -2
288
     1
 68
     0
279
    -2
289
     1
 69
     0
  7
Standard
140
0.18
170
     5
 62
     0
 63
     7
283
     0
274
    -2
284
     1
 64
     0
275
    -2
285
     1
 65
     0
276
    -2
286
     1
 66
     0
277
    -2
287
     1
 67
     0
278
    -2
288
     1
 68
     0
279
    -2
289
     1
 69
     0
  0
DICTIONARYVAR
  5
1019
102
{ACAD_REACTORS
330
1018
102
}
330
1018
100
DictionaryVariables
280
     0
  1
STANDARD
  0
ENDSEC
  0
EOF
