  0
SECTION
  2
HEADER
  9
$ACADVER
  1
AC1014
  9
$HANDSEED
  5
FFFF
  9
$MEASUREMENT
 70
     1
  0
ENDSEC
  0
SECTION
  2
TABLES
  0
TABLE
  2
VPORT
  5
8
330
0
100
AcDbSymbolTable
 70
     4
  0
VPORT
  5
2E
330
8
100
AcDbSymbolTableRecord
100
AcDbViewportTableRecord
  2
*ACTIVE
 70
     0
 10
0.0
 20
0.0
 11
1.0
 21
1.0
 12
210.0
 22
148.5
 13
0.0
 23
0.0
 14
10.0
 24
10.0
 15
10.0
 25
10.0
 16
0.0
 26
0.0
 36
1.0
 17
0.0
 27
0.0
 37
0.0
 40
341.0
 41
1.24
 42
50.0
 43
0.0
 44
0.0
 50
0.0
 51
0.0
 71
     0
 72
   100
 73
     1
 74
     3
 75
     0
 76
     0
 77
     0
 78
     0
  0
ENDTAB
  0
TABLE
  2
LTYPE
  5
5
330
0
100
AcDbSymbolTable
 70
     1
  0
LTYPE
  5
14
330
5
100
AcDbSymbolTableRecord
100
AcDbLinetypeTableRecord
  2
BYBLOCK
 70
     0
  3

 72
    65
 73
     0
 40
0.0
  0
LTYPE
  5
15
330
5
100
AcDbSymbolTableRecord
100
AcDbLinetypeTableRecord
  2
BYLAYER
 70
     0
  3

 72
    65
 73
     0
 40
0.0
  0
LTYPE
  5
16
330
5
100
AcDbSymbolTableRecord
100
AcDbLinetypeTableRecord
  2
CONTINUOUS
 70
     0
  3
Solid line
 72
    65
 73
     0
 40
0.0
  0
ENDTAB
  0
TABLE
  2
LAYER
  5
2
100
AcDbSymbolTable
 70
4
  0
LAYER
  5
50
100
AcDbSymbolTableRecord
100
AcDbLayerTableRecord
  2
0
 70
0
  6
CONTINUOUS
  0
LAYER
  5
51
100
AcDbSymbolTableRecord
100
AcDbLayerTableRecord
  2
Guide
 70
0
  6
CONTINUOUS
  0
LAYER
  5
52
100
AcDbSymbolTableRecord
100
AcDbLayerTableRecord
  2
Cut
 70
0
  6
CONTINUOUS
  0
LAYER
  5
53
100
AcDbSymbolTableRecord
100
AcDbLayerTableRecord
  2
Etch
 70
0
  6
CONTINUOUS
  0
ENDTAB
  0
TABLE
  2
STYLE
  5
3
330
0
100
AcDbSymbolTable
 70
     1
  0
STYLE
  5
11
330
3
100
AcDbSymbolTableRecord
100
AcDbTextStyleTableRecord
  2
STANDARD
 70
     0
 40
0.0
 41
1.0
 50
0.0
 71
     0
 42
2.5
  3
txt
  4

  0
ENDTAB
  0
TABLE
  2
VIEW
  5
6
330
0
100
AcDbSymbolTable
 70
     0
  0
ENDTAB
  0
TABLE
  2
UCS
  5
7
330
0
100
AcDbSymbolTable
 70
     0
  0
ENDTAB
  0
TABLE
  2
APPID
  5
9
330
0
100
AcDbSymbolTable
 70
     2
  0
APPID
  5
12
330
9
100
AcDbSymbolTableRecord
100
AcDbRegAppTableRecord
  2
ACAD
 70
     0
  0
ENDTAB
  0
TABLE
  2
DIMSTYLE
  5
A
330
0
100
AcDbSymbolTable
 70
     1
  0
DIMSTYLE
105
27
330
A
100
AcDbSymbolTableRecord
100
AcDbDimStyleTableRecord
  2
ISO-25
 70
     0
  3

  4

  5

  6

  7

 40
1.0
 41
2.5
 42
0.625
 43
3.75
 44
1.25
 45
0.0
 46
0.0
 47
0.0
 48
0.0
140
2.5
141
2.5
142
0.0
143
0.03937007874016
144
1.0
145
0.0
146
1.0
147
0.625
 71
     0
 72
     0
 73
     0
 74
     0
 75
     0
 76
     0
 77
     1
 78
     8
170
     0
171
     3
172
     1
173
     0
174
     0
175
     0
176
     0
177
     0
178
     0
270
     2
271
     2
272
     2
273
     2
274
     3
340
11
275
     0
280
     0
281
     0
282
     0
283
     0
284
     8
285
     0
286
     0
287
     3
288
     0
  0
ENDTAB
  0
TABLE
  2
BLOCK_RECORD
  5
1
330
0
100
AcDbSymbolTable
 70
     1
  0
BLOCK_RECORD
  5
1F
330
1
100
AcDbSymbolTableRecord
100
AcDbBlockTableRecord
  2
*MODEL_SPACE
  0
BLOCK_RECORD
  5
1B
330
1
100
AcDbSymbolTableRecord
100
AcDbBlockTableRecord
  2
*PAPER_SPACE
  0
ENDTAB
  0
ENDSEC
  0
SECTION
  2
BLOCKS
  0
BLOCK
  5
20
330
1F
100
AcDbEntity
  8
0
100
AcDbBlockBegin
  2
*MODEL_SPACE
 70
     0
 10
0.0
 20
0.0
 30
0.0
  3
*MODEL_SPACE
  1

  0
ENDBLK
  5
21
330
1F
100
AcDbEntity
  8
0
100
AcDbBlockEnd
  0
BLOCK
  5
1C
330
1B
100
AcDbEntity
 67
     1
  8
0
100
AcDbBlockBegin
  2
*PAPER_SPACE
  1

  0
ENDBLK
  5
1D
330
1B
100
AcDbEntity
 67
     1
  8
0
100
AcDbBlockEnd
  0
ENDSEC
  0
SECTION
  2
ENTITIES
  0
SPLINE
  5
100
100
AcDbEntity
  8
Guide
 62
7
100
AcDbSpline
 70
0
 71
3
 72
61
 73
57
 74
55
 40
0.000000
 40
0.000000
 40
0.000000
 40
0.000000
 40
0.049587
 40
0.098838
 40
0.147768
 40
0.196156
 40
0.244943
 40
0.293916
 40
0.343438
 40
0.392777
 40
0.442058
 40
0.491390
 40
0.540783
 40
0.590216
 40
0.638871
 40
0.687540
 40
0.736182
 40
0.785517
 40
0.834926
 40
0.884372
 40
0.933759
 40
0.983149
 40
1.032538
 40
1.081227
 40
1.129913
 40
1.178569
 40
1.227950
 40
1.277334
 40
1.326728
 40
1.376107
 40
1.425502
 40
1.474864
 40
1.523504
 40
1.572177
 40
1.620893
 40
1.670277
 40
1.719667
 40
1.769059
 40
1.818451
 40
1.867844
 40
1.917212
 40
1.965867
 40
2.014536
 40
2.063178
 40
2.112535
 40
2.161965
 40
2.211371
 40
2.260647
 40
2.309986
 40
2.359512
 40
2.408480
 40
2.457264
 40
2.505652
 40
2.554563
 40
2.603814
 40
2.653420
 40
2.653420
 40
2.653420
 40
2.653420
 10
232.499850
 20
197.077479
 30
0.0
 10
232.483405
 20
197.079149
 30
0.0
 10
232.450625
 20
197.082478
 30
0.0
 10
232.401892
 20
197.089878
 30
0.0
 10
232.354408
 20
197.101964
 30
0.0
 10
232.309376
 20
197.120965
 30
0.0
 10
232.267242
 20
197.145652
 30
0.0
 10
232.227979
 20
197.175299
 30
0.0
 10
232.192121
 20
197.209248
 30
0.0
 10
232.160213
 20
197.247076
 30
0.0
 10
232.132952
 20
197.288312
 30
0.0
 10
232.110781
 20
197.332517
 30
0.0
 10
232.093939
 20
197.379053
 30
0.0
 10
232.082527
 20
197.426999
 30
0.0
 10
232.077317
 20
197.475754
 30
0.0
 10
232.077290
 20
197.524497
 30
0.0
 10
232.082605
 20
197.573192
 30
0.0
 10
232.093623
 20
197.621200
 30
0.0
 10
232.110714
 20
197.667675
 30
0.0
 10
232.132972
 20
197.711909
 30
0.0
 10
232.160195
 20
197.753277
 30
0.0
 10
232.192057
 20
197.791157
 30
0.0
 10
232.227909
 20
197.824955
 30
0.0
 10
232.267314
 20
197.854129
 30
0.0
 10
232.309539
 20
197.878557
 30
0.0
 10
232.354519
 20
197.898039
 30
0.0
 10
232.401688
 20
197.912219
 30
0.0
 10
232.450432
 20
197.920821
 30
0.0
 10
232.499844
 20
197.923741
 30
0.0
 10
232.549264
 20
197.920769
 30
0.0
 10
232.597965
 20
197.912024
 30
0.0
 10
232.645196
 20
197.898086
 30
0.0
 10
232.690147
 20
197.878562
 30
0.0
 10
232.732399
 20
197.854185
 30
0.0
 10
232.771763
 20
197.824947
 30
0.0
 10
232.807638
 20
197.791168
 30
0.0
 10
232.839492
 20
197.753279
 30
0.0
 10
232.866722
 20
197.711936
 30
0.0
 10
232.888898
 20
197.667671
 30
0.0
 10
232.905740
 20
197.621138
 30
0.0
 10
232.917171
 20
197.573219
 30
0.0
 10
232.922371
 20
197.524484
 30
0.0
 10
232.922401
 20
197.475741
 30
0.0
 10
232.917083
 20
197.427039
 30
0.0
 10
232.906066
 20
197.379017
 30
0.0
 10
232.888988
 20
197.332536
 30
0.0
 10
232.866740
 20
197.288343
 30
0.0
 10
232.839478
 20
197.247079
 30
0.0
 10
232.807566
 20
197.209255
 30
0.0
 10
232.771714
 20
197.175301
 30
0.0
 10
232.732455
 20
197.145651
 30
0.0
 10
232.690323
 20
197.120964
 30
0.0
 10
232.645298
 20
197.101967
 30
0.0
 10
232.597822
 20
197.089875
 30
0.0
 10
232.549088
 20
197.082478
 30
0.0
 10
232.516302
 20
197.079149
 30
0.0
 10
232.499850
 20
197.077479
 30
0.0
 11
232.499850
 21
197.077479
 31
0.0
 11
232.450560
 21
197.082898
 31
0.0
 11
232.401930
 21
197.090694
 31
0.0
 11
232.354620
 21
197.103179
 31
0.0
 11
232.309979
 21
197.121849
 31
0.0
 11
232.267824
 21
197.146409
 31
0.0
 11
232.228710
 21
197.175879
 31
0.0
 11
232.192751
 21
197.209928
 31
0.0
 11
232.160969
 21
197.247667
 31
0.0
 11
232.133810
 21
197.288789
 31
0.0
 11
232.111680
 21
197.332879
 31
0.0
 11
232.094840
 21
197.379312
 31
0.0
 11
232.083510
 21
197.427429
 31
0.0
 11
232.078177
 21
197.475791
 31
0.0
 11
232.078177
 21
197.524460
 31
0.0
 11
232.083510
 21
197.572809
 31
0.0
 11
232.094617
 21
197.620877
 31
0.0
 11
232.111569
 21
197.667288
 31
0.0
 11
232.133810
 21
197.711449
 31
0.0
 11
232.160969
 21
197.752698
 31
0.0
 11
232.192751
 21
197.790504
 31
0.0
 11
232.228710
 21
197.824359
 31
0.0
 11
232.267818
 21
197.853363
 31
0.0
 11
232.309972
 21
197.877722
 31
0.0
 11
232.354620
 21
197.897059
 31
0.0
 11
232.401910
 21
197.911278
 31
0.0
 11
232.450540
 21
197.919874
 31
0.0
 11
232.499850
 21
197.922759
 31
0.0
 11
232.549140
 21
197.919807
 31
0.0
 11
232.597770
 21
197.911144
 31
0.0
 11
232.645080
 21
197.897059
 31
0.0
 11
232.689721
 21
197.877744
 31
0.0
 11
232.731873
 21
197.853407
 31
0.0
 11
232.770980
 21
197.824359
 31
0.0
 11
232.806939
 21
197.790510
 31
0.0
 11
232.838721
 21
197.752704
 31
0.0
 11
232.865880
 21
197.711449
 31
0.0
 11
232.888010
 21
197.667292
 31
0.0
 11
232.904850
 21
197.620859
 31
0.0
 11
232.916180
 21
197.572809
 31
0.0
 11
232.921513
 21
197.524447
 31
0.0
 11
232.921513
 21
197.475778
 31
0.0
 11
232.916180
 21
197.427429
 31
0.0
 11
232.905073
 21
197.379339
 31
0.0
 11
232.888121
 21
197.332906
 31
0.0
 11
232.865880
 21
197.288789
 31
0.0
 11
232.838721
 21
197.247674
 31
0.0
 11
232.806939
 21
197.209934
 31
0.0
 11
232.770980
 21
197.175879
 31
0.0
 11
232.731873
 21
197.146409
 31
0.0
 11
232.689721
 21
197.121849
 31
0.0
 11
232.645080
 21
197.103179
 31
0.0
 11
232.597790
 21
197.090694
 31
0.0
 11
232.549160
 21
197.082898
 31
0.0
 11
232.499850
 21
197.077479
 31
0.0
  0
SPLINE
  5
101
100
AcDbEntity
  8
Guide
 62
7
100
AcDbSpline
 70
0
 71
3
 72
52
 73
48
 74
46
 40
0.000000
 40
0.000000
 40
0.000000
 40
0.000000
 40
1.789220
 40
3.578115
 40
5.366715
 40
7.149755
 40
8.933151
 40
10.716710
 40
12.488789
 40
14.260706
 40
16.032581
 40
18.023636
 40
20.014804
 40
22.006031
 40
23.969064
 40
25.932051
 40
27.894989
 40
29.824187
 40
31.753448
 40
33.682902
 40
36.301423
 40
38.920127
 40
41.538918
 40
44.083065
 40
46.627148
 40
49.171301
 40
51.650545
 40
54.129763
 40
56.608839
 40
58.858894
 40
61.108867
 40
63.358700
 40
65.608338
 40
67.858167
 40
70.108260
 40
72.406177
 40
74.703926
 40
77.000497
 40
78.213165
 40
79.425692
 40
80.638415
 40
81.888244
 40
83.137891
 40
84.386990
 40
85.681777
 40
86.977068
 40
88.272908
 40
88.272908
 40
88.272908
 40
88.272908
 10
88.250089
 20
99.981850
 30
0.0
 10
88.259695
 20
99.385520
 30
0.0
 10
88.278905
 20
98.192968
 30
0.0
 10
88.321922
 20
96.404545
 30
0.0
 10
88.393166
 20
94.618992
 30
0.0
 10
88.506599
 20
92.837421
 30
0.0
 10
88.658597
 20
91.060453
 30
0.0
 10
88.845292
 20
89.290492
 30
0.0
 10
89.062941
 20
87.527933
 30
0.0
 10
89.312650
 20
85.773551
 30
0.0
 10
89.607892
 20
83.952260
 30
0.0
 10
89.955232
 20
82.065767
 30
0.0
 10
90.360597
 20
80.116137
 30
0.0
 10
90.809044
 20
78.185546
 30
0.0
 10
91.300206
 20
76.275075
 30
0.0
 10
91.834330
 20
74.385954
 30
0.0
 10
92.411412
 20
72.521300
 30
0.0
 10
93.031459
 20
70.682349
 30
0.0
 10
93.694620
 20
68.870363
 30
0.0
 10
94.490116
 20
66.862917
 30
0.0
 10
95.441294
 20
64.670905
 30
0.0
 10
96.576574
 20
62.310360
 30
0.0
 10
97.795720
 20
60.019976
 30
0.0
 10
99.098005
 20
57.804609
 30
0.0
 10
100.482871
 20
55.669398
 30
0.0
 10
101.952628
 20
53.618151
 30
0.0
 10
103.506068
 20
51.656999
 30
0.0
 10
105.141135
 20
49.792002
 30
0.0
 10
106.818469
 20
48.069912
 30
0.0
 10
108.527628
 20
46.490242
 30
0.0
 10
110.257386
 20
45.049791
 30
0.0
 10
112.061664
 20
43.703953
 30
0.0
 10
113.937802
 20
42.460231
 30
0.0
 10
115.881013
 20
41.323924
 30
0.0
 10
117.900406
 20
40.293252
 30
0.0
 10
119.991781
 20
39.376995
 30
0.0
 10
122.148132
 20
38.580615
 30
0.0
 10
124.001492
 20
38.017940
 30
0.0
 10
125.526868
 20
37.629209
 30
0.0
 10
126.710606
 20
37.365189
 30
0.0
 10
127.913609
 20
37.133122
 30
0.0
 10
129.134901
 20
36.932988
 30
0.0
 10
130.373850
 20
36.769146
 30
0.0
 10
131.632570
 20
36.645415
 30
0.0
 10
132.910124
 20
36.567048
 30
0.0
 10
134.204638
 20
36.519999
 30
0.0
 10
135.068105
 20
36.499381
 30
0.0
 10
135.499930
 20
36.489070
 30
0.0
 11
88.250089
 21
99.981850
 31
0.0
 11
88.281275
 21
98.192901
 31
0.0
 11
88.326643
 21
96.404582
 31
0.0
 11
88.400309
 21
94.617500
 31
0.0
 11
88.513035
 21
92.838027
 31
0.0
 11
88.664439
 21
91.061070
 31
0.0
 11
88.850959
 21
89.287290
 31
0.0
 11
89.068371
 21
87.528598
 31
0.0
 11
89.318294
 21
85.774395
 31
0.0
 11
89.602059
 21
84.025390
 31
0.0
 11
89.962689
 21
82.067267
 31
0.0
 11
90.368126
 21
80.117813
 31
0.0
 11
90.818769
 21
78.178250
 31
0.0
 11
91.307762
 21
76.277096
 31
0.0
 11
91.842050
 21
74.388220
 31
0.0
 11
92.422609
 21
72.513100
 31
0.0
 11
93.039232
 21
70.685100
 31
0.0
 11
93.702543
 21
68.873453
 31
0.0
 11
94.413599
 21
67.079800
 31
0.0
 11
95.456703
 21
64.678012
 31
0.0
 11
96.592481
 21
62.318431
 31
0.0
 11
97.823759
 21
60.007150
 31
0.0
 11
99.113882
 21
57.814374
 31
0.0
 11
100.499107
 21
55.680479
 31
0.0
 11
101.981770
 21
53.613010
 31
0.0
 11
103.521924
 21
51.670184
 31
0.0
 11
105.157100
 21
49.806660
 31
0.0
 11
106.887620
 21
48.031520
 31
0.0
 11
108.540439
 21
46.504780
 31
0.0
 11
110.269861
 21
45.065517
 31
0.0
 11
112.073700
 21
43.720930
 31
0.0
 11
113.948914
 21
42.478174
 31
0.0
 11
115.891242
 21
41.342793
 31
0.0
 11
117.895590
 21
40.320290
 31
0.0
 11
120.000297
 21
39.397994
 31
0.0
 11
122.155733
 21
38.601912
 31
0.0
 11
124.353280
 21
37.934810
 31
0.0
 11
125.528331
 21
37.635111
 31
0.0
 11
126.711726
 21
37.370919
 31
0.0
 11
127.902450
 21
37.140980
 31
0.0
 11
129.135910
 21
36.939356
 31
0.0
 11
130.374840
 21
36.776054
 31
0.0
 11
131.618000
 21
36.654390
 31
0.0
 11
132.910191
 21
36.572434
 31
0.0
 11
134.204526
 21
36.522693
 31
0.0
 11
135.499930
 21
36.489070
 31
0.0
  0
LWPOLYLINE
  5
102
100
AcDbEntity
  8
Guide
 62
7
100
AcDbPolyline
 90
2
 70
0
 10
135.499930
 20
36.489070
 30
0.0
 10
140.500120
 20
36.489070
 30
0.0
  0
LWPOLYLINE
  5
103
100
AcDbEntity
  8
Guide
 62
7
100
AcDbPolyline
 90
2
 70
0
 10
140.500120
 20
163.474100
 30
0.0
 10
135.499930
 20
163.474100
 30
0.0
  0
LWPOLYLINE
  5
104
100
AcDbEntity
  8
Guide
 62
7
100
AcDbPolyline
 90
4
 70
1
 10
130.499690
 20
45.500410
 30
0.0
 10
130.499690
 20
48.500230
 30
0.0
 10
133.500050
 20
48.500230
 30
0.0
 10
133.500050
 20
45.500410
 30
0.0
  0
LWPOLYLINE
  5
105
100
AcDbEntity
  8
Guide
 62
7
100
AcDbPolyline
 90
4
 70
1
 10
130.500090
 20
151.499790
 30
0.0
 10
130.500090
 20
154.500140
 30
0.0
 10
133.499910
 20
154.500140
 30
0.0
 10
133.499910
 20
151.499790
 30
0.0
  0
LWPOLYLINE
  5
106
100
AcDbEntity
  8
Guide
 62
7
100
AcDbPolyline
 90
4
 70
1
 10
136.499870
 20
39.491460
 30
0.0
 10
136.499870
 20
42.493870
 30
0.0
 10
139.500180
 20
42.493870
 30
0.0
 10
139.500180
 20
39.491460
 30
0.0
  0
LWPOLYLINE
  5
107
100
AcDbEntity
  8
Guide
 62
7
100
AcDbPolyline
 90
4
 70
1
 10
136.499870
 20
51.497990
 30
0.0
 10
136.499870
 20
54.500370
 30
0.0
 10
139.499660
 20
54.500370
 30
0.0
 10
139.499660
 20
51.497990
 30
0.0
  0
LWPOLYLINE
  5
108
100
AcDbEntity
  8
Guide
 62
7
100
AcDbPolyline
 90
4
 70
1
 10
136.499870
 20
145.497410
 30
0.0
 10
136.499870
 20
148.500320
 30
0.0
 10
139.499660
 20
148.500320
 30
0.0
 10
139.499660
 20
145.497410
 30
0.0
  0
LWPOLYLINE
  5
109
100
AcDbEntity
  8
Guide
 62
7
100
AcDbPolyline
 90
4
 70
1
 10
136.499870
 20
157.500280
 30
0.0
 10
136.499870
 20
160.502690
 30
0.0
 10
139.499660
 20
160.502690
 30
0.0
 10
139.499660
 20
157.500280
 30
0.0
  0
LWPOLYLINE
  5
10a
100
AcDbEntity
  8
Guide
 62
7
100
AcDbPolyline
 90
4
 70
1
 10
142.500010
 20
45.500410
 30
0.0
 10
142.500010
 20
48.500230
 30
0.0
 10
145.499830
 20
48.500230
 30
0.0
 10
145.499830
 20
45.500410
 30
0.0
  0
SPLINE
  5
10b
100
AcDbEntity
  8
Guide
 62
7
100
AcDbSpline
 70
0
 71
3
 72
79
 73
75
 74
73
 40
0.000000
 40
0.000000
 40
0.000000
 40
0.000000
 40
1.561027
 40
3.121069
 40
4.680222
 40
6.175541
 40
7.671810
 40
9.168375
 40
10.616062
 40
12.063429
 40
13.511152
 40
16.742133
 40
19.976899
 40
23.211964
 40
26.422059
 40
29.631601
 40
32.840853
 40
36.126064
 40
39.411465
 40
42.697036
 40
46.123586
 40
49.549956
 40
52.976378
 40
56.530202
 40
60.083947
 40
63.637933
 40
67.295211
 40
70.952221
 40
74.608671
 40
76.687279
 40
78.765638
 40
80.843949
 40
82.933152
 40
85.022404
 40
87.111601
 40
89.202393
 40
91.293234
 40
93.384345
 40
97.393438
 40
101.403320
 40
105.413441
 40
109.334429
 40
113.255178
 40
117.176391
 40
120.963302
 40
124.749783
 40
128.535182
 40
131.182108
 40
133.828707
 40
136.475217
 40
139.049968
 40
141.624828
 40
144.199933
 40
146.729562
 40
149.258993
 40
151.787506
 40
153.470540
 40
155.153326
 40
156.835999
 40
158.538385
 40
160.240910
 40
161.943583
 40
163.689545
 40
165.435406
 40
167.180799
 40
168.191690
 40
169.202527
 40
170.213487
 40
171.251753
 40
172.289906
 40
173.327752
 40
174.397734
 40
175.468001
 40
176.538578
 40
176.538578
 40
176.538578
 40
176.538578
 10
140.500120
 20
36.489070
 30
0.0
 10
141.020250
 20
36.504035
 30
0.0
 10
142.060181
 20
36.533954
 30
0.0
 10
143.618861
 20
36.602467
 30
0.0
 10
145.153195
 20
36.716727
 30
0.0
 10
146.659862
 20
36.896892
 30
0.0
 10
148.137258
 20
37.134767
 30
0.0
 10
149.589035
 20
37.424953
 30
0.0
 10
151.014116
 20
37.760914
 30
0.0
 10
152.410854
 20
38.142502
 30
0.0
 10
154.360004
 20
38.752597
 30
0.0
 10
156.827336
 20
39.695223
 30
0.0
 10
159.745033
 20
41.097405
 30
0.0
 10
162.532221
 20
42.730355
 30
0.0
 10
165.170037
 20
44.579889
 30
0.0
 10
167.650582
 20
46.621444
 30
0.0
 10
169.993068
 20
48.856098
 30
0.0
 10
172.188763
 20
51.269260
 30
0.0
 10
174.233735
 20
53.843542
 30
0.0
 10
176.140784
 20
56.578900
 30
0.0
 10
177.905828
 20
59.463160
 30
0.0
 10
179.525605
 20
62.484542
 30
0.0
 10
181.000238
 20
65.626045
 30
0.0
 10
182.330176
 20
68.877363
 30
0.0
 10
183.514142
 20
72.229609
 30
0.0
 10
184.552405
 20
75.665695
 30
0.0
 10
185.446541
 20
79.177587
 30
0.0
 10
186.195554
 20
82.758062
 30
0.0
 10
186.709156
 20
85.847274
 30
0.0
 10
187.055590
 20
88.428792
 30
0.0
 10
187.285712
 20
90.494621
 30
0.0
 10
187.470206
 20
92.568556
 30
0.0
 10
187.609236
 20
94.649675
 30
0.0
 10
187.702715
 20
96.736967
 30
0.0
 10
187.750576
 20
98.826331
 30
0.0
 10
187.753026
 20
100.916769
 30
0.0
 10
187.709860
 20
103.007413
 30
0.0
 10
187.593878
 20
105.735475
 30
0.0
 10
187.343449
 20
109.097279
 30
0.0
 10
186.874435
 20
113.080692
 30
0.0
 10
186.235807
 20
117.010789
 30
0.0
 10
185.428928
 20
120.879488
 30
0.0
 10
184.451326
 20
124.678166
 30
0.0
 10
183.303445
 20
128.382276
 30
0.0
 10
181.986739
 20
131.982221
 30
0.0
 10
180.499788
 20
135.466293
 30
0.0
 10
178.987028
 20
138.520512
 30
0.0
 10
177.506069
 20
141.160717
 30
0.0
 10
176.109079
 20
143.409785
 30
0.0
 10
174.621204
 20
145.570746
 30
0.0
 10
173.043656
 20
147.637180
 30
0.0
 10
171.378200
 20
149.602489
 30
0.0
 10
169.619813
 20
151.464656
 30
0.0
 10
167.770746
 20
153.214943
 30
0.0
 10
165.835846
 20
154.845945
 30
0.0
 10
164.032993
 20
156.189608
 30
0.0
 10
162.398281
 20
157.280544
 30
0.0
 10
160.960039
 20
158.155249
 30
0.0
 10
159.480156
 20
158.970950
 30
0.0
 10
157.960252
 20
159.724400
 30
0.0
 10
156.402741
 20
160.413322
 30
0.0
 10
154.803005
 20
161.038626
 30
0.0
 10
153.163308
 20
161.596764
 30
0.0
 10
151.486693
 20
162.085154
 30
0.0
 10
150.028177
 20
162.440769
 30
0.0
 10
148.798483
 20
162.695598
 30
0.0
 10
147.803775
 20
162.876361
 30
0.0
 10
146.796080
 20
163.035013
 30
0.0
 10
145.775970
 20
163.171700
 30
0.0
 10
144.743798
 20
163.283467
 30
0.0
 10
143.698371
 20
163.367704
 30
0.0
 10
142.640218
 20
163.420938
 30
0.0
 10
141.570387
 20
163.452939
 30
0.0
 10
140.856910
 20
163.467046
 30
0.0
 10
140.500120
 20
163.474100
 30
0.0
 11
140.500120
 21
36.489070
 31
0.0
 11
142.060383
 21
36.537909
 31
0.0
 11
143.618741
 21
36.610378
 31
0.0
 11
145.173290
 21
36.730110
 31
0.0
 11
146.658124
 21
36.906877
 31
0.0
 11
148.135486
 21
37.143989
 31
0.0
 11
149.603160
 21
37.436630
 31
0.0
 11
151.012137
 21
37.769167
 31
0.0
 11
152.408243
 21
38.150953
 31
0.0
 11
153.789760
 21
38.583750
 31
0.0
 11
156.808363
 21
39.735824
 31
0.0
 11
159.724187
 21
41.136423
 31
0.0
 11
162.515510
 21
42.771710
 31
0.0
 11
165.145146
 21
44.612830
 31
0.0
 11
167.624624
 21
46.650806
 31
0.0
 11
169.947960
 21
48.864720
 31
0.0
 11
172.160747
 21
51.292926
 31
0.0
 11
174.206220
 21
53.863898
 31
0.0
 11
176.087100
 21
56.557830
 31
0.0
 11
177.877559
 21
59.479387
 31
0.0
 11
179.498401
 21
62.498143
 31
0.0
 11
180.956200
 21
65.598980
 31
0.0
 11
182.303173
 21
68.887647
 31
0.0
 11
183.488170
 21
72.238003
 31
0.0
 11
184.517610
 21
75.639630
 31
0.0
 11
185.420967
 21
79.183587
 31
0.0
 11
186.170743
 21
82.762910
 31
0.0
 11
186.771320
 21
86.369700
 31
0.0
 11
187.047876
 21
88.429829
 31
0.0
 11
187.278057
 21
90.495401
 31
0.0
 11
187.462300
 21
92.565530
 31
0.0
 11
187.601603
 21
94.650084
 31
0.0
 11
187.695110
 21
96.737243
 31
0.0
 11
187.743000
 21
98.825890
 31
0.0
 11
187.745423
 21
100.916681
 31
0.0
 11
187.702253
 21
103.007076
 31
0.0
 11
187.613430
 21
105.096300
 31
0.0
 11
187.314967
 21
109.094267
 31
0.0
 11
186.845389
 21
113.076559
 31
0.0
 11
186.201440
 21
117.034640
 31
0.0
 11
185.399448
 21
120.872733
 31
0.0
 11
184.420782
 21
124.669374
 31
0.0
 11
183.258590
 21
128.414400
 31
0.0
 11
181.955715
 21
131.970130
 31
0.0
 11
180.467211
 21
135.451767
 31
0.0
 11
178.784890
 21
138.842790
 31
0.0
 11
177.489046
 21
141.150820
 31
0.0
 11
176.091641
 21
143.398430
 31
0.0
 11
174.589870
 21
145.577580
 31
0.0
 11
173.026620
 21
147.623453
 31
0.0
 11
171.361043
 21
149.587061
 31
0.0
 11
169.592200
 21
151.458520
 31
0.0
 11
167.754508
 21
153.196884
 31
0.0
 11
165.819879
 21
154.826373
 31
0.0
 11
163.791860
 21
156.336510
 31
0.0
 11
162.391859
 21
157.270641
 31
0.0
 11
160.954008
 21
158.144915
 31
0.0
 11
159.480280
 21
158.957020
 31
0.0
 11
157.955022
 21
159.713132
 31
0.0
 11
156.398004
 21
160.401818
 31
0.0
 11
154.812160
 21
161.021650
 31
0.0
 11
153.159370
 21
161.584383
 31
0.0
 11
151.483203
 21
162.072743
 31
0.0
 11
149.787500
 21
162.486250
 31
0.0
 11
148.797673
 21
162.691538
 31
0.0
 11
147.803154
 21
162.872432
 31
0.0
 11
146.804520
 21
163.029820
 31
0.0
 11
145.775403
 21
163.167353
 31
0.0
 11
144.743244
 21
163.278747
 31
0.0
 11
143.708720
 21
163.361720
 31
0.0
 11
142.640183
 21
163.417304
 31
0.0
 11
141.570450
 21
163.451129
 31
0.0
 11
140.500120
 21
163.474100
 31
0.0
  0
LWPOLYLINE
  5
10c
100
AcDbEntity
  8
Guide
 62
7
100
AcDbPolyline
 90
4
 70
1
 10
142.499870
 20
151.499790
 30
0.0
 10
142.499870
 20
154.500140
 30
0.0
 10
145.500190
 20
154.500140
 30
0.0
 10
145.500190
 20
151.499790
 30
0.0
  0
SPLINE
  5
10d
100
AcDbEntity
  8
Guide
 62
7
100
AcDbSpline
 70
0
 71
3
 72
43
 73
39
 74
37
 40
0.000000
 40
0.000000
 40
0.000000
 40
0.000000
 40
1.461869
 40
2.922933
 40
4.383266
 40
5.786801
 40
7.191123
 40
8.595709
 40
9.955823
 40
11.315644
 40
12.675650
 40
15.235640
 40
17.797315
 40
20.359205
 40
22.881670
 40
25.403791
 40
27.925638
 40
30.468583
 40
33.011733
 40
35.555129
 40
38.680741
 40
41.806948
 40
44.933349
 40
48.171825
 40
51.410073
 40
54.648538
 40
57.997678
 40
61.346576
 40
64.694911
 40
67.284356
 40
69.873729
 40
72.463589
 40
75.089618
 40
77.715172
 40
80.339624
 40
82.981871
 40
85.625074
 40
88.269305
 40
88.269305
 40
88.269305
 40
88.269305
 10
135.499930
 20
163.474100
 30
0.0
 10
135.012815
 20
163.460969
 30
0.0
 10
134.038854
 20
163.434713
 30
0.0
 10
132.578908
 20
163.374696
 30
0.0
 10
131.140400
 20
163.274709
 30
0.0
 10
129.726047
 20
163.116906
 30
0.0
 10
128.337167
 20
162.908342
 30
0.0
 10
126.970748
 20
162.653736
 30
0.0
 10
125.627689
 20
162.358786
 30
0.0
 10
124.309386
 20
162.023597
 30
0.0
 10
122.619226
 20
161.531861
 30
0.0
 10
120.576594
 20
160.822533
 30
0.0
 10
118.216204
 20
159.823810
 30
0.0
 10
115.937665
 20
158.677707
 30
0.0
 10
113.750424
 20
157.391827
 30
0.0
 10
111.659608
 20
155.978371
 30
0.0
 10
109.653821
 20
154.435538
 30
0.0
 10
107.738876
 20
152.770713
 30
0.0
 10
105.917684
 20
150.993700
 30
0.0
 10
104.065323
 20
148.976527
 30
0.0
 10
102.210627
 20
146.703462
 30
0.0
 10
100.383305
 20
144.164908
 30
0.0
 10
98.682505
 20
141.495404
 30
0.0
 10
97.110208
 20
138.705362
 30
0.0
 10
95.667810
 20
135.804416
 30
0.0
 10
94.353071
 20
132.803292
 30
0.0
 10
93.165140
 20
129.710231
 30
0.0
 10
92.105774
 20
126.532294
 30
0.0
 10
91.253525
 20
123.555381
 30
0.0
 10
90.571138
 20
120.795685
 30
0.0
 10
90.025542
 20
118.263864
 30
0.0
 10
89.550193
 20
115.705578
 30
0.0
 10
89.142478
 20
113.123404
 30
0.0
 10
88.810500
 20
110.518716
 30
0.0
 10
88.562657
 20
107.899120
 30
0.0
 10
88.406881
 20
105.266670
 30
0.0
 10
88.312954
 20
102.624998
 30
0.0
 10
88.271047
 20
100.863014
 30
0.0
 10
88.250089
 20
99.981850
 30
0.0
 11
135.499930
 21
163.474100
 31
0.0
 11
134.038689
 21
163.431262
 31
0.0
 11
132.579004
 21
163.367798
 31
0.0
 11
131.122430
 21
163.263080
 31
0.0
 11
129.727474
 21
163.108137
 31
0.0
 11
128.338626
 21
162.900239
 31
0.0
 11
126.957690
 21
162.643570
 31
0.0
 11
125.629300
 21
162.351526
 31
0.0
 11
124.311486
 21
162.016148
 31
0.0
 11
123.005710
 21
161.635930
 31
0.0
 11
120.587284
 21
160.796427
 31
0.0
 11
118.228049
 21
159.798333
 31
0.0
 11
115.939410
 21
158.647070
 31
0.0
 11
113.764480
 21
157.369373
 31
0.0
 11
111.674607
 21
155.957450
 31
0.0
 11
109.675310
 21
154.420400
 31
0.0
 11
107.755455
 21
152.752848
 31
0.0
 11
105.934451
 21
150.977585
 31
0.0
 11
104.213410
 21
149.104920
 31
0.0
 11
102.235799
 21
146.684484
 31
0.0
 11
100.407801
 21
144.148426
 31
0.0
 11
98.726349
 21
141.512690
 31
0.0
 11
97.134880
 21
138.692238
 31
0.0
 11
95.691585
 21
135.793419
 31
0.0
 11
94.390569
 21
132.827780
 31
0.0
 11
93.188731
 21
129.701708
 31
0.0
 11
92.128617
 21
126.525032
 31
0.0
 11
91.206059
 21
123.306300
 31
0.0
 11
90.583814
 21
120.792729
 31
0.0
 11
90.037654
 21
118.261611
 31
0.0
 11
89.563849
 21
115.715460
 31
0.0
 11
89.155380
 21
113.121393
 31
0.0
 11
88.824565
 21
110.516764
 31
0.0
 11
88.578529
 21
107.903870
 31
0.0
 11
88.417267
 21
105.266549
 31
0.0
 11
88.318145
 21
102.625205
 31
0.0
 11
88.250089
 21
99.981850
 31
0.0
  0
LWPOLYLINE
  5
10e
100
AcDbEntity
  8
Guide
 62
7
100
AcDbPolyline
 90
52
 70
1
 10
155.999410
 20
15.500210
 30
0.0
 10
161.999570
 20
17.999810
 30
0.0
 10
201.499480
 20
23.000010
 30
0.0
 10
235.999700
 20
57.499720
 30
0.0
 10
235.999700
 20
154.999710
 30
0.0
 10
223.999400
 20
167.000020
 30
0.0
 10
200.000350
 20
167.000020
 30
0.0
 10
197.500240
 20
160.500140
 30
0.0
 10
200.500050
 20
160.500140
 30
0.0
 10
200.500050
 20
157.500340
 30
0.0
 10
203.499880
 20
157.500340
 30
0.0
 10
203.499880
 20
160.500140
 30
0.0
 10
206.499700
 20
160.500140
 30
0.0
 10
206.499700
 20
163.500490
 30
0.0
 10
209.499500
 20
163.500490
 30
0.0
 10
209.499500
 20
160.500140
 30
0.0
 10
212.499330
 20
160.500140
 30
0.0
 10
212.499330
 20
157.500340
 30
0.0
 10
215.499660
 20
157.500340
 30
0.0
 10
215.499660
 20
160.500140
 30
0.0
 10
218.499480
 20
160.500140
 30
0.0
 10
218.499480
 20
157.500340
 30
0.0
 10
223.999400
 20
152.500650
 30
0.0
 10
223.999400
 20
62.500450
 30
0.0
 10
192.999740
 20
31.499750
 30
0.0
 10
155.079590
 20
26.700550
 30
0.0
 10
154.919380
 20
26.700550
 30
0.0
 10
116.999220
 20
31.499750
 30
0.0
 10
85.999548
 20
62.500450
 30
0.0
 10
85.999548
 20
152.500650
 30
0.0
 10
91.499469
 20
157.500340
 30
0.0
 10
91.499469
 20
160.500140
 30
0.0
 10
94.499289
 20
160.500140
 30
0.0
 10
94.499289
 20
157.500340
 30
0.0
 10
97.499639
 20
157.500340
 30
0.0
 10
97.499639
 20
160.500140
 30
0.0
 10
100.499440
 20
160.500140
 30
0.0
 10
100.499440
 20
163.500490
 30
0.0
 10
103.499780
 20
163.500490
 30
0.0
 10
103.499780
 20
160.500140
 30
0.0
 10
106.499590
 20
160.500140
 30
0.0
 10
106.499590
 20
157.500340
 30
0.0
 10
109.499420
 20
157.500340
 30
0.0
 10
109.499420
 20
160.500140
 30
0.0
 10
112.499240
 20
160.500140
 30
0.0
 10
109.999110
 20
167.000020
 30
0.0
 10
85.999548
 20
167.000020
 30
0.0
 10
73.999248
 20
154.999710
 30
0.0
 10
73.999248
 20
57.499720
 30
0.0
 10
108.499480
 20
23.000010
 30
0.0
 10
147.999380
 20
17.999810
 30
0.0
 10
153.999530
 20
15.500210
 30
0.0
  0
SPLINE
  5
10f
100
AcDbEntity
  8
Guide
 62
7
100
AcDbSpline
 70
0
 71
3
 72
43
 73
39
 74
37
 40
0.000000
 40
0.000000
 40
0.000000
 40
0.000000
 40
0.075177
 40
0.149176
 40
0.221988
 40
0.293330
 40
0.365879
 40
0.438866
 40
0.513625
 40
0.587967
 40
0.662130
 40
0.736435
 40
0.810876
 40
0.885308
 40
0.957449
 40
1.029592
 40
1.101690
 40
1.176072
 40
1.250529
 40
1.324971
 40
1.399391
 40
1.473837
 40
1.548240
 40
1.620348
 40
1.692489
 40
1.764648
 40
1.839078
 40
1.913530
 40
1.987826
 40
2.061984
 40
2.136316
 40
2.211090
 40
2.284092
 40
2.356639
 40
2.427983
 40
2.500797
 40
2.574785
 40
2.649970
 40
2.649970
 40
2.649970
 40
2.649970
 10
155.056840
 20
20.585180
 30
0.0
 10
155.032077
 20
20.589040
 30
0.0
 10
154.982940
 20
20.596700
 30
0.0
 10
154.910713
 20
20.613314
 30
0.0
 10
154.842615
 20
20.640211
 30
0.0
 10
154.782712
 20
20.681590
 30
0.0
 10
154.731761
 20
20.733383
 30
0.0
 10
154.689709
 20
20.794006
 30
0.0
 10
154.658234
 20
20.861414
 30
0.0
 10
154.638618
 20
20.933585
 30
0.0
 10
154.631877
 20
21.007948
 30
0.0
 10
154.638606
 20
21.082340
 30
0.0
 10
154.658103
 20
21.154514
 30
0.0
 10
154.689559
 20
21.221567
 30
0.0
 10
154.731885
 20
21.281375
 30
0.0
 10
154.783202
 20
21.332550
 30
0.0
 10
154.843039
 20
21.374771
 30
0.0
 10
154.910087
 20
21.406171
 30
0.0
 10
154.982302
 20
21.425648
 30
0.0
 10
155.056832
 20
21.432355
 30
0.0
 10
155.131359
 20
21.425648
 30
0.0
 10
155.203569
 20
21.406164
 30
0.0
 10
155.270625
 20
21.374771
 30
0.0
 10
155.330488
 20
21.332566
 30
0.0
 10
155.381784
 20
21.281356
 30
0.0
 10
155.424106
 20
21.221542
 30
0.0
 10
155.455570
 20
21.154483
 30
0.0
 10
155.475062
 20
21.082307
 30
0.0
 10
155.481792
 20
21.007917
 30
0.0
 10
155.475060
 20
20.933561
 30
0.0
 10
155.455434
 20
20.861391
 30
0.0
 10
155.423954
 20
20.793981
 30
0.0
 10
155.381937
 20
20.733326
 30
0.0
 10
155.330994
 20
20.681505
 30
0.0
 10
155.271039
 20
20.640211
 30
0.0
 10
155.202988
 20
20.613215
 30
0.0
 10
155.130742
 20
20.596652
 30
0.0
 10
155.081605
 20
20.589005
 30
0.0
 10
155.056840
 20
20.585150
 30
0.0
 11
155.056840
 21
20.585180
 31
0.0
 11
154.982704
 21
20.597650
 31
0.0
 11
154.910819
 21
20.615210
 31
0.0
 11
154.843470
 21
20.642880
 31
0.0
 11
154.784513
 21
20.683053
 31
0.0
 11
154.733457
 21
20.734594
 31
0.0
 11
154.691820
 21
20.794540
 31
0.0
 11
154.660194
 21
20.862280
 31
0.0
 11
154.640746
 21
20.934033
 31
0.0
 11
154.634120
 21
21.007900
 31
0.0
 11
154.640724
 21
21.081911
 31
0.0
 11
154.660150
 21
21.153773
 31
0.0
 11
154.691820
 21
21.221130
 31
0.0
 11
154.733459
 21
21.280041
 31
0.0
 11
154.784531
 21
21.330995
 31
0.0
 11
154.843470
 21
21.372520
 31
0.0
 11
154.910806
 21
21.404120
 31
0.0
 11
154.982691
 21
21.423520
 31
0.0
 11
155.056840
 21
21.430120
 31
0.0
 11
155.130967
 21
21.423520
 31
0.0
 11
155.202840
 21
21.404120
 31
0.0
 11
155.270200
 21
21.372520
 31
0.0
 11
155.329154
 21
21.331001
 31
0.0
 11
155.380209
 21
21.280033
 31
0.0
 11
155.421850
 21
21.221100
 31
0.0
 11
155.453520
 21
21.153745
 31
0.0
 11
155.472946
 21
21.081872
 31
0.0
 11
155.479550
 21
21.007870
 31
0.0
 11
155.472929
 21
20.934008
 31
0.0
 11
155.453478
 21
20.862266
 31
0.0
 11
155.421850
 21
20.794510
 31
0.0
 11
155.380233
 21
20.734533
 31
0.0
 11
155.329183
 21
20.682987
 31
0.0
 11
155.270200
 21
20.642850
 31
0.0
 11
155.202867
 21
20.615135
 31
0.0
 11
155.130987
 21
20.597598
 31
0.0
 11
155.056840
 21
20.585150
 31
0.0
  0
SPLINE
  5
110
100
AcDbEntity
  8
Guide
 62
7
100
AcDbSpline
 70
0
 71
3
 72
43
 73
39
 74
37
 40
0.000000
 40
0.000000
 40
0.000000
 40
0.000000
 40
0.075171
 40
0.149160
 40
0.221986
 40
0.293314
 40
0.365843
 40
0.438864
 40
0.513621
 40
0.587961
 40
0.662128
 40
0.736434
 40
0.810874
 40
0.885305
 40
0.957446
 40
1.029591
 40
1.101693
 40
1.176075
 40
1.250529
 40
1.324964
 40
1.399389
 40
1.473841
 40
1.548244
 40
1.620351
 40
1.692492
 40
1.764650
 40
1.839063
 40
1.913522
 40
1.987816
 40
2.061972
 40
2.136302
 40
2.211080
 40
2.284091
 40
2.356652
 40
2.427971
 40
2.500785
 40
2.574776
 40
2.649967
 40
2.649967
 40
2.649967
 40
2.649967
 10
123.942300
 20
178.415720
 30
0.0
 10
123.967061
 20
178.411866
 30
0.0
 10
124.016194
 20
178.404218
 30
0.0
 10
124.088436
 20
178.387649
 30
0.0
 10
124.156498
 20
178.360674
 30
0.0
 10
124.216414
 20
178.319338
 30
0.0
 10
124.267384
 20
178.267556
 30
0.0
 10
124.309409
 20
178.206910
 30
0.0
 10
124.340898
 20
178.139500
 30
0.0
 10
124.360512
 20
178.067327
 30
0.0
 10
124.367255
 20
177.992963
 30
0.0
 10
124.360518
 20
177.918571
 30
0.0
 10
124.341026
 20
177.846396
 30
0.0
 10
124.309571
 20
177.779343
 30
0.0
 10
124.267244
 20
177.719534
 30
0.0
 10
124.215927
 20
177.668358
 30
0.0
 10
124.156094
 20
177.626128
 30
0.0
 10
124.089044
 20
177.594730
 30
0.0
 10
124.016832
 20
177.575252
 30
0.0
 10
123.942304
 20
177.568544
 30
0.0
 10
123.867776
 20
177.575252
 30
0.0
 10
123.795562
 20
177.594734
 30
0.0
 10
123.728505
 20
177.626130
 30
0.0
 10
123.668640
 20
177.668333
 30
0.0
 10
123.617350
 20
177.719543
 30
0.0
 10
123.575000
 20
177.779335
 30
0.0
 10
123.543611
 20
177.846426
 30
0.0
 10
123.524078
 20
177.918581
 30
0.0
 10
123.517323
 20
177.992973
 30
0.0
 10
123.524061
 20
178.067327
 30
0.0
 10
123.543688
 20
178.139495
 30
0.0
 10
123.575161
 20
178.206913
 30
0.0
 10
123.617206
 20
178.267564
 30
0.0
 10
123.668172
 20
178.319355
 30
0.0
 10
123.728092
 20
178.360692
 30
0.0
 10
123.796145
 20
178.387672
 30
0.0
 10
123.868392
 20
178.404239
 30
0.0
 10
123.917532
 20
178.411886
 30
0.0
 10
123.942300
 20
178.415740
 30
0.0
 11
123.942300
 21
178.415720
 31
0.0
 11
124.016433
 21
178.403272
 31
0.0
 11
124.088313
 21
178.385735
 31
0.0
 11
124.155660
 21
178.358020
 31
0.0
 11
124.214614
 21
178.317870
 31
0.0
 11
124.265669
 21
178.266353
 31
0.0
 11
124.307310
 21
178.206370
 31
0.0
 11
124.338936
 21
178.138632
 31
0.0
 11
124.358384
 21
178.066881
 31
0.0
 11
124.365010
 21
177.993010
 31
0.0
 11
124.358402
 21
177.918999
 31
0.0
 11
124.338978
 21
177.847137
 31
0.0
 11
124.307310
 21
177.779780
 31
0.0
 11
124.265671
 21
177.720868
 31
0.0
 11
124.214599
 21
177.669912
 31
0.0
 11
124.155660
 21
177.628380
 31
0.0
 11
124.088324
 21
177.596780
 31
0.0
 11
124.016442
 21
177.577380
 31
0.0
 11
123.942300
 21
177.570780
 31
0.0
 11
123.868169
 21
177.577380
 31
0.0
 11
123.796288
 21
177.596780
 31
0.0
 11
123.728930
 21
177.628380
 31
0.0
 11
123.669975
 21
177.669899
 31
0.0
 11
123.618918
 21
177.720864
 31
0.0
 11
123.577270
 21
177.779790
 31
0.0
 11
123.545644
 21
177.847147
 31
0.0
 11
123.526196
 21
177.919023
 31
0.0
 11
123.519570
 21
177.993020
 31
0.0
 11
123.526191
 21
178.066880
 31
0.0
 11
123.545642
 21
178.138620
 31
0.0
 11
123.577270
 21
178.206380
 31
0.0
 11
123.618909
 21
178.266353
 31
0.0
 11
123.669984
 21
178.317894
 31
0.0
 11
123.728930
 21
178.358040
 31
0.0
 11
123.796264
 21
178.385755
 31
0.0
 11
123.868146
 21
178.403292
 31
0.0
 11
123.942300
 21
178.415740
 31
0.0
  0
LWPOLYLINE
  5
111
100
AcDbEntity
  8
Guide
 62
7
100
AcDbPolyline
 90
52
 70
1
 10
122.999710
 20
183.500680
 30
0.0
 10
116.999570
 20
181.001100
 30
0.0
 10
77.499648
 20
176.000880
 30
0.0
 10
42.999438
 20
141.501180
 30
0.0
 10
42.999438
 20
44.001180
 30
0.0
 10
54.999738
 20
32.000870
 30
0.0
 10
78.998788
 20
32.000870
 30
0.0
 10
81.498888
 20
38.500750
 30
0.0
 10
78.499078
 20
38.500750
 30
0.0
 10
78.499078
 20
41.500550
 30
0.0
 10
75.499258
 20
41.500550
 30
0.0
 10
75.499258
 20
38.500750
 30
0.0
 10
72.499438
 20
38.500750
 30
0.0
 10
72.499438
 20
35.500410
 30
0.0
 10
69.499628
 20
35.500410
 30
0.0
 10
69.499628
 20
38.500750
 30
0.0
 10
66.499808
 20
38.500750
 30
0.0
 10
66.499808
 20
41.500550
 30
0.0
 10
63.499478
 20
41.500550
 30
0.0
 10
63.499478
 20
38.500750
 30
0.0
 10
60.499658
 20
38.500750
 30
0.0
 10
60.499658
 20
41.500550
 30
0.0
 10
54.999738
 20
46.500250
 30
0.0
 10
54.999738
 20
136.500450
 30
0.0
 10
85.999388
 20
167.501140
 30
0.0
 10
123.919550
 20
172.300330
 30
0.0
 10
124.079750
 20
172.300330
 30
0.0
 10
161.999910
 20
167.501140
 30
0.0
 10
192.999570
 20
136.500450
 30
0.0
 10
192.999570
 20
46.500250
 30
0.0
 10
187.499650
 20
41.500550
 30
0.0
 10
187.499650
 20
38.500750
 30
0.0
 10
184.499840
 20
38.500750
 30
0.0
 10
184.499840
 20
41.500550
 30
0.0
 10
181.499490
 20
41.500550
 30
0.0
 10
181.499490
 20
38.500750
 30
0.0
 10
178.499700
 20
38.500750
 30
0.0
 10
178.499700
 20
35.500410
 30
0.0
 10
175.499350
 20
35.500410
 30
0.0
 10
175.499350
 20
38.500750
 30
0.0
 10
172.499530
 20
38.500750
 30
0.0
 10
172.499530
 20
41.500550
 30
0.0
 10
169.499710
 20
41.500550
 30
0.0
 10
169.499710
 20
38.500750
 30
0.0
 10
166.499900
 20
38.500750
 30
0.0
 10
169.000010
 20
32.000870
 30
0.0
 10
192.999570
 20
32.000870
 30
0.0
 10
204.999890
 20
44.001180
 30
0.0
 10
204.999890
 20
141.501180
 30
0.0
 10
170.499650
 20
176.000880
 30
0.0
 10
130.999740
 20
181.001100
 30
0.0
 10
124.999590
 20
183.500680
 30
0.0
  0
SPLINE
  5
112
100
AcDbEntity
  8
Guide
 62
7
100
AcDbSpline
 70
0
 71
3
 72
52
 73
48
 74
46
 40
0.000000
 40
0.000000
 40
0.000000
 40
0.000000
 40
1.789218
 40
3.578115
 40
5.366705
 40
7.149749
 40
8.933143
 40
10.716700
 40
12.488786
 40
14.260706
 40
16.032582
 40
18.023633
 40
20.014793
 40
22.006010
 40
23.969060
 40
25.932055
 40
27.894989
 40
29.824183
 40
31.753434
 40
33.682884
 40
36.301417
 40
38.920124
 40
41.538909
 40
44.083059
 40
46.627141
 40
49.171284
 40
51.650539
 40
54.129761
 40
56.608838
 40
58.858892
 40
61.108869
 40
63.358707
 40
65.608334
 40
67.858158
 40
70.108244
 40
72.406166
 40
74.703917
 40
77.000488
 40
78.213160
 40
79.425683
 40
80.638401
 40
81.888233
 40
83.137880
 40
84.386980
 40
85.681771
 40
86.977059
 40
88.272897
 40
88.272897
 40
88.272897
 40
88.272897
 10
82.177008
 20
398.249830
 30
0.0
 10
81.580679
 20
398.240224
 30
0.0
 10
80.388127
 20
398.221014
 30
0.0
 10
78.599708
 20
398.177997
 30
0.0
 10
76.814156
 20
398.106752
 30
0.0
 10
75.032587
 20
397.993320
 30
0.0
 10
73.255619
 20
397.841322
 30
0.0
 10
71.485657
 20
397.654626
 30
0.0
 10
69.723096
 20
397.436979
 30
0.0
 10
67.968710
 20
397.187269
 30
0.0
 10
66.147420
 20
396.892022
 30
0.0
 10
64.260929
 20
396.544691
 30
0.0
 10
62.311307
 20
396.139322
 30
0.0
 10
60.380715
 20
395.690882
 30
0.0
 10
58.470240
 20
395.199713
 30
0.0
 10
56.581111
 20
394.665588
 30
0.0
 10
54.716459
 20
394.088504
 30
0.0
 10
52.877514
 20
393.468458
 30
0.0
 10
51.065535
 20
392.805296
 30
0.0
 10
49.058091
 20
392.009797
 30
0.0
 10
46.866072
 20
391.058625
 30
0.0
 10
44.505523
 20
389.923345
 30
0.0
 10
42.215144
 20
388.704191
 30
0.0
 10
39.999770
 20
387.401918
 30
0.0
 10
37.864563
 20
386.017052
 30
0.0
 10
35.813327
 20
384.547281
 30
0.0
 10
33.852163
 20
382.993853
 30
0.0
 10
31.987162
 20
381.358783
 30
0.0
 10
30.265070
 20
379.681449
 30
0.0
 10
28.685403
 20
377.972286
 30
0.0
 10
27.244945
 20
376.242530
 30
0.0
 10
25.899115
 20
374.438247
 30
0.0
 10
24.655399
 20
372.562109
 30
0.0
 10
23.519090
 20
370.618908
 30
0.0
 10
22.488447
 20
368.599502
 30
0.0
 10
21.572165
 20
366.508140
 30
0.0
 10
20.775785
 20
364.351785
 30
0.0
 10
20.213105
 20
362.498424
 30
0.0
 10
19.824380
 20
360.973047
 30
0.0
 10
19.560365
 20
359.789309
 30
0.0
 10
19.328317
 20
358.586304
 30
0.0
 10
19.128160
 20
357.365018
 30
0.0
 10
18.964323
 20
356.126067
 30
0.0
 10
18.840578
 20
354.867346
 30
0.0
 10
18.762227
 20
353.589790
 30
0.0
 10
18.715181
 20
352.295277
 30
0.0
 10
18.694554
 20
351.431811
 30
0.0
 10
18.684238
 20
350.999987
 30
0.0
 11
82.177008
 21
398.249830
 31
0.0
 11
80.388062
 21
398.218644
 31
0.0
 11
78.599741
 21
398.173276
 31
0.0
 11
76.812668
 21
398.099610
 31
0.0
 11
75.033191
 21
397.986884
 31
0.0
 11
73.256235
 21
397.835480
 31
0.0
 11
71.482458
 21
397.648960
 31
0.0
 11
69.723759
 21
397.431548
 31
0.0
 11
67.969554
 21
397.181624
 31
0.0
 11
66.220548
 21
396.897857
 31
0.0
 11
64.262428
 21
396.537232
 31
0.0
 11
62.312981
 21
396.131796
 31
0.0
 11
60.373428
 21
395.681157
 31
0.0
 11
58.472258
 21
395.192157
 31
0.0
 11
56.583375
 21
394.657867
 31
0.0
 11
54.708258
 21
394.077307
 31
0.0
 11
52.880263
 21
393.460684
 31
0.0
 11
51.068626
 21
392.797373
 31
0.0
 11
49.274978
 21
392.086317
 31
0.0
 11
46.873177
 21
391.043213
 31
0.0
 11
44.513593
 21
389.907435
 31
0.0
 11
42.202318
 21
388.676157
 31
0.0
 11
40.009536
 21
387.386039
 31
0.0
 11
37.875643
 21
386.000812
 31
0.0
 11
35.808188
 21
384.518147
 31
0.0
 11
33.865348
 21
382.977993
 31
0.0
 11
32.001818
 21
381.342817
 31
0.0
 11
30.226678
 21
379.612297
 31
0.0
 11
28.699940
 21
377.959477
 31
0.0
 11
27.260673
 21
376.230053
 31
0.0
 11
25.916088
 21
374.426207
 31
0.0
 11
24.673342
 21
372.551000
 31
0.0
 11
23.537964
 21
370.608674
 31
0.0
 11
22.515478
 21
368.604327
 31
0.0
 11
21.593168
 21
366.499620
 31
0.0
 11
20.797081
 21
364.344184
 31
0.0
 11
20.129978
 21
362.146637
 31
0.0
 11
19.830282
 21
360.971582
 31
0.0
 11
19.566097
 21
359.788189
 31
0.0
 11
19.336168
 21
358.597467
 31
0.0
 11
19.134532
 21
357.364007
 31
0.0
 11
18.971227
 21
356.125077
 31
0.0
 11
18.849558
 21
354.881917
 31
0.0
 11
18.767611
 21
353.589722
 31
0.0
 11
18.717872
 21
352.295389
 31
0.0
 11
18.684238
 21
350.999987
 31
0.0
  0
LWPOLYLINE
  5
113
100
AcDbEntity
  8
Guide
 62
7
100
AcDbPolyline
 90
2
 70
0
 10
18.684238
 20
350.999987
 30
0.0
 10
18.684238
 20
345.999787
 30
0.0
  0
LWPOLYLINE
  5
114
100
AcDbEntity
  8
Guide
 62
7
100
AcDbPolyline
 90
2
 70
0
 10
145.669250
 20
345.999787
 30
0.0
 10
145.669250
 20
350.999987
 30
0.0
  0
LWPOLYLINE
  5
115
100
AcDbEntity
  8
Guide
 62
7
100
AcDbPolyline
 90
4
 70
1
 10
27.695568
 20
356.000217
 30
0.0
 10
30.695388
 20
356.000217
 30
0.0
 10
30.695388
 20
352.999867
 30
0.0
 10
27.695568
 20
352.999867
 30
0.0
  0
LWPOLYLINE
  5
116
100
AcDbEntity
  8
Guide
 62
7
100
AcDbPolyline
 90
4
 70
1
 10
133.694950
 20
355.999827
 30
0.0
 10
136.695300
 20
355.999827
 30
0.0
 10
136.695300
 20
353.000007
 30
0.0
 10
133.694950
 20
353.000007
 30
0.0
  0
LWPOLYLINE
  5
117
100
AcDbEntity
  8
Guide
 62
7
100
AcDbPolyline
 90
4
 70
1
 10
21.686648
 20
350.000047
 30
0.0
 10
24.689048
 20
350.000047
 30
0.0
 10
24.689048
 20
346.999727
 30
0.0
 10
21.686648
 20
346.999727
 30
0.0
  0
LWPOLYLINE
  5
118
100
AcDbEntity
  8
Guide
 62
7
100
AcDbPolyline
 90
4
 70
1
 10
33.693138
 20
350.000047
 30
0.0
 10
36.695548
 20
350.000047
 30
0.0
 10
36.695548
 20
347.000257
 30
0.0
 10
33.693138
 20
347.000257
 30
0.0
  0
LWPOLYLINE
  5
119
100
AcDbEntity
  8
Guide
 62
7
100
AcDbPolyline
 90
4
 70
1
 10
127.692570
 20
350.000047
 30
0.0
 10
130.695480
 20
350.000047
 30
0.0
 10
130.695480
 20
347.000257
 30
0.0
 10
127.692570
 20
347.000257
 30
0.0
  0
LWPOLYLINE
  5
11a
100
AcDbEntity
  8
Guide
 62
7
100
AcDbPolyline
 90
4
 70
1
 10
139.695440
 20
350.000047
 30
0.0
 10
142.697850
 20
350.000047
 30
0.0
 10
142.697850
 20
347.000257
 30
0.0
 10
139.695440
 20
347.000257
 30
0.0
  0
SPLINE
  5
11b
100
AcDbEntity
  8
Guide
 62
7
100
AcDbSpline
 70
0
 71
3
 72
79
 73
75
 74
73
 40
0.000000
 40
0.000000
 40
0.000000
 40
0.000000
 40
1.561020
 40
3.121059
 40
4.680212
 40
6.175533
 40
7.671805
 40
9.168365
 40
10.616057
 40
12.063424
 40
13.511148
 40
16.742123
 40
19.976884
 40
23.211947
 40
26.422046
 40
29.631588
 40
32.840836
 40
36.126043
 40
39.411446
 40
42.697019
 40
46.123577
 40
49.549945
 40
52.976370
 40
56.530192
 40
60.083935
 40
63.637925
 40
67.295200
 40
70.952208
 40
74.608641
 40
76.687262
 40
78.765621
 40
80.843931
 40
82.933134
 40
85.022386
 40
87.111582
 40
89.202372
 40
91.293208
 40
93.384318
 40
97.393413
 40
101.403296
 40
105.413433
 40
109.334414
 40
113.255158
 40
117.176365
 40
120.963283
 40
124.749766
 40
128.535166
 40
131.182087
 40
133.828682
 40
136.475187
 40
139.049942
 40
141.624808
 40
144.199917
 40
146.729544
 40
149.258974
 40
151.787490
 40
153.470522
 40
155.153309
 40
156.835983
 40
158.538364
 40
160.240889
 40
161.943557
 40
163.689525
 40
165.435387
 40
167.180773
 40
168.191671
 40
169.202510
 40
170.213469
 40
171.251732
 40
172.289885
 40
173.327726
 40
174.397714
 40
175.467981
 40
176.538551
 40
176.538551
 40
176.538551
 40
176.538551
 10
18.684238
 20
345.999787
 30
0.0
 10
18.699202
 20
345.479660
 30
0.0
 10
18.729122
 20
344.439732
 30
0.0
 10
18.797635
 20
342.881055
 30
0.0
 10
18.911881
 20
341.346720
 30
0.0
 10
19.092059
 20
339.840053
 30
0.0
 10
19.329934
 20
338.362657
 30
0.0
 10
19.620122
 20
336.910879
 30
0.0
 10
19.956083
 20
335.485798
 30
0.0
 10
20.337679
 20
334.089060
 30
0.0
 10
20.947793
 20
332.139918
 30
0.0
 10
21.890390
 20
329.672579
 30
0.0
 10
23.292567
 20
326.754884
 30
0.0
 10
24.925512
 20
323.967694
 30
0.0
 10
26.775054
 20
321.329883
 30
0.0
 10
28.816609
 20
318.849338
 30
0.0
 10
31.051256
 20
316.506850
 30
0.0
 10
33.464414
 20
314.311153
 30
0.0
 10
36.038698
 20
312.266183
 30
0.0
 10
38.774059
 20
310.359132
 30
0.0
 10
41.658326
 20
308.594094
 30
0.0
 10
44.679708
 20
306.974311
 30
0.0
 10
47.821212
 20
305.499680
 30
0.0
 10
51.072529
 20
304.169742
 30
0.0
 10
54.424775
 20
302.985774
 30
0.0
 10
57.860861
 20
301.947514
 30
0.0
 10
61.372752
 20
301.053376
 30
0.0
 10
64.953221
 20
300.304366
 30
0.0
 10
68.042433
 20
299.790774
 30
0.0
 10
70.623948
 20
299.444330
 30
0.0
 10
72.689780
 20
299.214206
 30
0.0
 10
74.763714
 20
299.029711
 30
0.0
 10
76.844833
 20
298.890681
 30
0.0
 10
78.932125
 20
298.797203
 30
0.0
 10
81.021488
 20
298.749341
 30
0.0
 10
83.111924
 20
298.746892
 30
0.0
 10
85.202564
 20
298.790058
 30
0.0
 10
87.930625
 20
298.906039
 30
0.0
 10
91.292431
 20
299.156468
 30
0.0
 10
95.275849
 20
299.625484
 30
0.0
 10
99.205951
 20
300.264108
 30
0.0
 10
103.074651
 20
301.070989
 30
0.0
 10
106.873325
 20
302.048585
 30
0.0
 10
110.577429
 20
303.196477
 30
0.0
 10
114.177377
 20
304.513177
 30
0.0
 10
117.661452
 20
306.000129
 30
0.0
 10
120.715670
 20
307.512890
 30
0.0
 10
123.355875
 20
308.993842
 30
0.0
 10
125.604936
 20
310.390835
 30
0.0
 10
127.765899
 20
311.878705
 30
0.0
 10
129.832333
 20
313.456255
 30
0.0
 10
131.797646
 20
315.121715
 30
0.0
 10
133.659814
 20
316.880104
 30
0.0
 10
135.410103
 20
318.729170
 30
0.0
 10
137.041107
 20
320.664068
 30
0.0
 10
138.384769
 20
322.466922
 30
0.0
 10
139.475699
 20
324.101639
 30
0.0
 10
140.350407
 20
325.539879
 30
0.0
 10
141.166108
 20
327.019761
 30
0.0
 10
141.919561
 20
328.539662
 30
0.0
 10
142.608480
 20
330.097170
 30
0.0
 10
143.233789
 20
331.696905
 30
0.0
 10
143.791923
 20
333.336604
 30
0.0
 10
144.280313
 20
335.013219
 30
0.0
 10
144.635932
 20
336.471734
 30
0.0
 10
144.890757
 20
337.701430
 30
0.0
 10
145.071520
 20
338.696140
 30
0.0
 10
145.230158
 20
339.703836
 30
0.0
 10
145.366860
 20
340.723943
 30
0.0
 10
145.478627
 20
341.756112
 30
0.0
 10
145.562864
 20
342.801539
 30
0.0
 10
145.616098
 20
343.859694
 30
0.0
 10
145.648097
 20
344.929525
 30
0.0
 10
145.662198
 20
345.642999
 30
0.0
 10
145.669250
 20
345.999787
 30
0.0
 11
18.684238
 21
345.999787
 31
0.0
 11
18.733076
 21
344.439531
 31
0.0
 11
18.805543
 21
342.881176
 31
0.0
 11
18.925268
 21
341.326627
 31
0.0
 11
19.102042
 21
339.841791
 31
0.0
 11
19.339157
 21
338.364426
 31
0.0
 11
19.631798
 21
336.896757
 31
0.0
 11
19.964338
 21
335.487776
 31
0.0
 11
20.346131
 21
334.091672
 31
0.0
 11
20.778938
 21
332.710157
 31
0.0
 11
21.930995
 21
329.691555
 31
0.0
 11
23.331584
 21
326.775730
 31
0.0
 11
24.966868
 21
323.984408
 31
0.0
 11
26.807995
 21
321.354772
 31
0.0
 11
28.845971
 21
318.875294
 31
0.0
 11
31.059878
 21
316.551958
 31
0.0
 11
33.488079
 21
314.339171
 31
0.0
 11
36.059054
 21
312.293698
 31
0.0
 11
38.752988
 21
310.412818
 31
0.0
 11
41.674555
 21
308.622359
 31
0.0
 11
44.693308
 21
307.001517
 31
0.0
 11
47.794148
 21
305.543717
 31
0.0
 11
51.082813
 21
304.196744
 31
0.0
 11
54.433167
 21
303.011747
 31
0.0
 11
57.834798
 21
301.982307
 31
0.0
 11
61.378752
 21
301.078950
 31
0.0
 11
64.958074
 21
300.329178
 31
0.0
 11
68.564848
 21
299.728607
 31
0.0
 11
70.624988
 21
299.452044
 31
0.0
 11
72.690561
 21
299.221861
 31
0.0
 11
74.760688
 21
299.037617
 31
0.0
 11
76.845242
 21
298.898314
 31
0.0
 11
78.932401
 21
298.804807
 31
0.0
 11
81.021048
 21
298.756917
 31
0.0
 11
83.111836
 21
298.754494
 31
0.0
 11
85.202227
 21
298.797664
 31
0.0
 11
87.291449
 21
298.886487
 31
0.0
 11
91.289419
 21
299.184950
 31
0.0
 11
95.271712
 21
299.654528
 31
0.0
 11
99.229809
 21
300.298477
 31
0.0
 11
103.067895
 21
301.100467
 31
0.0
 11
106.864531
 21
302.079131
 31
0.0
 11
110.609550
 21
303.241327
 31
0.0
 11
114.165287
 21
304.544202
 31
0.0
 11
117.646926
 21
306.032706
 31
0.0
 11
121.037950
 21
307.715027
 31
0.0
 11
123.345977
 21
309.010867
 31
0.0
 11
125.593583
 21
310.408272
 31
0.0
 11
127.772730
 21
311.910038
 31
0.0
 11
129.818605
 21
313.473291
 31
0.0
 11
131.782218
 21
315.138872
 31
0.0
 11
133.653680
 21
316.907718
 31
0.0
 11
135.392044
 21
318.745408
 31
0.0
 11
137.021533
 21
320.680035
 31
0.0
 11
138.531670
 21
322.708058
 31
0.0
 11
139.465797
 21
324.108059
 31
0.0
 11
140.340073
 21
325.545910
 31
0.0
 11
141.152180
 21
327.019638
 31
0.0
 11
141.908292
 21
328.544890
 31
0.0
 11
142.596978
 21
330.101907
 31
0.0
 11
143.216810
 21
331.687747
 31
0.0
 11
143.779543
 21
333.340543
 31
0.0
 11
144.267903
 21
335.016711
 31
0.0
 11
144.681410
 21
336.712407
 31
0.0
 11
144.886697
 21
337.702241
 31
0.0
 11
145.067589
 21
338.696763
 31
0.0
 11
145.224970
 21
339.695397
 31
0.0
 11
145.362510
 21
340.724509
 31
0.0
 11
145.473907
 21
341.756668
 31
0.0
 11
145.556880
 21
342.791187
 31
0.0
 11
145.612464
 21
343.859731
 31
0.0
 11
145.646286
 21
344.929463
 31
0.0
 11
145.669250
 21
345.999787
 31
0.0
  0
LWPOLYLINE
  5
11c
100
AcDbEntity
  8
Guide
 62
7
100
AcDbPolyline
 90
4
 70
1
 10
27.695568
 20
343.999907
 30
0.0
 10
30.695388
 20
343.999907
 30
0.0
 10
30.695388
 20
341.000087
 30
0.0
 10
27.695568
 20
341.000087
 30
0.0
  0
SPLINE
  5
11d
100
AcDbEntity
  8
Guide
 62
7
100
AcDbSpline
 70
0
 71
3
 72
43
 73
39
 74
37
 40
0.000000
 40
0.000000
 40
0.000000
 40
0.000000
 40
1.461869
 40
2.922933
 40
4.383266
 40
5.786798
 40
7.191118
 40
8.595708
 40
9.955817
 40
11.315640
 40
12.675648
 40
15.235639
 40
17.797314
 40
20.359203
 40
22.881668
 40
25.403789
 40
27.925636
 40
30.468582
 40
33.011732
 40
35.555127
 40
38.680745
 40
41.806952
 40
44.933347
 40
48.171825
 40
51.410074
 40
54.648545
 40
57.997681
 40
61.346575
 40
64.694921
 40
67.284355
 40
69.873720
 40
72.463578
 40
75.089613
 40
77.715173
 40
80.339623
 40
82.981871
 40
85.625074
 40
88.269305
 40
88.269305
 40
88.269305
 40
88.269305
 10
145.669250
 20
350.999987
 30
0.0
 10
145.656118
 20
351.487102
 30
0.0
 10
145.629863
 20
352.461063
 30
0.0
 10
145.569846
 20
353.921009
 30
0.0
 10
145.469857
 20
355.359516
 30
0.0
 10
145.312063
 20
356.773868
 30
0.0
 10
145.103494
 20
358.162747
 30
0.0
 10
144.848899
 20
359.529167
 30
0.0
 10
144.553944
 20
360.872226
 30
0.0
 10
144.218758
 20
362.190529
 30
0.0
 10
143.727021
 20
363.880690
 30
0.0
 10
143.017693
 20
365.923323
 30
0.0
 10
142.018970
 20
368.283713
 30
0.0
 10
140.872867
 20
370.562252
 30
0.0
 10
139.586987
 20
372.749493
 30
0.0
 10
138.173531
 20
374.840309
 30
0.0
 10
136.630698
 20
376.846096
 30
0.0
 10
134.965873
 20
378.761041
 30
0.0
 10
133.188860
 20
380.582233
 30
0.0
 10
131.171686
 20
382.434596
 30
0.0
 10
128.898616
 20
384.289288
 30
0.0
 10
126.360063
 20
386.116611
 30
0.0
 10
123.690561
 20
387.817412
 30
0.0
 10
120.900523
 20
389.389714
 30
0.0
 10
117.999572
 20
390.832109
 30
0.0
 10
114.998444
 20
392.146842
 30
0.0
 10
111.905385
 20
393.334777
 30
0.0
 10
108.727448
 20
394.394145
 30
0.0
 10
105.750539
 20
395.246402
 30
0.0
 10
102.990843
 20
395.928780
 30
0.0
 10
100.459029
 20
396.474374
 30
0.0
 10
97.900744
 20
396.949722
 30
0.0
 10
95.318568
 20
397.357441
 30
0.0
 10
92.713876
 20
397.689419
 30
0.0
 10
90.094278
 20
397.937262
 30
0.0
 10
87.461829
 20
398.093040
 30
0.0
 10
84.820157
 20
398.186971
 30
0.0
 10
83.058172
 20
398.228874
 30
0.0
 10
82.177008
 20
398.249830
 30
0.0
 11
145.669250
 21
350.999987
 31
0.0
 11
145.626412
 21
352.461228
 31
0.0
 11
145.562948
 21
353.920913
 31
0.0
 11
145.458230
 21
355.377487
 31
0.0
 11
145.303292
 21
356.772441
 31
0.0
 11
145.095394
 21
358.161286
 31
0.0
 11
144.838730
 21
359.542227
 31
0.0
 11
144.546686
 21
360.870612
 31
0.0
 11
144.211308
 21
362.188428
 31
0.0
 11
143.831090
 21
363.494207
 31
0.0
 11
142.991587
 21
365.912633
 31
0.0
 11
141.993493
 21
368.271868
 31
0.0
 11
140.842230
 21
370.560507
 31
0.0
 11
139.564533
 21
372.735437
 31
0.0
 11
138.152610
 21
374.825310
 31
0.0
 11
136.615560
 21
376.824607
 31
0.0
 11
134.948008
 21
378.744462
 31
0.0
 11
133.172745
 21
380.565466
 31
0.0
 11
131.300080
 21
382.286507
 31
0.0
 11
128.879637
 21
384.264118
 31
0.0
 11
126.343579
 21
386.092116
 31
0.0
 11
123.707850
 21
387.773567
 31
0.0
 11
120.887397
 21
389.365040
 31
0.0
 11
117.988576
 21
390.808334
 31
0.0
 11
115.022930
 21
392.109347
 31
0.0
 11
111.896863
 21
393.311186
 31
0.0
 11
108.720191
 21
394.371302
 31
0.0
 11
105.501450
 21
395.293867
 31
0.0
 11
102.987888
 21
395.916105
 31
0.0
 11
100.456778
 21
396.462263
 31
0.0
 11
97.910629
 21
396.936067
 31
0.0
 11
95.316557
 21
397.344538
 31
0.0
 11
92.711921
 21
397.675354
 31
0.0
 11
90.099029
 21
397.921390
 31
0.0
 11
87.461707
 21
398.082654
 31
0.0
 11
84.820363
 21
398.181779
 31
0.0
 11
82.177008
 21
398.249830
 31
0.0
  0
SPLINE
  5
11e
100
AcDbEntity
  8
Guide
 62
7
100
AcDbSpline
 70
0
 71
3
 72
43
 73
39
 74
37
 40
0.000000
 40
0.000000
 40
0.000000
 40
0.000000
 40
0.075183
 40
0.149157
 40
0.221970
 40
0.293279
 40
0.365843
 40
0.438885
 40
0.513654
 40
0.587993
 40
0.662137
 40
0.736459
 40
0.810948
 40
0.885423
 40
0.957630
 40
1.029817
 40
1.101985
 40
1.176390
 40
1.250858
 40
1.325288
 40
1.399750
 40
1.474204
 40
1.548598
 40
1.620750
 40
1.692945
 40
1.765147
 40
1.839621
 40
1.914121
 40
1.988426
 40
2.062575
 40
2.136894
 40
2.211677
 40
2.284706
 40
2.357264
 40
2.428623
 40
2.501450
 40
2.575439
 40
2.650616
 40
2.650616
 40
2.650616
 40
2.650616
 10
153.280970
 20
314.861638
 30
0.0
 10
153.304161
 20
314.871141
 30
0.0
 10
153.350170
 20
314.889995
 30
0.0
 10
153.420563
 20
314.913200
 30
0.0
 10
153.492736
 20
314.925286
 30
0.0
 10
153.565421
 20
314.921206
 30
0.0
 10
153.635807
 20
314.903056
 30
0.0
 10
153.703149
 20
314.872886
 30
0.0
 10
153.764992
 20
314.831491
 30
0.0
 10
153.819087
 20
314.779855
 30
0.0
 10
153.863354
 20
314.719725
 30
0.0
 10
153.896038
 20
314.652537
 30
0.0
 10
153.916689
 20
314.580658
 30
0.0
 10
153.924587
 20
314.506956
 30
0.0
 10
153.919217
 20
314.433834
 30
0.0
 10
153.901949
 20
314.363396
 30
0.0
 10
153.872641
 20
314.296223
 30
0.0
 10
153.831512
 20
314.234620
 30
0.0
 10
153.779809
 20
314.180561
 30
0.0
 10
153.719499
 20
314.136239
 30
0.0
 10
153.652243
 20
314.103402
 30
0.0
 10
153.580342
 20
314.082755
 30
0.0
 10
153.506688
 20
314.074987
 30
0.0
 10
153.433610
 20
314.080328
 30
0.0
 10
153.363182
 20
314.097611
 30
0.0
 10
153.295951
 20
314.126888
 30
0.0
 10
153.234367
 20
314.168134
 30
0.0
 10
153.180310
 20
314.219813
 30
0.0
 10
153.136001
 20
314.279974
 30
0.0
 10
153.103349
 20
314.347107
 30
0.0
 10
153.082747
 20
314.419006
 30
0.0
 10
153.074918
 20
314.492983
 30
0.0
 10
153.079113
 20
314.566671
 30
0.0
 10
153.096134
 20
314.637358
 30
0.0
 10
153.126134
 20
314.703684
 30
0.0
 10
153.170411
 20
314.762003
 30
0.0
 10
153.223677
 20
314.813546
 30
0.0
 10
153.261758
 20
314.845522
 30
0.0
 10
153.280950
 20
314.861638
 30
0.0
 11
153.280970
 21
314.861638
 31
0.0
 11
153.350871
 21
314.889319
 31
0.0
 11
153.421446
 21
314.911490
 31
0.0
 11
153.493400
 21
314.922638
 31
0.0
 11
153.564613
 21
314.918938
 31
0.0
 11
153.634967
 21
314.901171
 31
0.0
 11
153.701640
 21
314.871338
 31
0.0
 11
153.763759
 21
314.829726
 31
0.0
 11
153.817511
 21
314.778374
 31
0.0
 11
153.861390
 21
314.718608
 31
0.0
 11
153.894005
 21
314.651824
 31
0.0
 11
153.914575
 21
314.580232
 31
0.0
 11
153.922390
 21
314.506168
 31
0.0
 11
153.917223
 21
314.434146
 31
0.0
 11
153.899990
 21
314.364047
 31
0.0
 11
153.871090
 21
314.297918
 31
0.0
 11
153.829833
 21
314.235999
 31
0.0
 11
153.778367
 21
314.182177
 31
0.0
 11
153.718350
 21
314.138158
 31
0.0
 11
153.651464
 21
314.105432
 31
0.0
 11
153.579903
 21
314.084884
 31
0.0
 11
153.505910
 21
314.077158
 31
0.0
 11
153.433944
 21
314.082325
 31
0.0
 11
153.363836
 21
314.099558
 31
0.0
 11
153.297670
 21
314.128458
 31
0.0
 11
153.235726
 21
314.169804
 31
0.0
 11
153.181880
 21
314.221289
 31
0.0
 11
153.137910
 21
314.281188
 31
0.0
 11
153.105384
 21
314.347822
 31
0.0
 11
153.084903
 21
314.419264
 31
0.0
 11
153.076910
 21
314.493618
 31
0.0
 11
153.081299
 21
314.566515
 31
0.0
 11
153.098421
 21
314.637024
 31
0.0
 11
153.128210
 21
314.701868
 31
0.0
 11
153.171511
 21
314.760423
 31
0.0
 11
153.223955
 21
314.812616
 31
0.0
 11
153.280950
 21
314.861638
 31
0.0
  0
SPLINE
  5
11f
100
AcDbEntity
  8
Guide
 62
7
100
AcDbSpline
 70
0
 71
3
 72
43
 73
39
 74
37
 40
0.000000
 40
0.000000
 40
0.000000
 40
0.000000
 40
0.075183
 40
0.149157
 40
0.221970
 40
0.293279
 40
0.365840
 40
0.438876
 40
0.513649
 40
0.587998
 40
0.662148
 40
0.736471
 40
0.810960
 40
0.885435
 40
0.957643
 40
1.029832
 40
1.101976
 40
1.176382
 40
1.250851
 40
1.325285
 40
1.399746
 40
1.474194
 40
1.548586
 40
1.620738
 40
1.692933
 40
1.765135
 40
1.839612
 40
1.914116
 40
1.988429
 40
2.062578
 40
2.136897
 40
2.211680
 40
2.284662
 40
2.357237
 40
2.428614
 40
2.501442
 40
2.575431
 40
2.650600
 40
2.650600
 40
2.650600
 40
2.650600
 10
41.178138
 20
247.082867
 30
0.0
 10
41.201329
 20
247.092370
 30
0.0
 10
41.247338
 20
247.111224
 30
0.0
 10
41.317731
 20
247.134429
 30
0.0
 10
41.389904
 20
247.146515
 30
0.0
 10
41.462587
 20
247.142435
 30
0.0
 10
41.532971
 20
247.124286
 30
0.0
 10
41.600310
 20
247.094112
 30
0.0
 10
41.662156
 20
247.052719
 30
0.0
 10
41.716262
 20
247.001084
 30
0.0
 10
41.760543
 20
246.940958
 30
0.0
 10
41.793225
 20
246.873766
 30
0.0
 10
41.813875
 20
246.801887
 30
0.0
 10
41.821781
 20
246.728185
 30
0.0
 10
41.816386
 20
246.655060
 30
0.0
 10
41.799077
 20
246.584644
 30
0.0
 10
41.769840
 20
246.517449
 30
0.0
 10
41.728696
 20
246.455860
 30
0.0
 10
41.676997
 20
246.401797
 30
0.0
 10
41.616689
 20
246.357467
 30
0.0
 10
41.549435
 20
246.324632
 30
0.0
 10
41.477537
 20
246.303984
 30
0.0
 10
41.403885
 20
246.296216
 30
0.0
 10
41.330808
 20
246.301557
 30
0.0
 10
41.260380
 20
246.318840
 30
0.0
 10
41.193148
 20
246.348118
 30
0.0
 10
41.131562
 20
246.389364
 30
0.0
 10
41.077499
 20
246.441044
 30
0.0
 10
41.033191
 20
246.501211
 30
0.0
 10
41.000536
 20
246.568346
 30
0.0
 10
40.979936
 20
246.640245
 30
0.0
 10
40.972106
 20
246.714206
 30
0.0
 10
40.976306
 20
246.787884
 30
0.0
 10
40.993323
 20
246.858567
 30
0.0
 10
41.023317
 20
246.924910
 30
0.0
 10
41.067599
 20
246.983233
 30
0.0
 10
41.120859
 20
247.034778
 30
0.0
 10
41.158938
 20
247.066753
 30
0.0
 10
41.178128
 20
247.082867
 30
0.0
 11
41.178138
 21
247.082867
 31
0.0
 11
41.248039
 21
247.110548
 31
0.0
 11
41.318614
 21
247.132719
 31
0.0
 11
41.390568
 21
247.143867
 31
0.0
 11
41.461780
 21
247.140167
 31
0.0
 11
41.532132
 21
247.122400
 31
0.0
 11
41.598798
 21
247.092567
 31
0.0
 11
41.660922
 21
247.050955
 31
0.0
 11
41.714687
 21
246.999603
 31
0.0
 11
41.758578
 21
246.939837
 31
0.0
 11
41.791193
 21
246.873053
 31
0.0
 11
41.811763
 21
246.801461
 31
0.0
 11
41.819578
 21
246.727397
 31
0.0
 11
41.814389
 21
246.655376
 31
0.0
 11
41.797134
 21
246.585278
 31
0.0
 11
41.768278
 21
246.519157
 31
0.0
 11
41.727021
 21
246.457237
 31
0.0
 11
41.675555
 21
246.403413
 31
0.0
 11
41.615538
 21
246.359387
 31
0.0
 11
41.548655
 21
246.326661
 31
0.0
 11
41.477098
 21
246.306113
 31
0.0
 11
41.403108
 21
246.298387
 31
0.0
 11
41.331142
 21
246.303554
 31
0.0
 11
41.261034
 21
246.320787
 31
0.0
 11
41.194868
 21
246.349687
 31
0.0
 11
41.132922
 21
246.391033
 31
0.0
 11
41.079071
 21
246.442521
 31
0.0
 11
41.035098
 21
246.502427
 31
0.0
 11
41.002572
 21
246.569061
 31
0.0
 11
40.982091
 21
246.640503
 31
0.0
 11
40.974098
 21
246.714857
 31
0.0
 11
40.978487
 21
246.787707
 31
0.0
 11
40.995609
 21
246.858233
 31
0.0
 11
41.025398
 21
246.923097
 31
0.0
 11
41.068699
 21
246.981654
 31
0.0
 11
41.121140
 21
247.033850
 31
0.0
 11
41.178128
 21
247.082867
 31
0.0
  0
SPLINE
  5
120
100
AcDbEntity
  8
Guide
 62
7
100
AcDbSpline
 70
0
 71
3
 72
43
 73
39
 74
37
 40
0.000000
 40
0.000000
 40
0.000000
 40
0.000000
 40
0.075182
 40
0.149152
 40
0.221951
 40
0.293262
 40
0.365830
 40
0.438875
 40
0.513646
 40
0.587989
 40
0.662134
 40
0.736454
 40
0.810939
 40
0.885411
 40
0.957648
 40
1.029775
 40
1.101845
 40
1.176251
 40
1.250721
 40
1.325154
 40
1.399617
 40
1.474070
 40
1.548465
 40
1.620663
 40
1.692842
 40
1.765026
 40
1.839499
 40
1.913998
 40
1.988312
 40
2.062473
 40
2.136803
 40
2.211583
 40
2.284545
 40
2.357188
 40
2.428623
 40
2.501448
 40
2.575438
 40
2.650624
 40
2.650624
 40
2.650624
 40
2.650624
 10
265.383790
 20
382.640397
 30
0.0
 10
265.406981
 20
382.649900
 30
0.0
 10
265.452988
 20
382.668754
 30
0.0
 10
265.523374
 20
382.691957
 30
0.0
 10
265.595542
 20
382.704046
 30
0.0
 10
265.668224
 20
382.699965
 30
0.0
 10
265.738613
 20
382.681816
 30
0.0
 10
265.805959
 20
382.651645
 30
0.0
 10
265.867804
 20
382.610250
 30
0.0
 10
265.921906
 20
382.558615
 30
0.0
 10
265.966170
 20
382.498486
 30
0.0
 10
265.998870
 20
382.431298
 30
0.0
 10
266.019459
 20
382.359428
 30
0.0
 10
266.027591
 20
382.285699
 30
0.0
 10
266.021377
 20
382.212658
 30
0.0
 10
266.004602
 20
382.142195
 30
0.0
 10
265.975481
 20
382.074960
 30
0.0
 10
265.934321
 20
382.013415
 30
0.0
 10
265.882630
 20
381.959346
 30
0.0
 10
265.822320
 20
381.915017
 30
0.0
 10
265.755063
 20
381.882181
 30
0.0
 10
265.683162
 20
381.861533
 30
0.0
 10
265.609493
 20
381.853767
 30
0.0
 10
265.536404
 20
381.859101
 30
0.0
 10
265.465972
 20
381.876389
 30
0.0
 10
265.398757
 20
381.905672
 30
0.0
 10
265.337178
 20
381.946913
 30
0.0
 10
265.283123
 20
381.998597
 30
0.0
 10
265.238810
 20
382.058766
 30
0.0
 10
265.206154
 20
382.125897
 30
0.0
 10
265.185446
 20
382.197799
 30
0.0
 10
265.177917
 20
382.271749
 30
0.0
 10
265.181301
 20
382.345501
 30
0.0
 10
265.198898
 20
382.416126
 30
0.0
 10
265.228933
 20
382.482451
 30
0.0
 10
265.273220
 20
382.540803
 30
0.0
 10
265.326497
 20
382.592337
 30
0.0
 10
265.364591
 20
382.624305
 30
0.0
 10
265.383790
 20
382.640417
 30
0.0
 11
265.383790
 21
382.640397
 31
0.0
 11
265.453690
 21
382.668078
 31
0.0
 11
265.524260
 21
382.690249
 31
0.0
 11
265.596200
 21
382.701397
 31
0.0
 11
265.667415
 21
382.697697
 31
0.0
 11
265.737775
 21
382.679930
 31
0.0
 11
265.804450
 21
382.650097
 31
0.0
 11
265.866571
 21
382.608485
 31
0.0
 11
265.920329
 21
382.557133
 31
0.0
 11
265.964210
 21
382.497367
 31
0.0
 11
265.996825
 21
382.430586
 31
0.0
 11
266.017395
 21
382.358998
 31
0.0
 11
266.025210
 21
382.284937
 31
0.0
 11
266.019599
 21
382.212918
 31
0.0
 11
266.002588
 21
382.142826
 31
0.0
 11
265.973910
 21
382.076707
 31
0.0
 11
265.932653
 21
382.014787
 31
0.0
 11
265.881187
 21
381.960963
 31
0.0
 11
265.821170
 21
381.916937
 31
0.0
 11
265.754284
 21
381.884211
 31
0.0
 11
265.682723
 21
381.863663
 31
0.0
 11
265.608730
 21
381.855937
 31
0.0
 11
265.536717
 21
381.861104
 31
0.0
 11
265.466626
 21
381.878337
 31
0.0
 11
265.400480
 21
381.907237
 31
0.0
 11
265.338539
 21
381.948583
 31
0.0
 11
265.284695
 21
382.000071
 31
0.0
 11
265.240720
 21
382.059977
 31
0.0
 11
265.208172
 21
382.126614
 31
0.0
 11
265.187668
 21
382.198060
 31
0.0
 11
265.179720
 21
382.272417
 31
0.0
 11
265.183709
 21
382.345270
 31
0.0
 11
265.201098
 21
382.415801
 31
0.0
 11
265.231020
 21
382.480667
 31
0.0
 11
265.274323
 21
382.539219
 31
0.0
 11
265.326774
 21
382.591405
 31
0.0
 11
265.383790
 21
382.640417
 31
0.0
  0
LWPOLYLINE
  5
121
100
AcDbEntity
  8
Guide
 62
7
100
AcDbPolyline
 90
4
 70
1
 10
133.694950
 20
344.000047
 30
0.0
 10
136.695300
 20
344.000047
 30
0.0
 10
136.695300
 20
340.999727
 30
0.0
 10
133.694950
 20
340.999727
 30
0.0
  0
LWPOLYLINE
  5
122
100
AcDbEntity
  8
Guide
 62
7
100
AcDbPolyline
 90
2
 70
0
 10
46.570738
 20
238.163737
 30
0.0
 10
270.776390
 20
373.721287
 30
0.0
  0
SPLINE
  5
123
100
AcDbEntity
  8
Guide
 62
7
100
AcDbSpline
 70
0
 71
3
 72
25
 73
21
 74
19
 40
0.000000
 40
0.000000
 40
0.000000
 40
0.000000
 40
1.778531
 40
3.528726
 40
5.251195
 40
6.938156
 40
8.654014
 40
10.381919
 40
12.152763
 40
13.911873
 40
15.663371
 40
17.414863
 40
19.173968
 40
20.944809
 40
22.672712
 40
24.388567
 40
26.075522
 40
27.797986
 40
29.548177
 40
31.326708
 40
31.326708
 40
31.326708
 40
31.326708
 10
36.222958
 20
255.278527
 30
0.0
 10
35.768933
 20
254.897228
 30
0.0
 10
34.868118
 20
254.140705
 30
0.0
 10
33.608738
 20
252.920895
 30
0.0
 10
32.560944
 20
251.542280
 30
0.0
 10
31.853040
 20
249.972732
 30
0.0
 10
31.455469
 20
248.300377
 30
0.0
 10
31.347270
 20
246.557307
 30
0.0
 10
31.535506
 20
244.806170
 30
0.0
 10
32.022040
 20
243.105223
 30
0.0
 10
32.793929
 20
241.519698
 30
0.0
 10
33.839322
 20
240.099539
 30
0.0
 10
35.119496
 20
238.878445
 30
0.0
 10
36.582695
 20
237.898166
 30
0.0
 10
38.176479
 20
237.184132
 30
0.0
 10
39.842091
 20
236.759206
 30
0.0
 10
41.560843
 20
236.656851
 30
0.0
 10
43.268442
 20
236.944149
 30
0.0
 10
44.933714
 20
237.492637
 30
0.0
 10
46.022149
 20
237.938842
 30
0.0
 10
46.570738
 20
238.163737
 30
0.0
 11
36.222958
 21
255.278527
 31
0.0
 11
34.874737
 21
254.118582
 31
0.0
 11
33.634506
 21
252.883668
 31
0.0
 11
32.610258
 21
251.498817
 31
0.0
 11
31.907739
 21
249.965095
 31
0.0
 11
31.504911
 21
248.297193
 31
0.0
 11
31.396418
 21
246.572697
 31
0.0
 11
31.585959
 21
244.812026
 31
0.0
 11
32.070840
 21
243.121061
 31
0.0
 11
32.839448
 21
241.547217
 31
0.0
 11
33.876019
 21
240.135394
 31
0.0
 11
35.148120
 21
238.920400
 31
0.0
 11
36.619158
 21
237.934537
 31
0.0
 11
38.196631
 21
237.229394
 31
0.0
 11
39.860742
 21
236.811190
 31
0.0
 11
41.545268
 21
236.720707
 31
0.0
 11
43.247448
 21
236.984270
 31
0.0
 11
44.917198
 21
237.508774
 31
0.0
 11
46.570738
 21
238.163737
 31
0.0
  0
LWPOLYLINE
  5
124
100
AcDbEntity
  8
Guide
 62
7
100
AcDbPolyline
 90
2
 70
0
 10
260.428600
 20
390.836067
 30
0.0
 10
36.222958
 20
255.278527
 30
0.0
  0
SPLINE
  5
125
100
AcDbEntity
  8
Guide
 62
7
100
AcDbSpline
 70
0
 71
3
 72
25
 73
21
 74
19
 40
0.000000
 40
0.000000
 40
0.000000
 40
0.000000
 40
1.778532
 40
3.528719
 40
5.251176
 40
6.938137
 40
8.653995
 40
10.381899
 40
12.152741
 40
13.911847
 40
15.663347
 40
17.414834
 40
19.173937
 40
20.944786
 40
22.672679
 40
24.388539
 40
26.075498
 40
27.797949
 40
29.548128
 40
31.326652
 40
31.326652
 40
31.326652
 40
31.326652
 10
270.776390
 20
373.721287
 30
0.0
 10
271.230416
 20
374.102585
 30
0.0
 10
272.131232
 20
374.859104
 30
0.0
 10
273.390609
 20
376.078909
 30
0.0
 10
274.438382
 20
377.457530
 30
0.0
 10
275.146290
 20
379.027071
 30
0.0
 10
275.543864
 20
380.699427
 30
0.0
 10
275.652043
 20
382.442497
 30
0.0
 10
275.463815
 20
384.193631
 30
0.0
 10
274.977282
 20
385.894578
 30
0.0
 10
274.205376
 20
387.480091
 30
0.0
 10
273.159995
 20
388.900255
 30
0.0
 10
271.879815
 20
390.121345
 30
0.0
 10
270.416619
 20
391.101625
 30
0.0
 10
268.822833
 20
391.815659
 30
0.0
 10
267.157222
 20
392.240586
 30
0.0
 10
265.438471
 20
392.342943
 30
0.0
 10
263.730879
 20
392.055647
 30
0.0
 10
262.065617
 20
391.507164
 30
0.0
 10
260.977187
 20
391.060961
 30
0.0
 10
260.428600
 20
390.836067
 30
0.0
 11
270.776390
 21
373.721287
 31
0.0
 11
272.124615
 21
374.881229
 31
0.0
 11
273.364838
 21
376.116138
 31
0.0
 11
274.389070
 21
377.500987
 31
0.0
 11
275.091591
 21
379.034709
 31
0.0
 11
275.494419
 21
380.702611
 31
0.0
 11
275.602900
 21
382.427107
 31
0.0
 11
275.413361
 21
384.187776
 31
0.0
 11
274.928479
 21
385.878735
 31
0.0
 11
274.159860
 21
387.452577
 31
0.0
 11
273.123295
 21
388.864398
 31
0.0
 11
271.851195
 21
390.079390
 31
0.0
 11
270.380150
 21
391.065257
 31
0.0
 11
268.802686
 21
391.770396
 31
0.0
 11
267.138571
 21
392.188601
 31
0.0
 11
265.454040
 21
392.279087
 31
0.0
 11
263.751873
 21
392.015526
 31
0.0
 11
262.082134
 21
391.491028
 31
0.0
 11
260.428600
 21
390.836067
 31
0.0
  0
SPLINE
  5
126
100
AcDbEntity
  8
Guide
 62
7
100
AcDbSpline
 70
0
 71
3
 72
43
 73
39
 74
37
 40
0.000000
 40
0.000000
 40
0.000000
 40
0.000000
 40
0.075166
 40
0.149142
 40
0.221957
 40
0.293255
 40
0.365790
 40
0.438814
 40
0.513566
 40
0.587892
 40
0.662040
 40
0.736362
 40
0.810844
 40
0.885301
 40
0.957498
 40
1.029672
 40
1.101843
 40
1.176229
 40
1.250681
 40
1.325111
 40
1.399532
 40
1.473980
 40
1.548370
 40
1.620528
 40
1.692717
 40
1.764903
 40
1.839392
 40
1.913865
 40
1.988174
 40
2.062322
 40
2.136635
 40
2.211399
 40
2.284391
 40
2.356923
 40
2.428254
 40
2.501062
 40
2.575036
 40
2.650202
 40
2.650202
 40
2.650202
 40
2.650202
 10
232.499860
 20
197.077469
 30
0.0
 10
232.475101
 20
197.081324
 30
0.0
 10
232.425974
 20
197.088972
 30
0.0
 10
232.353739
 20
197.105536
 30
0.0
 10
232.285706
 20
197.132525
 30
0.0
 10
232.225761
 20
197.173798
 30
0.0
 10
232.174825
 20
197.225610
 30
0.0
 10
232.132804
 20
197.286257
 30
0.0
 10
232.101314
 20
197.353660
 30
0.0
 10
232.081699
 20
197.425819
 30
0.0
 10
232.074951
 20
197.500177
 30
0.0
 10
232.081708
 20
197.574584
 30
0.0
 10
232.101242
 20
197.646773
 30
0.0
 10
232.132640
 20
197.713894
 30
0.0
 10
232.174937
 20
197.773770
 30
0.0
 10
232.226237
 20
197.825035
 30
0.0
 10
232.286074
 20
197.867326
 30
0.0
 10
232.353138
 20
197.898746
 30
0.0
 10
232.425331
 20
197.918286
 30
0.0
 10
232.499857
 20
197.925025
 30
0.0
 10
232.574382
 20
197.918286
 30
0.0
 10
232.646569
 20
197.898743
 30
0.0
 10
232.713634
 20
197.867333
 30
0.0
 10
232.773461
 20
197.825023
 30
0.0
 10
232.824739
 20
197.773742
 30
0.0
 10
232.867076
 20
197.713883
 30
0.0
 10
232.898521
 20
197.646776
 30
0.0
 10
232.918022
 20
197.574572
 30
0.0
 10
232.924753
 20
197.500173
 30
0.0
 10
232.918015
 20
197.425823
 30
0.0
 10
232.898390
 20
197.353667
 30
0.0
 10
232.866914
 20
197.286270
 30
0.0
 10
232.824900
 20
197.225626
 30
0.0
 10
232.773957
 20
197.173824
 30
0.0
 10
232.714018
 20
197.132528
 30
0.0
 10
232.645976
 20
197.105536
 30
0.0
 10
232.573745
 20
197.088971
 30
0.0
 10
232.524619
 20
197.081323
 30
0.0
 10
232.499860
 20
197.077469
 30
0.0
 11
232.499860
 21
197.077469
 31
0.0
 11
232.425732
 21
197.089917
 31
0.0
 11
232.353864
 21
197.107454
 31
0.0
 11
232.286530
 21
197.135169
 31
0.0
 11
232.227581
 21
197.175274
 31
0.0
 11
232.176536
 21
197.226808
 31
0.0
 11
232.134900
 21
197.286799
 31
0.0
 11
232.103274
 21
197.354531
 31
0.0
 11
232.083826
 21
197.426267
 31
0.0
 11
232.077200
 21
197.500119
 31
0.0
 11
232.083826
 21
197.574145
 31
0.0
 11
232.103274
 21
197.646043
 31
0.0
 11
232.134900
 21
197.713449
 31
0.0
 11
232.176516
 21
197.772445
 31
0.0
 11
232.227561
 21
197.823470
 31
0.0
 11
232.286530
 21
197.865079
 31
0.0
 11
232.353858
 21
197.896705
 31
0.0
 11
232.425726
 21
197.916153
 31
0.0
 11
232.499860
 21
197.922779
 31
0.0
 11
232.573985
 21
197.916153
 31
0.0
 11
232.645848
 21
197.896705
 31
0.0
 11
232.713180
 21
197.865079
 31
0.0
 11
232.772129
 21
197.823463
 31
0.0
 11
232.823174
 21
197.772418
 31
0.0
 11
232.864810
 21
197.713449
 31
0.0
 11
232.896480
 21
197.646028
 31
0.0
 11
232.915906
 21
197.574133
 31
0.0
 11
232.922510
 21
197.500119
 31
0.0
 11
232.915884
 21
197.426267
 31
0.0
 11
232.896436
 21
197.354544
 31
0.0
 11
232.864810
 21
197.286799
 31
0.0
 11
232.823194
 21
197.226832
 31
0.0
 11
232.772149
 21
197.175303
 31
0.0
 11
232.713180
 21
197.135169
 31
0.0
 11
232.645853
 21
197.107454
 31
0.0
 11
232.573987
 21
197.089917
 31
0.0
 11
232.499860
 21
197.077469
 31
0.0
  0
LWPOLYLINE
  5
127
100
AcDbEntity
  8
Guide
 62
7
100
AcDbPolyline
 90
4
 70
1
 10
194.998720
 20
198.999899
 30
0.0
 10
197.999650
 20
198.999899
 30
0.0
 10
197.999650
 20
195.998950
 30
0.0
 10
194.998720
 20
195.998950
 30
0.0
  0
SPLINE
  5
128
100
AcDbEntity
  8
Guide
 62
7
100
AcDbSpline
 70
0
 71
3
 72
16
 73
12
 74
10
 40
0.000000
 40
0.000000
 40
0.000000
 40
0.000000
 40
2.123140
 40
4.220657
 40
6.300692
 40
8.349826
 40
10.418365
 40
12.467503
 40
14.547537
 40
16.645053
 40
18.768185
 40
18.768185
 40
18.768185
 40
18.768185
 10
242.500080
 20
197.500139
 30
0.0
 10
242.390324
 20
198.199347
 30
0.0
 10
242.172138
 20
199.589324
 30
0.0
 10
241.699885
 20
201.639408
 30
0.0
 10
240.933153
 20
203.582346
 30
0.0
 10
239.769322
 20
205.307923
 30
0.0
 10
238.307681
 20
206.769493
 30
0.0
 10
236.582055
 20
207.933253
 30
0.0
 10
234.639084
 20
208.699901
 30
0.0
 10
232.588983
 20
209.172065
 30
0.0
 10
231.199000
 20
209.390193
 30
0.0
 10
230.499790
 20
209.499919
 30
0.0
 11
242.500080
 21
197.500139
 31
0.0
 11
242.145974
 21
199.593541
 31
0.0
 11
241.647830
 21
201.631047
 31
0.0
 11
240.861610
 21
203.556769
 31
0.0
 11
239.722761
 21
205.260287
 31
0.0
 11
238.260049
 21
206.722931
 31
0.0
 11
236.556480
 21
207.861709
 31
0.0
 11
234.630725
 21
208.647846
 31
0.0
 11
232.593199
 21
209.145902
 31
0.0
 11
230.499790
 21
209.499919
 31
0.0
  0
LWPOLYLINE
  5
129
100
AcDbEntity
  8
Guide
 62
7
100
AcDbPolyline
 90
26
 70
0
 10
230.499790
 20
209.499919
 30
0.0
 10
169.866310
 20
209.499919
 30
0.0
 10
94.095399
 20
209.499919
 30
0.0
 10
34.499868
 20
209.499919
 30
0.0
 10
18.499798
 20
337.500377
 30
0.0
 10
2.499738
 20
337.500377
 30
0.0
 10
2.499738
 20
329.500357
 30
0.0
 10
5.500078
 20
329.500357
 30
0.0
 10
5.500078
 20
326.500018
 30
0.0
 10
2.499738
 20
326.500018
 30
0.0
 10
2.499738
 20
209.499919
 30
0.0
 10
2.499738
 20
199.000299
 30
0.0
 10
5.500078
 20
199.000299
 30
0.0
 10
5.500078
 20
195.999970
 30
0.0
 10
2.499738
 20
195.999970
 30
0.0
 10
2.499738
 20
185.500350
 30
0.0
 10
2.499738
 20
68.500270
 30
0.0
 10
5.500078
 20
68.500270
 30
0.0
 10
5.500078
 20
65.499920
 30
0.0
 10
2.499738
 20
65.499920
 30
0.0
 10
2.499738
 20
57.499900
 30
0.0
 10
18.499798
 20
57.499900
 30
0.0
 10
34.499868
 20
185.500350
 30
0.0
 10
91.663239
 20
185.500350
 30
0.0
 10
176.975680
 20
185.500350
 30
0.0
 10
230.499790
 20
185.500350
 30
0.0
  0
SPLINE
  5
12a
100
AcDbEntity
  8
Guide
 62
7
100
AcDbSpline
 70
0
 71
3
 72
16
 73
12
 74
10
 40
0.000000
 40
0.000000
 40
0.000000
 40
0.000000
 40
2.123131
 40
4.220648
 40
6.300682
 40
8.349821
 40
10.418363
 40
12.467499
 40
14.547536
 40
16.645056
 40
18.768191
 40
18.768191
 40
18.768191
 40
18.768191
 10
230.499790
 20
185.500350
 30
0.0
 10
231.199000
 20
185.610076
 30
0.0
 10
232.588983
 20
185.828204
 30
0.0
 10
234.639084
 20
186.300368
 30
0.0
 10
236.582056
 20
187.067016
 30
0.0
 10
238.307682
 20
188.230778
 30
0.0
 10
239.769321
 20
189.692353
 30
0.0
 10
240.933153
 20
191.417933
 30
0.0
 10
241.699885
 20
193.360873
 30
0.0
 10
242.172137
 20
195.410956
 30
0.0
 10
242.390324
 20
196.800933
 30
0.0
 10
242.500080
 20
197.500139
 30
0.0
 11
230.499790
 21
185.500350
 31
0.0
 11
232.593199
 21
185.854367
 31
0.0
 11
234.630725
 21
186.352423
 31
0.0
 11
236.556480
 21
187.138560
 31
0.0
 11
238.260049
 21
188.277340
 31
0.0
 11
239.722761
 21
189.739990
 31
0.0
 11
240.861610
 21
191.443510
 31
0.0
 11
241.647830
 21
193.369234
 31
0.0
 11
242.145974
 21
195.406742
 31
0.0
 11
242.500080
 21
197.500139
 31
0.0
  0
SPLINE
  5
12b
100
AcDbEntity
  8
Guide
 62
7
100
AcDbSpline
 70
0
 71
3
 72
43
 73
39
 74
37
 40
0.000000
 40
0.000000
 40
0.000000
 40
0.000000
 40
0.075166
 40
0.149142
 40
0.221957
 40
0.293280
 40
0.365799
 40
0.438805
 40
0.513559
 40
0.587890
 40
0.662041
 40
0.736362
 40
0.810845
 40
0.885301
 40
0.957498
 40
1.029672
 40
1.101844
 40
1.176229
 40
1.250682
 40
1.325112
 40
1.399533
 40
1.473981
 40
1.548370
 40
1.620529
 40
1.692717
 40
1.764904
 40
1.839376
 40
1.913857
 40
1.988163
 40
2.062312
 40
2.136627
 40
2.211397
 40
2.284390
 40
2.356921
 40
2.428252
 40
2.501059
 40
2.575031
 40
2.650200
 40
2.650200
 40
2.650200
 40
2.650200
 10
44.499868
 20
223.922587
 30
0.0
 10
44.524627
 20
223.918733
 30
0.0
 10
44.573754
 20
223.911085
 30
0.0
 10
44.645986
 20
223.894517
 30
0.0
 10
44.714038
 20
223.867539
 30
0.0
 10
44.773946
 20
223.826207
 30
0.0
 10
44.824904
 20
223.774428
 30
0.0
 10
44.866930
 20
223.713794
 30
0.0
 10
44.898414
 20
223.646392
 30
0.0
 10
44.918029
 20
223.574230
 30
0.0
 10
44.924777
 20
223.499870
 30
0.0
 10
44.918020
 20
223.425462
 30
0.0
 10
44.898486
 20
223.353273
 30
0.0
 10
44.867088
 20
223.286152
 30
0.0
 10
44.824791
 20
223.226276
 30
0.0
 10
44.773491
 20
223.175011
 30
0.0
 10
44.713654
 20
223.132720
 30
0.0
 10
44.646590
 20
223.101300
 30
0.0
 10
44.574397
 20
223.081760
 30
0.0
 10
44.499871
 20
223.075021
 30
0.0
 10
44.425347
 20
223.081760
 30
0.0
 10
44.353159
 20
223.101303
 30
0.0
 10
44.286094
 20
223.132713
 30
0.0
 10
44.226266
 20
223.175023
 30
0.0
 10
44.174993
 20
223.226305
 30
0.0
 10
44.132640
 20
223.286151
 30
0.0
 10
44.101268
 20
223.353289
 30
0.0
 10
44.081726
 20
223.425472
 30
0.0
 10
44.074969
 20
223.499874
 30
0.0
 10
44.081715
 20
223.574224
 30
0.0
 10
44.101338
 20
223.646383
 30
0.0
 10
44.132812
 20
223.713785
 30
0.0
 10
44.174828
 20
223.774430
 30
0.0
 10
44.225771
 20
223.826232
 30
0.0
 10
44.285709
 20
223.867528
 30
0.0
 10
44.353750
 20
223.894520
 30
0.0
 10
44.425981
 20
223.911085
 30
0.0
 10
44.475107
 20
223.918733
 30
0.0
 10
44.499868
 20
223.922587
 30
0.0
 11
44.499868
 21
223.922587
 31
0.0
 11
44.573996
 21
223.910139
 31
0.0
 11
44.645864
 21
223.892602
 31
0.0
 11
44.713198
 21
223.864887
 31
0.0
 11
44.772147
 21
223.824738
 31
0.0
 11
44.823192
 21
223.773226
 31
0.0
 11
44.864828
 21
223.713257
 31
0.0
 11
44.896454
 21
223.645523
 31
0.0
 11
44.915902
 21
223.573781
 31
0.0
 11
44.922528
 21
223.499927
 31
0.0
 11
44.915902
 21
223.425901
 31
0.0
 11
44.896454
 21
223.354003
 31
0.0
 11
44.864828
 21
223.286597
 31
0.0
 11
44.823212
 21
223.227601
 31
0.0
 11
44.772167
 21
223.176576
 31
0.0
 11
44.713198
 21
223.134967
 31
0.0
 11
44.645870
 21
223.103341
 31
0.0
 11
44.574002
 21
223.083893
 31
0.0
 11
44.499868
 21
223.077267
 31
0.0
 11
44.425743
 21
223.083893
 31
0.0
 11
44.353880
 21
223.103341
 31
0.0
 11
44.286548
 21
223.134967
 31
0.0
 11
44.227599
 21
223.176583
 31
0.0
 11
44.176554
 21
223.227628
 31
0.0
 11
44.134918
 21
223.286597
 31
0.0
 11
44.103292
 21
223.354020
 31
0.0
 11
44.083844
 21
223.425917
 31
0.0
 11
44.077218
 21
223.499927
 31
0.0
 11
44.083844
 21
223.573779
 31
0.0
 11
44.103292
 21
223.645505
 31
0.0
 11
44.134918
 21
223.713257
 31
0.0
 11
44.176534
 21
223.773224
 31
0.0
 11
44.227579
 21
223.824753
 31
0.0
 11
44.286548
 21
223.864887
 31
0.0
 11
44.353873
 21
223.892602
 31
0.0
 11
44.425736
 21
223.910139
 31
0.0
 11
44.499868
 21
223.922587
 31
0.0
  0
LWPOLYLINE
  5
12c
100
AcDbEntity
  8
Guide
 62
7
100
AcDbPolyline
 90
4
 70
1
 10
82.000608
 20
224.999897
 30
0.0
 10
78.999668
 20
224.999897
 30
0.0
 10
78.999668
 20
221.998947
 30
0.0
 10
82.000608
 20
221.998947
 30
0.0
  0
SPLINE
  5
12d
100
AcDbEntity
  8
Guide
 62
7
100
AcDbSpline
 70
0
 71
3
 72
16
 73
12
 74
10
 40
0.000000
 40
0.000000
 40
0.000000
 40
0.000000
 40
2.123133
 40
4.220649
 40
6.300683
 40
8.349817
 40
10.418356
 40
12.467493
 40
14.547528
 40
16.645045
 40
18.768177
 40
18.768177
 40
18.768177
 40
18.768177
 10
34.499648
 20
223.499907
 30
0.0
 10
34.609404
 20
222.800701
 30
0.0
 10
34.827593
 20
221.410727
 30
0.0
 10
35.299851
 20
219.360647
 30
0.0
 10
36.066586
 20
217.417713
 30
0.0
 10
37.230416
 20
215.692135
 30
0.0
 10
38.692057
 20
214.230565
 30
0.0
 10
40.417683
 20
213.066805
 30
0.0
 10
42.360654
 20
212.300157
 30
0.0
 10
44.410755
 20
211.827991
 30
0.0
 10
45.800738
 20
211.609857
 30
0.0
 10
46.499948
 20
211.500129
 30
0.0
 11
34.499648
 21
223.499907
 31
0.0
 11
34.853757
 21
221.406512
 31
0.0
 11
35.351906
 21
219.369009
 31
0.0
 11
36.138128
 21
217.443289
 31
0.0
 11
37.276977
 21
215.739771
 31
0.0
 11
38.739689
 21
214.277127
 31
0.0
 11
40.443258
 21
213.138349
 31
0.0
 11
42.369013
 21
212.352212
 31
0.0
 11
44.406539
 21
211.854153
 31
0.0
 11
46.499948
 21
211.500129
 31
0.0
  0
LWPOLYLINE
  5
12e
100
AcDbEntity
  8
Guide
 62
7
100
AcDbPolyline
 90
26
 70
0
 10
46.499948
 20
211.500129
 30
0.0
 10
112.055910
 20
211.500129
 30
0.0
 10
200.735940
 20
211.500129
 30
0.0
 10
242.499860
 20
211.500129
 30
0.0
 10
258.499930
 20
83.499660
 30
0.0
 10
274.499980
 20
83.499660
 30
0.0
 10
274.499980
 20
91.499710
 30
0.0
 10
271.499630
 20
91.499710
 30
0.0
 10
271.499630
 20
94.500030
 30
0.0
 10
274.499980
 20
94.500030
 30
0.0
 10
274.499980
 20
211.500129
 30
0.0
 10
274.499980
 20
221.999757
 30
0.0
 10
271.499630
 20
221.999757
 30
0.0
 10
271.499630
 20
225.000087
 30
0.0
 10
274.499980
 20
225.000087
 30
0.0
 10
274.499980
 20
235.499697
 30
0.0
 10
274.499980
 20
352.499787
 30
0.0
 10
271.499630
 20
352.499787
 30
0.0
 10
271.499630
 20
355.500137
 30
0.0
 10
274.499980
 20
355.500137
 30
0.0
 10
274.499980
 20
363.500157
 30
0.0
 10
258.499930
 20
363.500157
 30
0.0
 10
242.499860
 20
235.499697
 30
0.0
 10
199.239230
 20
235.499697
 30
0.0
 10
96.153369
 20
235.499697
 30
0.0
 10
46.499948
 20
235.499697
 30
0.0
  0
LWPOLYLINE
  5
12f
100
AcDbEntity
  8
Guide
 62
7
100
AcDbPolyline
 90
10
 70
0
 10
176.000060
 20
251.000270
 30
0.0
 10
146.000000
 20
251.000010
 30
0.0
 10
146.000000
 20
254.000010
 30
0.0
 10
143.000000
 20
254.000010
 30
0.0
 10
143.000000
 20
251.000010
 30
0.0
 10
125.000010
 20
251.000010
 30
0.0
 10
125.000010
 20
248.000000
 30
0.0
 10
122.000000
 20
248.000000
 30
0.0
 10
122.000000
 20
251.000010
 30
0.0
 10
92.000060
 20
251.000270
 30
0.0
  0
LWPOLYLINE
  5
130
100
AcDbEntity
  8
Guide
 62
7
100
AcDbPolyline
 90
4
 70
0
 10
121.999990
 20
251.000010
 30
0.0
 10
121.999990
 20
254.000010
 30
0.0
 10
125.000000
 20
254.000010
 30
0.0
 10
125.000000
 20
251.000010
 30
0.0
  0
LWPOLYLINE
  5
131
100
AcDbEntity
  8
Guide
 62
7
100
AcDbPolyline
 90
20
 70
1
 10
182.500082
 20
257.500121
 30
0.0
 10
134.499914
 20
257.500121
 30
0.0
 10
133.499975
 20
257.500121
 30
0.0
 10
85.500333
 20
257.500121
 30
0.0
 10
92.000193
 20
251.000258
 30
0.0
 10
85.500333
 20
244.500398
 30
0.0
 10
92.000193
 20
238.000020
 30
0.0
 10
122.000186
 20
238.000014
 30
0.0
 10
122.000186
 20
241.000347
 30
0.0
 10
125.000005
 20
241.000347
 30
0.0
 10
125.000005
 20
238.000014
 30
0.0
 10
133.000264
 20
238.000020
 30
0.0
 10
142.000063
 20
238.000014
 30
0.0
 10
143.000003
 20
238.000014
 30
0.0
 10
143.000003
 20
241.000347
 30
0.0
 10
145.999820
 20
241.000347
 30
0.0
 10
145.999820
 20
238.000014
 30
0.0
 10
176.000222
 20
238.000020
 30
0.0
 10
182.500082
 20
244.500398
 30
0.0
 10
176.000222
 20
251.000258
 30
0.0
  0
LWPOLYLINE
  5
132
100
AcDbEntity
  8
Guide
 62
7
100
AcDbPolyline
 90
4
 70
0
 10
143.000000
 20
251.000010
 30
0.0
 10
143.000000
 20
248.000000
 30
0.0
 10
146.000000
 20
248.000000
 30
0.0
 10
146.000000
 20
251.000010
 30
0.0
  0
LWPOLYLINE
  5
133
100
AcDbEntity
  8
Guide
 62
7
100
AcDbPolyline
 90
2
 70
0
 10
182.500084
 20
244.500396
 30
0.0
 10
85.500104
 20
244.500396
 30
0.0
  0
LWPOLYLINE
  5
134
100
AcDbEntity
  8
Guide
 62
7
100
AcDbPolyline
 90
8
 70
0
 10
213.000170
 20
134.999860
 30
0.0
 10
213.000170
 20
137.999650
 30
0.0
 10
213.000170
 20
138.000180
 30
0.0
 10
213.000170
 20
141.000000
 30
0.0
 10
215.999990
 20
141.000000
 30
0.0
 10
215.999990
 20
143.999820
 30
0.0
 10
213.000170
 20
143.999820
 30
0.0
 10
213.000360
 20
146.999860
 30
0.0
  0
LWPOLYLINE
  5
135
100
AcDbEntity
  8
Guide
 62
7
100
AcDbPolyline
 90
8
 70
0
 10
216.000180
 20
141.000040
 30
0.0
 10
216.000180
 20
138.000250
 30
0.0
 10
216.000180
 20
137.999720
 30
0.0
 10
216.000180
 20
134.999900
 30
0.0
 10
213.000360
 20
134.999900
 30
0.0
 10
213.000360
 20
132.000080
 30
0.0
 10
216.000180
 20
132.000080
 30
0.0
 10
216.000360
 20
128.999860
 30
0.0
  0
LWPOLYLINE
  5
136
100
AcDbEntity
  8
Guide
 62
7
100
AcDbPolyline
 90
24
 70
1
 10
216.000180
 20
125.500220
 30
0.0
 10
222.000330
 20
131.499860
 30
0.0
 10
222.000330
 20
133.000020
 30
0.0
 10
222.000360
 20
138.000040
 30
0.0
 10
219.000360
 20
138.000040
 30
0.0
 10
219.000360
 20
141.000040
 30
0.0
 10
222.000360
 20
141.000040
 30
0.0
 10
222.000330
 20
145.999740
 30
0.0
 10
222.000330
 20
147.499900
 30
0.0
 10
216.000180
 20
153.500070
 30
0.0
 10
216.000180
 20
147.000210
 30
0.0
 10
213.000360
 20
147.000040
 30
0.0
 10
213.000170
 20
150.499680
 30
0.0
 10
207.000020
 20
144.500040
 30
0.0
 10
207.000020
 20
142.999880
 30
0.0
 10
207.000360
 20
138.000040
 30
0.0
 10
210.000360
 20
138.000040
 30
0.0
 10
210.000360
 20
135.000040
 30
0.0
 10
207.000360
 20
135.000040
 30
0.0
 10
207.000020
 20
130.000160
 30
0.0
 10
207.000020
 20
128.500000
 30
0.0
 10
213.000170
 20
122.499830
 30
0.0
 10
213.000170
 20
128.999690
 30
0.0
 10
216.000170
 20
128.999770
 30
0.0
  0
LWPOLYLINE
  5
137
100
AcDbEntity
  8
Guide
 62
7
100
AcDbPolyline
 90
12
 70
1
 10
179.000010
 20
180.000000
 30
0.0
 10
179.000010
 20
177.000000
 30
0.0
 10
182.000000
 20
177.000000
 30
0.0
 10
182.000000
 20
176.000000
 30
0.0
 10
200.000000
 20
176.000000
 30
0.0
 10
200.000000
 20
177.000000
 30
0.0
 10
202.999990
 20
177.000000
 30
0.0
 10
202.999990
 20
180.000000
 30
0.0
 10
200.000000
 20
180.000000
 30
0.0
 10
200.000000
 20
180.999990
 30
0.0
 10
182.000000
 20
180.999990
 30
0.0
 10
182.000000
 20
180.000000
 30
0.0
  0
LWPOLYLINE
  5
138
100
AcDbEntity
  8
Guide
 62
7
100
AcDbPolyline
 90
8
 70
0
 10
212.999990
 20
104.999640
 30
0.0
 10
212.999990
 20
107.999430
 30
0.0
 10
212.999990
 20
107.999960
 30
0.0
 10
212.999990
 20
110.999780
 30
0.0
 10
215.999810
 20
110.999780
 30
0.0
 10
215.999810
 20
113.999600
 30
0.0
 10
212.999990
 20
113.999600
 30
0.0
 10
213.000180
 20
116.999640
 30
0.0
  0
LWPOLYLINE
  5
139
100
AcDbEntity
  8
Guide
 62
7
100
AcDbPolyline
 90
8
 70
0
 10
216.000000
 20
110.999820
 30
0.0
 10
216.000000
 20
108.000030
 30
0.0
 10
216.000000
 20
107.999500
 30
0.0
 10
216.000000
 20
104.999680
 30
0.0
 10
213.000180
 20
104.999680
 30
0.0
 10
213.000180
 20
101.999860
 30
0.0
 10
216.000000
 20
101.999860
 30
0.0
 10
216.000180
 20
98.999640
 30
0.0
  0
SPLINE
  5
13a
100
AcDbEntity
  8
Guide
 62
7
100
AcDbSpline
 70
0
 71
3
 72
16
 73
12
 74
10
 40
0.000000
 40
0.000000
 40
0.000000
 40
0.000000
 40
2.123131
 40
4.220648
 40
6.300682
 40
8.349824
 40
10.418365
 40
12.467500
 40
14.547536
 40
16.645055
 40
18.768195
 40
18.768195
 40
18.768195
 40
18.768195
 10
46.499948
 20
235.499697
 30
0.0
 10
45.800738
 20
235.389971
 30
0.0
 10
44.410755
 20
235.171843
 30
0.0
 10
42.360654
 20
234.699679
 30
0.0
 10
40.417682
 20
233.933030
 30
0.0
 10
38.692052
 20
232.769271
 30
0.0
 10
37.230414
 20
231.307693
 30
0.0
 10
36.066586
 20
229.582113
 30
0.0
 10
35.299851
 20
227.639176
 30
0.0
 10
34.827592
 20
225.589093
 30
0.0
 10
34.609404
 20
224.199115
 30
0.0
 10
34.499648
 20
223.499907
 30
0.0
 11
46.499948
 21
235.499697
 31
0.0
 11
44.406539
 21
235.145680
 31
0.0
 11
42.369013
 21
234.647624
 31
0.0
 11
40.443258
 21
233.861487
 31
0.0
 11
38.739684
 21
232.722707
 31
0.0
 11
37.276975
 21
231.260057
 31
0.0
 11
36.138128
 21
229.556537
 31
0.0
 11
35.351906
 21
227.630815
 31
0.0
 11
34.853757
 21
225.593309
 31
0.0
 11
34.499648
 21
223.499907
 31
0.0
  0
SPLINE
  5
13b
100
AcDbEntity
  8
Guide
 62
7
100
AcDbSpline
 70
0
 71
3
 72
43
 73
39
 74
37
 40
0.000000
 40
0.000000
 40
0.000000
 40
0.000000
 40
0.075183
 40
0.149157
 40
0.221970
 40
0.293279
 40
0.365843
 40
0.438885
 40
0.513654
 40
0.587993
 40
0.662137
 40
0.736459
 40
0.810948
 40
0.885423
 40
0.957630
 40
1.029817
 40
1.101985
 40
1.176390
 40
1.250858
 40
1.325288
 40
1.399750
 40
1.474204
 40
1.548598
 40
1.620750
 40
1.692945
 40
1.765147
 40
1.839621
 40
1.914121
 40
1.988426
 40
2.062575
 40
2.136894
 40
2.211677
 40
2.284706
 40
2.357264
 40
2.428623
 40
2.501450
 40
2.575439
 40
2.650616
 40
2.650616
 40
2.650616
 40
2.650616
 10
286.682634
 20
230.770767
 30
0.0
 10
286.686498
 20
230.795530
 30
0.0
 10
286.694165
 20
230.844657
 30
0.0
 10
286.710723
 20
230.916903
 30
0.0
 10
286.737717
 20
230.984920
 30
0.0
 10
286.778810
 20
231.045012
 30
0.0
 10
286.830755
 20
231.095859
 30
0.0
 10
286.891412
 20
231.137882
 30
0.0
 10
286.958830
 20
231.169392
 30
0.0
 10
287.031005
 20
231.188973
 30
0.0
 10
287.105363
 20
231.195750
 30
0.0
 10
287.179770
 20
231.188962
 30
0.0
 10
287.251967
 20
231.169450
 30
0.0
 10
287.319126
 20
231.138082
 30
0.0
 10
287.378925
 20
231.095658
 30
0.0
 10
287.430272
 20
231.044441
 30
0.0
 10
287.472597
 20
230.984609
 30
0.0
 10
287.504038
 20
230.917542
 30
0.0
 10
287.523554
 20
230.845329
 30
0.0
 10
287.530285
 20
230.770787
 30
0.0
 10
287.523593
 20
230.696244
 30
0.0
 10
287.504066
 20
230.624030
 30
0.0
 10
287.472611
 20
230.556980
 30
0.0
 10
287.430235
 20
230.497203
 30
0.0
 10
287.379010
 20
230.445872
 30
0.0
 10
287.319175
 20
230.403483
 30
0.0
 10
287.252018
 20
230.372117
 30
0.0
 10
287.179827
 20
230.352590
 30
0.0
 10
287.105420
 20
230.345794
 30
0.0
 10
287.031076
 20
230.352580
 30
0.0
 10
286.958888
 20
230.372145
 30
0.0
 10
286.891529
 20
230.403715
 30
0.0
 10
286.830638
 20
230.445426
 30
0.0
 10
286.778950
 20
230.496560
 30
0.0
 10
286.737709
 20
230.556547
 30
0.0
 10
286.710706
 20
230.624607
 30
0.0
 10
286.694152
 20
230.696856
 30
0.0
 10
286.686487
 20
230.745988
 30
0.0
 10
286.682624
 20
230.770750
 30
0.0
 11
286.682634
 21
230.770767
 31
0.0
 11
286.695106
 21
230.844908
 31
0.0
 11
286.712643
 21
230.916774
 31
0.0
 11
286.740326
 21
230.984119
 31
0.0
 11
286.780333
 21
231.043148
 31
0.0
 11
286.831934
 21
231.094165
 31
0.0
 11
286.891956
 21
231.135789
 31
0.0
 11
286.959703
 21
231.167423
 31
0.0
 11
287.031457
 21
231.186858
 31
0.0
 11
287.105303
 21
231.193491
 31
0.0
 11
287.179329
 21
231.186853
 31
0.0
 11
287.251238
 21
231.167421
 31
0.0
 11
287.318664
 21
231.135793
 31
0.0
 11
287.377627
 21
231.094113
 31
0.0
 11
287.428702
 21
231.043101
 31
0.0
 11
287.470343
 21
230.984158
 31
0.0
 11
287.501990
 21
230.916819
 31
0.0
 11
287.521425
 21
230.844932
 31
0.0
 11
287.528048
 21
230.770797
 31
0.0
 11
287.521453
 21
230.696627
 31
0.0
 11
287.502017
 21
230.624756
 31
0.0
 11
287.470351
 21
230.557437
 31
0.0
 11
287.428699
 21
230.498522
 31
0.0
 11
287.377682
 21
230.447439
 31
0.0
 11
287.318721
 21
230.405766
 31
0.0
 11
287.251293
 21
230.374144
 31
0.0
 11
287.179376
 21
230.354698
 31
0.0
 11
287.105368
 21
230.348056
 31
0.0
 11
287.031517
 21
230.354693
 31
0.0
 11
286.959783
 21
230.374123
 31
0.0
 11
286.892016
 21
230.405748
 31
0.0
 11
286.831902
 21
230.447216
 31
0.0
 11
286.780419
 21
230.498345
 31
0.0
 11
286.740337
 21
230.557383
 31
0.0
 11
286.712627
 21
230.624732
 31
0.0
 11
286.695091
 21
230.696614
 31
0.0
 11
286.682624
 21
230.770750
 31
0.0
  0
SPLINE
  5
13c
100
AcDbEntity
  8
Guide
 62
7
100
AcDbSpline
 70
0
 71
3
 72
43
 73
39
 74
37
 40
0.000000
 40
0.000000
 40
0.000000
 40
0.000000
 40
0.075183
 40
0.149157
 40
0.221970
 40
0.293279
 40
0.365840
 40
0.438876
 40
0.513649
 40
0.587998
 40
0.662148
 40
0.736471
 40
0.810960
 40
0.885435
 40
0.957643
 40
1.029832
 40
1.101976
 40
1.176382
 40
1.250851
 40
1.325285
 40
1.399746
 40
1.474194
 40
1.548586
 40
1.620738
 40
1.692933
 40
1.765135
 40
1.839612
 40
1.914116
 40
1.988429
 40
2.062578
 40
2.136897
 40
2.211680
 40
2.284662
 40
2.357237
 40
2.428614
 40
2.501442
 40
2.575431
 40
2.650600
 40
2.650600
 40
2.650600
 40
2.650600
 10
286.693370
 20
99.770741
 30
0.0
 10
286.697234
 20
99.795504
 30
0.0
 10
286.704901
 20
99.844632
 30
0.0
 10
286.721458
 20
99.916877
 30
0.0
 10
286.748452
 20
99.984895
 30
0.0
 10
286.789544
 20
100.044986
 30
0.0
 10
286.841487
 20
100.095831
 30
0.0
 10
286.902146
 20
100.137848
 30
0.0
 10
286.969565
 20
100.169362
 30
0.0
 10
287.041743
 20
100.188954
 30
0.0
 10
287.116106
 20
100.195744
 30
0.0
 10
287.190516
 20
100.188953
 30
0.0
 10
287.262712
 20
100.169440
 30
0.0
 10
287.329875
 20
100.138078
 30
0.0
 10
287.389664
 20
100.095631
 30
0.0
 10
287.440971
 20
100.044391
 30
0.0
 10
287.483351
 20
99.984608
 30
0.0
 10
287.514773
 20
99.917536
 30
0.0
 10
287.534294
 20
99.845325
 30
0.0
 10
287.541032
 20
99.770781
 30
0.0
 10
287.534340
 20
99.696239
 30
0.0
 10
287.514816
 20
99.624028
 30
0.0
 10
287.483361
 20
99.556980
 30
0.0
 10
287.440986
 20
99.497203
 30
0.0
 10
287.389761
 20
99.445873
 30
0.0
 10
287.329925
 20
99.403483
 30
0.0
 10
287.262767
 20
99.372115
 30
0.0
 10
287.190571
 20
99.352585
 30
0.0
 10
287.116159
 20
99.345792
 30
0.0
 10
287.041813
 20
99.352577
 30
0.0
 10
286.969625
 20
99.372143
 30
0.0
 10
286.902280
 20
99.403704
 30
0.0
 10
286.841400
 20
99.445414
 30
0.0
 10
286.789713
 20
99.496542
 30
0.0
 10
286.748455
 20
99.556532
 30
0.0
 10
286.721451
 20
99.624600
 30
0.0
 10
286.704892
 20
99.696845
 30
0.0
 10
286.697227
 20
99.745974
 30
0.0
 10
286.693364
 20
99.770733
 30
0.0
 11
286.693370
 21
99.770741
 31
0.0
 11
286.705842
 21
99.844882
 31
0.0
 11
286.723378
 21
99.916748
 31
0.0
 11
286.751062
 21
99.984093
 31
0.0
 11
286.791068
 21
100.043122
 31
0.0
 11
286.842668
 21
100.094138
 31
0.0
 11
286.902686
 21
100.135756
 31
0.0
 11
286.970436
 21
100.167394
 31
0.0
 11
287.042197
 21
100.186839
 31
0.0
 11
287.116049
 21
100.193483
 31
0.0
 11
287.190074
 21
100.186845
 31
0.0
 11
287.261984
 21
100.167412
 31
0.0
 11
287.329410
 21
100.135785
 31
0.0
 11
287.388361
 21
100.094086
 31
0.0
 11
287.439422
 21
100.043056
 31
0.0
 11
287.481081
 21
99.984155
 31
0.0
 11
287.512727
 21
99.916816
 31
0.0
 11
287.532165
 21
99.844927
 31
0.0
 11
287.538794
 21
99.770789
 31
0.0
 11
287.532200
 21
99.696621
 31
0.0
 11
287.512767
 21
99.624754
 31
0.0
 11
287.481102
 21
99.557437
 31
0.0
 11
287.439450
 21
99.498522
 31
0.0
 11
287.388433
 21
99.447440
 31
0.0
 11
287.329472
 21
99.405766
 31
0.0
 11
287.262042
 21
99.374143
 31
0.0
 11
287.190121
 21
99.354694
 31
0.0
 11
287.116106
 21
99.348053
 31
0.0
 11
287.042254
 21
99.354690
 31
0.0
 11
286.970520
 21
99.374120
 31
0.0
 11
286.902754
 21
99.405745
 31
0.0
 11
286.842679
 21
99.447189
 31
0.0
 11
286.791182
 21
99.498327
 31
0.0
 11
286.751083
 21
99.557375
 31
0.0
 11
286.723371
 21
99.624725
 31
0.0
 11
286.705832
 21
99.696605
 31
0.0
 11
286.693364
 21
99.770733
 31
0.0
  0
SPLINE
  5
13d
100
AcDbEntity
  8
Guide
 62
7
100
AcDbSpline
 70
0
 71
3
 72
43
 73
39
 74
37
 40
0.000000
 40
0.000000
 40
0.000000
 40
0.000000
 40
0.075182
 40
0.149152
 40
0.221951
 40
0.293262
 40
0.365830
 40
0.438875
 40
0.513646
 40
0.587989
 40
0.662134
 40
0.736454
 40
0.810939
 40
0.885411
 40
0.957648
 40
1.029775
 40
1.101845
 40
1.176251
 40
1.250721
 40
1.325154
 40
1.399617
 40
1.474070
 40
1.548465
 40
1.620663
 40
1.692842
 40
1.765026
 40
1.839499
 40
1.913998
 40
1.988312
 40
2.062473
 40
2.136803
 40
2.211583
 40
2.284545
 40
2.357188
 40
2.428623
 40
2.501448
 40
2.575438
 40
2.650624
 40
2.650624
 40
2.650624
 40
2.650624
 10
286.671903
 20
361.770775
 30
0.0
 10
286.675767
 20
361.795538
 30
0.0
 10
286.683433
 20
361.844664
 30
0.0
 10
286.699988
 20
361.916903
 30
0.0
 10
286.726977
 20
361.984917
 30
0.0
 10
286.768070
 20
362.045007
 30
0.0
 10
286.820016
 20
362.095856
 30
0.0
 10
286.880675
 20
362.137882
 30
0.0
 10
286.948095
 20
362.169394
 30
0.0
 10
287.020272
 20
362.188981
 30
0.0
 10
287.094628
 20
362.195756
 30
0.0
 10
287.169044
 20
362.188983
 30
0.0
 10
287.241201
 20
362.169422
 30
0.0
 10
287.308504
 20
362.138239
 30
0.0
 10
287.367797
 20
362.095136
 30
0.0
 10
287.419420
 20
362.044327
 30
0.0
 10
287.461894
 20
361.984623
 30
0.0
 10
287.493271
 20
361.917561
 30
0.0
 10
287.512802
 20
361.845353
 30
0.0
 10
287.519538
 20
361.770808
 30
0.0
 10
287.512844
 20
361.696263
 30
0.0
 10
287.493318
 20
361.624049
 30
0.0
 10
287.461854
 20
361.556986
 30
0.0
 10
287.419478
 20
361.497197
 30
0.0
 10
287.368247
 20
361.445866
 30
0.0
 10
287.308415
 20
361.403493
 30
0.0
 10
287.241265
 20
361.372128
 30
0.0
 10
287.169071
 20
361.352606
 30
0.0
 10
287.094654
 20
361.345811
 30
0.0
 10
287.020311
 20
361.352592
 30
0.0
 10
286.948065
 20
361.372068
 30
0.0
 10
286.880885
 20
361.403881
 30
0.0
 10
286.819519
 20
361.444931
 30
0.0
 10
286.768182
 20
361.496526
 30
0.0
 10
286.726960
 20
361.556541
 30
0.0
 10
286.699933
 20
361.624629
 30
0.0
 10
286.683393
 20
361.696882
 30
0.0
 10
286.675742
 20
361.746020
 30
0.0
 10
286.671886
 20
361.770786
 30
0.0
 11
286.671903
 21
361.770775
 31
0.0
 11
286.684374
 21
361.844916
 31
0.0
 11
286.701909
 21
361.916777
 31
0.0
 11
286.729585
 21
361.984110
 31
0.0
 11
286.769592
 21
362.043142
 31
0.0
 11
286.821196
 21
362.094163
 31
0.0
 11
286.881220
 21
362.135790
 31
0.0
 11
286.948968
 21
362.167426
 31
0.0
 11
287.020724
 21
362.186864
 31
0.0
 11
287.094572
 21
362.193500
 31
0.0
 11
287.168595
 21
362.186863
 31
0.0
 11
287.240501
 21
362.167433
 31
0.0
 11
287.307924
 21
362.135807
 31
0.0
 11
287.366654
 21
362.093748
 31
0.0
 11
287.417838
 21
362.042930
 31
0.0
 11
287.459586
 21
361.984183
 31
0.0
 11
287.491233
 21
361.916843
 31
0.0
 11
287.510671
 21
361.844954
 31
0.0
 11
287.517299
 21
361.770817
 31
0.0
 11
287.510704
 21
361.696646
 31
0.0
 11
287.491269
 21
361.624775
 31
0.0
 11
287.459602
 21
361.557456
 31
0.0
 11
287.417926
 21
361.498501
 31
0.0
 11
287.366919
 21
361.447433
 31
0.0
 11
287.307967
 21
361.405777
 31
0.0
 11
287.240540
 21
361.374157
 31
0.0
 11
287.168622
 21
361.354714
 31
0.0
 11
287.094606
 21
361.348072
 31
0.0
 11
287.020741
 21
361.354691
 31
0.0
 11
286.948991
 21
361.374105
 31
0.0
 11
286.881245
 21
361.405769
 31
0.0
 11
286.820962
 21
361.446872
 31
0.0
 11
286.769599
 21
361.498240
 31
0.0
 11
286.729566
 21
361.557404
 31
0.0
 11
286.701859
 21
361.624753
 31
0.0
 11
286.684334
 21
361.696637
 31
0.0
 11
286.671886
 21
361.770786
 31
0.0
  0
LWPOLYLINE
  5
13e
100
AcDbEntity
  8
Guide
 62
7
100
AcDbPolyline
 90
24
 70
1
 10
216.000000
 20
95.500000
 30
0.0
 10
222.000150
 20
101.499640
 30
0.0
 10
222.000150
 20
102.999800
 30
0.0
 10
222.000180
 20
107.999820
 30
0.0
 10
219.000180
 20
107.999820
 30
0.0
 10
219.000180
 20
110.999820
 30
0.0
 10
222.000180
 20
110.999820
 30
0.0
 10
222.000150
 20
115.999520
 30
0.0
 10
222.000150
 20
117.499680
 30
0.0
 10
216.000000
 20
123.499850
 30
0.0
 10
216.000000
 20
116.999990
 30
0.0
 10
213.000180
 20
116.999820
 30
0.0
 10
212.999990
 20
120.499460
 30
0.0
 10
206.999840
 20
114.499820
 30
0.0
 10
206.999840
 20
112.999660
 30
0.0
 10
207.000180
 20
107.999820
 30
0.0
 10
210.000180
 20
107.999820
 30
0.0
 10
210.000180
 20
104.999820
 30
0.0
 10
207.000180
 20
104.999820
 30
0.0
 10
206.999840
 20
99.999940
 30
0.0
 10
206.999840
 20
98.499780
 30
0.0
 10
212.999990
 20
92.499610
 30
0.0
 10
212.999990
 20
98.999470
 30
0.0
 10
215.999990
 20
98.999550
 30
0.0
  0
LWPOLYLINE
  5
13f
100
AcDbEntity
  8
Guide
 62
7
100
AcDbPolyline
 90
2
 70
0
 10
297.115990
 20
99.771581
 30
0.0
 10
297.094506
 20
361.771625
 30
0.0
  0
SPLINE
  5
140
100
AcDbEntity
  8
Guide
 62
7
100
AcDbSpline
 70
0
 71
3
 72
25
 73
21
 74
19
 40
0.000000
 40
0.000000
 40
0.000000
 40
0.000000
 40
1.778531
 40
3.528726
 40
5.251195
 40
6.938156
 40
8.654014
 40
10.381919
 40
12.152763
 40
13.911873
 40
15.663371
 40
17.414863
 40
19.173968
 40
20.944809
 40
22.672712
 40
24.388567
 40
26.075522
 40
27.797986
 40
29.548177
 40
31.326708
 40
31.326708
 40
31.326708
 40
31.326708
 10
277.116175
 20
99.769972
 30
0.0
 10
277.207609
 20
99.184167
 30
0.0
 10
277.389019
 20
98.021891
 30
0.0
 10
277.781410
 20
96.313089
 30
0.0
 10
278.419163
 20
94.703207
 30
0.0
 10
279.396149
 20
93.285424
 30
0.0
 10
280.621659
 20
92.080036
 30
0.0
 10
282.057385
 20
91.085707
 30
0.0
 10
283.653368
 20
90.340890
 30
0.0
 10
285.360716
 20
89.877318
 30
0.0
 10
287.116908
 20
89.717661
 30
0.0
 10
288.873072
 20
89.877613
 30
0.0
 10
290.580337
 20
90.341470
 30
0.0
 10
292.176198
 20
91.086537
 30
0.0
 10
293.611766
 20
92.081092
 30
0.0
 10
294.837075
 20
93.286679
 30
0.0
 10
295.813822
 20
94.704618
 30
0.0
 10
296.451340
 20
96.314588
 30
0.0
 10
296.843437
 20
98.023456
 30
0.0
 10
297.024654
 20
99.185761
 30
0.0
 10
297.115990
 20
99.771581
 30
0.0
 11
277.116175
 21
99.769972
 31
0.0
 11
277.411375
 21
98.016111
 31
0.0
 11
277.826598
 21
96.315883
 31
0.0
 11
278.481870
 21
94.722925
 31
0.0
 11
279.430982
 21
93.328284
 31
0.0
 11
280.649961
 21
92.120700
 31
0.0
 11
282.069640
 21
91.135729
 31
0.0
 11
283.674457
 21
90.387097
 31
0.0
 11
285.372407
 21
89.927275
 31
0.0
 11
287.116906
 21
89.770852
 31
0.0
 11
288.861373
 21
89.927567
 31
0.0
 11
290.559240
 21
90.387670
 31
0.0
 11
292.163936
 21
91.136557
 31
0.0
 11
293.583456
 21
92.121753
 31
0.0
 11
294.802236
 21
93.329533
 31
0.0
 11
295.751118
 21
94.724323
 31
0.0
 11
296.406143
 21
96.317378
 31
0.0
 11
296.821083
 21
98.017671
 31
0.0
 11
297.115990
 21
99.771581
 31
0.0
  0
SPLINE
  5
141
100
AcDbEntity
  8
Guide
 62
7
100
AcDbSpline
 70
0
 71
3
 72
25
 73
21
 74
19
 40
0.000000
 40
0.000000
 40
0.000000
 40
0.000000
 40
1.778532
 40
3.528719
 40
5.251176
 40
6.938137
 40
8.653995
 40
10.381899
 40
12.152741
 40
13.911847
 40
15.663347
 40
17.414834
 40
19.173937
 40
20.944786
 40
22.672679
 40
24.388539
 40
26.075498
 40
27.797949
 40
29.548128
 40
31.326652
 40
31.326652
 40
31.326652
 40
31.326652
 10
297.094506
 20
361.771625
 30
0.0
 10
297.003074
 20
362.357431
 30
0.0
 10
296.821668
 20
363.519705
 30
0.0
 10
296.429279
 20
365.228502
 30
0.0
 10
295.791510
 20
366.838370
 30
0.0
 10
294.814532
 20
368.256152
 30
0.0
 10
293.589024
 20
369.461543
 30
0.0
 10
292.153287
 20
370.455856
 30
0.0
 10
290.557311
 20
371.200677
 30
0.0
 10
288.849963
 20
371.664249
 30
0.0
 10
287.093772
 20
371.823887
 30
0.0
 10
285.337609
 20
371.663947
 30
0.0
 10
283.630345
 20
371.200084
 30
0.0
 10
282.034484
 20
370.455020
 30
0.0
 10
280.598917
 20
369.460463
 30
0.0
 10
279.373607
 20
368.254877
 30
0.0
 10
278.396858
 20
366.836940
 30
0.0
 10
277.759342
 20
365.226976
 30
0.0
 10
277.367247
 20
363.518119
 30
0.0
 10
277.186031
 20
362.355820
 30
0.0
 10
277.094695
 20
361.770003
 30
0.0
 11
297.094506
 21
361.771625
 31
0.0
 11
296.799311
 21
363.525489
 31
0.0
 11
296.384087
 21
365.225707
 31
0.0
 11
295.728810
 21
366.818650
 31
0.0
 11
294.779699
 21
368.213293
 31
0.0
 11
293.560719
 21
369.420876
 31
0.0
 11
292.141035
 21
370.405838
 31
0.0
 11
290.536221
 21
371.154470
 31
0.0
 11
288.838275
 21
371.614289
 31
0.0
 11
287.093772
 21
371.770701
 31
0.0
 11
285.349310
 21
371.613990
 31
0.0
 11
283.651444
 21
371.153886
 31
0.0
 11
282.046742
 21
370.404996
 31
0.0
 11
280.627230
 21
369.419805
 31
0.0
 11
279.408446
 21
368.212022
 31
0.0
 11
278.459560
 21
366.817230
 31
0.0
 11
277.804538
 21
365.224187
 31
0.0
 11
277.389601
 21
363.523907
 31
0.0
 11
277.094695
 21
361.770003
 31
0.0
  0
LWPOLYLINE
  5
142
100
AcDbEntity
  8
Guide
 62
7
100
AcDbPolyline
 90
2
 70
0
 10
277.094695
 20
361.770003
 30
0.0
 10
277.116175
 20
99.769972
 30
0.0
  0
ENDSEC
  0
SECTION
  2
OBJECTS
  0
DICTIONARY
  5
C
330
0
100
AcDbDictionary
  3
ACAD_GROUP
350
D
  3
ACAD_MLINESTYLE
350
17
  0
DICTIONARY
  5
D
330
C
100
AcDbDictionary
  0
DICTIONARY
  5
1A
330
C
100
AcDbDictionary
  0
DICTIONARY
  5
17
330
C
100
AcDbDictionary
  3
STANDARD
350
18
  0
DICTIONARY
  5
19
330
C
100
AcDbDictionary
  0
ENDSEC
  0
EOF
