  0
SECTION
  2
HEADER
  9
$ACADVER
  1
AC1024
  9
$ACADMAINTVER
 70
     6
  9
$DWGCODEPAGE
  3
ANSI_1252
  9
$INSBASE
 10
0.0
 20
0.0
 30
0.0
  9
$EXTMIN
 10
1.000000000000000E+20
 20
1.000000000000000E+20
 30
1.000000000000000E+20
  9
$EXTMAX
 10
-1.000000000000000E+20
 20
-1.000000000000000E+20
 30
-1.000000000000000E+20
  9
$LIMMIN
 10
0.0
 20
0.0
  9
$LIMMAX
 10
12.0
 20
9.0
  9
$ORTHOMODE
 70
     0
  9
$REGENMODE
 70
     1
  9
$FILLMODE
 70
     1
  9
$QTEXTMODE
 70
     0
  9
$MIRRTEXT
 70
     1
  9
$LTSCALE
 40
1.0
  9
$ATTMODE
 70
     1
  9
$TEXTSIZE
 40
0.2
  9
$TRACEWID
 40
0.05
  9
$TEXTSTYLE
  7
Standard
  9
$CLAYER
  8
0
  9
$CELTYPE
  6
ByLayer
  9
$CECOLOR
 62
   256
  9
$CELTSCALE
 40
1.0
  9
$DISPSILH
 70
     0
  9
$DIMSCALE
 40
1.0
  9
$DIMASZ
 40
0.18
  9
$DIMEXO
 40
0.0625
  9
$DIMDLI
 40
0.38
  9
$DIMRND
 40
0.0
  9
$DIMDLE
 40
0.0
  9
$DIMEXE
 40
0.18
  9
$DIMTP
 40
0.0
  9
$DIMTM
 40
0.0
  9
$DIMTXT
 40
0.18
  9
$DIMCEN
 40
0.09
  9
$DIMTSZ
 40
0.0
  9
$DIMTOL
 70
     0
  9
$DIMLIM
 70
     0
  9
$DIMTIH
 70
     1
  9
$DIMTOH
 70
     1
  9
$DIMSE1
 70
     0
  9
$DIMSE2
 70
     0
  9
$DIMTAD
 70
     0
  9
$DIMZIN
 70
     0
  9
$DIMBLK
  1

  9
$DIMASO
 70
     1
  9
$DIMSHO
 70
     1
  9
$DIMPOST
  1

  9
$DIMAPOST
  1

  9
$DIMALT
 70
     0
  9
$DIMALTD
 70
     2
  9
$DIMALTF
 40
25.4
  9
$DIMLFAC
 40
1.0
  9
$DIMTOFL
 70
     0
  9
$DIMTVP
 40
0.0
  9
$DIMTIX
 70
     0
  9
$DIMSOXD
 70
     0
  9
$DIMSAH
 70
     0
  9
$DIMBLK1
  1

  9
$DIMBLK2
  1

  9
$DIMSTYLE
  2
Standard
  9
$DIMCLRD
 70
     0
  9
$DIMCLRE
 70
     0
  9
$DIMCLRT
 70
     0
  9
$DIMTFAC
 40
1.0
  9
$DIMGAP
 40
0.09
  9
$DIMJUST
 70
     0
  9
$DIMSD1
 70
     0
  9
$DIMSD2
 70
     0
  9
$DIMTOLJ
 70
     1
  9
$DIMTZIN
 70
     0
  9
$DIMALTZ
 70
     0
  9
$DIMALTTZ
 70
     0
  9
$DIMUPT
 70
     0
  9
$DIMDEC
 70
     4
  9
$DIMTDEC
 70
     4
  9
$DIMALTU
 70
     2
  9
$DIMALTTD
 70
     2
  9
$DIMTXSTY
  7
Standard
  9
$DIMAUNIT
 70
     0
  9
$DIMADEC
 70
     0
  9
$DIMALTRND
 40
0.0
  9
$DIMAZIN
 70
     0
  9
$DIMDSEP
 70
    46
  9
$DIMATFIT
 70
     3
  9
$DIMFRAC
 70
     0
  9
$DIMLDRBLK
  1

  9
$DIMLUNIT
 70
     2
  9
$DIMLWD
 70
    -2
  9
$DIMLWE
 70
    -2
  9
$DIMTMOVE
 70
     0
  9
$DIMFXL
 40
1.0
  9
$DIMFXLON
 70
     0
  9
$DIMJOGANG
 40
0.7853981633974483
  9
$DIMTFILL
 70
     0
  9
$DIMTFILLCLR
 70
     0
  9
$DIMARCSYM
 70
     0
  9
$DIMLTYPE
  6

  9
$DIMLTEX1
  6

  9
$DIMLTEX2
  6

  9
$DIMTXTDIRECTION
 70
     0
  9
$LUNITS
 70
     2
  9
$LUPREC
 70
     4
  9
$SKETCHINC
 40
0.1
  9
$FILLETRAD
 40
0.5
  9
$AUNITS
 70
     0
  9
$AUPREC
 70
     0
  9
$MENU
  1
.
  9
$ELEVATION
 40
0.0
  9
$PELEVATION
 40
0.0
  9
$THICKNESS
 40
0.0
  9
$LIMCHECK
 70
     0
  9
$CHAMFERA
 40
0.5
  9
$CHAMFERB
 40
0.5
  9
$CHAMFERC
 40
1.0
  9
$CHAMFERD
 40
0.0
  9
$SKPOLY
 70
     0
  9
$TDCREATE
 40
2458680.840499907
  9
$TDUCREATE
 40
2458681.132166574
  9
$TDUPDATE
 40
2458680.840501528
  9
$TDUUPDATE
 40
2458681.132168194
  9
$TDINDWG
 40
0.0000000116
  9
$TDUSRTIMER
 40
0.0000000116
  9
$USRTIMER
 70
     1
  9
$ANGBASE
 50
0.0
  9
$ANGDIR
 70
     0
  9
$PDMODE
 70
     0
  9
$PDSIZE
 40
0.0
  9
$PLINEWID
 40
0.0
  9
$SPLFRAME
 70
     0
  9
$SPLINETYPE
 70
     6
  9
$SPLINESEGS
 70
     8
  9
$HANDSEED
  5
E5
  9
$SURFTAB1
 70
     6
  9
$SURFTAB2
 70
     6
  9
$SURFTYPE
 70
     6
  9
$SURFU
 70
     6
  9
$SURFV
 70
     6
  9
$UCSBASE
  2

  9
$UCSNAME
  2

  9
$UCSORG
 10
0.0
 20
0.0
 30
0.0
  9
$UCSXDIR
 10
1.0
 20
0.0
 30
0.0
  9
$UCSYDIR
 10
0.0
 20
1.0
 30
0.0
  9
$UCSORTHOREF
  2

  9
$UCSORTHOVIEW
 70
     0
  9
$UCSORGTOP
 10
0.0
 20
0.0
 30
0.0
  9
$UCSORGBOTTOM
 10
0.0
 20
0.0
 30
0.0
  9
$UCSORGLEFT
 10
0.0
 20
0.0
 30
0.0
  9
$UCSORGRIGHT
 10
0.0
 20
0.0
 30
0.0
  9
$UCSORGFRONT
 10
0.0
 20
0.0
 30
0.0
  9
$UCSORGBACK
 10
0.0
 20
0.0
 30
0.0
  9
$PUCSBASE
  2

  9
$PUCSNAME
  2

  9
$PUCSORG
 10
0.0
 20
0.0
 30
0.0
  9
$PUCSXDIR
 10
1.0
 20
0.0
 30
0.0
  9
$PUCSYDIR
 10
0.0
 20
1.0
 30
0.0
  9
$PUCSORTHOREF
  2

  9
$PUCSORTHOVIEW
 70
     0
  9
$PUCSORGTOP
 10
0.0
 20
0.0
 30
0.0
  9
$PUCSORGBOTTOM
 10
0.0
 20
0.0
 30
0.0
  9
$PUCSORGLEFT
 10
0.0
 20
0.0
 30
0.0
  9
$PUCSORGRIGHT
 10
0.0
 20
0.0
 30
0.0
  9
$PUCSORGFRONT
 10
0.0
 20
0.0
 30
0.0
  9
$PUCSORGBACK
 10
0.0
 20
0.0
 30
0.0
  9
$USERI1
 70
     0
  9
$USERI2
 70
     0
  9
$USERI3
 70
     0
  9
$USERI4
 70
     0
  9
$USERI5
 70
     0
  9
$USERR1
 40
0.0
  9
$USERR2
 40
0.0
  9
$USERR3
 40
0.0
  9
$USERR4
 40
0.0
  9
$USERR5
 40
0.0
  9
$WORLDVIEW
 70
     1
  9
$SHADEDGE
 70
     3
  9
$SHADEDIF
 70
    70
  9
$TILEMODE
 70
     1
  9
$MAXACTVP
 70
    64
  9
$PINSBASE
 10
0.0
 20
0.0
 30
0.0
  9
$PLIMCHECK
 70
     0
  9
$PEXTMIN
 10
1.000000000000000E+20
 20
1.000000000000000E+20
 30
1.000000000000000E+20
  9
$PEXTMAX
 10
-1.000000000000000E+20
 20
-1.000000000000000E+20
 30
-1.000000000000000E+20
  9
$PLIMMIN
 10
0.0
 20
0.0
  9
$PLIMMAX
 10
12.0
 20
9.0
  9
$UNITMODE
 70
     0
  9
$VISRETAIN
 70
     1
  9
$PLINEGEN
 70
     0
  9
$PSLTSCALE
 70
     1
  9
$TREEDEPTH
 70
  3020
  9
$CMLSTYLE
  2
Standard
  9
$CMLJUST
 70
     0
  9
$CMLSCALE
 40
1.0
  9
$PROXYGRAPHICS
 70
     1
  9
$MEASUREMENT
 70
     0
  9
$CELWEIGHT
370
    -1
  9
$ENDCAPS
280
     0
  9
$JOINSTYLE
280
     0
  9
$LWDISPLAY
290
     1
  9
$INSUNITS
 70
     1
  9
$HYPERLINKBASE
  1

  9
$STYLESHEET
  1

  9
$XEDIT
290
     1
  9
$CEPSNTYPE
380
     0
  9
$PSTYLEMODE
290
     1
  9
$FINGERPRINTGUID
  2
{7E101449-CEFD-47EB-8853-A31A0F11BC69}
  9
$VERSIONGUID
  2
{FAEB1C32-E019-11D5-929B-00C0DF256EC4}
  9
$EXTNAMES
290
     1
  9
$PSVPSCALE
 40
0.0
  9
$OLESTARTUP
290
     0
  9
$SORTENTS
280
   127
  9
$INDEXCTL
280
     0
  9
$HIDETEXT
280
     1
  9
$XCLIPFRAME
280
     2
  9
$HALOGAP
280
     0
  9
$OBSCOLOR
 70
   257
  9
$OBSLTYPE
280
     0
  9
$INTERSECTIONDISPLAY
280
     0
  9
$INTERSECTIONCOLOR
 70
   257
  9
$DIMASSOC
280
     2
  9
$PROJECTNAME
  1

  9
$CAMERADISPLAY
290
     0
  9
$LENSLENGTH
 40
50.0
  9
$CAMERAHEIGHT
 40
0.0
  9
$STEPSPERSEC
 40
2.0
  9
$STEPSIZE
 40
6.0
  9
$3DDWFPREC
 40
2.0
  9
$PSOLWIDTH
 40
0.25
  9
$PSOLHEIGHT
 40
4.0
  9
$LOFTANG1
 40
1.570796326794897
  9
$LOFTANG2
 40
1.570796326794897
  9
$LOFTMAG1
 40
0.0
  9
$LOFTMAG2
 40
0.0
  9
$LOFTPARAM
 70
     7
  9
$LOFTNORMALS
280
     1
  9
$LATITUDE
 40
37.795
  9
$LONGITUDE
 40
-122.394
  9
$NORTHDIRECTION
 40
0.0
  9
$TIMEZONE
 70
 -8000
  9
$LIGHTGLYPHDISPLAY
280
     1
  9
$TILEMODELIGHTSYNCH
280
     1
  9
$CMATERIAL
347
3C
  9
$SOLIDHIST
280
     1
  9
$SHOWHIST
280
     1
  9
$DWFFRAME
280
     2
  9
$DGNFRAME
280
     2
  9
$REALWORLDSCALE
290
     1
  9
$INTERFERECOLOR
 62
   256
  9
$CSHADOW
280
     0
  9
$SHADOWPLANELOCATION
 40
0.0
  0
ENDSEC
  0
SECTION
  2
CLASSES
  0
CLASS
  1
ACDBDICTIONARYWDFLT
  2
AcDbDictionaryWithDefault
  3
ObjectDBX Classes
 90
        0
 91
        4
280
     0
281
     0
  0
CLASS
  1
VISUALSTYLE
  2
AcDbVisualStyle
  3
ObjectDBX Classes
 90
     4095
 91
        4
280
     0
281
     0
  0
CLASS
  1
MATERIAL
  2
AcDbMaterial
  3
ObjectDBX Classes
 90
     1153
 91
        4
280
     0
281
     0
  0
CLASS
  1
SUN
  2
AcDbSun
  3
SCENEOE
 90
     1024
 91
        4
280
     0
281
     0
  0
ENDSEC
  0
SECTION
  2
TABLES
  0
TABLE
  2
VPORT
  5
8
330
0
100
AcDbSymbolTable
 70
     1
  0
VPORT
  5
29
330
8
100
AcDbSymbolTableRecord
100
AcDbViewportTableRecord
  2
*Active
 70
     0
 10
0.0
 20
0.0
 11
1.0
 21
1.0
 12
0.0
 22
0.0
 13
0.0
 23
0.0
 14
0.5
 24
0.5
 15
0.5
 25
0.5
 16
0.0
 26
0.0
 36
1.0
 17
18.0
 27
-12.0
 37
0.0
 40
24.0
 41
1.5
 42
50.0
 43
0.0
 44
0.0
 50
0.0
 51
0.0
 71
     0
 72
   100
 73
     1
 74
     3
 75
     0
 76
     0
 77
     0
 78
     0
281
     0
 65
     1
110
0.0
120
0.0
130
0.0
111
1.0
121
0.0
131
0.0
112
0.0
122
1.0
132
0.0
 79
     0
146
0.0
 60
     3
 61
     5
292
     1
282
     1
141
0.0
142
0.0
 63
   250
361
3F
  0
ENDTAB
  0
TABLE
  2
LTYPE
  5
5
330
0
100
AcDbSymbolTable
 70
     1
  0
LTYPE
  5
14
330
5
100
AcDbSymbolTableRecord
100
AcDbLinetypeTableRecord
  2
ByBlock
 70
     0
  3

 72
    65
 73
     0
 40
0.0
  0
LTYPE
  5
15
330
5
100
AcDbSymbolTableRecord
100
AcDbLinetypeTableRecord
  2
ByLayer
 70
     0
  3

 72
    65
 73
     0
 40
0.0
  0
LTYPE
  5
16
330
5
100
AcDbSymbolTableRecord
100
AcDbLinetypeTableRecord
  2
Continuous
 70
     0
  3
Solid line
 72
    65
 73
     0
 40
0.0
  0
ENDTAB
  0
TABLE
  2
LAYER
  5
2
330
0
100
AcDbSymbolTable
 70
     2
  0
LAYER
  5
10
330
2
100
AcDbSymbolTableRecord
100
AcDbLayerTableRecord
  2
0
 70
     0
 62
     7
  6
Continuous
370
    -3
390
F
347
3E
  0
LAYER
  5
40
330
2
100
AcDbSymbolTableRecord
100
AcDbLayerTableRecord
  2
Layer 1
 70
     0
 62
     7
  6
Continuous
370
    -3
390
F
347
3E
  0
ENDTAB
  0
TABLE
  2
STYLE
  5
3
330
0
100
AcDbSymbolTable
 70
     1
  0
STYLE
  5
11
330
3
100
AcDbSymbolTableRecord
100
AcDbTextStyleTableRecord
  2
Standard
 70
     0
 40
0.0
 41
1.0
 50
0.0
 71
     0
 42
0.2
  3
txt
  4

  0
ENDTAB
  0
TABLE
  2
VIEW
  5
6
330
0
100
AcDbSymbolTable
 70
     0
  0
ENDTAB
  0
TABLE
  2
UCS
  5
7
330
0
100
AcDbSymbolTable
 70
     0
  0
ENDTAB
  0
TABLE
  2
APPID
  5
9
330
0
100
AcDbSymbolTable
 70
     1
  0
APPID
  5
12
330
9
100
AcDbSymbolTableRecord
100
AcDbRegAppTableRecord
  2
ACAD
 70
     0
  0
ENDTAB
  0
TABLE
  2
DIMSTYLE
  5
A
330
0
100
AcDbSymbolTable
 70
     1
100
AcDbDimStyleTable
  0
DIMSTYLE
105
27
330
A
100
AcDbSymbolTableRecord
100
AcDbDimStyleTableRecord
  2
Standard
 70
     0
178
     0
340
11
  0
ENDTAB
  0
TABLE
  2
BLOCK_RECORD
  5
1
330
0
100
AcDbSymbolTable
 70
     3
  0
BLOCK_RECORD
  5
1F
330
1
100
AcDbSymbolTableRecord
100
AcDbBlockTableRecord
  2
*Model_Space
340
22
 70
     0
280
     1
281
     0
  0
BLOCK_RECORD
  5
1B
330
1
100
AcDbSymbolTableRecord
100
AcDbBlockTableRecord
  2
*Paper_Space
340
1E
 70
     0
280
     1
281
     0
  0
BLOCK_RECORD
  5
23
330
1
100
AcDbSymbolTableRecord
100
AcDbBlockTableRecord
  2
*Paper_Space0
340
26
 70
     0
280
     1
281
     0
  0
BLOCK_RECORD
  5
41
330
1
100
AcDbSymbolTableRecord
100
AcDbBlockTableRecord
  2
block 2
340
0
102
{BLKREFS
331
42
102
}
 70
     0
280
     1
281
     0
  0
BLOCK_RECORD
  5
66
330
1
100
AcDbSymbolTableRecord
100
AcDbBlockTableRecord
  2
block 3
340
0
102
{BLKREFS
331
67
102
}
 70
     0
280
     1
281
     0
  0
ENDTAB
  0
ENDSEC
  0
SECTION
  2
BLOCKS
  0
BLOCK
  5
20
330
1F
100
AcDbEntity
  8
0
100
AcDbBlockBegin
  2
*Model_Space
 70
     0
 10
0.0
 20
0.0
 30
0.0
  3
*Model_Space
  1

  0
ENDBLK
  5
21
330
1F
100
AcDbEntity
  8
0
100
AcDbBlockEnd
  0
BLOCK
  5
1C
330
1B
100
AcDbEntity
 67
     1
  8
0
100
AcDbBlockBegin
  2
*Paper_Space
 70
     0
 10
0.0
 20
0.0
 30
0.0
  3
*Paper_Space
  1

  0
ENDBLK
  5
1D
330
1B
100
AcDbEntity
 67
     1
  8
0
100
AcDbBlockEnd
  0
BLOCK
  5
24
330
23
100
AcDbEntity
  8
0
100
AcDbBlockBegin
  2
*Paper_Space0
 70
     0
 10
0.0
 20
0.0
 30
0.0
  3
*Paper_Space0
  1

  0
ENDBLK
  5
25
330
23
100
AcDbEntity
  8
0
100
AcDbBlockEnd
  0
BLOCK
  5
43
330
41
100
AcDbEntity
  8
0
100
AcDbBlockBegin
  2
block 2
 70
     0
 10
0.0
 20
0.0
 30
0.0
  3
block 2
  1

  0
SPLINE
  5
45
330
41
100
AcDbEntity
  8
Layer 1
 62
   240
420
 15539236
370
     9
100
AcDbSpline
210
0.0
220
0.0
230
1.0
 70
    11
 71
     3
 72
    29
 73
    25
 74
     0
 42
0.0000000001
 43
0.0000000001
 12
1.0
 22
0.0
 32
0.0
 13
1.0
 23
0.0
 33
0.0
 40
0.0
 40
0.0
 40
0.0
 40
0.0
 40
1.0
 40
1.0
 40
1.0
 40
2.0
 40
2.0
 40
2.0
 40
3.0
 40
3.0
 40
3.0
 40
4.0
 40
4.0
 40
4.0
 40
5.0
 40
5.0
 40
5.0
 40
6.0
 40
6.0
 40
6.0
 40
7.0
 40
7.0
 40
7.0
 40
8.0
 40
8.0
 40
8.0
 40
8.0
 10
9.289981883520442
 20
-0.5513746445104112
 30
0.0
 10
9.289981883520442
 20
-0.5513746445104112
 30
0.0
 10
35.09356465486321
 20
-0.5513746492427647
 30
0.0
 10
35.09356465486321
 20
-0.5513746492427647
 30
0.0
 10
35.28587496231527
 20
-0.5513746492780329
 30
0.0
 10
35.44177326916125
 20
-0.7072729561799759
 30
0.0
 10
35.44177326912737
 20
-0.8995832636320402
 30
0.0
 10
35.44177326912737
 20
-0.8995832636320402
 30
0.0
 10
35.44177326520028
 20
-23.20316603586222
 30
0.0
 10
35.44177326520028
 20
-23.20316603586222
 30
0.0
 10
35.44177326516638
 20
-23.39547634331625
 30
0.0
 10
35.28587495826251
 20
-23.55137465016416
 30
0.0
 10
35.09356465080847
 20
-23.55137465012889
 30
0.0
 10
35.09356465080847
 20
-23.55137465012889
 30
0.0
 10
9.289981879465648
 20
-23.55137464539654
 30
0.0
 10
9.289981879465648
 20
-23.55137464539654
 30
0.0
 10
9.097671572013583
 20
-23.55137464536124
 30
0.0
 10
8.941773265167651
 20
-23.3954763384593
 30
0.0
 10
8.941773265201517
 20
-23.20316603100724
 30
0.0
 10
8.941773265201517
 20
-23.20316603100724
 30
0.0
 10
8.941773269128664
 20
-0.8995832587770058
 30
0.0
 10
8.941773269128664
 20
-0.8995832587770058
 30
0.0
 10
8.941773269162493
 20
-0.7072729513229711
 30
0.0
 10
9.097671576066457
 20
-0.5513746444750924
 30
0.0
 10
9.289981883520442
 20
-0.5513746445104112
 30
0.0
  0
SPLINE
  5
46
330
41
100
AcDbEntity
  8
Layer 1
 62
   240
420
 15539236
370
     9
100
AcDbSpline
210
0.0
220
0.0
230
1.0
 70
    11
 71
     3
 72
    41
 73
    37
 74
     0
 42
0.0000000001
 43
0.0000000001
 12
1.0
 22
0.0
 32
0.0
 13
1.0
 23
0.0
 33
0.0
 40
0.0
 40
0.0
 40
0.0
 40
0.0
 40
1.0
 40
1.0
 40
1.0
 40
2.0
 40
2.0
 40
2.0
 40
3.0
 40
3.0
 40
3.0
 40
4.0
 40
4.0
 40
4.0
 40
5.0
 40
5.0
 40
5.0
 40
6.0
 40
6.0
 40
6.0
 40
7.0
 40
7.0
 40
7.0
 40
8.0
 40
8.0
 40
8.0
 40
9.0
 40
9.0
 40
9.0
 40
10.0
 40
10.0
 40
10.0
 40
11.0
 40
11.0
 40
11.0
 40
12.0
 40
12.0
 40
12.0
 40
12.0
 10
9.941773267092142
 20
-12.55137464521961
 30
0.0
 10
9.941773267092142
 20
-12.55137464521961
 30
0.0
 10
19.93712103184917
 20
-12.55137464656592
 30
0.0
 10
19.93712103184917
 20
-12.55137464656592
 30
0.0
 10
20.49197514025723
 20
-12.55137464664065
 30
0.0
 10
20.94177326703152
 20
-13.00117277353613
 30
0.0
 10
20.94177326695682
 20
-13.55602688194429
 30
0.0
 10
20.94177326695682
 20
-13.55602688194429
 30
0.0
 10
20.94177326588056
 20
-21.5467224114582
 30
0.0
 10
20.94177326588056
 20
-21.5467224114582
 30
0.0
 10
20.94177326580582
 20
-22.10157651986638
 30
0.0
 10
20.49197513891027
 20
-22.5513746466407
 30
0.0
 10
19.93712103050221
 20
-22.55137464656597
 30
0.0
 10
19.93712103050221
 20
-22.55137464656597
 30
0.0
 10
9.94177326574523
 20
-22.55137464521959
 30
0.0
 10
9.94177326574523
 20
-22.55137464521959
 30
0.0
 10
9.94177326574523
 20
-22.55137464521959
 30
0.0
 10
9.94177326601463
 20
-20.55137464521959
 30
0.0
 10
9.94177326601463
 20
-20.55137464521959
 30
0.0
 10
9.94177326601463
 20
-20.55137464521959
 30
0.0
 10
17.93712103077153
 20
-20.55137464629653
 30
0.0
 10
17.93712103077153
 20
-20.55137464629653
 30
0.0
 10
18.49197513917973
 20
-20.55137464637124
 30
0.0
 10
18.94177326607526
 20
-20.10157651959695
 30
0.0
 10
18.94177326614999
 20
-19.54672241118874
 30
0.0
 10
18.94177326614999
 20
-19.54672241118874
 30
0.0
 10
18.94177326668751
 20
-15.55602688167485
 30
0.0
 10
18.94177326668751
 20
-15.55602688167485
 30
0.0
 10
18.94177326676223
 20
-15.00117277326667
 30
0.0
 10
18.49197513998792
 20
-14.55137464637124
 30
0.0
 10
17.93712103157972
 20
-14.55137464629653
 30
0.0
 10
17.93712103157972
 20
-14.55137464629653
 30
0.0
 10
9.941773266822754
 20
-14.55137464521959
 30
0.0
 10
9.941773266822754
 20
-14.55137464521959
 30
0.0
 10
9.941773266822754
 20
-14.55137464521959
 30
0.0
 10
9.941773267092142
 20
-12.55137464521961
 30
0.0
 10
9.941773267092142
 20
-12.55137464521961
 30
0.0
  0
POLYLINE
  5
47
330
41
100
AcDbEntity
  8
Layer 1
 62
   240
420
 15539236
370
     9
100
AcDb2dPolyline
 66
     1
 10
0.0
 20
0.0
 30
0.0
  0
VERTEX
  5
48
330
47
100
AcDbEntity
  8
Layer 1
 62
   240
420
 15539236
370
     9
100
AcDbVertex
100
AcDb2dVertex
 10
10.69177326649415
 20
-16.96082464533598
 30
0.0
  0
VERTEX
  5
49
330
47
100
AcDbEntity
  8
Layer 1
 62
   240
420
 15539236
370
     9
100
AcDbVertex
100
AcDb2dVertex
 10
10.6917732663432
 20
-18.14192464530945
 30
0.0
  0
VERTEX
  5
4A
330
47
100
AcDbEntity
  8
Layer 1
 62
   240
420
 15539236
370
     9
100
AcDbVertex
100
AcDb2dVertex
 10
10.1917732663432
 20
-18.14192464523805
 30
0.0
  0
VERTEX
  5
4B
330
47
100
AcDbEntity
  8
Layer 1
 62
   240
420
 15539236
370
     9
100
AcDbVertex
100
AcDb2dVertex
 10
10.19177326649415
 20
-16.96082464526459
 30
0.0
  0
VERTEX
  5
4C
330
47
100
AcDbEntity
  8
Layer 1
 62
   240
420
 15539236
370
     9
100
AcDbVertex
100
AcDb2dVertex
 10
10.69177326649415
 20
-16.96082464533598
 30
0.0
  0
SEQEND
  5
4D
330
47
100
AcDbEntity
  8
Layer 1
 62
   240
420
 15539236
370
     9
  0
SPLINE
  5
4E
330
41
100
AcDbEntity
  8
Layer 1
 62
   240
420
 15539236
370
     9
100
AcDbSpline
210
0.0
220
0.0
230
1.0
 70
    11
 71
     3
 72
    41
 73
    37
 74
     0
 42
0.0000000001
 43
0.0000000001
 12
1.0
 22
0.0
 32
0.0
 13
1.0
 23
0.0
 33
0.0
 40
0.0
 40
0.0
 40
0.0
 40
0.0
 40
1.0
 40
1.0
 40
1.0
 40
2.0
 40
2.0
 40
2.0
 40
3.0
 40
3.0
 40
3.0
 40
4.0
 40
4.0
 40
4.0
 40
5.0
 40
5.0
 40
5.0
 40
6.0
 40
6.0
 40
6.0
 40
7.0
 40
7.0
 40
7.0
 40
8.0
 40
8.0
 40
8.0
 40
9.0
 40
9.0
 40
9.0
 40
10.0
 40
10.0
 40
10.0
 40
11.0
 40
11.0
 40
11.0
 40
12.0
 40
12.0
 40
12.0
 40
12.0
 10
9.941773268573721
 20
-1.551374645219615
 30
0.0
 10
9.941773268573721
 20
-1.551374645219615
 30
0.0
 10
19.93712103333069
 20
-1.551374646565869
 30
0.0
 10
19.93712103333069
 20
-1.551374646565869
 30
0.0
 10
20.4919751417389
 20
-1.551374646640599
 30
0.0
 10
20.94177326851319
 20
-2.001172773536079
 30
0.0
 10
20.94177326843833
 20
-2.556026881944237
 30
0.0
 10
20.94177326843833
 20
-2.556026881944237
 30
0.0
 10
20.94177326736207
 20
-10.54672241145813
 30
0.0
 10
20.94177326736207
 20
-10.54672241145813
 30
0.0
 10
20.94177326728737
 20
-11.10157651986628
 30
0.0
 10
20.49197514039194
 20
-11.5513746466406
 30
0.0
 10
19.93712103198375
 20
-11.55137464656587
 30
0.0
 10
19.93712103198375
 20
-11.55137464656587
 30
0.0
 10
9.941773267226823
 20
-11.55137464521961
 30
0.0
 10
9.941773267226823
 20
-11.55137464521961
 30
0.0
 10
9.941773267226823
 20
-11.55137464521961
 30
0.0
 10
9.941773267496197
 20
-9.551374645219614
 30
0.0
 10
9.941773267496197
 20
-9.551374645219614
 30
0.0
 10
9.941773267496197
 20
-9.551374645219614
 30
0.0
 10
17.93712103225319
 20
-9.551374646296507
 30
0.0
 10
17.93712103225319
 20
-9.551374646296507
 30
0.0
 10
18.49197514066125
 20
-9.551374646371237
 30
0.0
 10
18.9417732675568
 20
-9.101576519596934
 30
0.0
 10
18.94177326763154
 20
-8.546722411188764
 30
0.0
 10
18.94177326763154
 20
-8.546722411188764
 30
0.0
 10
18.94177326816902
 20
-4.556026881674875
 30
0.0
 10
18.94177326816902
 20
-4.556026881674875
 30
0.0
 10
18.94177326824375
 20
-4.001172773266717
 30
0.0
 10
18.49197514146944
 20
-3.551374646371237
 30
0.0
 10
17.93712103306125
 20
-3.551374646296519
 30
0.0
 10
17.93712103306125
 20
-3.551374646296519
 30
0.0
 10
9.941773268304347
 20
-3.551374645219615
 30
0.0
 10
9.941773268304347
 20
-3.551374645219615
 30
0.0
 10
9.941773268304347
 20
-3.551374645219615
 30
0.0
 10
9.941773268573721
 20
-1.551374645219615
 30
0.0
 10
9.941773268573721
 20
-1.551374645219615
 30
0.0
  0
POLYLINE
  5
4F
330
41
100
AcDbEntity
  8
Layer 1
 62
   240
420
 15539236
370
     9
100
AcDb2dPolyline
 66
     1
 10
0.0
 20
0.0
 30
0.0
  0
VERTEX
  5
50
330
4F
100
AcDbEntity
  8
Layer 1
 62
   240
420
 15539236
370
     9
100
AcDbVertex
100
AcDb2dVertex
 10
10.69177326797575
 20
-5.960824645335884
 30
0.0
  0
VERTEX
  5
51
330
4F
100
AcDbEntity
  8
Layer 1
 62
   240
420
 15539236
370
     9
100
AcDbVertex
100
AcDb2dVertex
 10
10.69177326782479
 20
-7.141924645309397
 30
0.0
  0
VERTEX
  5
52
330
4F
100
AcDbEntity
  8
Layer 1
 62
   240
420
 15539236
370
     9
100
AcDbVertex
100
AcDb2dVertex
 10
10.19177326782479
 20
-7.141924645238027
 30
0.0
  0
VERTEX
  5
53
330
4F
100
AcDbEntity
  8
Layer 1
 62
   240
420
 15539236
370
     9
100
AcDbVertex
100
AcDb2dVertex
 10
10.19177326797575
 20
-5.960824645264538
 30
0.0
  0
VERTEX
  5
54
330
4F
100
AcDbEntity
  8
Layer 1
 62
   240
420
 15539236
370
     9
100
AcDbVertex
100
AcDb2dVertex
 10
10.69177326797575
 20
-5.960824645335884
 30
0.0
  0
SEQEND
  5
55
330
4F
100
AcDbEntity
  8
Layer 1
 62
   240
420
 15539236
370
     9
  0
SPLINE
  5
56
330
41
100
AcDbEntity
  8
Layer 1
 62
   240
420
 15539236
370
     9
100
AcDbSpline
210
0.0
220
0.0
230
1.0
 70
    11
 71
     3
 72
    41
 73
    37
 74
     0
 42
0.0000000001
 43
0.0000000001
 12
1.0
 22
0.0
 32
0.0
 13
1.0
 23
0.0
 33
0.0
 40
0.0
 40
0.0
 40
0.0
 40
0.0
 40
1.0
 40
1.0
 40
1.0
 40
2.0
 40
2.0
 40
2.0
 40
3.0
 40
3.0
 40
3.0
 40
4.0
 40
4.0
 40
4.0
 40
5.0
 40
5.0
 40
5.0
 40
6.0
 40
6.0
 40
6.0
 40
7.0
 40
7.0
 40
7.0
 40
8.0
 40
8.0
 40
8.0
 40
9.0
 40
9.0
 40
9.0
 40
10.0
 40
10.0
 40
10.0
 40
11.0
 40
11.0
 40
11.0
 40
12.0
 40
12.0
 40
12.0
 40
12.0
 10
23.44177326709208
 20
-12.55137464703795
 30
0.0
 10
23.44177326709208
 20
-12.55137464703795
 30
0.0
 10
33.43712103184902
 20
-12.5513746483842
 30
0.0
 10
33.43712103184902
 20
-12.5513746483842
 30
0.0
 10
33.99197514025723
 20
-12.55137464845893
 30
0.0
 10
34.44177326703152
 20
-13.00117277535446
 30
0.0
 10
34.44177326695682
 20
-13.55602688376262
 30
0.0
 10
34.44177326695682
 20
-13.55602688376262
 30
0.0
 10
34.44177326588056
 20
-21.54672241327653
 30
0.0
 10
34.44177326588056
 20
-21.54672241327653
 30
0.0
 10
34.44177326580582
 20
-22.10157652168459
 30
0.0
 10
33.99197513891027
 20
-22.55137464845888
 30
0.0
 10
33.43712103050221
 20
-22.55137464838418
 30
0.0
 10
33.43712103050221
 20
-22.55137464838418
 30
0.0
 10
23.44177326574527
 20
-22.55137464703792
 30
0.0
 10
23.44177326574527
 20
-22.55137464703792
 30
0.0
 10
23.44177326574527
 20
-22.55137464703792
 30
0.0
 10
23.44177326601458
 20
-20.55137464703792
 30
0.0
 10
23.44177326601458
 20
-20.55137464703792
 30
0.0
 10
23.44177326601458
 20
-20.55137464703792
 30
0.0
 10
31.43712103077152
 20
-20.55137464811486
 30
0.0
 10
31.43712103077152
 20
-20.55137464811486
 30
0.0
 10
31.99197513917973
 20
-20.55137464818957
 30
0.0
 10
32.44177326607526
 20
-20.10157652141528
 30
0.0
 10
32.44177326614999
 20
-19.5467224130071
 30
0.0
 10
32.44177326614999
 20
-19.5467224130071
 30
0.0
 10
32.44177326668751
 20
-15.55602688349321
 30
0.0
 10
32.44177326668751
 20
-15.55602688349321
 30
0.0
 10
32.44177326676223
 20
-15.001172775085
 30
0.0
 10
31.99197513998792
 20
-14.55137464818957
 30
0.0
 10
31.43712103157971
 20
-14.55137464811486
 30
0.0
 10
31.43712103157971
 20
-14.55137464811486
 30
0.0
 10
23.44177326682277
 20
-14.55137464703792
 30
0.0
 10
23.44177326682277
 20
-14.55137464703792
 30
0.0
 10
23.44177326682277
 20
-14.55137464703792
 30
0.0
 10
23.44177326709208
 20
-12.55137464703795
 30
0.0
 10
23.44177326709208
 20
-12.55137464703795
 30
0.0
  0
POLYLINE
  5
57
330
41
100
AcDbEntity
  8
Layer 1
 62
   240
420
 15539236
370
     9
100
AcDb2dPolyline
 66
     1
 10
0.0
 20
0.0
 30
0.0
  0
VERTEX
  5
58
330
57
100
AcDbEntity
  8
Layer 1
 62
   240
420
 15539236
370
     9
100
AcDbVertex
100
AcDb2dVertex
 10
24.19177326649416
 20
-16.96082464715432
 30
0.0
  0
VERTEX
  5
59
330
57
100
AcDbEntity
  8
Layer 1
 62
   240
420
 15539236
370
     9
100
AcDbVertex
100
AcDb2dVertex
 10
24.19177326634318
 20
-18.14192464712778
 30
0.0
  0
VERTEX
  5
5A
330
57
100
AcDbEntity
  8
Layer 1
 62
   240
420
 15539236
370
     9
100
AcDbVertex
100
AcDb2dVertex
 10
23.69177326634318
 20
-18.14192464705638
 30
0.0
  0
VERTEX
  5
5B
330
57
100
AcDbEntity
  8
Layer 1
 62
   240
420
 15539236
370
     9
100
AcDbVertex
100
AcDb2dVertex
 10
23.69177326649416
 20
-16.96082464708277
 30
0.0
  0
VERTEX
  5
5C
330
57
100
AcDbEntity
  8
Layer 1
 62
   240
420
 15539236
370
     9
100
AcDbVertex
100
AcDb2dVertex
 10
24.19177326649416
 20
-16.96082464715432
 30
0.0
  0
SEQEND
  5
5D
330
57
100
AcDbEntity
  8
Layer 1
 62
   240
420
 15539236
370
     9
  0
SPLINE
  5
5E
330
41
100
AcDbEntity
  8
Layer 1
 62
   240
420
 15539236
370
     9
100
AcDbSpline
210
0.0
220
0.0
230
1.0
 70
    11
 71
     3
 72
    41
 73
    37
 74
     0
 42
0.0000000001
 43
0.0000000001
 12
1.0
 22
0.0
 32
0.0
 13
1.0
 23
0.0
 33
0.0
 40
0.0
 40
0.0
 40
0.0
 40
0.0
 40
1.0
 40
1.0
 40
1.0
 40
2.0
 40
2.0
 40
2.0
 40
3.0
 40
3.0
 40
3.0
 40
4.0
 40
4.0
 40
4.0
 40
5.0
 40
5.0
 40
5.0
 40
6.0
 40
6.0
 40
6.0
 40
7.0
 40
7.0
 40
7.0
 40
8.0
 40
8.0
 40
8.0
 40
9.0
 40
9.0
 40
9.0
 40
10.0
 40
10.0
 40
10.0
 40
11.0
 40
11.0
 40
11.0
 40
12.0
 40
12.0
 40
12.0
 40
12.0
 10
23.44177326857374
 20
-1.551374647037897
 30
0.0
 10
23.44177326857374
 20
-1.551374647037897
 30
0.0
 10
33.43712103333069
 20
-1.551374648384214
 30
0.0
 10
33.43712103333069
 20
-1.551374648384214
 30
0.0
 10
33.9919751417389
 20
-1.551374648458932
 30
0.0
 10
34.44177326851319
 20
-2.001172775354411
 30
0.0
 10
34.44177326843833
 20
-2.55602688376257
 30
0.0
 10
34.44177326843833
 20
-2.55602688376257
 30
0.0
 10
34.44177326736209
 20
-10.54672241327651
 30
0.0
 10
34.44177326736209
 20
-10.54672241327651
 30
0.0
 10
34.44177326728737
 20
-11.10157652168467
 30
0.0
 10
33.99197514039194
 20
-11.55137464845893
 30
0.0
 10
33.43712103198375
 20
-11.5513746483842
 30
0.0
 10
33.43712103198375
 20
-11.5513746483842
 30
0.0
 10
23.44177326722681
 20
-11.55137464703795
 30
0.0
 10
23.44177326722681
 20
-11.55137464703795
 30
0.0
 10
23.44177326722681
 20
-11.55137464703795
 30
0.0
 10
23.44177326749625
 20
-9.551374647037948
 30
0.0
 10
23.44177326749625
 20
-9.551374647037948
 30
0.0
 10
23.44177326749625
 20
-9.551374647037948
 30
0.0
 10
31.43712103225319
 20
-9.551374648114852
 30
0.0
 10
31.43712103225319
 20
-9.551374648114852
 30
0.0
 10
31.9919751406614
 20
-9.551374648189569
 30
0.0
 10
32.4417732675568
 20
-9.101576521415256
 30
0.0
 10
32.44177326763153
 20
-8.546722413007096
 30
0.0
 10
32.44177326763153
 20
-8.546722413007096
 30
0.0
 10
32.44177326816902
 20
-4.556026883493208
 30
0.0
 10
32.44177326816902
 20
-4.556026883493208
 30
0.0
 10
32.44177326824375
 20
-4.001172775085049
 30
0.0
 10
31.99197514146944
 20
-3.55137464818957
 30
0.0
 10
31.43712103306125
 20
-3.55137464811484
 30
0.0
 10
31.43712103306125
 20
-3.55137464811484
 30
0.0
 10
23.44177326830431
 20
-3.551374647037947
 30
0.0
 10
23.44177326830431
 20
-3.551374647037947
 30
0.0
 10
23.44177326830431
 20
-3.551374647037947
 30
0.0
 10
23.44177326857374
 20
-1.551374647037897
 30
0.0
 10
23.44177326857374
 20
-1.551374647037897
 30
0.0
  0
POLYLINE
  5
5F
330
41
100
AcDbEntity
  8
Layer 1
 62
   240
420
 15539236
370
     9
100
AcDb2dPolyline
 66
     1
 10
0.0
 20
0.0
 30
0.0
  0
VERTEX
  5
60
330
5F
100
AcDbEntity
  8
Layer 1
 62
   240
420
 15539236
370
     9
100
AcDbVertex
100
AcDb2dVertex
 10
24.1917732679757
 20
-5.960824647154241
 30
0.0
  0
VERTEX
  5
61
330
5F
100
AcDbEntity
  8
Layer 1
 62
   240
420
 15539236
370
     9
100
AcDbVertex
100
AcDb2dVertex
 10
24.19177326782485
 20
-7.14192464712773
 30
0.0
  0
VERTEX
  5
62
330
5F
100
AcDbEntity
  8
Layer 1
 62
   240
420
 15539236
370
     9
100
AcDbVertex
100
AcDb2dVertex
 10
23.69177326782485
 20
-7.141924647056385
 30
0.0
  0
VERTEX
  5
63
330
5F
100
AcDbEntity
  8
Layer 1
 62
   240
420
 15539236
370
     9
100
AcDbVertex
100
AcDb2dVertex
 10
23.6917732679757
 20
-5.960824647082871
 30
0.0
  0
VERTEX
  5
64
330
5F
100
AcDbEntity
  8
Layer 1
 62
   240
420
 15539236
370
     9
100
AcDbVertex
100
AcDb2dVertex
 10
24.1917732679757
 20
-5.960824647154241
 30
0.0
  0
SEQEND
  5
65
330
5F
100
AcDbEntity
  8
Layer 1
 62
   240
420
 15539236
370
     9
  0
INSERT
  5
67
330
41
100
AcDbEntity
  8
Layer 1
100
AcDbBlockReference
  2
block 3
 10
0.0
 20
0.0
 30
0.0
  0
ENDBLK
  5
44
330
41
100
AcDbEntity
  8
0
100
AcDbBlockEnd
  0
BLOCK
  5
68
330
66
100
AcDbEntity
  8
0
100
AcDbBlockBegin
  2
block 3
 70
     0
 10
0.0
 20
0.0
 30
0.0
  3
block 3
  1

  0
POLYLINE
  5
6A
330
66
100
AcDbEntity
  8
Layer 1
370
     0
100
AcDb2dPolyline
 66
     1
 10
0.0
 20
0.0
 30
0.0
  0
VERTEX
  5
6B
330
6A
100
AcDbEntity
  8
Layer 1
370
     0
100
AcDbVertex
100
AcDb2dVertex
 10
21.70562824720804
 20
-15.20764160146417
 30
0.0
  0
VERTEX
  5
6C
330
6A
100
AcDbEntity
  8
Layer 1
370
     0
100
AcDbVertex
100
AcDb2dVertex
 10
21.70562824723318
 20
-15.02151828332181
 30
0.0
  0
VERTEX
  5
6D
330
6A
100
AcDbEntity
  8
Layer 1
370
     0
100
AcDbVertex
100
AcDb2dVertex
 10
22.08621635487207
 20
-15.02151828337305
 30
0.0
  0
VERTEX
  5
6E
330
6A
100
AcDbEntity
  8
Layer 1
370
     0
100
AcDbVertex
100
AcDb2dVertex
 10
22.08621635493111
 20
-14.58260091141124
 30
0.0
  0
VERTEX
  5
6F
330
6A
100
AcDbEntity
  8
Layer 1
370
     0
100
AcDbVertex
100
AcDb2dVertex
 10
21.70562824729222
 20
-14.58260091136001
 30
0.0
  0
VERTEX
  5
70
330
6A
100
AcDbEntity
  8
Layer 1
370
     0
100
AcDbVertex
100
AcDb2dVertex
 10
21.70562824731736
 20
-14.39647759321764
 30
0.0
  0
VERTEX
  5
71
330
6A
100
AcDbEntity
  8
Layer 1
370
     0
100
AcDbVertex
100
AcDb2dVertex
 10
22.6584684165882
 20
-14.39647759334598
 30
0.0
  0
VERTEX
  5
72
330
6A
100
AcDbEntity
  8
Layer 1
370
     0
100
AcDbVertex
100
AcDb2dVertex
 10
22.65846841656306
 20
-14.58260091148835
 30
0.0
  0
VERTEX
  5
73
330
6A
100
AcDbEntity
  8
Layer 1
370
     0
100
AcDbVertex
100
AcDb2dVertex
 10
22.25288302159778
 20
-14.58260091143375
 30
0.0
  0
VERTEX
  5
74
330
6A
100
AcDbEntity
  8
Layer 1
370
     0
100
AcDbVertex
100
AcDb2dVertex
 10
22.25288302153874
 20
-15.02151828339556
 30
0.0
  0
VERTEX
  5
75
330
6A
100
AcDbEntity
  8
Layer 1
370
     0
100
AcDbVertex
100
AcDb2dVertex
 10
22.65846841650401
 20
-15.02151828345015
 30
0.0
  0
VERTEX
  5
76
330
6A
100
AcDbEntity
  8
Layer 1
370
     0
100
AcDbVertex
100
AcDb2dVertex
 10
22.65846841647888
 20
-15.20764160159251
 30
0.0
  0
VERTEX
  5
77
330
6A
100
AcDbEntity
  8
Layer 1
370
     0
100
AcDbVertex
100
AcDb2dVertex
 10
21.70562824720804
 20
-15.20764160146417
 30
0.0
  0
SEQEND
  5
78
330
6A
100
AcDbEntity
  8
Layer 1
370
     0
  0
HATCH
  5
79
330
66
100
AcDbEntity
  8
Layer 1
 62
   250
420
  2301728
100
AcDbHatch
 10
0.0
 20
0.0
 30
0.0
210
0.0
220
0.0
230
1.0
  2
SOLID
 70
     1
 71
     0
 91
        1
 92
        1
 93
       12
 72
     1
 10
21.70562824720804
 20
-15.20764160146417
 11
21.70562824723318
 21
-15.02151828332181
 72
     1
 10
21.70562824723318
 20
-15.02151828332181
 11
22.08621635487207
 21
-15.02151828337305
 72
     1
 10
22.08621635487207
 20
-15.02151828337305
 11
22.08621635493111
 21
-14.58260091141124
 72
     1
 10
22.08621635493111
 20
-14.58260091141124
 11
21.70562824729222
 21
-14.58260091136001
 72
     1
 10
21.70562824729222
 20
-14.58260091136001
 11
21.70562824731736
 21
-14.39647759321764
 72
     1
 10
21.70562824731736
 20
-14.39647759321764
 11
22.6584684165882
 21
-14.39647759334598
 72
     1
 10
22.6584684165882
 20
-14.39647759334598
 11
22.65846841656306
 21
-14.58260091148835
 72
     1
 10
22.65846841656306
 20
-14.58260091148835
 11
22.25288302159778
 21
-14.58260091143375
 72
     1
 10
22.25288302159778
 20
-14.58260091143375
 11
22.25288302153874
 21
-15.02151828339556
 72
     1
 10
22.25288302153874
 20
-15.02151828339556
 11
22.65846841650401
 21
-15.02151828345015
 72
     1
 10
22.65846841650401
 20
-15.02151828345015
 11
22.65846841647888
 21
-15.20764160159251
 72
     1
 10
22.65846841647888
 20
-15.20764160159251
 11
21.70562824720804
 21
-15.20764160146417
 97
        0
 75
     2
 76
     1
 98
        0
  0
SPLINE
  5
7A
330
66
100
AcDbEntity
  8
Layer 1
370
     0
100
AcDbSpline
210
0.0
220
0.0
230
1.0
 70
    11
 71
     3
 72
    32
 73
    28
 74
     0
 42
0.0000000001
 43
0.0000000001
 12
1.0
 22
0.0
 32
0.0
 13
1.0
 23
0.0
 33
0.0
 40
0.0
 40
0.0
 40
0.0
 40
0.0
 40
1.0
 40
1.0
 40
1.0
 40
2.0
 40
2.0
 40
2.0
 40
3.0
 40
3.0
 40
3.0
 40
4.0
 40
4.0
 40
4.0
 40
5.0
 40
5.0
 40
5.0
 40
6.0
 40
6.0
 40
6.0
 40
7.0
 40
7.0
 40
7.0
 40
8.0
 40
8.0
 40
8.0
 40
9.0
 40
9.0
 40
9.0
 40
9.0
 10
22.31121906765333
 20
-14.2215508354868
 30
0.0
 10
22.09176377251444
 20
-14.22155083545721
 30
0.0
 10
21.94453341229084
 20
-14.07710096564584
 30
0.0
 10
21.94453341232014
 20
-13.86041259759021
 30
0.0
 10
21.94453341233111
 20
-13.77846272779854
 30
0.0
 10
21.98203612501695
 20
-13.68818495002577
 30
0.0
 10
22.0389887074893
 20
-13.63539632156123
 30
0.0
 10
22.0389887074893
 20
-13.63539632156123
 30
0.0
 10
21.96398328214208
 20
-13.63539632155112
 30
0.0
 10
21.96398328214208
 20
-13.63539632155112
 30
0.0
 10
21.96398328214208
 20
-13.63539632155112
 30
0.0
 10
21.96398328216444
 20
-13.46872965488445
 30
0.0
 10
21.96398328216444
 20
-13.46872965488445
 30
0.0
 10
21.96398328216444
 20
-13.46872965488445
 30
0.0
 10
22.65846841671305
 20
-13.46872965497798
 30
0.0
 10
22.65846841671305
 20
-13.46872965497798
 30
0.0
 10
22.65846841671305
 20
-13.46872965497798
 30
0.0
 10
22.65846841669069
 20
-13.63539632164465
 30
0.0
 10
22.65846841669069
 20
-13.63539632164465
 30
0.0
 10
22.65846841669069
 20
-13.63539632164465
 30
0.0
 10
22.58346299134347
 20
-13.63539632163454
 30
0.0
 10
22.58346299134347
 20
-13.63539632163454
 30
0.0
 10
22.64041557380167
 20
-13.68818495011444
 30
0.0
 10
22.67791828646305
 20
-13.77846272789727
 30
0.0
 10
22.67791828645209
 20
-13.86041259768894
 30
0.0
 10
22.67791828642278
 20
-14.07710096574445
 30
0.0
 10
22.53068792616028
 20
-14.22155083551625
 30
0.0
 10
22.31121906765333
 20
-14.2215508354868
 30
0.0
  0
SPLINE
  5
7B
330
66
100
AcDbEntity
  8
Layer 1
370
     0
100
AcDbSpline
210
0.0
220
0.0
230
1.0
 70
    11
 71
     3
 72
    17
 73
    13
 74
     0
 42
0.0000000001
 43
0.0000000001
 12
1.0
 22
0.0
 32
0.0
 13
1.0
 23
0.0
 33
0.0
 40
0.0
 40
0.0
 40
0.0
 40
0.0
 40
1.0
 40
1.0
 40
1.0
 40
2.0
 40
2.0
 40
2.0
 40
3.0
 40
3.0
 40
3.0
 40
4.0
 40
4.0
 40
4.0
 40
4.0
 10
22.31121906773236
 20
-13.63539632159786
 30
0.0
 10
22.17927462328791
 20
-13.63539632158012
 30
0.0
 10
22.09176377258223
 20
-13.71874321826969
 30
0.0
 10
22.09176377256543
 20
-13.84375678163774
 30
0.0
 10
22.09176377254835
 20
-13.97014024517944
 30
0.0
 10
22.1792746232314
 20
-14.05487060543432
 30
0.0
 10
22.31121906767584
 20
-14.05487060545208
 30
0.0
 10
22.44317707548834
 20
-14.05487060546986
 30
0.0
 10
22.53068792619418
 20
-13.97014024523848
 30
0.0
 10
22.53068792621126
 20
-13.84375678169686
 30
0.0
 10
22.53068792622806
 20
-13.71874321832881
 30
0.0
 10
22.44317707554486
 20
-13.63539632161569
 30
0.0
 10
22.31121906773236
 20
-13.63539632159786
 30
0.0
  0
HATCH
  5
7C
330
66
100
AcDbEntity
  8
Layer 1
 62
   250
420
  2301728
100
AcDbHatch
 10
0.0
 20
0.0
 30
0.0
210
0.0
220
0.0
230
1.0
  2
SOLID
 70
     1
 71
     0
 91
        2
 92
        1
 93
        1
 72
     4
 94
        3
 73
     0
 74
     1
 95
       32
 96
       28
 40
0.0
 40
0.0
 40
0.0
 40
0.0
 40
1.0
 40
1.0
 40
1.0
 40
2.0
 40
2.0
 40
2.0
 40
3.0
 40
3.0
 40
3.0
 40
4.0
 40
4.0
 40
4.0
 40
5.0
 40
5.0
 40
5.0
 40
6.0
 40
6.0
 40
6.0
 40
7.0
 40
7.0
 40
7.0
 40
8.0
 40
8.0
 40
8.0
 40
9.0
 40
9.0
 40
9.0
 40
9.0
 10
22.31121906765333
 20
-14.2215508354868
 10
22.09176377251444
 20
-14.22155083545721
 10
21.94453341229084
 20
-14.07710096564584
 10
21.94453341232014
 20
-13.86041259759021
 10
21.94453341233111
 20
-13.77846272779854
 10
21.98203612501695
 20
-13.68818495002577
 10
22.0389887074893
 20
-13.63539632156123
 10
22.0389887074893
 20
-13.63539632156123
 10
21.96398328214208
 20
-13.63539632155112
 10
21.96398328214208
 20
-13.63539632155112
 10
21.96398328214208
 20
-13.63539632155112
 10
21.96398328216444
 20
-13.46872965488445
 10
21.96398328216444
 20
-13.46872965488445
 10
21.96398328216444
 20
-13.46872965488445
 10
22.65846841671305
 20
-13.46872965497798
 10
22.65846841671305
 20
-13.46872965497798
 10
22.65846841671305
 20
-13.46872965497798
 10
22.65846841669069
 20
-13.63539632164465
 10
22.65846841669069
 20
-13.63539632164465
 10
22.65846841669069
 20
-13.63539632164465
 10
22.58346299134347
 20
-13.63539632163454
 10
22.58346299134347
 20
-13.63539632163454
 10
22.64041557380167
 20
-13.68818495011444
 10
22.67791828646305
 20
-13.77846272789727
 10
22.67791828645209
 20
-13.86041259768894
 10
22.67791828642278
 20
-14.07710096574445
 10
22.53068792616028
 20
-14.22155083551625
 10
22.31121906765333
 20
-14.2215508354868
 97
        0
 97
        0
 92
        1
 93
        1
 72
     4
 94
        3
 73
     0
 74
     1
 95
       17
 96
       13
 40
0.0
 40
0.0
 40
0.0
 40
0.0
 40
1.0
 40
1.0
 40
1.0
 40
2.0
 40
2.0
 40
2.0
 40
3.0
 40
3.0
 40
3.0
 40
4.0
 40
4.0
 40
4.0
 40
4.0
 10
22.31121906773236
 20
-13.63539632159786
 10
22.17927462328791
 20
-13.63539632158012
 10
22.09176377258223
 20
-13.71874321826969
 10
22.09176377256543
 20
-13.84375678163774
 10
22.09176377254835
 20
-13.97014024517944
 10
22.1792746232314
 20
-14.05487060543432
 10
22.31121906767584
 20
-14.05487060545208
 10
22.44317707548834
 20
-14.05487060546986
 10
22.53068792619418
 20
-13.97014024523848
 10
22.53068792621126
 20
-13.84375678169686
 10
22.53068792622806
 20
-13.71874321832881
 10
22.44317707554486
 20
-13.63539632161569
 10
22.31121906773236
 20
-13.63539632159786
 97
        0
 97
        0
 75
     2
 76
     1
 98
        0
  0
SPLINE
  5
7D
330
66
100
AcDbEntity
  8
Layer 1
370
     0
100
AcDbSpline
210
0.0
220
0.0
230
1.0
 70
    11
 71
     3
 72
    53
 73
    49
 74
     0
 42
0.0000000001
 43
0.0000000001
 12
1.0
 22
0.0
 32
0.0
 13
1.0
 23
0.0
 33
0.0
 40
0.0
 40
0.0
 40
0.0
 40
0.0
 40
1.0
 40
1.0
 40
1.0
 40
2.0
 40
2.0
 40
2.0
 40
3.0
 40
3.0
 40
3.0
 40
4.0
 40
4.0
 40
4.0
 40
5.0
 40
5.0
 40
5.0
 40
6.0
 40
6.0
 40
6.0
 40
7.0
 40
7.0
 40
7.0
 40
8.0
 40
8.0
 40
8.0
 40
9.0
 40
9.0
 40
9.0
 40
10.0
 40
10.0
 40
10.0
 40
11.0
 40
11.0
 40
11.0
 40
12.0
 40
12.0
 40
12.0
 40
13.0
 40
13.0
 40
13.0
 40
14.0
 40
14.0
 40
14.0
 40
15.0
 40
15.0
 40
15.0
 40
16.0
 40
16.0
 40
16.0
 40
16.0
 10
22.48067978827529
 20
-13.21319580078736
 30
0.0
 10
22.48067978827529
 20
-13.21319580078736
 30
0.0
 10
22.10288573445584
 20
-13.21319580073648
 30
0.0
 10
22.10288573445584
 20
-13.21319580073648
 30
0.0
 10
22.10288573445584
 20
-13.21319580073648
 30
0.0
 10
22.10288573444096
 20
-13.32430691184759
 30
0.0
 10
22.10288573444096
 20
-13.32430691184759
 30
0.0
 10
22.10288573444096
 20
-13.32430691184759
 30
0.0
 10
21.96398328218402
 20
-13.3243069118289
 30
0.0
 10
21.96398328218402
 20
-13.3243069118289
 30
0.0
 10
21.96398328218402
 20
-13.3243069118289
 30
0.0
 10
21.9639832821989
 20
-13.21319580071779
 30
0.0
 10
21.9639832821989
 20
-13.21319580071779
 30
0.0
 10
21.9639832821989
 20
-13.21319580071779
 30
0.0
 10
21.70562824747667
 20
-13.21319580068297
 30
0.0
 10
21.70562824747667
 20
-13.21319580068297
 30
0.0
 10
21.70562824747667
 20
-13.21319580068297
 30
0.0
 10
21.70562824749916
 20
-13.04652913401631
 30
0.0
 10
21.70562824749916
 20
-13.04652913401631
 30
0.0
 10
21.70562824749916
 20
-13.04652913401631
 30
0.0
 10
21.96398328222138
 20
-13.04652913405112
 30
0.0
 10
21.96398328222138
 20
-13.04652913405112
 30
0.0
 10
21.96398328222138
 20
-13.04652913405112
 30
0.0
 10
21.963983282245
 20
-12.87150743266223
 30
0.0
 10
21.963983282245
 20
-12.87150743266223
 30
0.0
 10
21.963983282245
 20
-12.87150743266223
 30
0.0
 10
22.10288573450195
 20
-12.87150743268093
 30
0.0
 10
22.10288573450195
 20
-12.87150743268093
 30
0.0
 10
22.10288573450195
 20
-12.87150743268093
 30
0.0
 10
22.10288573447832
 20
-13.04652913406981
 30
0.0
 10
22.10288573447832
 20
-13.04652913406981
 30
0.0
 10
22.10288573447832
 20
-13.04652913406981
 30
0.0
 10
22.48067978829777
 20
-13.0465291341207
 30
0.0
 10
22.48067978829777
 20
-13.0465291341207
 30
0.0
 10
22.51540201051999
 20
-13.04652913412539
 30
0.0
 10
22.53901583430805
 20
-13.02151828343413
 30
0.0
 10
22.53901583431292
 20
-12.98541259767025
 30
0.0
 10
22.53901583431292
 20
-12.98541259767025
 30
0.0
 10
22.53901583432917
 20
-12.86456298829525
 30
0.0
 10
22.53901583432917
 20
-12.86456298829525
 30
0.0
 10
22.53901583432917
 20
-12.86456298829525
 30
0.0
 10
22.65846841679445
 20
-12.86456298831131
 30
0.0
 10
22.65846841679445
 20
-12.86456298831131
 30
0.0
 10
22.66957681522861
 20
-12.88957383900727
 30
0.0
 10
22.67791828657639
 20
-12.93680148657783
 30
0.0
 10
22.67791828657028
 20
-12.9826185438695
 30
0.0
 10
22.67791828655153
 20
-13.1215345594945
 30
0.0
 10
22.5987489071989
 20
-13.21319580080328
 30
0.0
 10
22.48067978827529
 20
-13.21319580078736
 30
0.0
  0
HATCH
  5
7E
330
66
100
AcDbEntity
  8
Layer 1
 62
   250
420
  2301728
100
AcDbHatch
 10
0.0
 20
0.0
 30
0.0
210
0.0
220
0.0
230
1.0
  2
SOLID
 70
     1
 71
     0
 91
        1
 92
        1
 93
        1
 72
     4
 94
        3
 73
     0
 74
     1
 95
       53
 96
       49
 40
0.0
 40
0.0
 40
0.0
 40
0.0
 40
1.0
 40
1.0
 40
1.0
 40
2.0
 40
2.0
 40
2.0
 40
3.0
 40
3.0
 40
3.0
 40
4.0
 40
4.0
 40
4.0
 40
5.0
 40
5.0
 40
5.0
 40
6.0
 40
6.0
 40
6.0
 40
7.0
 40
7.0
 40
7.0
 40
8.0
 40
8.0
 40
8.0
 40
9.0
 40
9.0
 40
9.0
 40
10.0
 40
10.0
 40
10.0
 40
11.0
 40
11.0
 40
11.0
 40
12.0
 40
12.0
 40
12.0
 40
13.0
 40
13.0
 40
13.0
 40
14.0
 40
14.0
 40
14.0
 40
15.0
 40
15.0
 40
15.0
 40
16.0
 40
16.0
 40
16.0
 40
16.0
 10
22.48067978827529
 20
-13.21319580078736
 10
22.48067978827529
 20
-13.21319580078736
 10
22.10288573445584
 20
-13.21319580073648
 10
22.10288573445584
 20
-13.21319580073648
 10
22.10288573445584
 20
-13.21319580073648
 10
22.10288573444096
 20
-13.32430691184759
 10
22.10288573444096
 20
-13.32430691184759
 10
22.10288573444096
 20
-13.32430691184759
 10
21.96398328218402
 20
-13.3243069118289
 10
21.96398328218402
 20
-13.3243069118289
 10
21.96398328218402
 20
-13.3243069118289
 10
21.9639832821989
 20
-13.21319580071779
 10
21.9639832821989
 20
-13.21319580071779
 10
21.9639832821989
 20
-13.21319580071779
 10
21.70562824747667
 20
-13.21319580068297
 10
21.70562824747667
 20
-13.21319580068297
 10
21.70562824747667
 20
-13.21319580068297
 10
21.70562824749916
 20
-13.04652913401631
 10
21.70562824749916
 20
-13.04652913401631
 10
21.70562824749916
 20
-13.04652913401631
 10
21.96398328222138
 20
-13.04652913405112
 10
21.96398328222138
 20
-13.04652913405112
 10
21.96398328222138
 20
-13.04652913405112
 10
21.963983282245
 20
-12.87150743266223
 10
21.963983282245
 20
-12.87150743266223
 10
21.963983282245
 20
-12.87150743266223
 10
22.10288573450195
 20
-12.87150743268093
 10
22.10288573450195
 20
-12.87150743268093
 10
22.10288573450195
 20
-12.87150743268093
 10
22.10288573447832
 20
-13.04652913406981
 10
22.10288573447832
 20
-13.04652913406981
 10
22.10288573447832
 20
-13.04652913406981
 10
22.48067978829777
 20
-13.0465291341207
 10
22.48067978829777
 20
-13.0465291341207
 10
22.51540201051999
 20
-13.04652913412539
 10
22.53901583430805
 20
-13.02151828343413
 10
22.53901583431292
 20
-12.98541259767025
 10
22.53901583431292
 20
-12.98541259767025
 10
22.53901583432917
 20
-12.86456298829525
 10
22.53901583432917
 20
-12.86456298829525
 10
22.53901583432917
 20
-12.86456298829525
 10
22.65846841679445
 20
-12.86456298831131
 10
22.65846841679445
 20
-12.86456298831131
 10
22.66957681522861
 20
-12.88957383900727
 10
22.67791828657639
 20
-12.93680148657783
 10
22.67791828657028
 20
-12.9826185438695
 10
22.67791828655153
 20
-13.1215345594945
 10
22.5987489071989
 20
-13.21319580080328
 10
22.48067978827529
 20
-13.21319580078736
 97
        0
 97
        0
 75
     2
 76
     1
 98
        0
  0
SPLINE
  5
7F
330
66
100
AcDbEntity
  8
Layer 1
370
     0
100
AcDbSpline
210
0.0
220
0.0
230
1.0
 70
    11
 71
     3
 72
    35
 73
    31
 74
     0
 42
0.0000000001
 43
0.0000000001
 12
1.0
 22
0.0
 32
0.0
 13
1.0
 23
0.0
 33
0.0
 40
0.0
 40
0.0
 40
0.0
 40
0.0
 40
1.0
 40
1.0
 40
1.0
 40
2.0
 40
2.0
 40
2.0
 40
3.0
 40
3.0
 40
3.0
 40
4.0
 40
4.0
 40
4.0
 40
5.0
 40
5.0
 40
5.0
 40
6.0
 40
6.0
 40
6.0
 40
7.0
 40
7.0
 40
7.0
 40
8.0
 40
8.0
 40
8.0
 40
9.0
 40
9.0
 40
9.0
 40
10.0
 40
10.0
 40
10.0
 40
10.0
 10
21.70562824760153
 20
-12.28680419912047
 30
0.0
 10
21.70562824760153
 20
-12.28680419912047
 30
0.0
 10
21.7056282476611
 20
-11.84372965484964
 30
0.0
 10
21.7056282476611
 20
-11.84372965484964
 30
0.0
 10
21.70562824768624
 20
-11.65759955502325
 30
0.0
 10
21.81535589527235
 20
-11.53398301857972
 30
0.0
 10
21.97925563485569
 20
-11.53398301860175
 30
0.0
 10
22.10565266176541
 20
-11.53398301861883
 30
0.0
 10
22.20983289178957
 20
-11.61176893443144
 30
0.0
 10
22.23899413309348
 20
-11.7270575629076
 30
0.0
 10
22.23899413309348
 20
-11.7270575629076
 30
0.0
 10
22.65846841698264
 20
-11.4673190647002
 30
0.0
 10
22.65846841698264
 20
-11.4673190647002
 30
0.0
 10
22.65846841698264
 20
-11.4673190647002
 30
0.0
 10
22.658468416955
 20
-11.6728854709502
 30
0.0
 10
22.658468416955
 20
-11.6728854709502
 30
0.0
 10
22.658468416955
 20
-11.6728854709502
 30
0.0
 10
22.25288302195584
 20
-11.92428249780525
 30
0.0
 10
22.25288302195584
 20
-11.92428249780525
 30
0.0
 10
22.25288302195584
 20
-11.92428249780525
 30
0.0
 10
22.25288302193207
 20
-12.10068766273581
 30
0.0
 10
22.25288302193207
 20
-12.10068766273581
 30
0.0
 10
22.25288302193207
 20
-12.10068766273581
 30
0.0
 10
22.65846841689735
 20
-12.10068766279048
 30
0.0
 10
22.65846841689735
 20
-12.10068766279048
 30
0.0
 10
22.65846841689735
 20
-12.10068766279048
 30
0.0
 10
22.65846841687224
 20
-12.28680419924881
 30
0.0
 10
22.65846841687224
 20
-12.28680419924881
 30
0.0
 10
22.65846841687224
 20
-12.28680419924881
 30
0.0
 10
21.70562824760153
 20
-12.28680419912047
 30
0.0
 10
21.70562824760153
 20
-12.28680419912047
 30
0.0
  0
SPLINE
  5
80
330
66
100
AcDbEntity
  8
Layer 1
370
     0
100
AcDbSpline
210
0.0
220
0.0
230
1.0
 70
    11
 71
     3
 72
    20
 73
    16
 74
     0
 42
0.0000000001
 43
0.0000000001
 12
1.0
 22
0.0
 32
0.0
 13
1.0
 23
0.0
 33
0.0
 40
0.0
 40
0.0
 40
0.0
 40
0.0
 40
1.0
 40
1.0
 40
1.0
 40
2.0
 40
2.0
 40
2.0
 40
3.0
 40
3.0
 40
3.0
 40
4.0
 40
4.0
 40
4.0
 40
5.0
 40
5.0
 40
5.0
 40
5.0
 10
22.08621635529999
 20
-11.84372965490087
 30
0.0
 10
22.08621635531154
 20
-11.75899929465782
 30
0.0
 10
22.03204426330333
 20
-11.71593560107415
 30
0.0
 10
21.97925563483111
 20
-11.71593560106703
 30
0.0
 10
21.92509710618527
 20
-11.71593560105975
 30
0.0
 10
21.87230847770737
 20
-11.75899929462902
 30
0.0
 10
21.87230847769582
 20
-11.84372965487207
 30
0.0
 10
21.87230847769582
 20
-11.84372965487207
 30
0.0
 10
21.87230847766124
 20
-12.10068766268457
 30
0.0
 10
21.87230847766124
 20
-12.10068766268457
 30
0.0
 10
21.87230847766124
 20
-12.10068766268457
 30
0.0
 10
22.0862163552654
 20
-12.10068766271337
 30
0.0
 10
22.0862163552654
 20
-12.10068766271337
 30
0.0
 10
22.0862163552654
 20
-12.10068766271337
 30
0.0
 10
22.08621635529999
 20
-11.84372965490087
 30
0.0
 10
22.08621635529999
 20
-11.84372965490087
 30
0.0
  0
HATCH
  5
81
330
66
100
AcDbEntity
  8
Layer 1
 62
   250
420
  2301728
100
AcDbHatch
 10
0.0
 20
0.0
 30
0.0
210
0.0
220
0.0
230
1.0
  2
SOLID
 70
     1
 71
     0
 91
        2
 92
        1
 93
        1
 72
     4
 94
        3
 73
     0
 74
     1
 95
       35
 96
       31
 40
0.0
 40
0.0
 40
0.0
 40
0.0
 40
1.0
 40
1.0
 40
1.0
 40
2.0
 40
2.0
 40
2.0
 40
3.0
 40
3.0
 40
3.0
 40
4.0
 40
4.0
 40
4.0
 40
5.0
 40
5.0
 40
5.0
 40
6.0
 40
6.0
 40
6.0
 40
7.0
 40
7.0
 40
7.0
 40
8.0
 40
8.0
 40
8.0
 40
9.0
 40
9.0
 40
9.0
 40
10.0
 40
10.0
 40
10.0
 40
10.0
 10
21.70562824760153
 20
-12.28680419912047
 10
21.70562824760153
 20
-12.28680419912047
 10
21.7056282476611
 20
-11.84372965484964
 10
21.7056282476611
 20
-11.84372965484964
 10
21.70562824768624
 20
-11.65759955502325
 10
21.81535589527235
 20
-11.53398301857972
 10
21.97925563485569
 20
-11.53398301860175
 10
22.10565266176541
 20
-11.53398301861883
 10
22.20983289178957
 20
-11.61176893443144
 10
22.23899413309348
 20
-11.7270575629076
 10
22.23899413309348
 20
-11.7270575629076
 10
22.65846841698264
 20
-11.4673190647002
 10
22.65846841698264
 20
-11.4673190647002
 10
22.65846841698264
 20
-11.4673190647002
 10
22.658468416955
 20
-11.6728854709502
 10
22.658468416955
 20
-11.6728854709502
 10
22.658468416955
 20
-11.6728854709502
 10
22.25288302195584
 20
-11.92428249780525
 10
22.25288302195584
 20
-11.92428249780525
 10
22.25288302195584
 20
-11.92428249780525
 10
22.25288302193207
 20
-12.10068766273581
 10
22.25288302193207
 20
-12.10068766273581
 10
22.25288302193207
 20
-12.10068766273581
 10
22.65846841689735
 20
-12.10068766279048
 10
22.65846841689735
 20
-12.10068766279048
 10
22.65846841689735
 20
-12.10068766279048
 10
22.65846841687224
 20
-12.28680419924881
 10
22.65846841687224
 20
-12.28680419924881
 10
22.65846841687224
 20
-12.28680419924881
 10
21.70562824760153
 20
-12.28680419912047
 10
21.70562824760153
 20
-12.28680419912047
 97
        0
 97
        0
 92
        1
 93
        1
 72
     4
 94
        3
 73
     0
 74
     1
 95
       20
 96
       16
 40
0.0
 40
0.0
 40
0.0
 40
0.0
 40
1.0
 40
1.0
 40
1.0
 40
2.0
 40
2.0
 40
2.0
 40
3.0
 40
3.0
 40
3.0
 40
4.0
 40
4.0
 40
4.0
 40
5.0
 40
5.0
 40
5.0
 40
5.0
 10
22.08621635529999
 20
-11.84372965490087
 10
22.08621635531154
 20
-11.75899929465782
 10
22.03204426330333
 20
-11.71593560107415
 10
21.97925563483111
 20
-11.71593560106703
 10
21.92509710618527
 20
-11.71593560105975
 10
21.87230847770737
 20
-11.75899929462902
 10
21.87230847769582
 20
-11.84372965487207
 10
21.87230847769582
 20
-11.84372965487207
 10
21.87230847766124
 20
-12.10068766268457
 10
21.87230847766124
 20
-12.10068766268457
 10
21.87230847766124
 20
-12.10068766268457
 10
22.0862163552654
 20
-12.10068766271337
 10
22.0862163552654
 20
-12.10068766271337
 10
22.0862163552654
 20
-12.10068766271337
 10
22.08621635529999
 20
-11.84372965490087
 10
22.08621635529999
 20
-11.84372965490087
 97
        0
 97
        0
 75
     2
 76
     1
 98
        0
  0
SPLINE
  5
82
330
66
100
AcDbEntity
  8
Layer 1
370
     0
100
AcDbSpline
210
0.0
220
0.0
230
1.0
 70
    11
 71
     3
 72
    32
 73
    28
 74
     0
 42
0.0000000001
 43
0.0000000001
 12
1.0
 22
0.0
 32
0.0
 13
1.0
 23
0.0
 33
0.0
 40
0.0
 40
0.0
 40
0.0
 40
0.0
 40
1.0
 40
1.0
 40
1.0
 40
2.0
 40
2.0
 40
2.0
 40
3.0
 40
3.0
 40
3.0
 40
4.0
 40
4.0
 40
4.0
 40
5.0
 40
5.0
 40
5.0
 40
6.0
 40
6.0
 40
6.0
 40
7.0
 40
7.0
 40
7.0
 40
8.0
 40
8.0
 40
8.0
 40
9.0
 40
9.0
 40
9.0
 40
9.0
 10
22.31121906803597
 20
-11.38124593097286
 30
0.0
 10
22.09176377289709
 20
-11.3812459309433
 30
0.0
 10
21.94453341267348
 20
-11.23679606113183
 30
0.0
 10
21.94453341270264
 20
-11.02012125644433
 30
0.0
 10
21.9445334127136
 20
-10.93817138665266
 30
0.0
 10
21.98203612539944
 20
-10.84788004551188
 30
0.0
 10
22.03898870787179
 20
-10.79510498041534
 30
0.0
 10
22.03898870787179
 20
-10.79510498041534
 30
0.0
 10
21.96398328252457
 20
-10.79510498040529
 30
0.0
 10
21.96398328252457
 20
-10.79510498040529
 30
0.0
 10
21.96398328252457
 20
-10.79510498040529
 30
0.0
 10
21.96398328254708
 20
-10.62842475037056
 30
0.0
 10
21.96398328254708
 20
-10.62842475037056
 30
0.0
 10
21.96398328254708
 20
-10.62842475037056
 30
0.0
 10
22.65846841709569
 20
-10.62842475046409
 30
0.0
 10
22.65846841709569
 20
-10.62842475046409
 30
0.0
 10
22.65846841709569
 20
-10.62842475046409
 30
0.0
 10
22.65846841707318
 20
-10.79510498049881
 30
0.0
 10
22.65846841707318
 20
-10.79510498049881
 30
0.0
 10
22.65846841707318
 20
-10.79510498049881
 30
0.0
 10
22.58346299172596
 20
-10.79510498048871
 30
0.0
 10
22.58346299172596
 20
-10.79510498048871
 30
0.0
 10
22.64041557418416
 20
-10.84788004560055
 30
0.0
 10
22.67791828684555
 20
-10.93817138675144
 30
0.0
 10
22.67791828683458
 20
-11.02012125654311
 30
0.0
 10
22.67791828680543
 20
-11.23679606123061
 30
0.0
 10
22.53068792654292
 20
-11.38124593100242
 30
0.0
 10
22.31121906803597
 20
-11.38124593097286
 30
0.0
  0
SPLINE
  5
83
330
66
100
AcDbEntity
  8
Layer 1
370
     0
100
AcDbSpline
210
0.0
220
0.0
230
1.0
 70
    11
 71
     3
 72
    17
 73
    13
 74
     0
 42
0.0000000001
 43
0.0000000001
 12
1.0
 22
0.0
 32
0.0
 13
1.0
 23
0.0
 33
0.0
 40
0.0
 40
0.0
 40
0.0
 40
0.0
 40
1.0
 40
1.0
 40
1.0
 40
2.0
 40
2.0
 40
2.0
 40
3.0
 40
3.0
 40
3.0
 40
4.0
 40
4.0
 40
4.0
 40
4.0
 10
22.31121906811485
 20
-10.79510498045203
 30
0.0
 10
22.17927462367041
 20
-10.79510498043429
 30
0.0
 10
22.09176377296487
 20
-10.8784383137558
 30
0.0
 10
22.09176377294792
 20
-11.00345187712385
 30
0.0
 10
22.09176377293096
 20
-11.12984890403358
 30
0.0
 10
22.17927462361389
 20
-11.21457926428846
 30
0.0
 10
22.31121906805834
 20
-11.21457926430619
 30
0.0
 10
22.44317707587084
 20
-11.21457926432403
 30
0.0
 10
22.5306879265768
 20
-11.12984890409269
 30
0.0
 10
22.53068792659375
 20
-11.00345187718297
 30
0.0
 10
22.53068792661055
 20
-10.87843831381492
 30
0.0
 10
22.44317707592735
 20
-10.79510498046986
 30
0.0
 10
22.31121906811485
 20
-10.79510498045203
 30
0.0
  0
HATCH
  5
84
330
66
100
AcDbEntity
  8
Layer 1
 62
   250
420
  2301728
100
AcDbHatch
 10
0.0
 20
0.0
 30
0.0
210
0.0
220
0.0
230
1.0
  2
SOLID
 70
     1
 71
     0
 91
        2
 92
        1
 93
        1
 72
     4
 94
        3
 73
     0
 74
     1
 95
       32
 96
       28
 40
0.0
 40
0.0
 40
0.0
 40
0.0
 40
1.0
 40
1.0
 40
1.0
 40
2.0
 40
2.0
 40
2.0
 40
3.0
 40
3.0
 40
3.0
 40
4.0
 40
4.0
 40
4.0
 40
5.0
 40
5.0
 40
5.0
 40
6.0
 40
6.0
 40
6.0
 40
7.0
 40
7.0
 40
7.0
 40
8.0
 40
8.0
 40
8.0
 40
9.0
 40
9.0
 40
9.0
 40
9.0
 10
22.31121906803597
 20
-11.38124593097286
 10
22.09176377289709
 20
-11.3812459309433
 10
21.94453341267348
 20
-11.23679606113183
 10
21.94453341270264
 20
-11.02012125644433
 10
21.9445334127136
 20
-10.93817138665266
 10
21.98203612539944
 20
-10.84788004551188
 10
22.03898870787179
 20
-10.79510498041534
 10
22.03898870787179
 20
-10.79510498041534
 10
21.96398328252457
 20
-10.79510498040529
 10
21.96398328252457
 20
-10.79510498040529
 10
21.96398328252457
 20
-10.79510498040529
 10
21.96398328254708
 20
-10.62842475037056
 10
21.96398328254708
 20
-10.62842475037056
 10
21.96398328254708
 20
-10.62842475037056
 10
22.65846841709569
 20
-10.62842475046409
 10
22.65846841709569
 20
-10.62842475046409
 10
22.65846841709569
 20
-10.62842475046409
 10
22.65846841707318
 20
-10.79510498049881
 10
22.65846841707318
 20
-10.79510498049881
 10
22.65846841707318
 20
-10.79510498049881
 10
22.58346299172596
 20
-10.79510498048871
 10
22.58346299172596
 20
-10.79510498048871
 10
22.64041557418416
 20
-10.84788004560055
 10
22.67791828684555
 20
-10.93817138675144
 10
22.67791828683458
 20
-11.02012125654311
 10
22.67791828680543
 20
-11.23679606123061
 10
22.53068792654292
 20
-11.38124593100242
 10
22.31121906803597
 20
-11.38124593097286
 97
        0
 97
        0
 92
        1
 93
        1
 72
     4
 94
        3
 73
     0
 74
     1
 95
       17
 96
       13
 40
0.0
 40
0.0
 40
0.0
 40
0.0
 40
1.0
 40
1.0
 40
1.0
 40
2.0
 40
2.0
 40
2.0
 40
3.0
 40
3.0
 40
3.0
 40
4.0
 40
4.0
 40
4.0
 40
4.0
 10
22.31121906811485
 20
-10.79510498045203
 10
22.17927462367041
 20
-10.79510498043429
 10
22.09176377296487
 20
-10.8784383137558
 10
22.09176377294792
 20
-11.00345187712385
 10
22.09176377293096
 20
-11.12984890403358
 10
22.17927462361389
 20
-11.21457926428846
 10
22.31121906805834
 20
-11.21457926430619
 10
22.44317707587084
 20
-11.21457926432403
 10
22.5306879265768
 20
-11.12984890409269
 10
22.53068792659375
 20
-11.00345187718297
 10
22.53068792661055
 20
-10.87843831381492
 10
22.44317707592735
 20
-10.79510498046986
 10
22.31121906811485
 20
-10.79510498045203
 97
        0
 97
        0
 75
     2
 76
     1
 98
        0
  0
SPLINE
  5
85
330
66
100
AcDbEntity
  8
Layer 1
370
     0
100
AcDbSpline
210
0.0
220
0.0
230
1.0
 70
    11
 71
     3
 72
    35
 73
    31
 74
     0
 42
0.0000000001
 43
0.0000000001
 12
1.0
 22
0.0
 32
0.0
 13
1.0
 23
0.0
 33
0.0
 40
0.0
 40
0.0
 40
0.0
 40
0.0
 40
1.0
 40
1.0
 40
1.0
 40
2.0
 40
2.0
 40
2.0
 40
3.0
 40
3.0
 40
3.0
 40
4.0
 40
4.0
 40
4.0
 40
5.0
 40
5.0
 40
5.0
 40
6.0
 40
6.0
 40
6.0
 40
7.0
 40
7.0
 40
7.0
 40
8.0
 40
8.0
 40
8.0
 40
9.0
 40
9.0
 40
9.0
 40
10.0
 40
10.0
 40
10.0
 40
10.0
 10
22.31121906815833
 20
-10.4729071722923
 30
0.0
 10
22.09176377301944
 20
-10.47290717226274
 30
0.0
 10
21.94453341279652
 20
-10.32290988491655
 30
0.0
 10
21.94453341282709
 20
-10.09649658196516
 30
0.0
 10
21.94453341285223
 20
-9.908996581965159
 30
0.0
 10
22.06260253179542
 20
-9.764533148821302
 30
0.0
 10
22.23899413336193
 20
-9.733974880615934
 30
0.0
 10
22.23899413336193
 20
-9.733974880615934
 30
0.0
 10
22.23899413334041
 20
-9.893710666206212
 30
0.0
 10
22.23899413334041
 20
-9.893710666206212
 30
0.0
 10
22.15009981910139
 20
-9.915941026437293
 30
0.0
 10
22.09176377308361
 20
-9.996493869311355
 30
0.0
 10
22.09176377307015
 20
-10.09649658198497
 30
0.0
 10
22.09176377305306
 20
-10.22289360889469
 30
0.0
 10
22.17927462373624
 20
-10.3062405056079
 30
0.0
 10
22.31121906818069
 20
-10.30624050562564
 30
0.0
 10
22.44317707599319
 20
-10.30624050564347
 30
0.0
 10
22.5306879266989
 20
-10.22289360895381
 30
0.0
 10
22.53068792671598
 20
-10.09649658204408
 30
0.0
 10
22.53068792672957
 20
-9.995110405828806
 30
0.0
 10
22.46957139028235
 20
-9.913160536028954
 30
0.0
 10
22.37651312205596
 20
-9.892327202683038
 30
0.0
 10
22.37651312205596
 20
-9.892327202683038
 30
0.0
 10
22.37651312207749
 20
-9.732591417092761
 30
0.0
 10
22.37651312207749
 20
-9.732591417092761
 30
0.0
 10
22.55706867762903
 20
-9.76175265843656
 30
0.0
 10
22.67791828698445
 20
-9.907599555154219
 30
0.0
 10
22.67791828695903
 20
-10.09649658206394
 30
0.0
 10
22.67791828692846
 20
-10.32290988501533
 30
0.0
 10
22.53068792666527
 20
-10.47290717232186
 30
0.0
 10
22.31121906815833
 20
-10.4729071722923
 30
0.0
  0
HATCH
  5
86
330
66
100
AcDbEntity
  8
Layer 1
 62
   250
420
  2301728
100
AcDbHatch
 10
0.0
 20
0.0
 30
0.0
210
0.0
220
0.0
230
1.0
  2
SOLID
 70
     1
 71
     0
 91
        1
 92
        1
 93
        1
 72
     4
 94
        3
 73
     0
 74
     1
 95
       35
 96
       31
 40
0.0
 40
0.0
 40
0.0
 40
0.0
 40
1.0
 40
1.0
 40
1.0
 40
2.0
 40
2.0
 40
2.0
 40
3.0
 40
3.0
 40
3.0
 40
4.0
 40
4.0
 40
4.0
 40
5.0
 40
5.0
 40
5.0
 40
6.0
 40
6.0
 40
6.0
 40
7.0
 40
7.0
 40
7.0
 40
8.0
 40
8.0
 40
8.0
 40
9.0
 40
9.0
 40
9.0
 40
10.0
 40
10.0
 40
10.0
 40
10.0
 10
22.31121906815833
 20
-10.4729071722923
 10
22.09176377301944
 20
-10.47290717226274
 10
21.94453341279652
 20
-10.32290988491655
 10
21.94453341282709
 20
-10.09649658196516
 10
21.94453341285223
 20
-9.908996581965159
 10
22.06260253179542
 20
-9.764533148821302
 10
22.23899413336193
 20
-9.733974880615934
 10
22.23899413336193
 20
-9.733974880615934
 10
22.23899413334041
 20
-9.893710666206212
 10
22.23899413334041
 20
-9.893710666206212
 10
22.15009981910139
 20
-9.915941026437293
 10
22.09176377308361
 20
-9.996493869311355
 10
22.09176377307015
 20
-10.09649658198497
 10
22.09176377305306
 20
-10.22289360889469
 10
22.17927462373624
 20
-10.3062405056079
 10
22.31121906818069
 20
-10.30624050562564
 10
22.44317707599319
 20
-10.30624050564347
 10
22.5306879266989
 20
-10.22289360895381
 10
22.53068792671598
 20
-10.09649658204408
 10
22.53068792672957
 20
-9.995110405828806
 10
22.46957139028235
 20
-9.913160536028954
 10
22.37651312205596
 20
-9.892327202683038
 10
22.37651312205596
 20
-9.892327202683038
 10
22.37651312207749
 20
-9.732591417092761
 10
22.37651312207749
 20
-9.732591417092761
 10
22.55706867762903
 20
-9.76175265843656
 10
22.67791828698445
 20
-9.907599555154219
 10
22.67791828695903
 20
-10.09649658206394
 10
22.67791828692846
 20
-10.32290988501533
 10
22.53068792666527
 20
-10.47290717232186
 10
22.31121906815833
 20
-10.4729071722923
 97
        0
 97
        0
 75
     2
 76
     1
 98
        0
  0
POLYLINE
  5
87
330
66
100
AcDbEntity
  8
Layer 1
370
     0
100
AcDb2dPolyline
 66
     1
 10
0.0
 20
0.0
 30
0.0
  0
VERTEX
  5
88
330
87
100
AcDbEntity
  8
Layer 1
370
     0
100
AcDbVertex
100
AcDb2dVertex
 10
21.70562824796833
 20
-9.563198513356584
 30
0.0
  0
VERTEX
  5
89
330
87
100
AcDbEntity
  8
Layer 1
370
     0
100
AcDbVertex
100
AcDb2dVertex
 10
21.70562824799084
 20
-9.396531846689918
 30
0.0
  0
VERTEX
  5
8A
330
87
100
AcDbEntity
  8
Layer 1
370
     0
100
AcDbVertex
100
AcDb2dVertex
 10
22.20010795719223
 20
-9.396531846756563
 30
0.0
  0
VERTEX
  5
8B
330
87
100
AcDbEntity
  8
Layer 1
370
     0
100
AcDbVertex
100
AcDb2dVertex
 10
21.96398328274457
 20
-9.16179063578723
 30
0.0
  0
VERTEX
  5
8C
330
87
100
AcDbEntity
  8
Layer 1
370
     0
100
AcDbVertex
100
AcDb2dVertex
 10
21.9639832827761
 20
-8.928446451759454
 30
0.0
  0
VERTEX
  5
8D
330
87
100
AcDbEntity
  8
Layer 1
370
     0
100
AcDbVertex
100
AcDb2dVertex
 10
22.25288302231971
 20
-9.22290717228442
 30
0.0
  0
VERTEX
  5
8E
330
87
100
AcDbEntity
  8
Layer 1
370
     0
100
AcDbVertex
100
AcDb2dVertex
 10
22.65846841732915
 20
-8.895107693172424
 30
0.0
  0
VERTEX
  5
8F
330
87
100
AcDbEntity
  8
Layer 1
370
     0
100
AcDbVertex
100
AcDb2dVertex
 10
22.65846841730028
 20
-9.109002007408536
 30
0.0
  0
VERTEX
  5
90
330
87
100
AcDbEntity
  8
Layer 1
370
     0
100
AcDbVertex
100
AcDb2dVertex
 10
22.36956867768554
 20
-9.342359754765463
 30
0.0
  0
VERTEX
  5
91
330
87
100
AcDbEntity
  8
Layer 1
370
     0
100
AcDbVertex
100
AcDb2dVertex
 10
22.42372720632418
 20
-9.396531846786628
 30
0.0
  0
VERTEX
  5
92
330
87
100
AcDbEntity
  8
Layer 1
370
     0
100
AcDbVertex
100
AcDb2dVertex
 10
22.65846841726168
 20
-9.396531846818258
 30
0.0
  0
VERTEX
  5
93
330
87
100
AcDbEntity
  8
Layer 1
370
     0
100
AcDbVertex
100
AcDb2dVertex
 10
22.65846841723917
 20
-9.563198513484924
 30
0.0
  0
VERTEX
  5
94
330
87
100
AcDbEntity
  8
Layer 1
370
     0
100
AcDbVertex
100
AcDb2dVertex
 10
21.70562824796833
 20
-9.563198513356584
 30
0.0
  0
SEQEND
  5
95
330
87
100
AcDbEntity
  8
Layer 1
370
     0
  0
HATCH
  5
96
330
66
100
AcDbEntity
  8
Layer 1
 62
   250
420
  2301728
100
AcDbHatch
 10
0.0
 20
0.0
 30
0.0
210
0.0
220
0.0
230
1.0
  2
SOLID
 70
     1
 71
     0
 91
        1
 92
        1
 93
       12
 72
     1
 10
21.70562824796833
 20
-9.563198513356584
 11
21.70562824799084
 21
-9.396531846689918
 72
     1
 10
21.70562824799084
 20
-9.396531846689918
 11
22.20010795719223
 21
-9.396531846756563
 72
     1
 10
22.20010795719223
 20
-9.396531846756563
 11
21.96398328274457
 21
-9.16179063578723
 72
     1
 10
21.96398328274457
 20
-9.16179063578723
 11
21.9639832827761
 21
-8.928446451759454
 72
     1
 10
21.9639832827761
 20
-8.928446451759454
 11
22.25288302231971
 21
-9.22290717228442
 72
     1
 10
22.25288302231971
 20
-9.22290717228442
 11
22.65846841732915
 21
-8.895107693172424
 72
     1
 10
22.65846841732915
 20
-8.895107693172424
 11
22.65846841730028
 21
-9.109002007408536
 72
     1
 10
22.65846841730028
 20
-9.109002007408536
 11
22.36956867768554
 21
-9.342359754765463
 72
     1
 10
22.36956867768554
 20
-9.342359754765463
 11
22.42372720632418
 21
-9.396531846786628
 72
     1
 10
22.42372720632418
 20
-9.396531846786628
 11
22.65846841726168
 21
-9.396531846818258
 72
     1
 10
22.65846841726168
 20
-9.396531846818258
 11
22.65846841723917
 21
-9.563198513484924
 72
     1
 10
22.65846841723917
 20
-9.563198513484924
 11
21.70562824796833
 21
-9.563198513356584
 97
        0
 75
     2
 76
     1
 98
        0
  0
ENDBLK
  5
69
330
66
100
AcDbEntity
  8
0
100
AcDbBlockEnd
  0
ENDSEC
  0
SECTION
  2
ENTITIES
  0
INSERT
  5
42
330
1F
100
AcDbEntity
  8
Layer 1
100
AcDbBlockReference
  2
block 2
 10
0.0
 20
0.0
 30
0.0
  0
POLYLINE
  5
97
330
1F
100
AcDbEntity
  8
Layer 1
 62
   240
420
 15539236
370
     9
100
AcDb2dPolyline
 66
     1
 10
0.0
 20
0.0
 30
0.0
  0
VERTEX
  5
98
330
97
100
AcDbEntity
  8
Layer 1
 62
   240
420
 15539236
370
     9
100
AcDbVertex
100
AcDb2dVertex
 10
7.806741119374465
 20
-2.708333333382307
 30
0.0
  0
VERTEX
  5
99
330
97
100
AcDbEntity
  8
Layer 1
 62
   240
420
 15539236
370
     9
100
AcDbVertex
100
AcDb2dVertex
 10
6.625641119400939
 20
-2.708333333284372
 30
0.0
  0
VERTEX
  5
9A
330
97
100
AcDbEntity
  8
Layer 1
 62
   240
420
 15539236
370
     9
100
AcDbVertex
100
AcDb2dVertex
 10
6.625641119449874
 20
-2.208333333284372
 30
0.0
  0
VERTEX
  5
9B
330
97
100
AcDbEntity
  8
Layer 1
 62
   240
420
 15539236
370
     9
100
AcDbVertex
100
AcDb2dVertex
 10
7.806741119423362
 20
-2.208333333382307
 30
0.0
  0
VERTEX
  5
9C
330
97
100
AcDbEntity
  8
Layer 1
 62
   240
420
 15539236
370
     9
100
AcDbVertex
100
AcDb2dVertex
 10
7.806741119374465
 20
-2.708333333382307
 30
0.0
  0
SEQEND
  5
9D
330
97
100
AcDbEntity
  8
Layer 1
 62
   240
420
 15539236
370
     9
  0
POLYLINE
  5
9E
330
1F
100
AcDbEntity
  8
Layer 1
 62
   240
420
 15539236
370
     9
100
AcDb2dPolyline
 66
     1
 10
0.0
 20
0.0
 30
0.0
  0
VERTEX
  5
9F
330
9E
100
AcDbEntity
  8
Layer 1
 62
   240
420
 15539236
370
     9
100
AcDbVertex
100
AcDb2dVertex
 10
6.179154082330594
 20
-3.495370370414889
 30
0.0
  0
VERTEX
  5
A0
330
9E
100
AcDbEntity
  8
Layer 1
 62
   240
420
 15539236
370
     9
100
AcDbVertex
100
AcDb2dVertex
 10
6.179154082330594
 20
-1.421296296251777
 30
0.0
  0
VERTEX
  5
A1
330
9E
100
AcDbEntity
  8
Layer 1
 62
   240
420
 15539236
370
     9
100
AcDbVertex
100
AcDb2dVertex
 10
8.25322815649372
 20
-1.421296296251777
 30
0.0
  0
VERTEX
  5
A2
330
9E
100
AcDbEntity
  8
Layer 1
 62
   240
420
 15539236
370
     9
100
AcDbVertex
100
AcDb2dVertex
 10
8.25322815649372
 20
-3.495370370414889
 30
0.0
  0
VERTEX
  5
A3
330
9E
100
AcDbEntity
  8
Layer 1
 62
   240
420
 15539236
370
     9
100
AcDbVertex
100
AcDb2dVertex
 10
6.179154082330594
 20
-3.495370370414889
 30
0.0
  0
SEQEND
  5
A4
330
9E
100
AcDbEntity
  8
Layer 1
 62
   240
420
 15539236
370
     9
  0
POLYLINE
  5
A5
330
1F
100
AcDbEntity
  8
Layer 1
 62
   240
420
 15539236
370
     9
100
AcDb2dPolyline
 66
     1
 10
0.0
 20
0.0
 30
0.0
  0
VERTEX
  5
A6
330
A5
100
AcDbEntity
  8
Layer 1
 62
   240
420
 15539236
370
     9
100
AcDbVertex
100
AcDb2dVertex
 10
7.806741119374465
 20
-4.876637418158414
 30
0.0
  0
VERTEX
  5
A7
330
A5
100
AcDbEntity
  8
Layer 1
 62
   240
420
 15539236
370
     9
100
AcDbVertex
100
AcDb2dVertex
 10
6.625641119400939
 20
-4.876637418060479
 30
0.0
  0
VERTEX
  5
A8
330
A5
100
AcDbEntity
  8
Layer 1
 62
   240
420
 15539236
370
     9
100
AcDbVertex
100
AcDb2dVertex
 10
6.625641119449874
 20
-4.376637418060479
 30
0.0
  0
VERTEX
  5
A9
330
A5
100
AcDbEntity
  8
Layer 1
 62
   240
420
 15539236
370
     9
100
AcDbVertex
100
AcDb2dVertex
 10
7.806741119423362
 20
-4.376637418158414
 30
0.0
  0
VERTEX
  5
AA
330
A5
100
AcDbEntity
  8
Layer 1
 62
   240
420
 15539236
370
     9
100
AcDbVertex
100
AcDb2dVertex
 10
7.806741119374465
 20
-4.876637418158414
 30
0.0
  0
SEQEND
  5
AB
330
A5
100
AcDbEntity
  8
Layer 1
 62
   240
420
 15539236
370
     9
  0
POLYLINE
  5
AC
330
1F
100
AcDbEntity
  8
Layer 1
 62
   240
420
 15539236
370
     9
100
AcDb2dPolyline
 66
     1
 10
0.0
 20
0.0
 30
0.0
  0
VERTEX
  5
AD
330
AC
100
AcDbEntity
  8
Layer 1
 62
   240
420
 15539236
370
     9
100
AcDbVertex
100
AcDb2dVertex
 10
6.179154082330594
 20
-5.663674455190996
 30
0.0
  0
VERTEX
  5
AE
330
AC
100
AcDbEntity
  8
Layer 1
 62
   240
420
 15539236
370
     9
100
AcDbVertex
100
AcDb2dVertex
 10
6.179154082330594
 20
-3.589600381027885
 30
0.0
  0
VERTEX
  5
AF
330
AC
100
AcDbEntity
  8
Layer 1
 62
   240
420
 15539236
370
     9
100
AcDbVertex
100
AcDb2dVertex
 10
8.25322815649372
 20
-3.589600381027885
 30
0.0
  0
VERTEX
  5
B0
330
AC
100
AcDbEntity
  8
Layer 1
 62
   240
420
 15539236
370
     9
100
AcDbVertex
100
AcDb2dVertex
 10
8.25322815649372
 20
-5.663674455190996
 30
0.0
  0
VERTEX
  5
B1
330
AC
100
AcDbEntity
  8
Layer 1
 62
   240
420
 15539236
370
     9
100
AcDbVertex
100
AcDb2dVertex
 10
6.179154082330594
 20
-5.663674455190996
 30
0.0
  0
SEQEND
  5
B2
330
AC
100
AcDbEntity
  8
Layer 1
 62
   240
420
 15539236
370
     9
  0
POLYLINE
  5
B3
330
1F
100
AcDbEntity
  8
Layer 1
 62
   240
420
 15539236
370
     9
100
AcDb2dPolyline
 66
     1
 10
0.0
 20
0.0
 30
0.0
  0
VERTEX
  5
B4
330
B3
100
AcDbEntity
  8
Layer 1
 62
   240
420
 15539236
370
     9
100
AcDbVertex
100
AcDb2dVertex
 10
7.806741119374465
 20
-7.044941502934521
 30
0.0
  0
VERTEX
  5
B5
330
B3
100
AcDbEntity
  8
Layer 1
 62
   240
420
 15539236
370
     9
100
AcDbVertex
100
AcDb2dVertex
 10
6.625641119400939
 20
-7.044941502836586
 30
0.0
  0
VERTEX
  5
B6
330
B3
100
AcDbEntity
  8
Layer 1
 62
   240
420
 15539236
370
     9
100
AcDbVertex
100
AcDb2dVertex
 10
6.625641119449874
 20
-6.544941502836586
 30
0.0
  0
VERTEX
  5
B7
330
B3
100
AcDbEntity
  8
Layer 1
 62
   240
420
 15539236
370
     9
100
AcDbVertex
100
AcDb2dVertex
 10
7.806741119423362
 20
-6.544941502934521
 30
0.0
  0
VERTEX
  5
B8
330
B3
100
AcDbEntity
  8
Layer 1
 62
   240
420
 15539236
370
     9
100
AcDbVertex
100
AcDb2dVertex
 10
7.806741119374465
 20
-7.044941502934521
 30
0.0
  0
SEQEND
  5
B9
330
B3
100
AcDbEntity
  8
Layer 1
 62
   240
420
 15539236
370
     9
  0
POLYLINE
  5
BA
330
1F
100
AcDbEntity
  8
Layer 1
 62
   240
420
 15539236
370
     9
100
AcDb2dPolyline
 66
     1
 10
0.0
 20
0.0
 30
0.0
  0
VERTEX
  5
BB
330
BA
100
AcDbEntity
  8
Layer 1
 62
   240
420
 15539236
370
     9
100
AcDbVertex
100
AcDb2dVertex
 10
6.179154082330594
 20
-7.831978539967117
 30
0.0
  0
VERTEX
  5
BC
330
BA
100
AcDbEntity
  8
Layer 1
 62
   240
420
 15539236
370
     9
100
AcDbVertex
100
AcDb2dVertex
 10
6.179154082330594
 20
-5.757904465803979
 30
0.0
  0
VERTEX
  5
BD
330
BA
100
AcDbEntity
  8
Layer 1
 62
   240
420
 15539236
370
     9
100
AcDbVertex
100
AcDb2dVertex
 10
8.25322815649372
 20
-5.757904465803979
 30
0.0
  0
VERTEX
  5
BE
330
BA
100
AcDbEntity
  8
Layer 1
 62
   240
420
 15539236
370
     9
100
AcDbVertex
100
AcDb2dVertex
 10
8.25322815649372
 20
-7.831978539967117
 30
0.0
  0
VERTEX
  5
BF
330
BA
100
AcDbEntity
  8
Layer 1
 62
   240
420
 15539236
370
     9
100
AcDbVertex
100
AcDb2dVertex
 10
6.179154082330594
 20
-7.831978539967117
 30
0.0
  0
SEQEND
  5
C0
330
BA
100
AcDbEntity
  8
Layer 1
 62
   240
420
 15539236
370
     9
  0
POLYLINE
  5
C1
330
1F
100
AcDbEntity
  8
Layer 1
 62
   240
420
 15539236
370
     9
100
AcDb2dPolyline
 66
     1
 10
0.0
 20
0.0
 30
0.0
  0
VERTEX
  5
C2
330
C1
100
AcDbEntity
  8
Layer 1
 62
   240
420
 15539236
370
     9
100
AcDbVertex
100
AcDb2dVertex
 10
7.806741119374465
 20
-9.21324558771063
 30
0.0
  0
VERTEX
  5
C3
330
C1
100
AcDbEntity
  8
Layer 1
 62
   240
420
 15539236
370
     9
100
AcDbVertex
100
AcDb2dVertex
 10
6.625641119400939
 20
-9.213245587612693
 30
0.0
  0
VERTEX
  5
C4
330
C1
100
AcDbEntity
  8
Layer 1
 62
   240
420
 15539236
370
     9
100
AcDbVertex
100
AcDb2dVertex
 10
6.625641119449874
 20
-8.713245587612693
 30
0.0
  0
VERTEX
  5
C5
330
C1
100
AcDbEntity
  8
Layer 1
 62
   240
420
 15539236
370
     9
100
AcDbVertex
100
AcDb2dVertex
 10
7.806741119423362
 20
-8.71324558771063
 30
0.0
  0
VERTEX
  5
C6
330
C1
100
AcDbEntity
  8
Layer 1
 62
   240
420
 15539236
370
     9
100
AcDbVertex
100
AcDb2dVertex
 10
7.806741119374465
 20
-9.21324558771063
 30
0.0
  0
SEQEND
  5
C7
330
C1
100
AcDbEntity
  8
Layer 1
 62
   240
420
 15539236
370
     9
  0
POLYLINE
  5
C8
330
1F
100
AcDbEntity
  8
Layer 1
 62
   240
420
 15539236
370
     9
100
AcDb2dPolyline
 66
     1
 10
0.0
 20
0.0
 30
0.0
  0
VERTEX
  5
C9
330
C8
100
AcDbEntity
  8
Layer 1
 62
   240
420
 15539236
370
     9
100
AcDbVertex
100
AcDb2dVertex
 10
6.179154082330594
 20
-10.00028262474321
 30
0.0
  0
VERTEX
  5
CA
330
C8
100
AcDbEntity
  8
Layer 1
 62
   240
420
 15539236
370
     9
100
AcDbVertex
100
AcDb2dVertex
 10
6.179154082330594
 20
-7.9262085505801
 30
0.0
  0
VERTEX
  5
CB
330
C8
100
AcDbEntity
  8
Layer 1
 62
   240
420
 15539236
370
     9
100
AcDbVertex
100
AcDb2dVertex
 10
8.25322815649372
 20
-7.9262085505801
 30
0.0
  0
VERTEX
  5
CC
330
C8
100
AcDbEntity
  8
Layer 1
 62
   240
420
 15539236
370
     9
100
AcDbVertex
100
AcDb2dVertex
 10
8.25322815649372
 20
-10.00028262474321
 30
0.0
  0
VERTEX
  5
CD
330
C8
100
AcDbEntity
  8
Layer 1
 62
   240
420
 15539236
370
     9
100
AcDbVertex
100
AcDb2dVertex
 10
6.179154082330594
 20
-10.00028262474321
 30
0.0
  0
SEQEND
  5
CE
330
C8
100
AcDbEntity
  8
Layer 1
 62
   240
420
 15539236
370
     9
  0
SPLINE
  5
CF
330
1F
100
AcDbEntity
  8
Layer 1
 62
   240
420
 15539236
370
     9
100
AcDbSpline
210
0.0
220
0.0
230
1.0
 70
    11
 71
     3
 72
    56
 73
    52
 74
     0
 42
0.0000000001
 43
0.0000000001
 12
1.0
 22
0.0
 32
0.0
 13
1.0
 23
0.0
 33
0.0
 40
0.0
 40
0.0
 40
0.0
 40
0.0
 40
1.0
 40
1.0
 40
1.0
 40
2.0
 40
2.0
 40
2.0
 40
3.0
 40
3.0
 40
3.0
 40
4.0
 40
4.0
 40
4.0
 40
5.0
 40
5.0
 40
5.0
 40
6.0
 40
6.0
 40
6.0
 40
7.0
 40
7.0
 40
7.0
 40
8.0
 40
8.0
 40
8.0
 40
9.0
 40
9.0
 40
9.0
 40
10.0
 40
10.0
 40
10.0
 40
11.0
 40
11.0
 40
11.0
 40
12.0
 40
12.0
 40
12.0
 40
13.0
 40
13.0
 40
13.0
 40
14.0
 40
14.0
 40
14.0
 40
15.0
 40
15.0
 40
15.0
 40
16.0
 40
16.0
 40
16.0
 40
17.0
 40
17.0
 40
17.0
 40
17.0
 10
3.450138515896267
 20
-0.9866663614908854
 30
0.0
 10
3.450138515896267
 20
-0.9866663614908854
 30
0.0
 10
3.450138515896267
 20
-1.615138583713108
 30
0.0
 10
3.450138515896267
 20
-1.615138583713108
 30
0.0
 10
3.450138515896267
 20
-1.648749457465278
 30
0.0
 10
3.422916836208767
 20
-1.675971984863281
 30
0.0
 10
3.389305962456597
 20
-1.675971984863281
 30
0.0
 10
3.389305962456597
 20
-1.675971984863281
 30
0.0
 10
1.700138515896267
 20
-1.675971984863281
 30
0.0
 10
1.700138515896267
 20
-1.675971984863281
 30
0.0
 10
1.700138515896267
 20
-1.675971984863281
 30
0.0
 10
1.700138515896267
 20
-1.925971984863281
 30
0.0
 10
1.700138515896267
 20
-1.925971984863281
 30
0.0
 10
1.700138515896267
 20
-1.925971984863281
 30
0.0
 10
1.450138515896267
 20
-1.925971984863281
 30
0.0
 10
1.450138515896267
 20
-1.925971984863281
 30
0.0
 10
1.450138515896267
 20
-1.925971984863281
 30
0.0
 10
1.450138515896267
 20
-1.675971984863281
 30
0.0
 10
1.450138515896267
 20
-1.675971984863281
 30
0.0
 10
1.450138515896267
 20
-1.675971984863281
 30
0.0
 10
0.9776390923394097
 20
-1.675971984863281
 30
0.0
 10
0.9776390923394097
 20
-1.675971984863281
 30
0.0
 10
0.9776390923394097
 20
-1.675971984863281
 30
0.0
 10
0.9776390923394097
 20
-1.175971984863281
 30
0.0
 10
0.9776390923394097
 20
-1.175971984863281
 30
0.0
 10
0.9776390923394097
 20
-1.175971984863281
 30
0.0
 10
1.450138515896267
 20
-1.175971984863281
 30
0.0
 10
1.450138515896267
 20
-1.175971984863281
 30
0.0
 10
1.450138515896267
 20
-1.175971984863281
 30
0.0
 10
1.450138515896267
 20
-0.9259719848632812
 30
0.0
 10
1.450138515896267
 20
-0.9259719848632812
 30
0.0
 10
1.450138515896267
 20
-0.9259719848632812
 30
0.0
 10
1.700138515896267
 20
-0.9259719848632812
 30
0.0
 10
1.700138515896267
 20
-0.9259719848632812
 30
0.0
 10
1.700138515896267
 20
-0.9259719848632812
 30
0.0
 10
1.700138515896267
 20
-1.175971984863281
 30
0.0
 10
1.700138515896267
 20
-1.175971984863281
 30
0.0
 10
1.700138515896267
 20
-1.175971984863281
 30
0.0
 10
2.950138515896267
 20
-1.175971984863281
 30
0.0
 10
2.950138515896267
 20
-1.175971984863281
 30
0.0
 10
2.950138515896267
 20
-1.175971984863281
 30
0.0
 10
2.950138515896267
 20
-0.976804945203993
 30
0.0
 10
2.950138515896267
 20
-0.976804945203993
 30
0.0
 10
2.950138515896267
 20
-0.9487499660915798
 30
0.0
 10
2.972916497124566
 20
-0.9259719848632812
 30
0.0
 10
3.000972323947483
 20
-0.9259719848632812
 30
0.0
 10
3.000972323947483
 20
-0.9259719848632812
 30
0.0
 10
3.389305962456597
 20
-0.9259719848632812
 30
0.0
 10
3.389305962456597
 20
-0.9259719848632812
 30
0.0
 10
3.422916836208767
 20
-0.9259719848632812
 30
0.0
 10
3.450138515896267
 20
-0.9531945122612847
 30
0.0
 10
3.450138515896267
 20
-0.9866663614908854
 30
0.0
  0
SPLINE
  5
D0
330
1F
100
AcDbEntity
  8
Layer 1
 62
   240
420
 15539236
370
     9
100
AcDbSpline
210
0.0
220
0.0
230
1.0
 70
    11
 71
     3
 72
    56
 73
    52
 74
     0
 42
0.0000000001
 43
0.0000000001
 12
1.0
 22
0.0
 32
0.0
 13
1.0
 23
0.0
 33
0.0
 40
0.0
 40
0.0
 40
0.0
 40
0.0
 40
1.0
 40
1.0
 40
1.0
 40
2.0
 40
2.0
 40
2.0
 40
3.0
 40
3.0
 40
3.0
 40
4.0
 40
4.0
 40
4.0
 40
5.0
 40
5.0
 40
5.0
 40
6.0
 40
6.0
 40
6.0
 40
7.0
 40
7.0
 40
7.0
 40
8.0
 40
8.0
 40
8.0
 40
9.0
 40
9.0
 40
9.0
 40
10.0
 40
10.0
 40
10.0
 40
11.0
 40
11.0
 40
11.0
 40
12.0
 40
12.0
 40
12.0
 40
13.0
 40
13.0
 40
13.0
 40
14.0
 40
14.0
 40
14.0
 40
15.0
 40
15.0
 40
15.0
 40
16.0
 40
16.0
 40
16.0
 40
17.0
 40
17.0
 40
17.0
 40
17.0
 10
3.450138515896267
 20
-2.01902770996095
 30
0.0
 10
3.450138515896267
 20
-2.01902770996095
 30
0.0
 10
3.450138515896267
 20
-2.647499932183172
 30
0.0
 10
3.450138515896267
 20
-2.647499932183172
 30
0.0
 10
3.450138515896267
 20
-2.68111080593533
 30
0.0
 10
3.422916836208767
 20
-2.708333333333333
 30
0.0
 10
3.389305962456597
 20
-2.708333333333333
 30
0.0
 10
3.389305962456597
 20
-2.708333333333333
 30
0.0
 10
1.700138515896267
 20
-2.708333333333333
 30
0.0
 10
1.700138515896267
 20
-2.708333333333333
 30
0.0
 10
1.700138515896267
 20
-2.708333333333333
 30
0.0
 10
1.700138515896267
 20
-2.958333333333333
 30
0.0
 10
1.700138515896267
 20
-2.958333333333333
 30
0.0
 10
1.700138515896267
 20
-2.958333333333333
 30
0.0
 10
1.450138515896267
 20
-2.958333333333333
 30
0.0
 10
1.450138515896267
 20
-2.958333333333333
 30
0.0
 10
1.450138515896267
 20
-2.958333333333333
 30
0.0
 10
1.450138515896267
 20
-2.708333333333333
 30
0.0
 10
1.450138515896267
 20
-2.708333333333333
 30
0.0
 10
1.450138515896267
 20
-2.708333333333333
 30
0.0
 10
0.9776390923394097
 20
-2.708333333333333
 30
0.0
 10
0.9776390923394097
 20
-2.708333333333333
 30
0.0
 10
0.9776390923394097
 20
-2.708333333333333
 30
0.0
 10
0.9776390923394097
 20
-2.208333333333333
 30
0.0
 10
0.9776390923394097
 20
-2.208333333333333
 30
0.0
 10
0.9776390923394097
 20
-2.208333333333333
 30
0.0
 10
1.450138515896267
 20
-2.208333333333333
 30
0.0
 10
1.450138515896267
 20
-2.208333333333333
 30
0.0
 10
1.450138515896267
 20
-2.208333333333333
 30
0.0
 10
1.450138515896267
 20
-1.958333333333333
 30
0.0
 10
1.450138515896267
 20
-1.958333333333333
 30
0.0
 10
1.450138515896267
 20
-1.958333333333333
 30
0.0
 10
1.700138515896267
 20
-1.958333333333333
 30
0.0
 10
1.700138515896267
 20
-1.958333333333333
 30
0.0
 10
1.700138515896267
 20
-1.958333333333333
 30
0.0
 10
1.700138515896267
 20
-2.208333333333333
 30
0.0
 10
1.700138515896267
 20
-2.208333333333333
 30
0.0
 10
1.700138515896267
 20
-2.208333333333333
 30
0.0
 10
2.950138515896267
 20
-2.208333333333333
 30
0.0
 10
2.950138515896267
 20
-2.208333333333333
 30
0.0
 10
2.950138515896267
 20
-2.208333333333333
 30
0.0
 10
2.950138515896267
 20
-2.009166293674045
 30
0.0
 10
2.950138515896267
 20
-2.009166293674045
 30
0.0
 10
2.950138515896267
 20
-1.981111314561645
 30
0.0
 10
2.972916497124566
 20
-1.958333333333333
 30
0.0
 10
3.000972323947483
 20
-1.958333333333333
 30
0.0
 10
3.000972323947483
 20
-1.958333333333333
 30
0.0
 10
3.389305962456597
 20
-1.958333333333333
 30
0.0
 10
3.389305962456597
 20
-1.958333333333333
 30
0.0
 10
3.422916836208767
 20
-1.958333333333333
 30
0.0
 10
3.450138515896267
 20
-1.985555860731337
 30
0.0
 10
3.450138515896267
 20
-2.01902770996095
 30
0.0
  0
SPLINE
  5
D1
330
1F
100
AcDbEntity
  8
Layer 1
 62
   240
420
 15539236
370
     9
100
AcDbSpline
210
0.0
220
0.0
230
1.0
 70
    11
 71
     3
 72
    56
 73
    52
 74
     0
 42
0.0000000001
 43
0.0000000001
 12
1.0
 22
0.0
 32
0.0
 13
1.0
 23
0.0
 33
0.0
 40
0.0
 40
0.0
 40
0.0
 40
0.0
 40
1.0
 40
1.0
 40
1.0
 40
2.0
 40
2.0
 40
2.0
 40
3.0
 40
3.0
 40
3.0
 40
4.0
 40
4.0
 40
4.0
 40
5.0
 40
5.0
 40
5.0
 40
6.0
 40
6.0
 40
6.0
 40
7.0
 40
7.0
 40
7.0
 40
8.0
 40
8.0
 40
8.0
 40
9.0
 40
9.0
 40
9.0
 40
10.0
 40
10.0
 40
10.0
 40
11.0
 40
11.0
 40
11.0
 40
12.0
 40
12.0
 40
12.0
 40
13.0
 40
13.0
 40
13.0
 40
14.0
 40
14.0
 40
14.0
 40
15.0
 40
15.0
 40
15.0
 40
16.0
 40
16.0
 40
16.0
 40
17.0
 40
17.0
 40
17.0
 40
17.0
 10
3.450138515896267
 20
-3.051389058430989
 30
0.0
 10
3.450138515896267
 20
-3.051389058430989
 30
0.0
 10
3.450138515896267
 20
-3.679861280653212
 30
0.0
 10
3.450138515896267
 20
-3.679861280653212
 30
0.0
 10
3.450138515896267
 20
-3.713472154405395
 30
0.0
 10
3.422916836208767
 20
-3.740694681803385
 30
0.0
 10
3.389305962456597
 20
-3.740694681803385
 30
0.0
 10
3.389305962456597
 20
-3.740694681803385
 30
0.0
 10
1.700138515896267
 20
-3.740694681803385
 30
0.0
 10
1.700138515896267
 20
-3.740694681803385
 30
0.0
 10
1.700138515896267
 20
-3.740694681803385
 30
0.0
 10
1.700138515896267
 20
-3.990694681803385
 30
0.0
 10
1.700138515896267
 20
-3.990694681803385
 30
0.0
 10
1.700138515896267
 20
-3.990694681803385
 30
0.0
 10
1.450138515896267
 20
-3.990694681803385
 30
0.0
 10
1.450138515896267
 20
-3.990694681803385
 30
0.0
 10
1.450138515896267
 20
-3.990694681803385
 30
0.0
 10
1.450138515896267
 20
-3.740694681803385
 30
0.0
 10
1.450138515896267
 20
-3.740694681803385
 30
0.0
 10
1.450138515896267
 20
-3.740694681803385
 30
0.0
 10
0.9776390923394097
 20
-3.740694681803385
 30
0.0
 10
0.9776390923394097
 20
-3.740694681803385
 30
0.0
 10
0.9776390923394097
 20
-3.740694681803385
 30
0.0
 10
0.9776390923394097
 20
-3.240694681803385
 30
0.0
 10
0.9776390923394097
 20
-3.240694681803385
 30
0.0
 10
0.9776390923394097
 20
-3.240694681803385
 30
0.0
 10
1.450138515896267
 20
-3.240694681803385
 30
0.0
 10
1.450138515896267
 20
-3.240694681803385
 30
0.0
 10
1.450138515896267
 20
-3.240694681803385
 30
0.0
 10
1.450138515896267
 20
-2.990694681803385
 30
0.0
 10
1.450138515896267
 20
-2.990694681803385
 30
0.0
 10
1.450138515896267
 20
-2.990694681803385
 30
0.0
 10
1.700138515896267
 20
-2.990694681803385
 30
0.0
 10
1.700138515896267
 20
-2.990694681803385
 30
0.0
 10
1.700138515896267
 20
-2.990694681803385
 30
0.0
 10
1.700138515896267
 20
-3.240694681803385
 30
0.0
 10
1.700138515896267
 20
-3.240694681803385
 30
0.0
 10
1.700138515896267
 20
-3.240694681803385
 30
0.0
 10
2.950138515896267
 20
-3.240694681803385
 30
0.0
 10
2.950138515896267
 20
-3.240694681803385
 30
0.0
 10
2.950138515896267
 20
-3.240694681803385
 30
0.0
 10
2.950138515896267
 20
-3.041527642144097
 30
0.0
 10
2.950138515896267
 20
-3.041527642144097
 30
0.0
 10
2.950138515896267
 20
-3.013472663031684
 30
0.0
 10
2.972916497124566
 20
-2.990694681803385
 30
0.0
 10
3.000972323947483
 20
-2.990694681803385
 30
0.0
 10
3.000972323947483
 20
-2.990694681803385
 30
0.0
 10
3.389305962456597
 20
-2.990694681803385
 30
0.0
 10
3.389305962456597
 20
-2.990694681803385
 30
0.0
 10
3.422916836208767
 20
-2.990694681803385
 30
0.0
 10
3.450138515896267
 20
-3.017917209201389
 30
0.0
 10
3.450138515896267
 20
-3.051389058430989
 30
0.0
  0
SPLINE
  5
D2
330
1F
100
AcDbEntity
  8
Layer 1
 62
   240
420
 15539236
370
     9
100
AcDbSpline
210
0.0
220
0.0
230
1.0
 70
    11
 71
     3
 72
    56
 73
    52
 74
     0
 42
0.0000000001
 43
0.0000000001
 12
1.0
 22
0.0
 32
0.0
 13
1.0
 23
0.0
 33
0.0
 40
0.0
 40
0.0
 40
0.0
 40
0.0
 40
1.0
 40
1.0
 40
1.0
 40
2.0
 40
2.0
 40
2.0
 40
3.0
 40
3.0
 40
3.0
 40
4.0
 40
4.0
 40
4.0
 40
5.0
 40
5.0
 40
5.0
 40
6.0
 40
6.0
 40
6.0
 40
7.0
 40
7.0
 40
7.0
 40
8.0
 40
8.0
 40
8.0
 40
9.0
 40
9.0
 40
9.0
 40
10.0
 40
10.0
 40
10.0
 40
11.0
 40
11.0
 40
11.0
 40
12.0
 40
12.0
 40
12.0
 40
13.0
 40
13.0
 40
13.0
 40
14.0
 40
14.0
 40
14.0
 40
15.0
 40
15.0
 40
15.0
 40
16.0
 40
16.0
 40
16.0
 40
17.0
 40
17.0
 40
17.0
 40
17.0
 10
3.450138515896267
 20
-4.083750406901041
 30
0.0
 10
3.450138515896267
 20
-4.083750406901041
 30
0.0
 10
3.450138515896267
 20
-4.712222629123263
 30
0.0
 10
3.450138515896267
 20
-4.712222629123263
 30
0.0
 10
3.450138515896267
 20
-4.745833502875434
 30
0.0
 10
3.422916836208767
 20
-4.77305603027345
 30
0.0
 10
3.389305962456597
 20
-4.77305603027345
 30
0.0
 10
3.389305962456597
 20
-4.77305603027345
 30
0.0
 10
1.700138515896267
 20
-4.77305603027345
 30
0.0
 10
1.700138515896267
 20
-4.77305603027345
 30
0.0
 10
1.700138515896267
 20
-4.77305603027345
 30
0.0
 10
1.700138515896267
 20
-5.02305603027345
 30
0.0
 10
1.700138515896267
 20
-5.02305603027345
 30
0.0
 10
1.700138515896267
 20
-5.02305603027345
 30
0.0
 10
1.450138515896267
 20
-5.02305603027345
 30
0.0
 10
1.450138515896267
 20
-5.02305603027345
 30
0.0
 10
1.450138515896267
 20
-5.02305603027345
 30
0.0
 10
1.450138515896267
 20
-4.77305603027345
 30
0.0
 10
1.450138515896267
 20
-4.77305603027345
 30
0.0
 10
1.450138515896267
 20
-4.77305603027345
 30
0.0
 10
0.9776390923394097
 20
-4.77305603027345
 30
0.0
 10
0.9776390923394097
 20
-4.77305603027345
 30
0.0
 10
0.9776390923394097
 20
-4.77305603027345
 30
0.0
 10
0.9776390923394097
 20
-4.27305603027345
 30
0.0
 10
0.9776390923394097
 20
-4.27305603027345
 30
0.0
 10
0.9776390923394097
 20
-4.27305603027345
 30
0.0
 10
1.450138515896267
 20
-4.27305603027345
 30
0.0
 10
1.450138515896267
 20
-4.27305603027345
 30
0.0
 10
1.450138515896267
 20
-4.27305603027345
 30
0.0
 10
1.450138515896267
 20
-4.02305603027345
 30
0.0
 10
1.450138515896267
 20
-4.02305603027345
 30
0.0
 10
1.450138515896267
 20
-4.02305603027345
 30
0.0
 10
1.700138515896267
 20
-4.02305603027345
 30
0.0
 10
1.700138515896267
 20
-4.02305603027345
 30
0.0
 10
1.700138515896267
 20
-4.02305603027345
 30
0.0
 10
1.700138515896267
 20
-4.27305603027345
 30
0.0
 10
1.700138515896267
 20
-4.27305603027345
 30
0.0
 10
1.700138515896267
 20
-4.27305603027345
 30
0.0
 10
2.950138515896267
 20
-4.27305603027345
 30
0.0
 10
2.950138515896267
 20
-4.27305603027345
 30
0.0
 10
2.950138515896267
 20
-4.27305603027345
 30
0.0
 10
2.950138515896267
 20
-4.073888990614149
 30
0.0
 10
2.950138515896267
 20
-4.073888990614149
 30
0.0
 10
2.950138515896267
 20
-4.045834011501736
 30
0.0
 10
2.972916497124566
 20
-4.02305603027345
 30
0.0
 10
3.000972323947483
 20
-4.02305603027345
 30
0.0
 10
3.000972323947483
 20
-4.02305603027345
 30
0.0
 10
3.389305962456597
 20
-4.02305603027345
 30
0.0
 10
3.389305962456597
 20
-4.02305603027345
 30
0.0
 10
3.422916836208767
 20
-4.02305603027345
 30
0.0
 10
3.450138515896267
 20
-4.050278557671441
 30
0.0
 10
3.450138515896267
 20
-4.083750406901041
 30
0.0
  0
SPLINE
  5
D3
330
1F
100
AcDbEntity
  8
Layer 1
 62
   240
420
 15539236
370
     9
100
AcDbSpline
210
0.0
220
0.0
230
1.0
 70
    11
 71
     3
 72
    56
 73
    52
 74
     0
 42
0.0000000001
 43
0.0000000001
 12
1.0
 22
0.0
 32
0.0
 13
1.0
 23
0.0
 33
0.0
 40
0.0
 40
0.0
 40
0.0
 40
0.0
 40
1.0
 40
1.0
 40
1.0
 40
2.0
 40
2.0
 40
2.0
 40
3.0
 40
3.0
 40
3.0
 40
4.0
 40
4.0
 40
4.0
 40
5.0
 40
5.0
 40
5.0
 40
6.0
 40
6.0
 40
6.0
 40
7.0
 40
7.0
 40
7.0
 40
8.0
 40
8.0
 40
8.0
 40
9.0
 40
9.0
 40
9.0
 40
10.0
 40
10.0
 40
10.0
 40
11.0
 40
11.0
 40
11.0
 40
12.0
 40
12.0
 40
12.0
 40
13.0
 40
13.0
 40
13.0
 40
14.0
 40
14.0
 40
14.0
 40
15.0
 40
15.0
 40
15.0
 40
16.0
 40
16.0
 40
16.0
 40
17.0
 40
17.0
 40
17.0
 40
17.0
 10
3.450138515896267
 20
-5.116111755371094
 30
0.0
 10
3.450138515896267
 20
-5.116111755371094
 30
0.0
 10
3.450138515896267
 20
-5.744583977593316
 30
0.0
 10
3.450138515896267
 20
-5.744583977593316
 30
0.0
 10
3.450138515896267
 20
-5.778194851345486
 30
0.0
 10
3.422916836208767
 20
-5.805417378743489
 30
0.0
 10
3.389305962456597
 20
-5.805417378743489
 30
0.0
 10
3.389305962456597
 20
-5.805417378743489
 30
0.0
 10
1.700138515896267
 20
-5.805417378743489
 30
0.0
 10
1.700138515896267
 20
-5.805417378743489
 30
0.0
 10
1.700138515896267
 20
-5.805417378743489
 30
0.0
 10
1.700138515896267
 20
-6.055417378743489
 30
0.0
 10
1.700138515896267
 20
-6.055417378743489
 30
0.0
 10
1.700138515896267
 20
-6.055417378743489
 30
0.0
 10
1.450138515896267
 20
-6.055417378743489
 30
0.0
 10
1.450138515896267
 20
-6.055417378743489
 30
0.0
 10
1.450138515896267
 20
-6.055417378743489
 30
0.0
 10
1.450138515896267
 20
-5.805417378743489
 30
0.0
 10
1.450138515896267
 20
-5.805417378743489
 30
0.0
 10
1.450138515896267
 20
-5.805417378743489
 30
0.0
 10
0.9776390923394097
 20
-5.805417378743489
 30
0.0
 10
0.9776390923394097
 20
-5.805417378743489
 30
0.0
 10
0.9776390923394097
 20
-5.805417378743489
 30
0.0
 10
0.9776390923394097
 20
-5.305417378743489
 30
0.0
 10
0.9776390923394097
 20
-5.305417378743489
 30
0.0
 10
0.9776390923394097
 20
-5.305417378743489
 30
0.0
 10
1.450138515896267
 20
-5.305417378743489
 30
0.0
 10
1.450138515896267
 20
-5.305417378743489
 30
0.0
 10
1.450138515896267
 20
-5.305417378743489
 30
0.0
 10
1.450138515896267
 20
-5.055417378743489
 30
0.0
 10
1.450138515896267
 20
-5.055417378743489
 30
0.0
 10
1.450138515896267
 20
-5.055417378743489
 30
0.0
 10
1.700138515896267
 20
-5.055417378743489
 30
0.0
 10
1.700138515896267
 20
-5.055417378743489
 30
0.0
 10
1.700138515896267
 20
-5.055417378743489
 30
0.0
 10
1.700138515896267
 20
-5.305417378743489
 30
0.0
 10
1.700138515896267
 20
-5.305417378743489
 30
0.0
 10
1.700138515896267
 20
-5.305417378743489
 30
0.0
 10
2.950138515896267
 20
-5.305417378743489
 30
0.0
 10
2.950138515896267
 20
-5.305417378743489
 30
0.0
 10
2.950138515896267
 20
-5.305417378743489
 30
0.0
 10
2.950138515896267
 20
-5.106250339084213
 30
0.0
 10
2.950138515896267
 20
-5.106250339084213
 30
0.0
 10
2.950138515896267
 20
-5.078195359971788
 30
0.0
 10
2.972916497124566
 20
-5.055417378743489
 30
0.0
 10
3.000972323947483
 20
-5.055417378743489
 30
0.0
 10
3.000972323947483
 20
-5.055417378743489
 30
0.0
 10
3.389305962456597
 20
-5.055417378743489
 30
0.0
 10
3.389305962456597
 20
-5.055417378743489
 30
0.0
 10
3.422916836208767
 20
-5.055417378743489
 30
0.0
 10
3.450138515896267
 20
-5.082639906141505
 30
0.0
 10
3.450138515896267
 20
-5.116111755371094
 30
0.0
  0
SPLINE
  5
D4
330
1F
100
AcDbEntity
  8
Layer 1
 62
   240
420
 15539236
370
     9
100
AcDbSpline
210
0.0
220
0.0
230
1.0
 70
    11
 71
     3
 72
    56
 73
    52
 74
     0
 42
0.0000000001
 43
0.0000000001
 12
1.0
 22
0.0
 32
0.0
 13
1.0
 23
0.0
 33
0.0
 40
0.0
 40
0.0
 40
0.0
 40
0.0
 40
1.0
 40
1.0
 40
1.0
 40
2.0
 40
2.0
 40
2.0
 40
3.0
 40
3.0
 40
3.0
 40
4.0
 40
4.0
 40
4.0
 40
5.0
 40
5.0
 40
5.0
 40
6.0
 40
6.0
 40
6.0
 40
7.0
 40
7.0
 40
7.0
 40
8.0
 40
8.0
 40
8.0
 40
9.0
 40
9.0
 40
9.0
 40
10.0
 40
10.0
 40
10.0
 40
11.0
 40
11.0
 40
11.0
 40
12.0
 40
12.0
 40
12.0
 40
13.0
 40
13.0
 40
13.0
 40
14.0
 40
14.0
 40
14.0
 40
15.0
 40
15.0
 40
15.0
 40
16.0
 40
16.0
 40
16.0
 40
17.0
 40
17.0
 40
17.0
 40
17.0
 10
6.05417498073968
 20
-0.9866663614908854
 30
0.0
 10
6.05417498073968
 20
-0.9866663614908854
 30
0.0
 10
6.05417498073968
 20
-1.615138583713108
 30
0.0
 10
6.05417498073968
 20
-1.615138583713108
 30
0.0
 10
6.05417498073968
 20
-1.648749457465278
 30
0.0
 10
6.02695330105218
 20
-1.675971984863281
 30
0.0
 10
5.99334242730001
 20
-1.675971984863281
 30
0.0
 10
5.99334242730001
 20
-1.675971984863281
 30
0.0
 10
4.30417498073968
 20
-1.675971984863281
 30
0.0
 10
4.30417498073968
 20
-1.675971984863281
 30
0.0
 10
4.30417498073968
 20
-1.675971984863281
 30
0.0
 10
4.30417498073968
 20
-1.925971984863281
 30
0.0
 10
4.30417498073968
 20
-1.925971984863281
 30
0.0
 10
4.30417498073968
 20
-1.925971984863281
 30
0.0
 10
4.05417498073968
 20
-1.925971984863281
 30
0.0
 10
4.05417498073968
 20
-1.925971984863281
 30
0.0
 10
4.05417498073968
 20
-1.925971984863281
 30
0.0
 10
4.05417498073968
 20
-1.675971984863281
 30
0.0
 10
4.05417498073968
 20
-1.675971984863281
 30
0.0
 10
4.05417498073968
 20
-1.675971984863281
 30
0.0
 10
3.581675557182823
 20
-1.675971984863281
 30
0.0
 10
3.581675557182823
 20
-1.675971984863281
 30
0.0
 10
3.581675557182823
 20
-1.675971984863281
 30
0.0
 10
3.581675557182823
 20
-1.175971984863281
 30
0.0
 10
3.581675557182823
 20
-1.175971984863281
 30
0.0
 10
3.581675557182823
 20
-1.175971984863281
 30
0.0
 10
4.05417498073968
 20
-1.175971984863281
 30
0.0
 10
4.05417498073968
 20
-1.175971984863281
 30
0.0
 10
4.05417498073968
 20
-1.175971984863281
 30
0.0
 10
4.05417498073968
 20
-0.9259719848632812
 30
0.0
 10
4.05417498073968
 20
-0.9259719848632812
 30
0.0
 10
4.05417498073968
 20
-0.9259719848632812
 30
0.0
 10
4.30417498073968
 20
-0.9259719848632812
 30
0.0
 10
4.30417498073968
 20
-0.9259719848632812
 30
0.0
 10
4.30417498073968
 20
-0.9259719848632812
 30
0.0
 10
4.30417498073968
 20
-1.175971984863281
 30
0.0
 10
4.30417498073968
 20
-1.175971984863281
 30
0.0
 10
4.30417498073968
 20
-1.175971984863281
 30
0.0
 10
5.55417498073968
 20
-1.175971984863281
 30
0.0
 10
5.55417498073968
 20
-1.175971984863281
 30
0.0
 10
5.55417498073968
 20
-1.175971984863281
 30
0.0
 10
5.55417498073968
 20
-0.976804945203993
 30
0.0
 10
5.55417498073968
 20
-0.976804945203993
 30
0.0
 10
5.55417498073968
 20
-0.9487499660915798
 30
0.0
 10
5.576952961967991
 20
-0.9259719848632812
 30
0.0
 10
5.605008788790908
 20
-0.9259719848632812
 30
0.0
 10
5.605008788790908
 20
-0.9259719848632812
 30
0.0
 10
5.99334242730001
 20
-0.9259719848632812
 30
0.0
 10
5.99334242730001
 20
-0.9259719848632812
 30
0.0
 10
6.02695330105218
 20
-0.9259719848632812
 30
0.0
 10
6.05417498073968
 20
-0.9531945122612847
 30
0.0
 10
6.05417498073968
 20
-0.9866663614908854
 30
0.0
  0
SPLINE
  5
D5
330
1F
100
AcDbEntity
  8
Layer 1
 62
   240
420
 15539236
370
     9
100
AcDbSpline
210
0.0
220
0.0
230
1.0
 70
    11
 71
     3
 72
    56
 73
    52
 74
     0
 42
0.0000000001
 43
0.0000000001
 12
1.0
 22
0.0
 32
0.0
 13
1.0
 23
0.0
 33
0.0
 40
0.0
 40
0.0
 40
0.0
 40
0.0
 40
1.0
 40
1.0
 40
1.0
 40
2.0
 40
2.0
 40
2.0
 40
3.0
 40
3.0
 40
3.0
 40
4.0
 40
4.0
 40
4.0
 40
5.0
 40
5.0
 40
5.0
 40
6.0
 40
6.0
 40
6.0
 40
7.0
 40
7.0
 40
7.0
 40
8.0
 40
8.0
 40
8.0
 40
9.0
 40
9.0
 40
9.0
 40
10.0
 40
10.0
 40
10.0
 40
11.0
 40
11.0
 40
11.0
 40
12.0
 40
12.0
 40
12.0
 40
13.0
 40
13.0
 40
13.0
 40
14.0
 40
14.0
 40
14.0
 40
15.0
 40
15.0
 40
15.0
 40
16.0
 40
16.0
 40
16.0
 40
17.0
 40
17.0
 40
17.0
 40
17.0
 10
6.05417498073968
 20
-2.01902770996095
 30
0.0
 10
6.05417498073968
 20
-2.01902770996095
 30
0.0
 10
6.05417498073968
 20
-2.647499932183172
 30
0.0
 10
6.05417498073968
 20
-2.647499932183172
 30
0.0
 10
6.05417498073968
 20
-2.68111080593533
 30
0.0
 10
6.02695330105218
 20
-2.708333333333333
 30
0.0
 10
5.99334242730001
 20
-2.708333333333333
 30
0.0
 10
5.99334242730001
 20
-2.708333333333333
 30
0.0
 10
4.30417498073968
 20
-2.708333333333333
 30
0.0
 10
4.30417498073968
 20
-2.708333333333333
 30
0.0
 10
4.30417498073968
 20
-2.708333333333333
 30
0.0
 10
4.30417498073968
 20
-2.958333333333333
 30
0.0
 10
4.30417498073968
 20
-2.958333333333333
 30
0.0
 10
4.30417498073968
 20
-2.958333333333333
 30
0.0
 10
4.05417498073968
 20
-2.958333333333333
 30
0.0
 10
4.05417498073968
 20
-2.958333333333333
 30
0.0
 10
4.05417498073968
 20
-2.958333333333333
 30
0.0
 10
4.05417498073968
 20
-2.708333333333333
 30
0.0
 10
4.05417498073968
 20
-2.708333333333333
 30
0.0
 10
4.05417498073968
 20
-2.708333333333333
 30
0.0
 10
3.581675557182823
 20
-2.708333333333333
 30
0.0
 10
3.581675557182823
 20
-2.708333333333333
 30
0.0
 10
3.581675557182823
 20
-2.708333333333333
 30
0.0
 10
3.581675557182823
 20
-2.208333333333333
 30
0.0
 10
3.581675557182823
 20
-2.208333333333333
 30
0.0
 10
3.581675557182823
 20
-2.208333333333333
 30
0.0
 10
4.05417498073968
 20
-2.208333333333333
 30
0.0
 10
4.05417498073968
 20
-2.208333333333333
 30
0.0
 10
4.05417498073968
 20
-2.208333333333333
 30
0.0
 10
4.05417498073968
 20
-1.958333333333333
 30
0.0
 10
4.05417498073968
 20
-1.958333333333333
 30
0.0
 10
4.05417498073968
 20
-1.958333333333333
 30
0.0
 10
4.30417498073968
 20
-1.958333333333333
 30
0.0
 10
4.30417498073968
 20
-1.958333333333333
 30
0.0
 10
4.30417498073968
 20
-1.958333333333333
 30
0.0
 10
4.30417498073968
 20
-2.208333333333333
 30
0.0
 10
4.30417498073968
 20
-2.208333333333333
 30
0.0
 10
4.30417498073968
 20
-2.208333333333333
 30
0.0
 10
5.55417498073968
 20
-2.208333333333333
 30
0.0
 10
5.55417498073968
 20
-2.208333333333333
 30
0.0
 10
5.55417498073968
 20
-2.208333333333333
 30
0.0
 10
5.55417498073968
 20
-2.009166293674045
 30
0.0
 10
5.55417498073968
 20
-2.009166293674045
 30
0.0
 10
5.55417498073968
 20
-1.981111314561645
 30
0.0
 10
5.576952961967991
 20
-1.958333333333333
 30
0.0
 10
5.605008788790908
 20
-1.958333333333333
 30
0.0
 10
5.605008788790908
 20
-1.958333333333333
 30
0.0
 10
5.99334242730001
 20
-1.958333333333333
 30
0.0
 10
5.99334242730001
 20
-1.958333333333333
 30
0.0
 10
6.02695330105218
 20
-1.958333333333333
 30
0.0
 10
6.05417498073968
 20
-1.985555860731337
 30
0.0
 10
6.05417498073968
 20
-2.01902770996095
 30
0.0
  0
SPLINE
  5
D6
330
1F
100
AcDbEntity
  8
Layer 1
 62
   240
420
 15539236
370
     9
100
AcDbSpline
210
0.0
220
0.0
230
1.0
 70
    11
 71
     3
 72
    56
 73
    52
 74
     0
 42
0.0000000001
 43
0.0000000001
 12
1.0
 22
0.0
 32
0.0
 13
1.0
 23
0.0
 33
0.0
 40
0.0
 40
0.0
 40
0.0
 40
0.0
 40
1.0
 40
1.0
 40
1.0
 40
2.0
 40
2.0
 40
2.0
 40
3.0
 40
3.0
 40
3.0
 40
4.0
 40
4.0
 40
4.0
 40
5.0
 40
5.0
 40
5.0
 40
6.0
 40
6.0
 40
6.0
 40
7.0
 40
7.0
 40
7.0
 40
8.0
 40
8.0
 40
8.0
 40
9.0
 40
9.0
 40
9.0
 40
10.0
 40
10.0
 40
10.0
 40
11.0
 40
11.0
 40
11.0
 40
12.0
 40
12.0
 40
12.0
 40
13.0
 40
13.0
 40
13.0
 40
14.0
 40
14.0
 40
14.0
 40
15.0
 40
15.0
 40
15.0
 40
16.0
 40
16.0
 40
16.0
 40
17.0
 40
17.0
 40
17.0
 40
17.0
 10
6.05417498073968
 20
-3.051389058430989
 30
0.0
 10
6.05417498073968
 20
-3.051389058430989
 30
0.0
 10
6.05417498073968
 20
-3.679861280653212
 30
0.0
 10
6.05417498073968
 20
-3.679861280653212
 30
0.0
 10
6.05417498073968
 20
-3.713472154405395
 30
0.0
 10
6.02695330105218
 20
-3.740694681803385
 30
0.0
 10
5.99334242730001
 20
-3.740694681803385
 30
0.0
 10
5.99334242730001
 20
-3.740694681803385
 30
0.0
 10
4.30417498073968
 20
-3.740694681803385
 30
0.0
 10
4.30417498073968
 20
-3.740694681803385
 30
0.0
 10
4.30417498073968
 20
-3.740694681803385
 30
0.0
 10
4.30417498073968
 20
-3.990694681803385
 30
0.0
 10
4.30417498073968
 20
-3.990694681803385
 30
0.0
 10
4.30417498073968
 20
-3.990694681803385
 30
0.0
 10
4.05417498073968
 20
-3.990694681803385
 30
0.0
 10
4.05417498073968
 20
-3.990694681803385
 30
0.0
 10
4.05417498073968
 20
-3.990694681803385
 30
0.0
 10
4.05417498073968
 20
-3.740694681803385
 30
0.0
 10
4.05417498073968
 20
-3.740694681803385
 30
0.0
 10
4.05417498073968
 20
-3.740694681803385
 30
0.0
 10
3.581675557182823
 20
-3.740694681803385
 30
0.0
 10
3.581675557182823
 20
-3.740694681803385
 30
0.0
 10
3.581675557182823
 20
-3.740694681803385
 30
0.0
 10
3.581675557182823
 20
-3.240694681803385
 30
0.0
 10
3.581675557182823
 20
-3.240694681803385
 30
0.0
 10
3.581675557182823
 20
-3.240694681803385
 30
0.0
 10
4.05417498073968
 20
-3.240694681803385
 30
0.0
 10
4.05417498073968
 20
-3.240694681803385
 30
0.0
 10
4.05417498073968
 20
-3.240694681803385
 30
0.0
 10
4.05417498073968
 20
-2.990694681803385
 30
0.0
 10
4.05417498073968
 20
-2.990694681803385
 30
0.0
 10
4.05417498073968
 20
-2.990694681803385
 30
0.0
 10
4.30417498073968
 20
-2.990694681803385
 30
0.0
 10
4.30417498073968
 20
-2.990694681803385
 30
0.0
 10
4.30417498073968
 20
-2.990694681803385
 30
0.0
 10
4.30417498073968
 20
-3.240694681803385
 30
0.0
 10
4.30417498073968
 20
-3.240694681803385
 30
0.0
 10
4.30417498073968
 20
-3.240694681803385
 30
0.0
 10
5.55417498073968
 20
-3.240694681803385
 30
0.0
 10
5.55417498073968
 20
-3.240694681803385
 30
0.0
 10
5.55417498073968
 20
-3.240694681803385
 30
0.0
 10
5.55417498073968
 20
-3.041527642144097
 30
0.0
 10
5.55417498073968
 20
-3.041527642144097
 30
0.0
 10
5.55417498073968
 20
-3.013472663031684
 30
0.0
 10
5.576952961967991
 20
-2.990694681803385
 30
0.0
 10
5.605008788790908
 20
-2.990694681803385
 30
0.0
 10
5.605008788790908
 20
-2.990694681803385
 30
0.0
 10
5.99334242730001
 20
-2.990694681803385
 30
0.0
 10
5.99334242730001
 20
-2.990694681803385
 30
0.0
 10
6.02695330105218
 20
-2.990694681803385
 30
0.0
 10
6.05417498073968
 20
-3.017917209201389
 30
0.0
 10
6.05417498073968
 20
-3.051389058430989
 30
0.0
  0
SPLINE
  5
D7
330
1F
100
AcDbEntity
  8
Layer 1
 62
   240
420
 15539236
370
     9
100
AcDbSpline
210
0.0
220
0.0
230
1.0
 70
    11
 71
     3
 72
    56
 73
    52
 74
     0
 42
0.0000000001
 43
0.0000000001
 12
1.0
 22
0.0
 32
0.0
 13
1.0
 23
0.0
 33
0.0
 40
0.0
 40
0.0
 40
0.0
 40
0.0
 40
1.0
 40
1.0
 40
1.0
 40
2.0
 40
2.0
 40
2.0
 40
3.0
 40
3.0
 40
3.0
 40
4.0
 40
4.0
 40
4.0
 40
5.0
 40
5.0
 40
5.0
 40
6.0
 40
6.0
 40
6.0
 40
7.0
 40
7.0
 40
7.0
 40
8.0
 40
8.0
 40
8.0
 40
9.0
 40
9.0
 40
9.0
 40
10.0
 40
10.0
 40
10.0
 40
11.0
 40
11.0
 40
11.0
 40
12.0
 40
12.0
 40
12.0
 40
13.0
 40
13.0
 40
13.0
 40
14.0
 40
14.0
 40
14.0
 40
15.0
 40
15.0
 40
15.0
 40
16.0
 40
16.0
 40
16.0
 40
17.0
 40
17.0
 40
17.0
 40
17.0
 10
6.05417498073968
 20
-4.083750406901041
 30
0.0
 10
6.05417498073968
 20
-4.083750406901041
 30
0.0
 10
6.05417498073968
 20
-4.712222629123263
 30
0.0
 10
6.05417498073968
 20
-4.712222629123263
 30
0.0
 10
6.05417498073968
 20
-4.745833502875434
 30
0.0
 10
6.02695330105218
 20
-4.77305603027345
 30
0.0
 10
5.99334242730001
 20
-4.77305603027345
 30
0.0
 10
5.99334242730001
 20
-4.77305603027345
 30
0.0
 10
4.30417498073968
 20
-4.77305603027345
 30
0.0
 10
4.30417498073968
 20
-4.77305603027345
 30
0.0
 10
4.30417498073968
 20
-4.77305603027345
 30
0.0
 10
4.30417498073968
 20
-5.02305603027345
 30
0.0
 10
4.30417498073968
 20
-5.02305603027345
 30
0.0
 10
4.30417498073968
 20
-5.02305603027345
 30
0.0
 10
4.05417498073968
 20
-5.02305603027345
 30
0.0
 10
4.05417498073968
 20
-5.02305603027345
 30
0.0
 10
4.05417498073968
 20
-5.02305603027345
 30
0.0
 10
4.05417498073968
 20
-4.77305603027345
 30
0.0
 10
4.05417498073968
 20
-4.77305603027345
 30
0.0
 10
4.05417498073968
 20
-4.77305603027345
 30
0.0
 10
3.581675557182823
 20
-4.77305603027345
 30
0.0
 10
3.581675557182823
 20
-4.77305603027345
 30
0.0
 10
3.581675557182823
 20
-4.77305603027345
 30
0.0
 10
3.581675557182823
 20
-4.27305603027345
 30
0.0
 10
3.581675557182823
 20
-4.27305603027345
 30
0.0
 10
3.581675557182823
 20
-4.27305603027345
 30
0.0
 10
4.05417498073968
 20
-4.27305603027345
 30
0.0
 10
4.05417498073968
 20
-4.27305603027345
 30
0.0
 10
4.05417498073968
 20
-4.27305603027345
 30
0.0
 10
4.05417498073968
 20
-4.02305603027345
 30
0.0
 10
4.05417498073968
 20
-4.02305603027345
 30
0.0
 10
4.05417498073968
 20
-4.02305603027345
 30
0.0
 10
4.30417498073968
 20
-4.02305603027345
 30
0.0
 10
4.30417498073968
 20
-4.02305603027345
 30
0.0
 10
4.30417498073968
 20
-4.02305603027345
 30
0.0
 10
4.30417498073968
 20
-4.27305603027345
 30
0.0
 10
4.30417498073968
 20
-4.27305603027345
 30
0.0
 10
4.30417498073968
 20
-4.27305603027345
 30
0.0
 10
5.55417498073968
 20
-4.27305603027345
 30
0.0
 10
5.55417498073968
 20
-4.27305603027345
 30
0.0
 10
5.55417498073968
 20
-4.27305603027345
 30
0.0
 10
5.55417498073968
 20
-4.073888990614149
 30
0.0
 10
5.55417498073968
 20
-4.073888990614149
 30
0.0
 10
5.55417498073968
 20
-4.045834011501736
 30
0.0
 10
5.576952961967991
 20
-4.02305603027345
 30
0.0
 10
5.605008788790908
 20
-4.02305603027345
 30
0.0
 10
5.605008788790908
 20
-4.02305603027345
 30
0.0
 10
5.99334242730001
 20
-4.02305603027345
 30
0.0
 10
5.99334242730001
 20
-4.02305603027345
 30
0.0
 10
6.02695330105218
 20
-4.02305603027345
 30
0.0
 10
6.05417498073968
 20
-4.050278557671441
 30
0.0
 10
6.05417498073968
 20
-4.083750406901041
 30
0.0
  0
SPLINE
  5
D8
330
1F
100
AcDbEntity
  8
Layer 1
 62
   240
420
 15539236
370
     9
100
AcDbSpline
210
0.0
220
0.0
230
1.0
 70
    11
 71
     3
 72
    56
 73
    52
 74
     0
 42
0.0000000001
 43
0.0000000001
 12
1.0
 22
0.0
 32
0.0
 13
1.0
 23
0.0
 33
0.0
 40
0.0
 40
0.0
 40
0.0
 40
0.0
 40
1.0
 40
1.0
 40
1.0
 40
2.0
 40
2.0
 40
2.0
 40
3.0
 40
3.0
 40
3.0
 40
4.0
 40
4.0
 40
4.0
 40
5.0
 40
5.0
 40
5.0
 40
6.0
 40
6.0
 40
6.0
 40
7.0
 40
7.0
 40
7.0
 40
8.0
 40
8.0
 40
8.0
 40
9.0
 40
9.0
 40
9.0
 40
10.0
 40
10.0
 40
10.0
 40
11.0
 40
11.0
 40
11.0
 40
12.0
 40
12.0
 40
12.0
 40
13.0
 40
13.0
 40
13.0
 40
14.0
 40
14.0
 40
14.0
 40
15.0
 40
15.0
 40
15.0
 40
16.0
 40
16.0
 40
16.0
 40
17.0
 40
17.0
 40
17.0
 40
17.0
 10
6.05417498073968
 20
-5.116111755371094
 30
0.0
 10
6.05417498073968
 20
-5.116111755371094
 30
0.0
 10
6.05417498073968
 20
-5.744583977593316
 30
0.0
 10
6.05417498073968
 20
-5.744583977593316
 30
0.0
 10
6.05417498073968
 20
-5.778194851345486
 30
0.0
 10
6.02695330105218
 20
-5.805417378743489
 30
0.0
 10
5.99334242730001
 20
-5.805417378743489
 30
0.0
 10
5.99334242730001
 20
-5.805417378743489
 30
0.0
 10
4.30417498073968
 20
-5.805417378743489
 30
0.0
 10
4.30417498073968
 20
-5.805417378743489
 30
0.0
 10
4.30417498073968
 20
-5.805417378743489
 30
0.0
 10
4.30417498073968
 20
-6.055417378743489
 30
0.0
 10
4.30417498073968
 20
-6.055417378743489
 30
0.0
 10
4.30417498073968
 20
-6.055417378743489
 30
0.0
 10
4.05417498073968
 20
-6.055417378743489
 30
0.0
 10
4.05417498073968
 20
-6.055417378743489
 30
0.0
 10
4.05417498073968
 20
-6.055417378743489
 30
0.0
 10
4.05417498073968
 20
-5.805417378743489
 30
0.0
 10
4.05417498073968
 20
-5.805417378743489
 30
0.0
 10
4.05417498073968
 20
-5.805417378743489
 30
0.0
 10
3.581675557182823
 20
-5.805417378743489
 30
0.0
 10
3.581675557182823
 20
-5.805417378743489
 30
0.0
 10
3.581675557182823
 20
-5.805417378743489
 30
0.0
 10
3.581675557182823
 20
-5.305417378743489
 30
0.0
 10
3.581675557182823
 20
-5.305417378743489
 30
0.0
 10
3.581675557182823
 20
-5.305417378743489
 30
0.0
 10
4.05417498073968
 20
-5.305417378743489
 30
0.0
 10
4.05417498073968
 20
-5.305417378743489
 30
0.0
 10
4.05417498073968
 20
-5.305417378743489
 30
0.0
 10
4.05417498073968
 20
-5.055417378743489
 30
0.0
 10
4.05417498073968
 20
-5.055417378743489
 30
0.0
 10
4.05417498073968
 20
-5.055417378743489
 30
0.0
 10
4.30417498073968
 20
-5.055417378743489
 30
0.0
 10
4.30417498073968
 20
-5.055417378743489
 30
0.0
 10
4.30417498073968
 20
-5.055417378743489
 30
0.0
 10
4.30417498073968
 20
-5.305417378743489
 30
0.0
 10
4.30417498073968
 20
-5.305417378743489
 30
0.0
 10
4.30417498073968
 20
-5.305417378743489
 30
0.0
 10
5.55417498073968
 20
-5.305417378743489
 30
0.0
 10
5.55417498073968
 20
-5.305417378743489
 30
0.0
 10
5.55417498073968
 20
-5.305417378743489
 30
0.0
 10
5.55417498073968
 20
-5.106250339084213
 30
0.0
 10
5.55417498073968
 20
-5.106250339084213
 30
0.0
 10
5.55417498073968
 20
-5.078195359971788
 30
0.0
 10
5.576952961967991
 20
-5.055417378743489
 30
0.0
 10
5.605008788790908
 20
-5.055417378743489
 30
0.0
 10
5.605008788790908
 20
-5.055417378743489
 30
0.0
 10
5.99334242730001
 20
-5.055417378743489
 30
0.0
 10
5.99334242730001
 20
-5.055417378743489
 30
0.0
 10
6.02695330105218
 20
-5.055417378743489
 30
0.0
 10
6.05417498073968
 20
-5.082639906141505
 30
0.0
 10
6.05417498073968
 20
-5.116111755371094
 30
0.0
  0
SPLINE
  5
D9
330
1F
100
AcDbEntity
  8
Layer 1
 62
   240
420
 15539236
370
     9
100
AcDbSpline
210
0.0
220
0.0
230
1.0
 70
    11
 71
     3
 72
    56
 73
    52
 74
     0
 42
0.0000000001
 43
0.0000000001
 12
1.0
 22
0.0
 32
0.0
 13
1.0
 23
0.0
 33
0.0
 40
0.0
 40
0.0
 40
0.0
 40
0.0
 40
1.0
 40
1.0
 40
1.0
 40
2.0
 40
2.0
 40
2.0
 40
3.0
 40
3.0
 40
3.0
 40
4.0
 40
4.0
 40
4.0
 40
5.0
 40
5.0
 40
5.0
 40
6.0
 40
6.0
 40
6.0
 40
7.0
 40
7.0
 40
7.0
 40
8.0
 40
8.0
 40
8.0
 40
9.0
 40
9.0
 40
9.0
 40
10.0
 40
10.0
 40
10.0
 40
11.0
 40
11.0
 40
11.0
 40
12.0
 40
12.0
 40
12.0
 40
13.0
 40
13.0
 40
13.0
 40
14.0
 40
14.0
 40
14.0
 40
15.0
 40
15.0
 40
15.0
 40
16.0
 40
16.0
 40
16.0
 40
17.0
 40
17.0
 40
17.0
 40
17.0
 10
3.515907036539551
 20
-6.209217267300194
 30
0.0
 10
3.515907036539551
 20
-6.209217267300194
 30
0.0
 10
3.515907036539551
 20
-6.837689489522417
 30
0.0
 10
3.515907036539551
 20
-6.837689489522417
 30
0.0
 10
3.515907036539551
 20
-6.871300363274586
 30
0.0
 10
3.488685356852051
 20
-6.898522890672602
 30
0.0
 10
3.455074483099881
 20
-6.898522890672602
 30
0.0
 10
3.455074483099881
 20
-6.898522890672602
 30
0.0
 10
1.765907036539551
 20
-6.898522890672602
 30
0.0
 10
1.765907036539551
 20
-6.898522890672602
 30
0.0
 10
1.765907036539551
 20
-6.898522890672602
 30
0.0
 10
1.765907036539551
 20
-7.14852289067259
 30
0.0
 10
1.765907036539551
 20
-7.14852289067259
 30
0.0
 10
1.765907036539551
 20
-7.14852289067259
 30
0.0
 10
1.515907036539551
 20
-7.14852289067259
 30
0.0
 10
1.515907036539551
 20
-7.14852289067259
 30
0.0
 10
1.515907036539551
 20
-7.14852289067259
 30
0.0
 10
1.515907036539551
 20
-6.898522890672602
 30
0.0
 10
1.515907036539551
 20
-6.898522890672602
 30
0.0
 10
1.515907036539551
 20
-6.898522890672602
 30
0.0
 10
1.043407612982694
 20
-6.898522890672602
 30
0.0
 10
1.043407612982694
 20
-6.898522890672602
 30
0.0
 10
1.043407612982694
 20
-6.898522890672602
 30
0.0
 10
1.043407612982694
 20
-6.398522890672602
 30
0.0
 10
1.043407612982694
 20
-6.398522890672602
 30
0.0
 10
1.043407612982694
 20
-6.398522890672602
 30
0.0
 10
1.515907036539551
 20
-6.398522890672602
 30
0.0
 10
1.515907036539551
 20
-6.398522890672602
 30
0.0
 10
1.515907036539551
 20
-6.398522890672602
 30
0.0
 10
1.515907036539551
 20
-6.148522890672603
 30
0.0
 10
1.515907036539551
 20
-6.148522890672603
 30
0.0
 10
1.515907036539551
 20
-6.148522890672603
 30
0.0
 10
1.765907036539551
 20
-6.148522890672603
 30
0.0
 10
1.765907036539551
 20
-6.148522890672603
 30
0.0
 10
1.765907036539551
 20
-6.148522890672603
 30
0.0
 10
1.765907036539551
 20
-6.398522890672602
 30
0.0
 10
1.765907036539551
 20
-6.398522890672602
 30
0.0
 10
1.765907036539551
 20
-6.398522890672602
 30
0.0
 10
3.015907036539551
 20
-6.398522890672602
 30
0.0
 10
3.015907036539551
 20
-6.398522890672602
 30
0.0
 10
3.015907036539551
 20
-6.398522890672602
 30
0.0
 10
3.015907036539551
 20
-6.199355851013302
 30
0.0
 10
3.015907036539551
 20
-6.199355851013302
 30
0.0
 10
3.015907036539551
 20
-6.171300871900889
 30
0.0
 10
3.03868501776785
 20
-6.148522890672603
 30
0.0
 10
3.066740844590766
 20
-6.148522890672603
 30
0.0
 10
3.066740844590766
 20
-6.148522890672603
 30
0.0
 10
3.455074483099881
 20
-6.148522890672603
 30
0.0
 10
3.455074483099881
 20
-6.148522890672603
 30
0.0
 10
3.488685356852051
 20
-6.148522890672603
 30
0.0
 10
3.515907036539551
 20
-6.175745418070593
 30
0.0
 10
3.515907036539551
 20
-6.209217267300194
 30
0.0
  0
SPLINE
  5
DA
330
1F
100
AcDbEntity
  8
Layer 1
 62
   240
420
 15539236
370
     9
100
AcDbSpline
210
0.0
220
0.0
230
1.0
 70
    11
 71
     3
 72
    56
 73
    52
 74
     0
 42
0.0000000001
 43
0.0000000001
 12
1.0
 22
0.0
 32
0.0
 13
1.0
 23
0.0
 33
0.0
 40
0.0
 40
0.0
 40
0.0
 40
0.0
 40
1.0
 40
1.0
 40
1.0
 40
2.0
 40
2.0
 40
2.0
 40
3.0
 40
3.0
 40
3.0
 40
4.0
 40
4.0
 40
4.0
 40
5.0
 40
5.0
 40
5.0
 40
6.0
 40
6.0
 40
6.0
 40
7.0
 40
7.0
 40
7.0
 40
8.0
 40
8.0
 40
8.0
 40
9.0
 40
9.0
 40
9.0
 40
10.0
 40
10.0
 40
10.0
 40
11.0
 40
11.0
 40
11.0
 40
12.0
 40
12.0
 40
12.0
 40
13.0
 40
13.0
 40
13.0
 40
14.0
 40
14.0
 40
14.0
 40
15.0
 40
15.0
 40
15.0
 40
16.0
 40
16.0
 40
16.0
 40
17.0
 40
17.0
 40
17.0
 40
17.0
 10
3.515907036539551
 20
-7.241578615770246
 30
0.0
 10
3.515907036539551
 20
-7.241578615770246
 30
0.0
 10
3.515907036539551
 20
-7.870050837992468
 30
0.0
 10
3.515907036539551
 20
-7.870050837992468
 30
0.0
 10
3.515907036539551
 20
-7.903661711744639
 30
0.0
 10
3.488685356852051
 20
-7.930884239142642
 30
0.0
 10
3.455074483099881
 20
-7.930884239142642
 30
0.0
 10
3.455074483099881
 20
-7.930884239142642
 30
0.0
 10
1.765907036539551
 20
-7.930884239142642
 30
0.0
 10
1.765907036539551
 20
-7.930884239142642
 30
0.0
 10
1.765907036539551
 20
-7.930884239142642
 30
0.0
 10
1.765907036539551
 20
-8.180884239142642
 30
0.0
 10
1.765907036539551
 20
-8.180884239142642
 30
0.0
 10
1.765907036539551
 20
-8.180884239142642
 30
0.0
 10
1.515907036539551
 20
-8.180884239142642
 30
0.0
 10
1.515907036539551
 20
-8.180884239142642
 30
0.0
 10
1.515907036539551
 20
-8.180884239142642
 30
0.0
 10
1.515907036539551
 20
-7.930884239142642
 30
0.0
 10
1.515907036539551
 20
-7.930884239142642
 30
0.0
 10
1.515907036539551
 20
-7.930884239142642
 30
0.0
 10
1.043407612982694
 20
-7.930884239142642
 30
0.0
 10
1.043407612982694
 20
-7.930884239142642
 30
0.0
 10
1.043407612982694
 20
-7.930884239142642
 30
0.0
 10
1.043407612982694
 20
-7.430884239142642
 30
0.0
 10
1.043407612982694
 20
-7.430884239142642
 30
0.0
 10
1.043407612982694
 20
-7.430884239142642
 30
0.0
 10
1.515907036539551
 20
-7.430884239142642
 30
0.0
 10
1.515907036539551
 20
-7.430884239142642
 30
0.0
 10
1.515907036539551
 20
-7.430884239142642
 30
0.0
 10
1.515907036539551
 20
-7.180884239142642
 30
0.0
 10
1.515907036539551
 20
-7.180884239142642
 30
0.0
 10
1.515907036539551
 20
-7.180884239142642
 30
0.0
 10
1.765907036539551
 20
-7.180884239142642
 30
0.0
 10
1.765907036539551
 20
-7.180884239142642
 30
0.0
 10
1.765907036539551
 20
-7.180884239142642
 30
0.0
 10
1.765907036539551
 20
-7.430884239142642
 30
0.0
 10
1.765907036539551
 20
-7.430884239142642
 30
0.0
 10
1.765907036539551
 20
-7.430884239142642
 30
0.0
 10
3.015907036539551
 20
-7.430884239142642
 30
0.0
 10
3.015907036539551
 20
-7.430884239142642
 30
0.0
 10
3.015907036539551
 20
-7.430884239142642
 30
0.0
 10
3.015907036539551
 20
-7.231717199483354
 30
0.0
 10
3.015907036539551
 20
-7.231717199483354
 30
0.0
 10
3.015907036539551
 20
-7.203662220370941
 30
0.0
 10
3.03868501776785
 20
-7.180884239142642
 30
0.0
 10
3.066740844590766
 20
-7.180884239142642
 30
0.0
 10
3.066740844590766
 20
-7.180884239142642
 30
0.0
 10
3.455074483099881
 20
-7.180884239142642
 30
0.0
 10
3.455074483099881
 20
-7.180884239142642
 30
0.0
 10
3.488685356852051
 20
-7.180884239142642
 30
0.0
 10
3.515907036539551
 20
-7.208106766540645
 30
0.0
 10
3.515907036539551
 20
-7.241578615770246
 30
0.0
  0
SPLINE
  5
DB
330
1F
100
AcDbEntity
  8
Layer 1
 62
   240
420
 15539236
370
     9
100
AcDbSpline
210
0.0
220
0.0
230
1.0
 70
    11
 71
     3
 72
    56
 73
    52
 74
     0
 42
0.0000000001
 43
0.0000000001
 12
1.0
 22
0.0
 32
0.0
 13
1.0
 23
0.0
 33
0.0
 40
0.0
 40
0.0
 40
0.0
 40
0.0
 40
1.0
 40
1.0
 40
1.0
 40
2.0
 40
2.0
 40
2.0
 40
3.0
 40
3.0
 40
3.0
 40
4.0
 40
4.0
 40
4.0
 40
5.0
 40
5.0
 40
5.0
 40
6.0
 40
6.0
 40
6.0
 40
7.0
 40
7.0
 40
7.0
 40
8.0
 40
8.0
 40
8.0
 40
9.0
 40
9.0
 40
9.0
 40
10.0
 40
10.0
 40
10.0
 40
11.0
 40
11.0
 40
11.0
 40
12.0
 40
12.0
 40
12.0
 40
13.0
 40
13.0
 40
13.0
 40
14.0
 40
14.0
 40
14.0
 40
15.0
 40
15.0
 40
15.0
 40
16.0
 40
16.0
 40
16.0
 40
17.0
 40
17.0
 40
17.0
 40
17.0
 10
3.515907036539551
 20
-8.273939964240299
 30
0.0
 10
3.515907036539551
 20
-8.273939964240299
 30
0.0
 10
3.515907036539551
 20
-8.90241218646252
 30
0.0
 10
3.515907036539551
 20
-8.90241218646252
 30
0.0
 10
3.515907036539551
 20
-8.93602306021469
 30
0.0
 10
3.488685356852051
 20
-8.963245587612693
 30
0.0
 10
3.455074483099881
 20
-8.963245587612693
 30
0.0
 10
3.455074483099881
 20
-8.963245587612693
 30
0.0
 10
1.765907036539551
 20
-8.963245587612693
 30
0.0
 10
1.765907036539551
 20
-8.963245587612693
 30
0.0
 10
1.765907036539551
 20
-8.963245587612693
 30
0.0
 10
1.765907036539551
 20
-9.213245587612693
 30
0.0
 10
1.765907036539551
 20
-9.213245587612693
 30
0.0
 10
1.765907036539551
 20
-9.213245587612693
 30
0.0
 10
1.515907036539551
 20
-9.213245587612693
 30
0.0
 10
1.515907036539551
 20
-9.213245587612693
 30
0.0
 10
1.515907036539551
 20
-9.213245587612693
 30
0.0
 10
1.515907036539551
 20
-8.963245587612693
 30
0.0
 10
1.515907036539551
 20
-8.963245587612693
 30
0.0
 10
1.515907036539551
 20
-8.963245587612693
 30
0.0
 10
1.043407612982694
 20
-8.963245587612693
 30
0.0
 10
1.043407612982694
 20
-8.963245587612693
 30
0.0
 10
1.043407612982694
 20
-8.963245587612693
 30
0.0
 10
1.043407612982694
 20
-8.463245587612693
 30
0.0
 10
1.043407612982694
 20
-8.463245587612693
 30
0.0
 10
1.043407612982694
 20
-8.463245587612693
 30
0.0
 10
1.515907036539551
 20
-8.463245587612693
 30
0.0
 10
1.515907036539551
 20
-8.463245587612693
 30
0.0
 10
1.515907036539551
 20
-8.463245587612693
 30
0.0
 10
1.515907036539551
 20
-8.213245587612693
 30
0.0
 10
1.515907036539551
 20
-8.213245587612693
 30
0.0
 10
1.515907036539551
 20
-8.213245587612693
 30
0.0
 10
1.765907036539551
 20
-8.213245587612693
 30
0.0
 10
1.765907036539551
 20
-8.213245587612693
 30
0.0
 10
1.765907036539551
 20
-8.213245587612693
 30
0.0
 10
1.765907036539551
 20
-8.463245587612693
 30
0.0
 10
1.765907036539551
 20
-8.463245587612693
 30
0.0
 10
1.765907036539551
 20
-8.463245587612693
 30
0.0
 10
3.015907036539551
 20
-8.463245587612693
 30
0.0
 10
3.015907036539551
 20
-8.463245587612693
 30
0.0
 10
3.015907036539551
 20
-8.463245587612693
 30
0.0
 10
3.015907036539551
 20
-8.264078547953407
 30
0.0
 10
3.015907036539551
 20
-8.264078547953407
 30
0.0
 10
3.015907036539551
 20
-8.236023568840993
 30
0.0
 10
3.03868501776785
 20
-8.213245587612693
 30
0.0
 10
3.066740844590766
 20
-8.213245587612693
 30
0.0
 10
3.066740844590766
 20
-8.213245587612693
 30
0.0
 10
3.455074483099881
 20
-8.213245587612693
 30
0.0
 10
3.455074483099881
 20
-8.213245587612693
 30
0.0
 10
3.488685356852051
 20
-8.213245587612693
 30
0.0
 10
3.515907036539551
 20
-8.240468115010698
 30
0.0
 10
3.515907036539551
 20
-8.273939964240299
 30
0.0
  0
SPLINE
  5
DC
330
1F
100
AcDbEntity
  8
Layer 1
 62
   240
420
 15539236
370
     9
100
AcDbSpline
210
0.0
220
0.0
230
1.0
 70
    11
 71
     3
 72
    56
 73
    52
 74
     0
 42
0.0000000001
 43
0.0000000001
 12
1.0
 22
0.0
 32
0.0
 13
1.0
 23
0.0
 33
0.0
 40
0.0
 40
0.0
 40
0.0
 40
0.0
 40
1.0
 40
1.0
 40
1.0
 40
2.0
 40
2.0
 40
2.0
 40
3.0
 40
3.0
 40
3.0
 40
4.0
 40
4.0
 40
4.0
 40
5.0
 40
5.0
 40
5.0
 40
6.0
 40
6.0
 40
6.0
 40
7.0
 40
7.0
 40
7.0
 40
8.0
 40
8.0
 40
8.0
 40
9.0
 40
9.0
 40
9.0
 40
10.0
 40
10.0
 40
10.0
 40
11.0
 40
11.0
 40
11.0
 40
12.0
 40
12.0
 40
12.0
 40
13.0
 40
13.0
 40
13.0
 40
14.0
 40
14.0
 40
14.0
 40
15.0
 40
15.0
 40
15.0
 40
16.0
 40
16.0
 40
16.0
 40
17.0
 40
17.0
 40
17.0
 40
17.0
 10
3.515907036539551
 20
-9.30630131271035
 30
0.0
 10
3.515907036539551
 20
-9.30630131271035
 30
0.0
 10
3.515907036539551
 20
-9.934773534932573
 30
0.0
 10
3.515907036539551
 20
-9.934773534932573
 30
0.0
 10
3.515907036539551
 20
-9.968384408684743
 30
0.0
 10
3.488685356852051
 20
-9.995606936082746
 30
0.0
 10
3.455074483099881
 20
-9.995606936082746
 30
0.0
 10
3.455074483099881
 20
-9.995606936082746
 30
0.0
 10
1.765907036539551
 20
-9.995606936082746
 30
0.0
 10
1.765907036539551
 20
-9.995606936082746
 30
0.0
 10
1.765907036539551
 20
-9.995606936082746
 30
0.0
 10
1.765907036539551
 20
-10.24560693608275
 30
0.0
 10
1.765907036539551
 20
-10.24560693608275
 30
0.0
 10
1.765907036539551
 20
-10.24560693608275
 30
0.0
 10
1.515907036539551
 20
-10.24560693608275
 30
0.0
 10
1.515907036539551
 20
-10.24560693608275
 30
0.0
 10
1.515907036539551
 20
-10.24560693608275
 30
0.0
 10
1.515907036539551
 20
-9.995606936082746
 30
0.0
 10
1.515907036539551
 20
-9.995606936082746
 30
0.0
 10
1.515907036539551
 20
-9.995606936082746
 30
0.0
 10
1.043407612982694
 20
-9.995606936082746
 30
0.0
 10
1.043407612982694
 20
-9.995606936082746
 30
0.0
 10
1.043407612982694
 20
-9.995606936082746
 30
0.0
 10
1.043407612982694
 20
-9.495606936082746
 30
0.0
 10
1.043407612982694
 20
-9.495606936082746
 30
0.0
 10
1.043407612982694
 20
-9.495606936082746
 30
0.0
 10
1.515907036539551
 20
-9.495606936082746
 30
0.0
 10
1.515907036539551
 20
-9.495606936082746
 30
0.0
 10
1.515907036539551
 20
-9.495606936082746
 30
0.0
 10
1.515907036539551
 20
-9.245606936082746
 30
0.0
 10
1.515907036539551
 20
-9.245606936082746
 30
0.0
 10
1.515907036539551
 20
-9.245606936082746
 30
0.0
 10
1.765907036539551
 20
-9.245606936082746
 30
0.0
 10
1.765907036539551
 20
-9.245606936082746
 30
0.0
 10
1.765907036539551
 20
-9.245606936082746
 30
0.0
 10
1.765907036539551
 20
-9.495606936082746
 30
0.0
 10
1.765907036539551
 20
-9.495606936082746
 30
0.0
 10
1.765907036539551
 20
-9.495606936082746
 30
0.0
 10
3.015907036539551
 20
-9.495606936082746
 30
0.0
 10
3.015907036539551
 20
-9.495606936082746
 30
0.0
 10
3.015907036539551
 20
-9.495606936082746
 30
0.0
 10
3.015907036539551
 20
-9.296439896423458
 30
0.0
 10
3.015907036539551
 20
-9.296439896423458
 30
0.0
 10
3.015907036539551
 20
-9.268384917311044
 30
0.0
 10
3.03868501776785
 20
-9.245606936082746
 30
0.0
 10
3.066740844590766
 20
-9.245606936082746
 30
0.0
 10
3.066740844590766
 20
-9.245606936082746
 30
0.0
 10
3.455074483099881
 20
-9.245606936082746
 30
0.0
 10
3.455074483099881
 20
-9.245606936082746
 30
0.0
 10
3.488685356852051
 20
-9.245606936082746
 30
0.0
 10
3.515907036539551
 20
-9.272829463480749
 30
0.0
 10
3.515907036539551
 20
-9.30630131271035
 30
0.0
  0
SPLINE
  5
DD
330
1F
100
AcDbEntity
  8
Layer 1
 62
   240
420
 15539236
370
     9
100
AcDbSpline
210
0.0
220
0.0
230
1.0
 70
    11
 71
     3
 72
    56
 73
    52
 74
     0
 42
0.0000000001
 43
0.0000000001
 12
1.0
 22
0.0
 32
0.0
 13
1.0
 23
0.0
 33
0.0
 40
0.0
 40
0.0
 40
0.0
 40
0.0
 40
1.0
 40
1.0
 40
1.0
 40
2.0
 40
2.0
 40
2.0
 40
3.0
 40
3.0
 40
3.0
 40
4.0
 40
4.0
 40
4.0
 40
5.0
 40
5.0
 40
5.0
 40
6.0
 40
6.0
 40
6.0
 40
7.0
 40
7.0
 40
7.0
 40
8.0
 40
8.0
 40
8.0
 40
9.0
 40
9.0
 40
9.0
 40
10.0
 40
10.0
 40
10.0
 40
11.0
 40
11.0
 40
11.0
 40
12.0
 40
12.0
 40
12.0
 40
13.0
 40
13.0
 40
13.0
 40
14.0
 40
14.0
 40
14.0
 40
15.0
 40
15.0
 40
15.0
 40
16.0
 40
16.0
 40
16.0
 40
17.0
 40
17.0
 40
17.0
 40
17.0
 10
3.515907036539551
 20
-10.3386626611804
 30
0.0
 10
3.515907036539551
 20
-10.3386626611804
 30
0.0
 10
3.515907036539551
 20
-10.96713488340262
 30
0.0
 10
3.515907036539551
 20
-10.96713488340262
 30
0.0
 10
3.515907036539551
 20
-11.00074575715479
 30
0.0
 10
3.488685356852051
 20
-11.0279682845528
 30
0.0
 10
3.455074483099881
 20
-11.0279682845528
 30
0.0
 10
3.455074483099881
 20
-11.0279682845528
 30
0.0
 10
1.765907036539551
 20
-11.0279682845528
 30
0.0
 10
1.765907036539551
 20
-11.0279682845528
 30
0.0
 10
1.765907036539551
 20
-11.0279682845528
 30
0.0
 10
1.765907036539551
 20
-11.2779682845528
 30
0.0
 10
1.765907036539551
 20
-11.2779682845528
 30
0.0
 10
1.765907036539551
 20
-11.2779682845528
 30
0.0
 10
1.515907036539551
 20
-11.2779682845528
 30
0.0
 10
1.515907036539551
 20
-11.2779682845528
 30
0.0
 10
1.515907036539551
 20
-11.2779682845528
 30
0.0
 10
1.515907036539551
 20
-11.0279682845528
 30
0.0
 10
1.515907036539551
 20
-11.0279682845528
 30
0.0
 10
1.515907036539551
 20
-11.0279682845528
 30
0.0
 10
1.043407612982694
 20
-11.0279682845528
 30
0.0
 10
1.043407612982694
 20
-11.0279682845528
 30
0.0
 10
1.043407612982694
 20
-11.0279682845528
 30
0.0
 10
1.043407612982694
 20
-10.5279682845528
 30
0.0
 10
1.043407612982694
 20
-10.5279682845528
 30
0.0
 10
1.043407612982694
 20
-10.5279682845528
 30
0.0
 10
1.515907036539551
 20
-10.5279682845528
 30
0.0
 10
1.515907036539551
 20
-10.5279682845528
 30
0.0
 10
1.515907036539551
 20
-10.5279682845528
 30
0.0
 10
1.515907036539551
 20
-10.2779682845528
 30
0.0
 10
1.515907036539551
 20
-10.2779682845528
 30
0.0
 10
1.515907036539551
 20
-10.2779682845528
 30
0.0
 10
1.765907036539551
 20
-10.2779682845528
 30
0.0
 10
1.765907036539551
 20
-10.2779682845528
 30
0.0
 10
1.765907036539551
 20
-10.2779682845528
 30
0.0
 10
1.765907036539551
 20
-10.5279682845528
 30
0.0
 10
1.765907036539551
 20
-10.5279682845528
 30
0.0
 10
1.765907036539551
 20
-10.5279682845528
 30
0.0
 10
3.015907036539551
 20
-10.5279682845528
 30
0.0
 10
3.015907036539551
 20
-10.5279682845528
 30
0.0
 10
3.015907036539551
 20
-10.5279682845528
 30
0.0
 10
3.015907036539551
 20
-10.32880124489351
 30
0.0
 10
3.015907036539551
 20
-10.32880124489351
 30
0.0
 10
3.015907036539551
 20
-10.3007462657811
 30
0.0
 10
3.03868501776785
 20
-10.2779682845528
 30
0.0
 10
3.066740844590766
 20
-10.2779682845528
 30
0.0
 10
3.066740844590766
 20
-10.2779682845528
 30
0.0
 10
3.455074483099881
 20
-10.2779682845528
 30
0.0
 10
3.455074483099881
 20
-10.2779682845528
 30
0.0
 10
3.488685356852051
 20
-10.2779682845528
 30
0.0
 10
3.515907036539551
 20
-10.3051908119508
 30
0.0
 10
3.515907036539551
 20
-10.3386626611804
 30
0.0
  0
SPLINE
  5
DE
330
1F
100
AcDbEntity
  8
Layer 1
 62
   240
420
 15539236
370
     9
100
AcDbSpline
210
0.0
220
0.0
230
1.0
 70
    11
 71
     3
 72
    56
 73
    52
 74
     0
 42
0.0000000001
 43
0.0000000001
 12
1.0
 22
0.0
 32
0.0
 13
1.0
 23
0.0
 33
0.0
 40
0.0
 40
0.0
 40
0.0
 40
0.0
 40
1.0
 40
1.0
 40
1.0
 40
2.0
 40
2.0
 40
2.0
 40
3.0
 40
3.0
 40
3.0
 40
4.0
 40
4.0
 40
4.0
 40
5.0
 40
5.0
 40
5.0
 40
6.0
 40
6.0
 40
6.0
 40
7.0
 40
7.0
 40
7.0
 40
8.0
 40
8.0
 40
8.0
 40
9.0
 40
9.0
 40
9.0
 40
10.0
 40
10.0
 40
10.0
 40
11.0
 40
11.0
 40
11.0
 40
12.0
 40
12.0
 40
12.0
 40
13.0
 40
13.0
 40
13.0
 40
14.0
 40
14.0
 40
14.0
 40
15.0
 40
15.0
 40
15.0
 40
16.0
 40
16.0
 40
16.0
 40
17.0
 40
17.0
 40
17.0
 40
17.0
 10
6.119943501382951
 20
-6.209217267300194
 30
0.0
 10
6.119943501382951
 20
-6.209217267300194
 30
0.0
 10
6.119943501382951
 20
-6.837689489522417
 30
0.0
 10
6.119943501382951
 20
-6.837689489522417
 30
0.0
 10
6.119943501382951
 20
-6.871300363274586
 30
0.0
 10
6.092721821695451
 20
-6.898522890672602
 30
0.0
 10
6.059110947943294
 20
-6.898522890672602
 30
0.0
 10
6.059110947943294
 20
-6.898522890672602
 30
0.0
 10
4.369943501382965
 20
-6.898522890672602
 30
0.0
 10
4.369943501382965
 20
-6.898522890672602
 30
0.0
 10
4.369943501382965
 20
-6.898522890672602
 30
0.0
 10
4.369943501382965
 20
-7.14852289067259
 30
0.0
 10
4.369943501382965
 20
-7.14852289067259
 30
0.0
 10
4.369943501382965
 20
-7.14852289067259
 30
0.0
 10
4.119943501382965
 20
-7.14852289067259
 30
0.0
 10
4.119943501382965
 20
-7.14852289067259
 30
0.0
 10
4.119943501382965
 20
-7.14852289067259
 30
0.0
 10
4.119943501382965
 20
-6.898522890672602
 30
0.0
 10
4.119943501382965
 20
-6.898522890672602
 30
0.0
 10
4.119943501382965
 20
-6.898522890672602
 30
0.0
 10
3.647444077826107
 20
-6.898522890672602
 30
0.0
 10
3.647444077826107
 20
-6.898522890672602
 30
0.0
 10
3.647444077826107
 20
-6.898522890672602
 30
0.0
 10
3.647444077826107
 20
-6.398522890672602
 30
0.0
 10
3.647444077826107
 20
-6.398522890672602
 30
0.0
 10
3.647444077826107
 20
-6.398522890672602
 30
0.0
 10
4.119943501382965
 20
-6.398522890672602
 30
0.0
 10
4.119943501382965
 20
-6.398522890672602
 30
0.0
 10
4.119943501382965
 20
-6.398522890672602
 30
0.0
 10
4.119943501382965
 20
-6.148522890672603
 30
0.0
 10
4.119943501382965
 20
-6.148522890672603
 30
0.0
 10
4.119943501382965
 20
-6.148522890672603
 30
0.0
 10
4.369943501382965
 20
-6.148522890672603
 30
0.0
 10
4.369943501382965
 20
-6.148522890672603
 30
0.0
 10
4.369943501382965
 20
-6.148522890672603
 30
0.0
 10
4.369943501382965
 20
-6.398522890672602
 30
0.0
 10
4.369943501382965
 20
-6.398522890672602
 30
0.0
 10
4.369943501382965
 20
-6.398522890672602
 30
0.0
 10
5.619943501382951
 20
-6.398522890672602
 30
0.0
 10
5.619943501382951
 20
-6.398522890672602
 30
0.0
 10
5.619943501382951
 20
-6.398522890672602
 30
0.0
 10
5.619943501382951
 20
-6.199355851013302
 30
0.0
 10
5.619943501382951
 20
-6.199355851013302
 30
0.0
 10
5.619943501382951
 20
-6.171300871900889
 30
0.0
 10
5.642721482611263
 20
-6.148522890672603
 30
0.0
 10
5.67077730943418
 20
-6.148522890672603
 30
0.0
 10
5.67077730943418
 20
-6.148522890672603
 30
0.0
 10
6.059110947943294
 20
-6.148522890672603
 30
0.0
 10
6.059110947943294
 20
-6.148522890672603
 30
0.0
 10
6.092721821695451
 20
-6.148522890672603
 30
0.0
 10
6.119943501382951
 20
-6.175745418070593
 30
0.0
 10
6.119943501382951
 20
-6.209217267300194
 30
0.0
  0
SPLINE
  5
DF
330
1F
100
AcDbEntity
  8
Layer 1
 62
   240
420
 15539236
370
     9
100
AcDbSpline
210
0.0
220
0.0
230
1.0
 70
    11
 71
     3
 72
    56
 73
    52
 74
     0
 42
0.0000000001
 43
0.0000000001
 12
1.0
 22
0.0
 32
0.0
 13
1.0
 23
0.0
 33
0.0
 40
0.0
 40
0.0
 40
0.0
 40
0.0
 40
1.0
 40
1.0
 40
1.0
 40
2.0
 40
2.0
 40
2.0
 40
3.0
 40
3.0
 40
3.0
 40
4.0
 40
4.0
 40
4.0
 40
5.0
 40
5.0
 40
5.0
 40
6.0
 40
6.0
 40
6.0
 40
7.0
 40
7.0
 40
7.0
 40
8.0
 40
8.0
 40
8.0
 40
9.0
 40
9.0
 40
9.0
 40
10.0
 40
10.0
 40
10.0
 40
11.0
 40
11.0
 40
11.0
 40
12.0
 40
12.0
 40
12.0
 40
13.0
 40
13.0
 40
13.0
 40
14.0
 40
14.0
 40
14.0
 40
15.0
 40
15.0
 40
15.0
 40
16.0
 40
16.0
 40
16.0
 40
17.0
 40
17.0
 40
17.0
 40
17.0
 10
6.119943501382951
 20
-7.241578615770246
 30
0.0
 10
6.119943501382951
 20
-7.241578615770246
 30
0.0
 10
6.119943501382951
 20
-7.870050837992468
 30
0.0
 10
6.119943501382951
 20
-7.870050837992468
 30
0.0
 10
6.119943501382951
 20
-7.903661711744639
 30
0.0
 10
6.092721821695451
 20
-7.930884239142642
 30
0.0
 10
6.059110947943294
 20
-7.930884239142642
 30
0.0
 10
6.059110947943294
 20
-7.930884239142642
 30
0.0
 10
4.369943501382965
 20
-7.930884239142642
 30
0.0
 10
4.369943501382965
 20
-7.930884239142642
 30
0.0
 10
4.369943501382965
 20
-7.930884239142642
 30
0.0
 10
4.369943501382965
 20
-8.180884239142642
 30
0.0
 10
4.369943501382965
 20
-8.180884239142642
 30
0.0
 10
4.369943501382965
 20
-8.180884239142642
 30
0.0
 10
4.119943501382965
 20
-8.180884239142642
 30
0.0
 10
4.119943501382965
 20
-8.180884239142642
 30
0.0
 10
4.119943501382965
 20
-8.180884239142642
 30
0.0
 10
4.119943501382965
 20
-7.930884239142642
 30
0.0
 10
4.119943501382965
 20
-7.930884239142642
 30
0.0
 10
4.119943501382965
 20
-7.930884239142642
 30
0.0
 10
3.647444077826107
 20
-7.930884239142642
 30
0.0
 10
3.647444077826107
 20
-7.930884239142642
 30
0.0
 10
3.647444077826107
 20
-7.930884239142642
 30
0.0
 10
3.647444077826107
 20
-7.430884239142642
 30
0.0
 10
3.647444077826107
 20
-7.430884239142642
 30
0.0
 10
3.647444077826107
 20
-7.430884239142642
 30
0.0
 10
4.119943501382965
 20
-7.430884239142642
 30
0.0
 10
4.119943501382965
 20
-7.430884239142642
 30
0.0
 10
4.119943501382965
 20
-7.430884239142642
 30
0.0
 10
4.119943501382965
 20
-7.180884239142642
 30
0.0
 10
4.119943501382965
 20
-7.180884239142642
 30
0.0
 10
4.119943501382965
 20
-7.180884239142642
 30
0.0
 10
4.369943501382965
 20
-7.180884239142642
 30
0.0
 10
4.369943501382965
 20
-7.180884239142642
 30
0.0
 10
4.369943501382965
 20
-7.180884239142642
 30
0.0
 10
4.369943501382965
 20
-7.430884239142642
 30
0.0
 10
4.369943501382965
 20
-7.430884239142642
 30
0.0
 10
4.369943501382965
 20
-7.430884239142642
 30
0.0
 10
5.619943501382951
 20
-7.430884239142642
 30
0.0
 10
5.619943501382951
 20
-7.430884239142642
 30
0.0
 10
5.619943501382951
 20
-7.430884239142642
 30
0.0
 10
5.619943501382951
 20
-7.231717199483354
 30
0.0
 10
5.619943501382951
 20
-7.231717199483354
 30
0.0
 10
5.619943501382951
 20
-7.203662220370941
 30
0.0
 10
5.642721482611263
 20
-7.180884239142642
 30
0.0
 10
5.67077730943418
 20
-7.180884239142642
 30
0.0
 10
5.67077730943418
 20
-7.180884239142642
 30
0.0
 10
6.059110947943294
 20
-7.180884239142642
 30
0.0
 10
6.059110947943294
 20
-7.180884239142642
 30
0.0
 10
6.092721821695451
 20
-7.180884239142642
 30
0.0
 10
6.119943501382951
 20
-7.208106766540645
 30
0.0
 10
6.119943501382951
 20
-7.241578615770246
 30
0.0
  0
SPLINE
  5
E0
330
1F
100
AcDbEntity
  8
Layer 1
 62
   240
420
 15539236
370
     9
100
AcDbSpline
210
0.0
220
0.0
230
1.0
 70
    11
 71
     3
 72
    56
 73
    52
 74
     0
 42
0.0000000001
 43
0.0000000001
 12
1.0
 22
0.0
 32
0.0
 13
1.0
 23
0.0
 33
0.0
 40
0.0
 40
0.0
 40
0.0
 40
0.0
 40
1.0
 40
1.0
 40
1.0
 40
2.0
 40
2.0
 40
2.0
 40
3.0
 40
3.0
 40
3.0
 40
4.0
 40
4.0
 40
4.0
 40
5.0
 40
5.0
 40
5.0
 40
6.0
 40
6.0
 40
6.0
 40
7.0
 40
7.0
 40
7.0
 40
8.0
 40
8.0
 40
8.0
 40
9.0
 40
9.0
 40
9.0
 40
10.0
 40
10.0
 40
10.0
 40
11.0
 40
11.0
 40
11.0
 40
12.0
 40
12.0
 40
12.0
 40
13.0
 40
13.0
 40
13.0
 40
14.0
 40
14.0
 40
14.0
 40
15.0
 40
15.0
 40
15.0
 40
16.0
 40
16.0
 40
16.0
 40
17.0
 40
17.0
 40
17.0
 40
17.0
 10
6.119943501382951
 20
-8.273939964240299
 30
0.0
 10
6.119943501382951
 20
-8.273939964240299
 30
0.0
 10
6.119943501382951
 20
-8.90241218646252
 30
0.0
 10
6.119943501382951
 20
-8.90241218646252
 30
0.0
 10
6.119943501382951
 20
-8.93602306021469
 30
0.0
 10
6.092721821695451
 20
-8.963245587612693
 30
0.0
 10
6.059110947943294
 20
-8.963245587612693
 30
0.0
 10
6.059110947943294
 20
-8.963245587612693
 30
0.0
 10
4.369943501382965
 20
-8.963245587612693
 30
0.0
 10
4.369943501382965
 20
-8.963245587612693
 30
0.0
 10
4.369943501382965
 20
-8.963245587612693
 30
0.0
 10
4.369943501382965
 20
-9.213245587612693
 30
0.0
 10
4.369943501382965
 20
-9.213245587612693
 30
0.0
 10
4.369943501382965
 20
-9.213245587612693
 30
0.0
 10
4.119943501382965
 20
-9.213245587612693
 30
0.0
 10
4.119943501382965
 20
-9.213245587612693
 30
0.0
 10
4.119943501382965
 20
-9.213245587612693
 30
0.0
 10
4.119943501382965
 20
-8.963245587612693
 30
0.0
 10
4.119943501382965
 20
-8.963245587612693
 30
0.0
 10
4.119943501382965
 20
-8.963245587612693
 30
0.0
 10
3.647444077826107
 20
-8.963245587612693
 30
0.0
 10
3.647444077826107
 20
-8.963245587612693
 30
0.0
 10
3.647444077826107
 20
-8.963245587612693
 30
0.0
 10
3.647444077826107
 20
-8.463245587612693
 30
0.0
 10
3.647444077826107
 20
-8.463245587612693
 30
0.0
 10
3.647444077826107
 20
-8.463245587612693
 30
0.0
 10
4.119943501382965
 20
-8.463245587612693
 30
0.0
 10
4.119943501382965
 20
-8.463245587612693
 30
0.0
 10
4.119943501382965
 20
-8.463245587612693
 30
0.0
 10
4.119943501382965
 20
-8.213245587612693
 30
0.0
 10
4.119943501382965
 20
-8.213245587612693
 30
0.0
 10
4.119943501382965
 20
-8.213245587612693
 30
0.0
 10
4.369943501382965
 20
-8.213245587612693
 30
0.0
 10
4.369943501382965
 20
-8.213245587612693
 30
0.0
 10
4.369943501382965
 20
-8.213245587612693
 30
0.0
 10
4.369943501382965
 20
-8.463245587612693
 30
0.0
 10
4.369943501382965
 20
-8.463245587612693
 30
0.0
 10
4.369943501382965
 20
-8.463245587612693
 30
0.0
 10
5.619943501382951
 20
-8.463245587612693
 30
0.0
 10
5.619943501382951
 20
-8.463245587612693
 30
0.0
 10
5.619943501382951
 20
-8.463245587612693
 30
0.0
 10
5.619943501382951
 20
-8.264078547953407
 30
0.0
 10
5.619943501382951
 20
-8.264078547953407
 30
0.0
 10
5.619943501382951
 20
-8.236023568840993
 30
0.0
 10
5.642721482611263
 20
-8.213245587612693
 30
0.0
 10
5.67077730943418
 20
-8.213245587612693
 30
0.0
 10
5.67077730943418
 20
-8.213245587612693
 30
0.0
 10
6.059110947943294
 20
-8.213245587612693
 30
0.0
 10
6.059110947943294
 20
-8.213245587612693
 30
0.0
 10
6.092721821695451
 20
-8.213245587612693
 30
0.0
 10
6.119943501382951
 20
-8.240468115010698
 30
0.0
 10
6.119943501382951
 20
-8.273939964240299
 30
0.0
  0
SPLINE
  5
E1
330
1F
100
AcDbEntity
  8
Layer 1
 62
   240
420
 15539236
370
     9
100
AcDbSpline
210
0.0
220
0.0
230
1.0
 70
    11
 71
     3
 72
    56
 73
    52
 74
     0
 42
0.0000000001
 43
0.0000000001
 12
1.0
 22
0.0
 32
0.0
 13
1.0
 23
0.0
 33
0.0
 40
0.0
 40
0.0
 40
0.0
 40
0.0
 40
1.0
 40
1.0
 40
1.0
 40
2.0
 40
2.0
 40
2.0
 40
3.0
 40
3.0
 40
3.0
 40
4.0
 40
4.0
 40
4.0
 40
5.0
 40
5.0
 40
5.0
 40
6.0
 40
6.0
 40
6.0
 40
7.0
 40
7.0
 40
7.0
 40
8.0
 40
8.0
 40
8.0
 40
9.0
 40
9.0
 40
9.0
 40
10.0
 40
10.0
 40
10.0
 40
11.0
 40
11.0
 40
11.0
 40
12.0
 40
12.0
 40
12.0
 40
13.0
 40
13.0
 40
13.0
 40
14.0
 40
14.0
 40
14.0
 40
15.0
 40
15.0
 40
15.0
 40
16.0
 40
16.0
 40
16.0
 40
17.0
 40
17.0
 40
17.0
 40
17.0
 10
6.119943501382951
 20
-9.30630131271035
 30
0.0
 10
6.119943501382951
 20
-9.30630131271035
 30
0.0
 10
6.119943501382951
 20
-9.934773534932573
 30
0.0
 10
6.119943501382951
 20
-9.934773534932573
 30
0.0
 10
6.119943501382951
 20
-9.968384408684743
 30
0.0
 10
6.092721821695451
 20
-9.995606936082746
 30
0.0
 10
6.059110947943294
 20
-9.995606936082746
 30
0.0
 10
6.059110947943294
 20
-9.995606936082746
 30
0.0
 10
4.369943501382965
 20
-9.995606936082746
 30
0.0
 10
4.369943501382965
 20
-9.995606936082746
 30
0.0
 10
4.369943501382965
 20
-9.995606936082746
 30
0.0
 10
4.369943501382965
 20
-10.24560693608275
 30
0.0
 10
4.369943501382965
 20
-10.24560693608275
 30
0.0
 10
4.369943501382965
 20
-10.24560693608275
 30
0.0
 10
4.119943501382965
 20
-10.24560693608275
 30
0.0
 10
4.119943501382965
 20
-10.24560693608275
 30
0.0
 10
4.119943501382965
 20
-10.24560693608275
 30
0.0
 10
4.119943501382965
 20
-9.995606936082746
 30
0.0
 10
4.119943501382965
 20
-9.995606936082746
 30
0.0
 10
4.119943501382965
 20
-9.995606936082746
 30
0.0
 10
3.647444077826107
 20
-9.995606936082746
 30
0.0
 10
3.647444077826107
 20
-9.995606936082746
 30
0.0
 10
3.647444077826107
 20
-9.995606936082746
 30
0.0
 10
3.647444077826107
 20
-9.495606936082746
 30
0.0
 10
3.647444077826107
 20
-9.495606936082746
 30
0.0
 10
3.647444077826107
 20
-9.495606936082746
 30
0.0
 10
4.119943501382965
 20
-9.495606936082746
 30
0.0
 10
4.119943501382965
 20
-9.495606936082746
 30
0.0
 10
4.119943501382965
 20
-9.495606936082746
 30
0.0
 10
4.119943501382965
 20
-9.245606936082746
 30
0.0
 10
4.119943501382965
 20
-9.245606936082746
 30
0.0
 10
4.119943501382965
 20
-9.245606936082746
 30
0.0
 10
4.369943501382965
 20
-9.245606936082746
 30
0.0
 10
4.369943501382965
 20
-9.245606936082746
 30
0.0
 10
4.369943501382965
 20
-9.245606936082746
 30
0.0
 10
4.369943501382965
 20
-9.495606936082746
 30
0.0
 10
4.369943501382965
 20
-9.495606936082746
 30
0.0
 10
4.369943501382965
 20
-9.495606936082746
 30
0.0
 10
5.619943501382951
 20
-9.495606936082746
 30
0.0
 10
5.619943501382951
 20
-9.495606936082746
 30
0.0
 10
5.619943501382951
 20
-9.495606936082746
 30
0.0
 10
5.619943501382951
 20
-9.296439896423458
 30
0.0
 10
5.619943501382951
 20
-9.296439896423458
 30
0.0
 10
5.619943501382951
 20
-9.268384917311044
 30
0.0
 10
5.642721482611263
 20
-9.245606936082746
 30
0.0
 10
5.67077730943418
 20
-9.245606936082746
 30
0.0
 10
5.67077730943418
 20
-9.245606936082746
 30
0.0
 10
6.059110947943294
 20
-9.245606936082746
 30
0.0
 10
6.059110947943294
 20
-9.245606936082746
 30
0.0
 10
6.092721821695451
 20
-9.245606936082746
 30
0.0
 10
6.119943501382951
 20
-9.272829463480749
 30
0.0
 10
6.119943501382951
 20
-9.30630131271035
 30
0.0
  0
SPLINE
  5
E2
330
1F
100
AcDbEntity
  8
Layer 1
 62
   240
420
 15539236
370
     9
100
AcDbSpline
210
0.0
220
0.0
230
1.0
 70
    11
 71
     3
 72
    56
 73
    52
 74
     0
 42
0.0000000001
 43
0.0000000001
 12
1.0
 22
0.0
 32
0.0
 13
1.0
 23
0.0
 33
0.0
 40
0.0
 40
0.0
 40
0.0
 40
0.0
 40
1.0
 40
1.0
 40
1.0
 40
2.0
 40
2.0
 40
2.0
 40
3.0
 40
3.0
 40
3.0
 40
4.0
 40
4.0
 40
4.0
 40
5.0
 40
5.0
 40
5.0
 40
6.0
 40
6.0
 40
6.0
 40
7.0
 40
7.0
 40
7.0
 40
8.0
 40
8.0
 40
8.0
 40
9.0
 40
9.0
 40
9.0
 40
10.0
 40
10.0
 40
10.0
 40
11.0
 40
11.0
 40
11.0
 40
12.0
 40
12.0
 40
12.0
 40
13.0
 40
13.0
 40
13.0
 40
14.0
 40
14.0
 40
14.0
 40
15.0
 40
15.0
 40
15.0
 40
16.0
 40
16.0
 40
16.0
 40
17.0
 40
17.0
 40
17.0
 40
17.0
 10
6.119943501382951
 20
-10.3386626611804
 30
0.0
 10
6.119943501382951
 20
-10.3386626611804
 30
0.0
 10
6.119943501382951
 20
-10.96713488340262
 30
0.0
 10
6.119943501382951
 20
-10.96713488340262
 30
0.0
 10
6.119943501382951
 20
-11.00074575715479
 30
0.0
 10
6.092721821695451
 20
-11.0279682845528
 30
0.0
 10
6.059110947943294
 20
-11.0279682845528
 30
0.0
 10
6.059110947943294
 20
-11.0279682845528
 30
0.0
 10
4.369943501382965
 20
-11.0279682845528
 30
0.0
 10
4.369943501382965
 20
-11.0279682845528
 30
0.0
 10
4.369943501382965
 20
-11.0279682845528
 30
0.0
 10
4.369943501382965
 20
-11.2779682845528
 30
0.0
 10
4.369943501382965
 20
-11.2779682845528
 30
0.0
 10
4.369943501382965
 20
-11.2779682845528
 30
0.0
 10
4.119943501382965
 20
-11.2779682845528
 30
0.0
 10
4.119943501382965
 20
-11.2779682845528
 30
0.0
 10
4.119943501382965
 20
-11.2779682845528
 30
0.0
 10
4.119943501382965
 20
-11.0279682845528
 30
0.0
 10
4.119943501382965
 20
-11.0279682845528
 30
0.0
 10
4.119943501382965
 20
-11.0279682845528
 30
0.0
 10
3.647444077826107
 20
-11.0279682845528
 30
0.0
 10
3.647444077826107
 20
-11.0279682845528
 30
0.0
 10
3.647444077826107
 20
-11.0279682845528
 30
0.0
 10
3.647444077826107
 20
-10.5279682845528
 30
0.0
 10
3.647444077826107
 20
-10.5279682845528
 30
0.0
 10
3.647444077826107
 20
-10.5279682845528
 30
0.0
 10
4.119943501382965
 20
-10.5279682845528
 30
0.0
 10
4.119943501382965
 20
-10.5279682845528
 30
0.0
 10
4.119943501382965
 20
-10.5279682845528
 30
0.0
 10
4.119943501382965
 20
-10.2779682845528
 30
0.0
 10
4.119943501382965
 20
-10.2779682845528
 30
0.0
 10
4.119943501382965
 20
-10.2779682845528
 30
0.0
 10
4.369943501382965
 20
-10.2779682845528
 30
0.0
 10
4.369943501382965
 20
-10.2779682845528
 30
0.0
 10
4.369943501382965
 20
-10.2779682845528
 30
0.0
 10
4.369943501382965
 20
-10.5279682845528
 30
0.0
 10
4.369943501382965
 20
-10.5279682845528
 30
0.0
 10
4.369943501382965
 20
-10.5279682845528
 30
0.0
 10
5.619943501382951
 20
-10.5279682845528
 30
0.0
 10
5.619943501382951
 20
-10.5279682845528
 30
0.0
 10
5.619943501382951
 20
-10.5279682845528
 30
0.0
 10
5.619943501382951
 20
-10.32880124489351
 30
0.0
 10
5.619943501382951
 20
-10.32880124489351
 30
0.0
 10
5.619943501382951
 20
-10.3007462657811
 30
0.0
 10
5.642721482611263
 20
-10.2779682845528
 30
0.0
 10
5.67077730943418
 20
-10.2779682845528
 30
0.0
 10
5.67077730943418
 20
-10.2779682845528
 30
0.0
 10
6.059110947943294
 20
-10.2779682845528
 30
0.0
 10
6.059110947943294
 20
-10.2779682845528
 30
0.0
 10
6.092721821695451
 20
-10.2779682845528
 30
0.0
 10
6.119943501382951
 20
-10.3051908119508
 30
0.0
 10
6.119943501382951
 20
-10.3386626611804
 30
0.0
  0
ENDSEC
  0
SECTION
  2
OBJECTS
  0
DICTIONARY
  5
C
330
0
100
AcDbDictionary
281
     1
  3
ACAD_GROUP
350
D
  3
ACAD_LAYOUT
350
1A
  3
ACAD_MATERIAL
350
3B
  3
ACAD_MLEADERSTYLE
350
E4
  3
ACAD_MLINESTYLE
350
17
  3
ACAD_PLOTSETTINGS
350
19
  3
ACAD_PLOTSTYLENAME
350
E
  3
ACAD_TABLESTYLE
350
E3
  3
ACAD_VISUALSTYLE
350
2A
  0
SUN
  5
3F
330
29
100
AcDbSun
 90
        1
290
     0
 63
     7
421
 16777215
 40
1.0
291
     1
 91
  2455826
 92
 54000000
292
     0
 70
     2
 71
   256
280
     1
  0
DICTIONARY
  5
D
102
{ACAD_REACTORS
330
C
102
}
330
C
100
AcDbDictionary
281
     1
  0
DICTIONARY
  5
1A
102
{ACAD_REACTORS
330
C
102
}
330
C
100
AcDbDictionary
281
     1
  3
Layout1
350
1E
  3
Layout2
350
26
  3
Model
350
22
  0
DICTIONARY
  5
3B
102
{ACAD_REACTORS
330
C
102
}
330
C
100
AcDbDictionary
281
     1
  3
ByBlock
350
3D
  3
ByLayer
350
3C
  3
Global
350
3E
  0
DICTIONARY
  5
E4
102
{ACAD_REACTORS
330
C
102
}
330
C
100
AcDbDictionary
281
     1
  0
DICTIONARY
  5
17
102
{ACAD_REACTORS
330
C
102
}
330
C
100
AcDbDictionary
281
     1
  3
Standard
350
18
  0
DICTIONARY
  5
19
102
{ACAD_REACTORS
330
C
102
}
330
C
100
AcDbDictionary
281
     1
  0
ACDBDICTIONARYWDFLT
  5
E
102
{ACAD_REACTORS
330
C
102
}
330
C
100
AcDbDictionary
281
     1
  3
Normal
350
F
100
AcDbDictionaryWithDefault
340
F
  0
DICTIONARY
  5
E3
102
{ACAD_REACTORS
330
C
102
}
330
C
100
AcDbDictionary
281
     1
  0
DICTIONARY
  5
2A
102
{ACAD_REACTORS
330
C
102
}
330
C
100
AcDbDictionary
281
     1
  3
2dWireframe
350
2F
  3
3D Hidden
350
31
  3
3dWireframe
350
30
  3
Basic
350
32
  3
Brighten
350
36
  3
ColorChange
350
3A
  3
Conceptual
350
34
  3
Dim
350
35
  3
Facepattern
350
39
  3
Flat
350
2B
  3
FlatWithEdges
350
2C
  3
Gouraud
350
2D
  3
GouraudWithEdges
350
2E
  3
Linepattern
350
38
  3
Realistic
350
33
  3
Thicken
350
37
  0
LAYOUT
  5
1E
102
{ACAD_REACTORS
330
1A
102
}
330
1A
100
AcDbPlotSettings
  1

  2
none_device
  4

  6

 40
0.0
 41
0.0
 42
0.0
 43
0.0
 44
0.0
 45
0.0
 46
0.0
 47
0.0
 48
0.0
 49
0.0
140
0.0
141
0.0
142
1.0
143
1.0
 70
   688
 72
     0
 73
     0
 74
     5
  7

 75
    16
 76
     0
 77
     2
 78
   300
147
1.0
148
0.0
149
0.0
100
AcDbLayout
  1
Layout1
 70
     1
 71
     1
 10
0.0
 20
0.0
 11
12.0
 21
9.0
 12
0.0
 22
0.0
 32
0.0
 14
1.000000000000000E+20
 24
1.000000000000000E+20
 34
1.000000000000000E+20
 15
-1.000000000000000E+20
 25
-1.000000000000000E+20
 35
-1.000000000000000E+20
146
0.0
 13
0.0
 23
0.0
 33
0.0
 16
1.0
 26
0.0
 36
0.0
 17
0.0
 27
1.0
 37
0.0
 76
     0
330
1B
  0
LAYOUT
  5
26
102
{ACAD_REACTORS
330
1A
102
}
330
1A
100
AcDbPlotSettings
  1

  2
none_device
  4

  6

 40
0.0
 41
0.0
 42
0.0
 43
0.0
 44
0.0
 45
0.0
 46
0.0
 47
0.0
 48
0.0
 49
0.0
140
0.0
141
0.0
142
1.0
143
1.0
 70
   688
 72
     0
 73
     0
 74
     5
  7

 75
    16
 76
     0
 77
     2
 78
   300
147
1.0
148
0.0
149
0.0
100
AcDbLayout
  1
Layout2
 70
     1
 71
     2
 10
0.0
 20
0.0
 11
0.0
 21
0.0
 12
0.0
 22
0.0
 32
0.0
 14
0.0
 24
0.0
 34
0.0
 15
0.0
 25
0.0
 35
0.0
146
0.0
 13
0.0
 23
0.0
 33
0.0
 16
1.0
 26
0.0
 36
0.0
 17
0.0
 27
1.0
 37
0.0
 76
     0
330
23
  0
LAYOUT
  5
22
102
{ACAD_REACTORS
330
1A
102
}
330
1A
100
AcDbPlotSettings
  1

  2
none_device
  4

  6

 40
0.0
 41
0.0
 42
0.0
 43
0.0
 44
0.0
 45
0.0
 46
0.0
 47
0.0
 48
0.0
 49
0.0
140
0.0
141
0.0
142
1.0
143
1.0
 70
  1712
 72
     0
 73
     0
 74
     0
  7

 75
     0
 76
     0
 77
     2
 78
   300
147
1.0
148
0.0
149
0.0
100
AcDbLayout
  1
Model
 70
     1
 71
     0
 10
0.0
 20
0.0
 11
12.0
 21
9.0
 12
0.0
 22
0.0
 32
0.0
 14
1.000000000000000E+20
 24
1.000000000000000E+20
 34
1.000000000000000E+20
 15
-1.000000000000000E+20
 25
-1.000000000000000E+20
 35
-1.000000000000000E+20
146
0.0
 13
0.0
 23
0.0
 33
0.0
 16
1.0
 26
0.0
 36
0.0
 17
0.0
 27
1.0
 37
0.0
 76
     0
330
1F
331
29
  0
MATERIAL
  5
3D
102
{ACAD_REACTORS
330
3B
102
}
330
3B
100
AcDbMaterial
  1
ByBlock
 72
     1
 94
      127
  0
MATERIAL
  5
3C
102
{ACAD_REACTORS
330
3B
102
}
330
3B
100
AcDbMaterial
  1
ByLayer
 72
     1
 94
      127
  0
MATERIAL
  5
3E
102
{ACAD_REACTORS
330
3B
102
}
330
3B
100
AcDbMaterial
  1
Global
 72
     1
 94
      127
  0
MLINESTYLE
  5
18
102
{ACAD_REACTORS
330
17
102
}
330
17
100
AcDbMlineStyle
  2
Standard
 70
     0
  3

 62
   256
 51
90.0
 52
90.0
 71
     2
 49
0.5
 62
   256
  6
BYLAYER
 49
-0.5
 62
   256
  6
BYLAYER
  0
ACDBPLACEHOLDER
  5
F
102
{ACAD_REACTORS
330
E
102
}
330
E
  0
VISUALSTYLE
  5
2F
102
{ACAD_REACTORS
330
2A
102
}
330
2A
100
AcDbVisualStyle
  2
2dWireframe
 70
     4
177
     2
291
     0
 71
     0
176
     1
 72
     2
176
     1
 73
     0
176
     1
 90
        0
176
     1
 40
-0.6
176
     1
 41
-30.0
176
     1
 62
     5
 63
     7
421
 16777215
176
     1
 74
     1
176
     1
 91
        4
176
     1
 64
     7
176
     1
 65
   257
176
     1
 75
     1
176
     1
175
     1
176
     1
 42
1.0
176
     1
 92
        0
176
     1
 66
   257
176
     1
 43
1.0
176
     1
 76
     1
176
     1
 77
     6
176
     1
 78
     2
176
     1
 67
     7
176
     1
 79
     5
176
     1
170
     0
176
     1
171
     0
176
     1
290
     0
176
     1
 93
        1
176
     1
 44
0.0
176
     1
173
     0
176
     1
  0
VISUALSTYLE
  5
31
102
{ACAD_REACTORS
330
2A
102
}
330
2A
100
AcDbVisualStyle
  2
3D Hidden
 70
     6
177
     2
291
     0
 71
     1
176
     1
 72
     2
176
     1
 73
     2
176
     1
 90
        0
176
     1
 40
-0.6
176
     1
 41
-30.0
176
     1
 62
     5
 63
     7
421
 16777215
176
     1
 74
     2
176
     1
 91
        2
176
     1
 64
     7
176
     1
 65
   257
176
     1
 75
     2
176
     1
175
     1
176
     1
 42
40.0
176
     1
 92
        0
176
     1
 66
   257
176
     1
 43
1.0
176
     1
 76
     1
176
     1
 77
     6
176
     1
 78
     2
176
     1
 67
     7
176
     1
 79
     3
176
     1
170
     0
176
     1
171
     0
176
     1
290
     0
176
     1
 93
        1
176
     1
 44
0.0
176
     1
173
     0
176
     1
  0
VISUALSTYLE
  5
30
102
{ACAD_REACTORS
330
2A
102
}
330
2A
100
AcDbVisualStyle
  2
3dWireframe
 70
     5
177
     2
291
     0
 71
     0
176
     1
 72
     2
176
     1
 73
     0
176
     1
 90
        0
176
     1
 40
-0.6
176
     1
 41
-30.0
176
     1
 62
     5
 63
     7
421
 16777215
176
     1
 74
     1
176
     1
 91
        4
176
     1
 64
     7
176
     1
 65
   257
176
     1
 75
     1
176
     1
175
     1
176
     1
 42
1.0
176
     1
 92
        0
176
     1
 66
   257
176
     1
 43
1.0
176
     1
 76
     1
176
     1
 77
     6
176
     1
 78
     2
176
     1
 67
     7
176
     1
 79
     5
176
     1
170
     0
176
     1
171
     0
176
     1
290
     0
176
     1
 93
        1
176
     1
 44
0.0
176
     1
173
     0
176
     1
  0
VISUALSTYLE
  5
32
102
{ACAD_REACTORS
330
2A
102
}
330
2A
100
AcDbVisualStyle
  2
Basic
 70
     7
177
     2
291
     1
 71
     1
176
     1
 72
     0
176
     1
 73
     1
176
     1
 90
        0
176
     1
 40
-0.6
176
     1
 41
-30.0
176
     1
 62
     5
 63
     7
421
 16777215
176
     1
 74
     0
176
     1
 91
        4
176
     1
 64
     7
176
     1
 65
   257
176
     1
 75
     1
176
     1
175
     1
176
     1
 42
1.0
176
     1
 92
        8
176
     1
 66
     7
176
     1
 43
1.0
176
     1
 76
     1
176
     1
 77
     6
176
     1
 78
     2
176
     1
 67
     7
176
     1
 79
     5
176
     1
170
     0
176
     1
171
     0
176
     1
290
     0
176
     1
 93
        1
176
     1
 44
0.0
176
     1
173
     0
176
     1
  0
VISUALSTYLE
  5
36
102
{ACAD_REACTORS
330
2A
102
}
330
2A
100
AcDbVisualStyle
  2
Brighten
 70
    12
177
     2
291
     1
 71
     2
176
     1
 72
     2
176
     1
 73
     0
176
     1
 90
        0
176
     1
 40
-0.6
176
     1
 41
-30.0
176
     1
 62
     5
 63
     7
421
 16777215
176
     1
 74
     1
176
     1
 91
        4
176
     1
 64
     7
176
     1
 65
   257
176
     1
 75
     1
176
     1
175
     1
176
     1
 42
1.0
176
     1
 92
        8
176
     1
 66
     7
176
     1
 43
1.0
176
     1
 76
     1
176
     1
 77
     6
176
     1
 78
     2
176
     1
 67
     7
176
     1
 79
     5
176
     1
170
     0
176
     1
171
     0
176
     1
290
     0
176
     1
 93
        1
176
     1
 44
50.0
176
     1
173
     0
176
     1
  0
VISUALSTYLE
  5
3A
102
{ACAD_REACTORS
330
2A
102
}
330
2A
100
AcDbVisualStyle
  2
ColorChange
 70
    16
177
     2
291
     1
 71
     2
176
     1
 72
     2
176
     1
 73
     3
176
     1
 90
        0
176
     1
 40
-0.6
176
     1
 41
-30.0
176
     1
 62
     5
 63
     8
421
  8421504
176
     1
 74
     1
176
     1
 91
        4
176
     1
 64
     7
176
     1
 65
   257
176
     1
 75
     1
176
     1
175
     1
176
     1
 42
1.0
176
     1
 92
        8
176
     1
 66
     8
424
  8421504
176
     1
 43
1.0
176
     1
 76
     1
176
     1
 77
     6
176
     1
 78
     2
176
     1
 67
     7
176
     1
 79
     5
176
     1
170
     0
176
     1
171
     0
176
     1
290
     0
176
     1
 93
        1
176
     1
 44
0.0
176
     1
173
     0
176
     1
  0
VISUALSTYLE
  5
34
102
{ACAD_REACTORS
330
2A
102
}
330
2A
100
AcDbVisualStyle
  2
Conceptual
 70
     9
177
     2
291
     0
 71
     3
176
     1
 72
     2
176
     1
 73
     0
176
     1
 90
        0
176
     1
 40
-0.6
176
     1
 41
-30.0
176
     1
 62
     5
 63
     7
421
 16777215
176
     1
 74
     2
176
     1
 91
        2
176
     1
 64
     7
176
     1
 65
   257
176
     1
 75
     1
176
     1
175
     1
176
     1
 42
40.0
176
     1
 92
        8
176
     1
 66
     7
176
     1
 43
1.0
176
     1
 76
     1
176
     1
 77
     6
176
     1
 78
     2
176
     1
 67
     7
176
     1
 79
     3
176
     1
170
     0
176
     1
171
     0
176
     1
290
     0
176
     1
 93
        1
176
     1
 44
0.0
176
     1
173
     0
176
     1
  0
VISUALSTYLE
  5
35
102
{ACAD_REACTORS
330
2A
102
}
330
2A
100
AcDbVisualStyle
  2
Dim
 70
    11
177
     2
291
     1
 71
     2
176
     1
 72
     2
176
     1
 73
     0
176
     1
 90
        0
176
     1
 40
-0.6
176
     1
 41
-30.0
176
     1
 62
     5
 63
     7
421
 16777215
176
     1
 74
     1
176
     1
 91
        4
176
     1
 64
     7
176
     1
 65
   257
176
     1
 75
     1
176
     1
175
     1
176
     1
 42
1.0
176
     1
 92
        8
176
     1
 66
     7
176
     1
 43
1.0
176
     1
 76
     1
176
     1
 77
     6
176
     1
 78
     2
176
     1
 67
     7
176
     1
 79
     5
176
     1
170
     0
176
     1
171
     0
176
     1
290
     0
176
     1
 93
        1
176
     1
 44
-50.0
176
     1
173
     0
176
     1
  0
VISUALSTYLE
  5
39
102
{ACAD_REACTORS
330
2A
102
}
330
2A
100
AcDbVisualStyle
  2
Facepattern
 70
    15
177
     2
291
     1
 71
     2
176
     1
 72
     2
176
     1
 73
     0
176
     1
 90
        0
176
     1
 40
-0.6
176
     1
 41
-30.0
176
     1
 62
     5
 63
     7
421
 16777215
176
     1
 74
     1
176
     1
 91
        4
176
     1
 64
     7
176
     1
 65
   257
176
     1
 75
     1
176
     1
175
     1
176
     1
 42
1.0
176
     1
 92
        8
176
     1
 66
     7
176
     1
 43
1.0
176
     1
 76
     1
176
     1
 77
     6
176
     1
 78
     2
176
     1
 67
     7
176
     1
 79
     5
176
     1
170
     0
176
     1
171
     0
176
     1
290
     0
176
     1
 93
        1
176
     1
 44
0.0
176
     1
173
     0
176
     1
  0
VISUALSTYLE
  5
2B
102
{ACAD_REACTORS
330
2A
102
}
330
2A
100
AcDbVisualStyle
  2
Flat
 70
     0
177
     2
291
     1
 71
     2
176
     1
 72
     1
176
     1
 73
     1
176
     1
 90
        2
176
     1
 40
-0.6
176
     1
 41
30.0
176
     1
 62
     5
 63
     7
421
 16777215
176
     1
 74
     0
176
     1
 91
        4
176
     1
 64
     7
176
     1
 65
   257
176
     1
 75
     1
176
     1
175
     1
176
     1
 42
1.0
176
     1
 92
        8
176
     1
 66
     7
176
     1
 43
1.0
176
     1
 76
     1
176
     1
 77
     6
176
     1
 78
     2
176
     1
 67
     7
176
     1
 79
     5
176
     1
170
     0
176
     1
171
     0
176
     1
290
     0
176
     1
 93
       13
176
     1
 44
0.0
176
     1
173
     0
176
     1
  0
VISUALSTYLE
  5
2C
102
{ACAD_REACTORS
330
2A
102
}
330
2A
100
AcDbVisualStyle
  2
FlatWithEdges
 70
     1
177
     2
291
     1
 71
     2
176
     1
 72
     1
176
     1
 73
     1
176
     1
 90
        2
176
     1
 40
-0.6
176
     1
 41
30.0
176
     1
 62
     5
 63
     7
421
 16777215
176
     1
 74
     1
176
     1
 91
        4
176
     1
 64
     7
176
     1
 65
   257
176
     1
 75
     1
176
     1
175
     1
176
     1
 42
1.0
176
     1
 92
        0
176
     1
 66
   257
176
     1
 43
1.0
176
     1
 76
     1
176
     1
 77
     6
176
     1
 78
     2
176
     1
 67
     7
176
     1
 79
     5
176
     1
170
     0
176
     1
171
     0
176
     1
290
     0
176
     1
 93
       13
176
     1
 44
0.0
176
     1
173
     0
176
     1
  0
VISUALSTYLE
  5
2D
102
{ACAD_REACTORS
330
2A
102
}
330
2A
100
AcDbVisualStyle
  2
Gouraud
 70
     2
177
     2
291
     1
 71
     2
176
     1
 72
     2
176
     1
 73
     1
176
     1
 90
        2
176
     1
 40
-0.6
176
     1
 41
30.0
176
     1
 62
     5
 63
     7
421
 16777215
176
     1
 74
     0
176
     1
 91
        4
176
     1
 64
     7
176
     1
 65
   257
176
     1
 75
     1
176
     1
175
     1
176
     1
 42
1.0
176
     1
 92
        0
176
     1
 66
     7
176
     1
 43
1.0
176
     1
 76
     1
176
     1
 77
     6
176
     1
 78
     2
176
     1
 67
     7
176
     1
 79
     5
176
     1
170
     0
176
     1
171
     0
176
     1
290
     0
176
     1
 93
       13
176
     1
 44
0.0
176
     1
173
     0
176
     1
  0
VISUALSTYLE
  5
2E
102
{ACAD_REACTORS
330
2A
102
}
330
2A
100
AcDbVisualStyle
  2
GouraudWithEdges
 70
     3
177
     2
291
     1
 71
     2
176
     1
 72
     2
176
     1
 73
     1
176
     1
 90
        2
176
     1
 40
-0.6
176
     1
 41
30.0
176
     1
 62
     5
 63
     7
421
 16777215
176
     1
 74
     1
176
     1
 91
        4
176
     1
 64
     7
176
     1
 65
   257
176
     1
 75
     1
176
     1
175
     1
176
     1
 42
1.0
176
     1
 92
        0
176
     1
 66
   257
176
     1
 43
1.0
176
     1
 76
     1
176
     1
 77
     6
176
     1
 78
     2
176
     1
 67
     7
176
     1
 79
     5
176
     1
170
     0
176
     1
171
     0
176
     1
290
     0
176
     1
 93
       13
176
     1
 44
0.0
176
     1
173
     0
176
     1
  0
VISUALSTYLE
  5
38
102
{ACAD_REACTORS
330
2A
102
}
330
2A
100
AcDbVisualStyle
  2
Linepattern
 70
    14
177
     2
291
     1
 71
     2
176
     1
 72
     2
176
     1
 73
     0
176
     1
 90
        0
176
     1
 40
-0.6
176
     1
 41
-30.0
176
     1
 62
     5
 63
     7
421
 16777215
176
     1
 74
     1
176
     1
 91
        4
176
     1
 64
     7
176
     1
 65
   257
176
     1
 75
     7
176
     1
175
     7
176
     1
 42
1.0
176
     1
 92
        8
176
     1
 66
     7
176
     1
 43
1.0
176
     1
 76
     1
176
     1
 77
     6
176
     1
 78
     2
176
     1
 67
     7
176
     1
 79
     5
176
     1
170
     0
176
     1
171
     0
176
     1
290
     0
176
     1
 93
        1
176
     1
 44
0.0
176
     1
173
     0
176
     1
  0
VISUALSTYLE
  5
33
102
{ACAD_REACTORS
330
2A
102
}
330
2A
100
AcDbVisualStyle
  2
Realistic
 70
     8
177
     2
291
     0
 71
     2
176
     1
 72
     2
176
     1
 73
     0
176
     1
 90
        0
176
     1
 40
-0.6
176
     1
 41
-30.0
176
     1
 62
     5
 63
     7
421
 16777215
176
     1
 74
     1
176
     1
 91
        0
176
     1
 64
     7
176
     1
 65
   257
176
     1
 75
     1
176
     1
175
     1
176
     1
 42
1.0
176
     1
 92
        8
176
     1
 66
     8
424
  7895160
176
     1
 43
1.0
176
     1
 76
     1
176
     1
 77
     6
176
     1
 78
     2
176
     1
 67
     7
176
     1
 79
     5
176
     1
170
     0
176
     1
171
     0
176
     1
290
     0
176
     1
 93
       13
176
     1
 44
0.0
176
     1
173
     0
176
     1
  0
VISUALSTYLE
  5
37
102
{ACAD_REACTORS
330
2A
102
}
330
2A
100
AcDbVisualStyle
  2
Thicken
 70
    13
177
     2
291
     1
 71
     2
176
     1
 72
     2
176
     1
 73
     0
176
     1
 90
        0
176
     1
 40
-0.6
176
     1
 41
-30.0
176
     1
 62
     5
 63
     7
421
 16777215
176
     1
 74
     1
176
     1
 91
        4
176
     1
 64
     7
176
     1
 65
   257
176
     1
 75
     1
176
     1
175
     1
176
     1
 42
1.0
176
     1
 92
       12
176
     1
 66
     7
176
     1
 43
1.0
176
     1
 76
     1
176
     1
 77
     6
176
     1
 78
     2
176
     1
 67
     7
176
     1
 79
     5
176
     1
170
     0
176
     1
171
     0
176
     1
290
     0
176
     1
 93
        1
176
     1
 44
0.0
176
     1
173
     0
176
     1
  0
ENDSEC
  0
EOF
