  0
SECTION
  2
HEADER
  9
$ACADVER
  1
AC1021
  9
$ACADMAINTVER
 70
    25
  9
$DWGCODEPAGE
  3
ANSI_1252
  9
$INSBASE
 10
0.0
 20
0.0
 30
0.0
  9
$EXTMIN
 10
2682.8189
 20
-2478.8376
 30
0.0
  9
$EXTMAX
 10
3272.0383
 20
-2161.7488
 30
0.0
  9
$LIMMIN
 10
0.0
 20
0.0
  9
$LIMMAX
 10
12.0
 20
9.0
  9
$ORTHOMODE
 70
     0
  9
$REGENMODE
 70
     1
  9
$FILLMODE
 70
     1
  9
$QTEXTMODE
 70
     0
  9
$MIRRTEXT
 70
     1
  9
$LTSCALE
 40
1.0
  9
$ATTMODE
 70
     1
  9
$TEXTSIZE
 40
0.2
  9
$TRACEWID
 40
0.05
  9
$TEXTSTYLE
  7
Standard
  9
$CLAYER
  8
0
  9
$CELTYPE
  6
ByLayer
  9
$CECOLOR
 62
   256
  9
$CELTSCALE
 40
1.0
  9
$DISPSILH
 70
     0
  9
$DIMSCALE
 40
1.0
  9
$DIMASZ
 40
0.18
  9
$DIMEXO
 40
0.0625
  9
$DIMDLI
 40
0.38
  9
$DIMRND
 40
0.0
  9
$DIMDLE
 40
0.0
  9
$DIMEXE
 40
0.18
  9
$DIMTP
 40
0.0
  9
$DIMTM
 40
0.0
  9
$DIMTXT
 40
0.18
  9
$DIMCEN
 40
0.09
  9
$DIMTSZ
 40
0.0
  9
$DIMTOL
 70
     0
  9
$DIMLIM
 70
     0
  9
$DIMTIH
 70
     1
  9
$DIMTOH
 70
     1
  9
$DIMSE1
 70
     0
  9
$DIMSE2
 70
     0
  9
$DIMTAD
 70
     0
  9
$DIMZIN
 70
     0
  9
$DIMBLK
  1

  9
$DIMASO
 70
     1
  9
$DIMSHO
 70
     1
  9
$DIMPOST
  1

  9
$DIMAPOST
  1

  9
$DIMALT
 70
     0
  9
$DIMALTD
 70
     2
  9
$DIMALTF
 40
25.4
  9
$DIMLFAC
 40
1.0
  9
$DIMTOFL
 70
     0
  9
$DIMTVP
 40
0.0
  9
$DIMTIX
 70
     0
  9
$DIMSOXD
 70
     0
  9
$DIMSAH
 70
     0
  9
$DIMBLK1
  1

  9
$DIMBLK2
  1

  9
$DIMSTYLE
  2
Standard
  9
$DIMCLRD
 70
     0
  9
$DIMCLRE
 70
     0
  9
$DIMCLRT
 70
     0
  9
$DIMTFAC
 40
1.0
  9
$DIMGAP
 40
0.09
  9
$DIMJUST
 70
     0
  9
$DIMSD1
 70
     0
  9
$DIMSD2
 70
     0
  9
$DIMTOLJ
 70
     1
  9
$DIMTZIN
 70
     0
  9
$DIMALTZ
 70
     0
  9
$DIMALTTZ
 70
     0
  9
$DIMUPT
 70
     0
  9
$DIMDEC
 70
     4
  9
$DIMTDEC
 70
     4
  9
$DIMALTU
 70
     2
  9
$DIMALTTD
 70
     2
  9
$DIMTXSTY
  7
Standard
  9
$DIMAUNIT
 70
     0
  9
$DIMADEC
 70
     0
  9
$DIMALTRND
 40
0.0
  9
$DIMAZIN
 70
     0
  9
$DIMDSEP
 70
    46
  9
$DIMATFIT
 70
     3
  9
$DIMFRAC
 70
     0
  9
$DIMLDRBLK
  1

  9
$DIMLUNIT
 70
     2
  9
$DIMLWD
 70
    -2
  9
$DIMLWE
 70
    -2
  9
$DIMTMOVE
 70
     0
  9
$DIMFXL
 40
1.0
  9
$DIMFXLON
 70
     0
  9
$DIMJOGANG
 40
0.7853981633974483
  9
$DIMTFILL
 70
     0
  9
$DIMTFILLCLR
 70
     0
  9
$DIMARCSYM
 70
     0
  9
$DIMLTYPE
  6

  9
$DIMLTEX1
  6

  9
$DIMLTEX2
  6

  9
$LUNITS
 70
     2
  9
$LUPREC
 70
     4
  9
$SKETCHINC
 40
0.1
  9
$FILLETRAD
 40
0.5
  9
$AUNITS
 70
     0
  9
$AUPREC
 70
     0
  9
$MENU
  1
.
  9
$ELEVATION
 40
0.0
  9
$PELEVATION
 40
0.0
  9
$THICKNESS
 40
0.0
  9
$LIMCHECK
 70
     0
  9
$CHAMFERA
 40
0.0
  9
$CHAMFERB
 40
0.0
  9
$CHAMFERC
 40
0.0
  9
$CHAMFERD
 40
0.0
  9
$SKPOLY
 70
     0
  9
$TDCREATE
 40
2458328.819283646
  9
$TDUCREATE
 40
2458328.944283646
  9
$TDUPDATE
 40
2458328.819285324
  9
$TDUUPDATE
 40
2458328.944285324
  9
$TDINDWG
 40
0.0000000116
  9
$TDUSRTIMER
 40
0.0000000116
  9
$USRTIMER
 70
     1
  9
$ANGBASE
 50
0.0
  9
$ANGDIR
 70
     0
  9
$PDMODE
 70
     0
  9
$PDSIZE
 40
0.0
  9
$PLINEWID
 40
0.0
  9
$SPLFRAME
 70
     0
  9
$SPLINETYPE
 70
     6
  9
$SPLINESEGS
 70
     8
  9
$HANDSEED
  5
ED
  9
$SURFTAB1
 70
     6
  9
$SURFTAB2
 70
     6
  9
$SURFTYPE
 70
     6
  9
$SURFU
 70
     6
  9
$SURFV
 70
     6
  9
$UCSBASE
  2

  9
$UCSNAME
  2

  9
$UCSORG
 10
0.0
 20
0.0
 30
0.0
  9
$UCSXDIR
 10
1.0
 20
0.0
 30
0.0
  9
$UCSYDIR
 10
0.0
 20
1.0
 30
0.0
  9
$UCSORTHOREF
  2

  9
$UCSORTHOVIEW
 70
     0
  9
$UCSORGTOP
 10
0.0
 20
0.0
 30
0.0
  9
$UCSORGBOTTOM
 10
0.0
 20
0.0
 30
0.0
  9
$UCSORGLEFT
 10
0.0
 20
0.0
 30
0.0
  9
$UCSORGRIGHT
 10
0.0
 20
0.0
 30
0.0
  9
$UCSORGFRONT
 10
0.0
 20
0.0
 30
0.0
  9
$UCSORGBACK
 10
0.0
 20
0.0
 30
0.0
  9
$PUCSBASE
  2

  9
$PUCSNAME
  2

  9
$PUCSORG
 10
0.0
 20
0.0
 30
0.0
  9
$PUCSXDIR
 10
1.0
 20
0.0
 30
0.0
  9
$PUCSYDIR
 10
0.0
 20
1.0
 30
0.0
  9
$PUCSORTHOREF
  2

  9
$PUCSORTHOVIEW
 70
     0
  9
$PUCSORGTOP
 10
0.0
 20
0.0
 30
0.0
  9
$PUCSORGBOTTOM
 10
0.0
 20
0.0
 30
0.0
  9
$PUCSORGLEFT
 10
0.0
 20
0.0
 30
0.0
  9
$PUCSORGRIGHT
 10
0.0
 20
0.0
 30
0.0
  9
$PUCSORGFRONT
 10
0.0
 20
0.0
 30
0.0
  9
$PUCSORGBACK
 10
0.0
 20
0.0
 30
0.0
  9
$USERI1
 70
     0
  9
$USERI2
 70
     0
  9
$USERI3
 70
     0
  9
$USERI4
 70
     0
  9
$USERI5
 70
     0
  9
$USERR1
 40
0.0
  9
$USERR2
 40
0.0
  9
$USERR3
 40
0.0
  9
$USERR4
 40
0.0
  9
$USERR5
 40
0.0
  9
$WORLDVIEW
 70
     1
  9
$SHADEDGE
 70
     3
  9
$SHADEDIF
 70
    70
  9
$TILEMODE
 70
     1
  9
$MAXACTVP
 70
    64
  9
$PINSBASE
 10
0.0
 20
0.0
 30
0.0
  9
$PLIMCHECK
 70
     0
  9
$PEXTMIN
 10
1.000000000000000E+20
 20
1.000000000000000E+20
 30
1.000000000000000E+20
  9
$PEXTMAX
 10
-1.000000000000000E+20
 20
-1.000000000000000E+20
 30
-1.000000000000000E+20
  9
$PLIMMIN
 10
0.0
 20
0.0
  9
$PLIMMAX
 10
12.0
 20
9.0
  9
$UNITMODE
 70
     0
  9
$VISRETAIN
 70
     1
  9
$PLINEGEN
 70
     0
  9
$PSLTSCALE
 70
     1
  9
$TREEDEPTH
 70
  3020
  9
$CMLSTYLE
  2
Standard
  9
$CMLJUST
 70
     0
  9
$CMLSCALE
 40
1.0
  9
$PROXYGRAPHICS
 70
     1
  9
$MEASUREMENT
 70
     0
  9
$CELWEIGHT
370
    -1
  9
$ENDCAPS
280
     0
  9
$JOINSTYLE
280
     0
  9
$LWDISPLAY
290
     0
  9
$INSUNITS
 70
     4
  9
$HYPERLINKBASE
  1

  9
$STYLESHEET
  1

  9
$XEDIT
290
     1
  9
$CEPSNTYPE
380
     0
  9
$PSTYLEMODE
290
     1
  9
$FINGERPRINTGUID
  2
{25DAC0E2-7A6A-44A8-BD1C-56D90EF913E0}
  9
$VERSIONGUID
  2
{FAEB1C32-E019-11D5-929B-00C0DF256EC4}
  9
$EXTNAMES
290
     1
  9
$PSVPSCALE
 40
0.0
  9
$OLESTARTUP
290
     0
  9
$SORTENTS
280
   127
  9
$INDEXCTL
280
     0
  9
$HIDETEXT
280
     1
  9
$XCLIPFRAME
290
     0
  9
$HALOGAP
280
     0
  9
$OBSCOLOR
 70
   257
  9
$OBSLTYPE
280
     0
  9
$INTERSECTIONDISPLAY
280
     0
  9
$INTERSECTIONCOLOR
 70
   257
  9
$DIMASSOC
280
     2
  9
$PROJECTNAME
  1

  9
$CAMERADISPLAY
290
     0
  9
$LENSLENGTH
 40
50.0
  9
$CAMERAHEIGHT
 40
0.0
  9
$STEPSPERSEC
 40
2.0
  9
$STEPSIZE
 40
6.0
  9
$3DDWFPREC
 40
2.0
  9
$PSOLWIDTH
 40
0.25
  9
$PSOLHEIGHT
 40
4.0
  9
$LOFTANG1
 40
1.570796326794897
  9
$LOFTANG2
 40
1.570796326794897
  9
$LOFTMAG1
 40
0.0
  9
$LOFTMAG2
 40
0.0
  9
$LOFTPARAM
 70
     7
  9
$LOFTNORMALS
280
     1
  9
$LATITUDE
 40
37.795
  9
$LONGITUDE
 40
-122.394
  9
$NORTHDIRECTION
 40
0.0
  9
$TIMEZONE
 70
 -8000
  9
$LIGHTGLYPHDISPLAY
280
     1
  9
$TILEMODELIGHTSYNCH
280
     1
  9
$CMATERIAL
347
44
  9
$SOLIDHIST
280
     0
  9
$SHOWHIST
280
     1
  9
$DWFFRAME
280
     2
  9
$DGNFRAME
280
     2
  9
$REALWORLDSCALE
290
     1
  9
$INTERFERECOLOR
 62
   256
  9
$CSHADOW
280
     0
  9
$SHADOWPLANELOCATION
 40
0.0
  0
ENDSEC
  0
SECTION
  2
CLASSES
  0
CLASS
  1
ACDBDICTIONARYWDFLT
  2
AcDbDictionaryWithDefault
  3
ObjectDBX Classes
 90
        0
 91
        4
280
     0
281
     0
  0
CLASS
  1
VISUALSTYLE
  2
AcDbVisualStyle
  3
ObjectDBX Classes
 90
     4095
 91
        4
280
     0
281
     0
  0
CLASS
  1
MATERIAL
  2
AcDbMaterial
  3
ObjectDBX Classes
 90
     1153
 91
        4
280
     0
281
     0
  0
CLASS
  1
SCALE
  2
AcDbScale
  3
ObjectDBX Classes
 90
     1153
 91
        4
280
     0
281
     0
  0
CLASS
  1
TABLESTYLE
  2
AcDbTableStyle
  3
ObjectDBX Classes
 90
     4095
 91
        4
280
     0
281
     0
  0
CLASS
  1
MLEADERSTYLE
  2
AcDbMLeaderStyle
  3
ACDB_MLEADERSTYLE_CLASS
 90
     4095
 91
        4
280
     0
281
     0
  0
CLASS
  1
SUN
  2
AcDbSun
  3
SCENEOE
 90
     1153
 91
        4
280
     0
281
     0
  0
CLASS
  1
DICTIONARYVAR
  2
AcDbDictionaryVar
  3
ObjectDBX Classes
 90
        0
 91
        4
280
     0
281
     0
  0
CLASS
  1
CELLSTYLEMAP
  2
AcDbCellStyleMap
  3
ObjectDBX Classes
 90
     1152
 91
        4
280
     0
281
     0
  0
ENDSEC
  0
SECTION
  2
TABLES
  0
TABLE
  2
VPORT
  5
8
330
0
100
AcDbSymbolTable
 70
     1
  0
VPORT
  5
29
330
8
100
AcDbSymbolTableRecord
100
AcDbViewportTableRecord
  2
*Active
 70
     0
 10
0.0
 20
0.0
 11
1.0
 21
1.0
 12
10.42990654205607
 22
4.5
 13
0.0
 23
0.0
 14
0.5
 24
0.5
 15
0.5
 25
0.5
 16
0.0
 26
0.0
 36
1.0
 17
0.0
 27
0.0
 37
0.0
 40
9.0
 41
1.972972972850329
 42
50.0
 43
0.0
 44
0.0
 50
0.0
 51
0.0
 71
     0
 72
   100
 73
     1
 74
     3
 75
     0
 76
     0
 77
     0
 78
     0
281
     0
 65
     1
110
0.0
120
0.0
130
0.0
111
1.0
121
0.0
131
0.0
112
0.0
122
1.0
132
0.0
 79
     0
146
0.0
348
2F
 60
     3
 61
     5
292
     1
282
     1
141
0.0
142
0.0
 63
   250
361
6D
  0
ENDTAB
  0
TABLE
  2
LTYPE
  5
5
330
0
100
AcDbSymbolTable
 70
     1
  0
LTYPE
  5
14
330
5
100
AcDbSymbolTableRecord
100
AcDbLinetypeTableRecord
  2
ByBlock
 70
     0
  3

 72
    65
 73
     0
 40
0.0
  0
LTYPE
  5
15
330
5
100
AcDbSymbolTableRecord
100
AcDbLinetypeTableRecord
  2
ByLayer
 70
     0
  3

 72
    65
 73
     0
 40
0.0
  0
LTYPE
  5
16
330
5
100
AcDbSymbolTableRecord
100
AcDbLinetypeTableRecord
  2
Continuous
 70
     0
  3
Solid line
 72
    65
 73
     0
 40
0.0
  0
ENDTAB
  0
TABLE
  2
LAYER
  5
2
330
0
100
AcDbSymbolTable
 70
     2
  0
LAYER
  5
10
330
2
100
AcDbSymbolTableRecord
100
AcDbLayerTableRecord
  2
0
 70
     0
 62
     7
  6
Continuous
370
    -3
390
F
347
46
  0
LAYER
  5
6F
330
2
100
AcDbSymbolTableRecord
100
AcDbLayerTableRecord
  2
Camada 1
 70
     0
 62
     7
  6
Continuous
370
    -3
390
F
347
46
  0
ENDTAB
  0
TABLE
  2
STYLE
  5
3
330
0
100
AcDbSymbolTable
 70
     1
  0
STYLE
  5
11
330
3
100
AcDbSymbolTableRecord
100
AcDbTextStyleTableRecord
  2
Standard
 70
     0
 40
0.0
 41
1.0
 50
0.0
 71
     0
 42
0.2
  3
txt
  4

  0
ENDTAB
  0
TABLE
  2
VIEW
  5
6
330
0
100
AcDbSymbolTable
 70
     0
  0
ENDTAB
  0
TABLE
  2
UCS
  5
7
330
0
100
AcDbSymbolTable
 70
     0
  0
ENDTAB
  0
TABLE
  2
APPID
  5
9
330
0
100
AcDbSymbolTable
 70
     3
  0
APPID
  5
12
330
9
100
AcDbSymbolTableRecord
100
AcDbRegAppTableRecord
  2
ACAD
 70
     0
  0
APPID
  5
6E
330
9
100
AcDbSymbolTableRecord
100
AcDbRegAppTableRecord
  2
ODA
 70
     0
  0
APPID
  5
E5
330
9
100
AcDbSymbolTableRecord
100
AcDbRegAppTableRecord
  2
ACAD_MLEADERVER
 70
     0
  0
ENDTAB
  0
TABLE
  2
DIMSTYLE
  5
A
330
0
100
AcDbSymbolTable
 70
     1
100
AcDbDimStyleTable
  0
DIMSTYLE
105
27
330
A
100
AcDbSymbolTableRecord
100
AcDbDimStyleTableRecord
  2
Standard
 70
     0
178
     0
340
11
  0
ENDTAB
  0
TABLE
  2
BLOCK_RECORD
  5
1
330
0
100
AcDbSymbolTable
 70
     1
  0
BLOCK_RECORD
  5
1F
330
1
100
AcDbSymbolTableRecord
100
AcDbBlockTableRecord
  2
*Model_Space
340
22
 70
     0
280
     1
281
     0
  0
BLOCK_RECORD
  5
1B
330
1
100
AcDbSymbolTableRecord
100
AcDbBlockTableRecord
  2
*Paper_Space
340
1E
 70
     0
280
     1
281
     0
  0
BLOCK_RECORD
  5
23
330
1
100
AcDbSymbolTableRecord
100
AcDbBlockTableRecord
  2
*Paper_Space0
340
26
 70
     0
280
     1
281
     0
  0
ENDTAB
  0
ENDSEC
  0
SECTION
  2
BLOCKS
  0
BLOCK
  5
20
330
1F
100
AcDbEntity
  8
0
100
AcDbBlockBegin
  2
*Model_Space
 70
     0
 10
0.0
 20
0.0
 30
0.0
  3
*Model_Space
  1

  0
ENDBLK
  5
21
330
1F
100
AcDbEntity
  8
0
100
AcDbBlockEnd
  0
BLOCK
  5
1C
330
1B
100
AcDbEntity
 67
     1
  8
0
100
AcDbBlockBegin
  2
*Paper_Space
 70
     0
 10
0.0
 20
0.0
 30
0.0
  3
*Paper_Space
  1

  0
ENDBLK
  5
1D
330
1B
100
AcDbEntity
 67
     1
  8
0
100
AcDbBlockEnd
  0
BLOCK
  5
24
330
23
100
AcDbEntity
  8
0
100
AcDbBlockBegin
  2
*Paper_Space0
 70
     0
 10
0.0
 20
0.0
 30
0.0
  3
*Paper_Space0
  1

  0
ENDBLK
  5
25
330
23
100
AcDbEntity
  8
0
100
AcDbBlockEnd
  0
ENDSEC
  0
SECTION
  2
ENTITIES
  0
SPLINE
  5
70
330
1F
100
AcDbEntity
  8
Camada 1
 62
   140
100
AcDbSpline
210
0.0
220
0.0
230
1.0
 70
    11
 71
     3
 72
    80
 73
    76
 74
     0
 42
0.000000001
 43
0.0000000001
 40
0.0
 40
0.0
 40
0.0
 40
0.0
 40
0.05
 40
0.05
 40
0.05
 40
0.05
 40
0.1
 40
0.1
 40
0.1
 40
0.1
 40
0.15
 40
0.15
 40
0.15
 40
0.15
 40
0.2
 40
0.2
 40
0.2
 40
0.2
 40
0.25
 40
0.25
 40
0.25
 40
0.25
 40
0.3
 40
0.3
 40
0.3
 40
0.3
 40
0.35
 40
0.35
 40
0.35
 40
0.35
 40
0.4
 40
0.4
 40
0.4
 40
0.4
 40
0.45
 40
0.45
 40
0.45
 40
0.45
 40
0.5
 40
0.5
 40
0.5
 40
0.5
 40
0.55
 40
0.55
 40
0.55
 40
0.55
 40
0.6
 40
0.6
 40
0.6
 40
0.6
 40
0.65
 40
0.65
 40
0.65
 40
0.65
 40
0.7
 40
0.7
 40
0.7
 40
0.7
 40
0.75
 40
0.75
 40
0.75
 40
0.75
 40
0.8
 40
0.8
 40
0.8
 40
0.8
 40
0.85
 40
0.85
 40
0.85
 40
0.85
 40
0.9
 40
0.9
 40
0.9
 40
0.9
 40
1.0
 40
1.0
 40
1.0
 40
1.0
 10
3185.5368
 20
-2313.5051
 30
0.0
 10
3185.5368
 20
-2313.5051
 30
0.0
 10
3181.0058
 20
-2313.8696
 30
0.0
 10
3181.0058
 20
-2313.8696
 30
0.0
 10
3181.0058
 20
-2313.8696
 30
0.0
 10
3180.5978
 20
-2312.0728
 30
0.0
 10
3180.0162
 20
-2310.7621
 30
0.0
 10
3179.261
 20
-2309.9462
 30
0.0
 10
3179.261
 20
-2309.9462
 30
0.0
 10
3178.0198
 20
-2308.6355
 30
0.0
 10
3176.4834
 20
-2307.9845
 30
0.0
 10
3174.6605
 20
-2307.9845
 30
0.0
 10
3174.6605
 20
-2307.9845
 30
0.0
 10
3173.1936
 20
-2307.9845
 30
0.0
 10
3171.8915
 20
-2308.3924
 30
0.0
 10
3170.7718
 20
-2309.2084
 30
0.0
 10
3170.7718
 20
-2309.2084
 30
0.0
 10
3169.3309
 20
-2310.2587
 30
0.0
 10
3168.2025
 20
-2311.7864
 30
0.0
 10
3167.3605
 20
-2313.8002
 30
0.0
 10
3167.3605
 20
-2313.8002
 30
0.0
 10
3166.5272
 20
-2315.8227
 30
0.0
 10
3166.0932
 20
-2318.6958
 30
0.0
 10
3166.0585
 20
-2322.4196
 30
0.0
 10
3166.0585
 20
-2322.4196
 30
0.0
 10
3167.1608
 20
-2320.7444
 30
0.0
 10
3168.5149
 20
-2319.4944
 30
0.0
 10
3170.1121
 20
-2318.6871
 30
0.0
 10
3170.1121
 20
-2318.6871
 30
0.0
 10
3171.7093
 20
-2317.8712
 30
0.0
 10
3173.3759
 20
-2317.4632
 30
0.0
 10
3175.1293
 20
-2317.4632
 30
0.0
 10
3175.1293
 20
-2317.4632
 30
0.0
 10
3178.1847
 20
-2317.4632
 30
0.0
 10
3180.7888
 20
-2318.5917
 30
0.0
 10
3182.9414
 20
-2320.8398
 30
0.0
 10
3182.9414
 20
-2320.8398
 30
0.0
 10
3185.0854
 20
-2323.088
 30
0.0
 10
3186.1618
 20
-2325.9872
 30
0.0
 10
3186.1618
 20
-2329.5548
 30
0.0
 10
3186.1618
 20
-2329.5548
 30
0.0
 10
3186.1618
 20
-2331.8984
 30
0.0
 10
3185.6583
 20
-2334.0685
 30
0.0
 10
3184.6514
 20
-2336.0823
 30
0.0
 10
3184.6514
 20
-2336.0823
 30
0.0
 10
3183.6359
 20
-2338.0961
 30
0.0
 10
3182.2557
 20
-2339.6325
 30
0.0
 10
3180.4849
 20
-2340.7001
 30
0.0
 10
3180.4849
 20
-2340.7001
 30
0.0
 10
3178.7229
 20
-2341.7678
 30
0.0
 10
3176.7177
 20
-2342.306
 30
0.0
 10
3174.4782
 20
-2342.306
 30
0.0
 10
3174.4782
 20
-2342.306
 30
0.0
 10
3170.6676
 20
-2342.306
 30
0.0
 10
3167.5514
 20
-2340.8998
 30
0.0
 10
3165.1383
 20
-2338.0961
 30
0.0
 10
3165.1383
 20
-2338.0961
 30
0.0
 10
3162.7339
 20
-2335.2924
 30
0.0
 10
3161.5274
 20
-2330.6658
 30
0.0
 10
3161.5274
 20
-2324.2251
 30
0.0
 10
3161.5274
 20
-2324.2251
 30
0.0
 10
3161.5274
 20
-2317.0206
 30
0.0
 10
3162.8641
 20
-2311.7777
 30
0.0
 10
3165.529
 20
-2308.5053
 30
0.0
 10
3165.529
 20
-2308.5053
 30
0.0
 10
3167.8553
 20
-2305.6582
 30
0.0
 10
3170.9888
 20
-2304.2346
 30
0.0
 10
3174.9383
 20
-2304.2346
 30
0.0
 10
3174.9383
 20
-2304.2346
 30
0.0
 10
3177.8722
 20
-2304.2346
 30
0.0
 10
3180.2853
 20
-2305.0592
 30
0.0
 10
3182.1602
 20
-2306.6998
 30
0.0
 10
3182.1602
 20
-2306.6998
 30
0.0
 10
3184.0351
 20
-2308.3404
 30
0.0
 10
3185.1636
 20
-2310.6059
 30
0.0
 10
3185.5368
 20
-2313.5051
 30
0.0
  0
SPLINE
  5
71
330
1F
100
AcDbEntity
  8
Camada 1
 62
   140
100
AcDbSpline
210
0.0
220
0.0
230
1.0
 70
    11
 71
     3
 72
    40
 73
    36
 74
     0
 42
0.000000001
 43
0.0000000001
 40
0.0
 40
0.0
 40
0.0
 40
0.0
 40
0.1
 40
0.1
 40
0.1
 40
0.1
 40
0.2
 40
0.2
 40
0.2
 40
0.2
 40
0.3
 40
0.3
 40
0.3
 40
0.3
 40
0.4
 40
0.4
 40
0.4
 40
0.4
 40
0.5
 40
0.5
 40
0.5
 40
0.5
 40
0.6
 40
0.6
 40
0.6
 40
0.6
 40
0.7
 40
0.7
 40
0.7
 40
0.7
 40
0.8
 40
0.8
 40
0.8
 40
0.8
 40
1.0
 40
1.0
 40
1.0
 40
1.0
 10
3166.7876
 20
-2329.5982
 30
0.0
 10
3166.7876
 20
-2331.178
 30
0.0
 10
3167.1261
 20
-2332.6883
 30
0.0
 10
3167.7945
 20
-2334.1292
 30
0.0
 10
3167.7945
 20
-2334.1292
 30
0.0
 10
3168.4629
 20
-2335.5701
 30
0.0
 10
3169.4003
 20
-2336.6638
 30
0.0
 10
3170.5895
 20
-2337.419
 30
0.0
 10
3170.5895
 20
-2337.419
 30
0.0
 10
3171.7874
 20
-2338.1742
 30
0.0
 10
3173.0547
 20
-2338.5561
 30
0.0
 10
3174.4001
 20
-2338.5561
 30
0.0
 10
3174.4001
 20
-2338.5561
 30
0.0
 10
3176.3532
 20
-2338.5561
 30
0.0
 10
3178.0198
 20
-2337.7749
 30
0.0
 10
3179.3999
 20
-2336.2125
 30
0.0
 10
3179.3999
 20
-2336.2125
 30
0.0
 10
3180.7801
 20
-2334.65
 30
0.0
 10
3181.4745
 20
-2332.5321
 30
0.0
 10
3181.4745
 20
-2329.8499
 30
0.0
 10
3181.4745
 20
-2329.8499
 30
0.0
 10
3181.4745
 20
-2327.2719
 30
0.0
 10
3180.7888
 20
-2325.2407
 30
0.0
 10
3179.426
 20
-2323.7564
 30
0.0
 10
3179.426
 20
-2323.7564
 30
0.0
 10
3178.0632
 20
-2322.2721
 30
0.0
 10
3176.3271
 20
-2321.5256
 30
0.0
 10
3174.2178
 20
-2321.5256
 30
0.0
 10
3174.2178
 20
-2321.5256
 30
0.0
 10
3172.152
 20
-2321.5256
 30
0.0
 10
3170.3899
 20
-2322.2721
 30
0.0
 10
3168.949
 20
-2323.7564
 30
0.0
 10
3168.949
 20
-2323.7564
 30
0.0
 10
3167.508
 20
-2325.2407
 30
0.0
 10
3166.7876
 20
-2327.1851
 30
0.0
 10
3166.7876
 20
-2329.5982
 30
0.0
  0
SPLINE
  5
72
330
1F
100
AcDbEntity
  8
Camada 1
 62
   140
100
AcDbSpline
210
0.0
220
0.0
230
1.0
 70
    11
 71
     3
 72
   116
 73
   112
 74
     0
 42
0.000000001
 43
0.0000000001
 40
0.0
 40
0.0
 40
0.0
 40
0.0
 40
0.0344827586206897
 40
0.0344827586206897
 40
0.0344827586206897
 40
0.0344827586206897
 40
0.0689655172413793
 40
0.0689655172413793
 40
0.0689655172413793
 40
0.0689655172413793
 40
0.103448275862069
 40
0.103448275862069
 40
0.103448275862069
 40
0.103448275862069
 40
0.1379310344827586
 40
0.1379310344827586
 40
0.1379310344827586
 40
0.1379310344827586
 40
0.1724137931034483
 40
0.1724137931034483
 40
0.1724137931034483
 40
0.1724137931034483
 40
0.2068965517241379
 40
0.2068965517241379
 40
0.2068965517241379
 40
0.2068965517241379
 40
0.2413793103448276
 40
0.2413793103448276
 40
0.2413793103448276
 40
0.2413793103448276
 40
0.2758620689655172
 40
0.2758620689655172
 40
0.2758620689655172
 40
0.2758620689655172
 40
0.3103448275862069
 40
0.3103448275862069
 40
0.3103448275862069
 40
0.3103448275862069
 40
0.3448275862068966
 40
0.3448275862068966
 40
0.3448275862068966
 40
0.3448275862068966
 40
0.3793103448275862
 40
0.3793103448275862
 40
0.3793103448275862
 40
0.3793103448275862
 40
0.4137931034482759
 40
0.4137931034482759
 40
0.4137931034482759
 40
0.4137931034482759
 40
0.4482758620689655
 40
0.4482758620689655
 40
0.4482758620689655
 40
0.4482758620689655
 40
0.4827586206896552
 40
0.4827586206896552
 40
0.4827586206896552
 40
0.4827586206896552
 40
0.5172413793103449
 40
0.5172413793103449
 40
0.5172413793103449
 40
0.5172413793103449
 40
0.5517241379310345
 40
0.5517241379310345
 40
0.5517241379310345
 40
0.5517241379310345
 40
0.5862068965517241
 40
0.5862068965517241
 40
0.5862068965517241
 40
0.5862068965517241
 40
0.6206896551724138
 40
0.6206896551724138
 40
0.6206896551724138
 40
0.6206896551724138
 40
0.6551724137931034
 40
0.6551724137931034
 40
0.6551724137931034
 40
0.6551724137931034
 40
0.6896551724137931
 40
0.6896551724137931
 40
0.6896551724137931
 40
0.6896551724137931
 40
0.7241379310344828
 40
0.7241379310344828
 40
0.7241379310344828
 40
0.7241379310344828
 40
0.7586206896551724
 40
0.7586206896551724
 40
0.7586206896551724
 40
0.7586206896551724
 40
0.7931034482758621
 40
0.7931034482758621
 40
0.7931034482758621
 40
0.7931034482758621
 40
0.8275862068965517
 40
0.8275862068965517
 40
0.8275862068965517
 40
0.8275862068965517
 40
0.8620689655172413
 40
0.8620689655172413
 40
0.8620689655172413
 40
0.8620689655172413
 40
0.896551724137931
 40
0.896551724137931
 40
0.896551724137931
 40
0.896551724137931
 40
0.9310344827586207
 40
0.9310344827586207
 40
0.9310344827586207
 40
0.9310344827586207
 40
1.0
 40
1.0
 40
1.0
 40
1.0
 10
3191.9515
 20
-2341.681
 30
0.0
 10
3191.9515
 20
-2341.681
 30
0.0
 10
3191.9515
 20
-2314.6509
 30
0.0
 10
3191.9515
 20
-2314.6509
 30
0.0
 10
3191.9515
 20
-2314.6509
 30
0.0
 10
3191.9515
 20
-2314.6509
 30
0.0
 10
3196.0659
 20
-2314.6509
 30
0.0
 10
3196.0659
 20
-2314.6509
 30
0.0
 10
3196.0659
 20
-2314.6509
 30
0.0
 10
3196.0659
 20
-2314.6509
 30
0.0
 10
3196.0659
 20
-2318.4701
 30
0.0
 10
3196.0659
 20
-2318.4701
 30
0.0
 10
3196.0659
 20
-2318.4701
 30
0.0
 10
3196.9079
 20
-2317.1508
 30
0.0
 10
3198.0363
 20
-2316.0831
 30
0.0
 10
3199.4425
 20
-2315.2845
 30
0.0
 10
3199.4425
 20
-2315.2845
 30
0.0
 10
3200.8487
 20
-2314.4773
 30
0.0
 10
3202.4458
 20
-2314.078
 30
0.0
 10
3204.2426
 20
-2314.078
 30
0.0
 10
3204.2426
 20
-2314.078
 30
0.0
 10
3206.2391
 20
-2314.078
 30
0.0
 10
3207.8796
 20
-2314.4946
 30
0.0
 10
3209.1556
 20
-2315.3192
 30
0.0
 10
3209.1556
 20
-2315.3192
 30
0.0
 10
3210.4316
 20
-2316.1525
 30
0.0
 10
3211.3343
 20
-2317.307
 30
0.0
 10
3211.8552
 20
-2318.8
 30
0.0
 10
3211.8552
 20
-2318.8
 30
0.0
 10
3214.0078
 20
-2315.6491
 30
0.0
 10
3216.7942
 20
-2314.078
 30
0.0
 10
3220.2316
 20
-2314.078
 30
0.0
 10
3220.2316
 20
-2314.078
 30
0.0
 10
3222.9224
 20
-2314.078
 30
0.0
 10
3224.997
 20
-2314.8158
 30
0.0
 10
3226.4379
 20
-2316.3001
 30
0.0
 10
3226.4379
 20
-2316.3001
 30
0.0
 10
3227.8875
 20
-2317.7844
 30
0.0
 10
3228.6166
 20
-2320.0673
 30
0.0
 10
3228.6166
 20
-2323.1488
 30
0.0
 10
3228.6166
 20
-2323.1488
 30
0.0
 10
3228.6166
 20
-2323.1488
 30
0.0
 10
3228.6166
 20
-2341.681
 30
0.0
 10
3228.6166
 20
-2341.681
 30
0.0
 10
3228.6166
 20
-2341.681
 30
0.0
 10
3228.6166
 20
-2341.681
 30
0.0
 10
3224.0335
 20
-2341.681
 30
0.0
 10
3224.0335
 20
-2341.681
 30
0.0
 10
3224.0335
 20
-2341.681
 30
0.0
 10
3224.0335
 20
-2341.681
 30
0.0
 10
3224.0335
 20
-2324.6678
 30
0.0
 10
3224.0335
 20
-2324.6678
 30
0.0
 10
3224.0335
 20
-2324.6678
 30
0.0
 10
3224.0335
 20
-2322.845
 30
0.0
 10
3223.8772
 20
-2321.5256
 30
0.0
 10
3223.5821
 20
-2320.7183
 30
0.0
 10
3223.5821
 20
-2320.7183
 30
0.0
 10
3223.287
 20
-2319.9111
 30
0.0
 10
3222.7488
 20
-2319.2687
 30
0.0
 10
3221.9589
 20
-2318.774
 30
0.0
 10
3221.9589
 20
-2318.774
 30
0.0
 10
3221.1777
 20
-2318.2792
 30
0.0
 10
3220.2576
 20
-2318.0361
 30
0.0
 10
3219.2073
 20
-2318.0361
 30
0.0
 10
3219.2073
 20
-2318.0361
 30
0.0
 10
3217.2976
 20
-2318.0361
 30
0.0
 10
3215.7178
 20
-2318.6698
 30
0.0
 10
3214.4592
 20
-2319.9284
 30
0.0
 10
3214.4592
 20
-2319.9284
 30
0.0
 10
3213.2006
 20
-2321.1957
 30
0.0
 10
3212.5756
 20
-2323.2182
 30
0.0
 10
3212.5756
 20
-2325.9959
 30
0.0
 10
3212.5756
 20
-2325.9959
 30
0.0
 10
3212.5756
 20
-2325.9959
 30
0.0
 10
3212.5756
 20
-2341.681
 30
0.0
 10
3212.5756
 20
-2341.681
 30
0.0
 10
3212.5756
 20
-2341.681
 30
0.0
 10
3212.5756
 20
-2341.681
 30
0.0
 10
3207.9925
 20
-2341.681
 30
0.0
 10
3207.9925
 20
-2341.681
 30
0.0
 10
3207.9925
 20
-2341.681
 30
0.0
 10
3207.9925
 20
-2341.681
 30
0.0
 10
3207.9925
 20
-2324.1383
 30
0.0
 10
3207.9925
 20
-2324.1383
 30
0.0
 10
3207.9925
 20
-2324.1383
 30
0.0
 10
3207.9925
 20
-2322.1071
 30
0.0
 10
3207.6192
 20
-2320.5794
 30
0.0
 10
3206.8727
 20
-2319.5638
 30
0.0
 10
3206.8727
 20
-2319.5638
 30
0.0
 10
3206.1262
 20
-2318.5483
 30
0.0
 10
3204.9023
 20
-2318.0361
 30
0.0
 10
3203.2097
 20
-2318.0361
 30
0.0
 10
3203.2097
 20
-2318.0361
 30
0.0
 10
3201.925
 20
-2318.0361
 30
0.0
 10
3200.7358
 20
-2318.3747
 30
0.0
 10
3199.6421
 20
-2319.0517
 30
0.0
 10
3199.6421
 20
-2319.0517
 30
0.0
 10
3198.5484
 20
-2319.7288
 30
0.0
 10
3197.7585
 20
-2320.7183
 30
0.0
 10
3197.2637
 20
-2322.029
 30
0.0
 10
3197.2637
 20
-2322.029
 30
0.0
 10
3196.7777
 20
-2323.3311
 30
0.0
 10
3196.5346
 20
-2325.2147
 30
0.0
 10
3196.5346
 20
-2327.6712
 30
0.0
 10
3196.5346
 20
-2327.6712
 30
0.0
 10
3196.5346
 20
-2327.6712
 30
0.0
 10
3196.5346
 20
-2341.681
 30
0.0
 10
3196.5346
 20
-2341.681
 30
0.0
 10
3196.5346
 20
-2341.681
 30
0.0
 10
3196.5346
 20
-2341.681
 30
0.0
 10
3191.9515
 20
-2341.681
 30
0.0
 10
3191.9515
 20
-2341.681
 30
0.0
  0
SPLINE
  5
73
330
1F
100
AcDbEntity
  8
Camada 1
 62
   140
100
AcDbSpline
210
0.0
220
0.0
230
1.0
 70
    11
 71
     3
 72
   116
 73
   112
 74
     0
 42
0.000000001
 43
0.0000000001
 40
0.0
 40
0.0
 40
0.0
 40
0.0
 40
0.0344827586206897
 40
0.0344827586206897
 40
0.0344827586206897
 40
0.0344827586206897
 40
0.0689655172413793
 40
0.0689655172413793
 40
0.0689655172413793
 40
0.0689655172413793
 40
0.103448275862069
 40
0.103448275862069
 40
0.103448275862069
 40
0.103448275862069
 40
0.1379310344827586
 40
0.1379310344827586
 40
0.1379310344827586
 40
0.1379310344827586
 40
0.1724137931034483
 40
0.1724137931034483
 40
0.1724137931034483
 40
0.1724137931034483
 40
0.2068965517241379
 40
0.2068965517241379
 40
0.2068965517241379
 40
0.2068965517241379
 40
0.2413793103448276
 40
0.2413793103448276
 40
0.2413793103448276
 40
0.2413793103448276
 40
0.2758620689655172
 40
0.2758620689655172
 40
0.2758620689655172
 40
0.2758620689655172
 40
0.3103448275862069
 40
0.3103448275862069
 40
0.3103448275862069
 40
0.3103448275862069
 40
0.3448275862068966
 40
0.3448275862068966
 40
0.3448275862068966
 40
0.3448275862068966
 40
0.3793103448275862
 40
0.3793103448275862
 40
0.3793103448275862
 40
0.3793103448275862
 40
0.4137931034482759
 40
0.4137931034482759
 40
0.4137931034482759
 40
0.4137931034482759
 40
0.4482758620689655
 40
0.4482758620689655
 40
0.4482758620689655
 40
0.4482758620689655
 40
0.4827586206896552
 40
0.4827586206896552
 40
0.4827586206896552
 40
0.4827586206896552
 40
0.5172413793103449
 40
0.5172413793103449
 40
0.5172413793103449
 40
0.5172413793103449
 40
0.5517241379310345
 40
0.5517241379310345
 40
0.5517241379310345
 40
0.5517241379310345
 40
0.5862068965517241
 40
0.5862068965517241
 40
0.5862068965517241
 40
0.5862068965517241
 40
0.6206896551724138
 40
0.6206896551724138
 40
0.6206896551724138
 40
0.6206896551724138
 40
0.6551724137931034
 40
0.6551724137931034
 40
0.6551724137931034
 40
0.6551724137931034
 40
0.6896551724137931
 40
0.6896551724137931
 40
0.6896551724137931
 40
0.6896551724137931
 40
0.7241379310344828
 40
0.7241379310344828
 40
0.7241379310344828
 40
0.7241379310344828
 40
0.7586206896551724
 40
0.7586206896551724
 40
0.7586206896551724
 40
0.7586206896551724
 40
0.7931034482758621
 40
0.7931034482758621
 40
0.7931034482758621
 40
0.7931034482758621
 40
0.8275862068965517
 40
0.8275862068965517
 40
0.8275862068965517
 40
0.8275862068965517
 40
0.8620689655172413
 40
0.8620689655172413
 40
0.8620689655172413
 40
0.8620689655172413
 40
0.896551724137931
 40
0.896551724137931
 40
0.896551724137931
 40
0.896551724137931
 40
0.9310344827586207
 40
0.9310344827586207
 40
0.9310344827586207
 40
0.9310344827586207
 40
1.0
 40
1.0
 40
1.0
 40
1.0
 10
3235.3351
 20
-2341.681
 30
0.0
 10
3235.3351
 20
-2341.681
 30
0.0
 10
3235.3351
 20
-2314.6509
 30
0.0
 10
3235.3351
 20
-2314.6509
 30
0.0
 10
3235.3351
 20
-2314.6509
 30
0.0
 10
3235.3351
 20
-2314.6509
 30
0.0
 10
3239.4495
 20
-2314.6509
 30
0.0
 10
3239.4495
 20
-2314.6509
 30
0.0
 10
3239.4495
 20
-2314.6509
 30
0.0
 10
3239.4495
 20
-2314.6509
 30
0.0
 10
3239.4495
 20
-2318.4701
 30
0.0
 10
3239.4495
 20
-2318.4701
 30
0.0
 10
3239.4495
 20
-2318.4701
 30
0.0
 10
3240.2915
 20
-2317.1508
 30
0.0
 10
3241.4199
 20
-2316.0831
 30
0.0
 10
3242.8261
 20
-2315.2845
 30
0.0
 10
3242.8261
 20
-2315.2845
 30
0.0
 10
3244.2323
 20
-2314.4773
 30
0.0
 10
3245.8294
 20
-2314.078
 30
0.0
 10
3247.6262
 20
-2314.078
 30
0.0
 10
3247.6262
 20
-2314.078
 30
0.0
 10
3249.6227
 20
-2314.078
 30
0.0
 10
3251.2632
 20
-2314.4946
 30
0.0
 10
3252.5392
 20
-2315.3192
 30
0.0
 10
3252.5392
 20
-2315.3192
 30
0.0
 10
3253.8152
 20
-2316.1525
 30
0.0
 10
3254.7179
 20
-2317.307
 30
0.0
 10
3255.2388
 20
-2318.8
 30
0.0
 10
3255.2388
 20
-2318.8
 30
0.0
 10
3257.3914
 20
-2315.6491
 30
0.0
 10
3260.1778
 20
-2314.078
 30
0.0
 10
3263.6152
 20
-2314.078
 30
0.0
 10
3263.6152
 20
-2314.078
 30
0.0
 10
3266.306
 20
-2314.078
 30
0.0
 10
3268.3806
 20
-2314.8158
 30
0.0
 10
3269.8215
 20
-2316.3001
 30
0.0
 10
3269.8215
 20
-2316.3001
 30
0.0
 10
3271.2711
 20
-2317.7844
 30
0.0
 10
3272.0002
 20
-2320.0673
 30
0.0
 10
3272.0002
 20
-2323.1488
 30
0.0
 10
3272.0002
 20
-2323.1488
 30
0.0
 10
3272.0002
 20
-2323.1488
 30
0.0
 10
3272.0002
 20
-2341.681
 30
0.0
 10
3272.0002
 20
-2341.681
 30
0.0
 10
3272.0002
 20
-2341.681
 30
0.0
 10
3272.0002
 20
-2341.681
 30
0.0
 10
3267.4171
 20
-2341.681
 30
0.0
 10
3267.4171
 20
-2341.681
 30
0.0
 10
3267.4171
 20
-2341.681
 30
0.0
 10
3267.4171
 20
-2341.681
 30
0.0
 10
3267.4171
 20
-2324.6678
 30
0.0
 10
3267.4171
 20
-2324.6678
 30
0.0
 10
3267.4171
 20
-2324.6678
 30
0.0
 10
3267.4171
 20
-2322.845
 30
0.0
 10
3267.2608
 20
-2321.5256
 30
0.0
 10
3266.9657
 20
-2320.7183
 30
0.0
 10
3266.9657
 20
-2320.7183
 30
0.0
 10
3266.6706
 20
-2319.9111
 30
0.0
 10
3266.1324
 20
-2319.2687
 30
0.0
 10
3265.3425
 20
-2318.774
 30
0.0
 10
3265.3425
 20
-2318.774
 30
0.0
 10
3264.5613
 20
-2318.2792
 30
0.0
 10
3263.6412
 20
-2318.0361
 30
0.0
 10
3262.5909
 20
-2318.0361
 30
0.0
 10
3262.5909
 20
-2318.0361
 30
0.0
 10
3260.6812
 20
-2318.0361
 30
0.0
 10
3259.1014
 20
-2318.6698
 30
0.0
 10
3257.8428
 20
-2319.9284
 30
0.0
 10
3257.8428
 20
-2319.9284
 30
0.0
 10
3256.5842
 20
-2321.1957
 30
0.0
 10
3255.9592
 20
-2323.2182
 30
0.0
 10
3255.9592
 20
-2325.9959
 30
0.0
 10
3255.9592
 20
-2325.9959
 30
0.0
 10
3255.9592
 20
-2325.9959
 30
0.0
 10
3255.9592
 20
-2341.681
 30
0.0
 10
3255.9592
 20
-2341.681
 30
0.0
 10
3255.9592
 20
-2341.681
 30
0.0
 10
3255.9592
 20
-2341.681
 30
0.0
 10
3251.3761
 20
-2341.681
 30
0.0
 10
3251.3761
 20
-2341.681
 30
0.0
 10
3251.3761
 20
-2341.681
 30
0.0
 10
3251.3761
 20
-2341.681
 30
0.0
 10
3251.3761
 20
-2324.1383
 30
0.0
 10
3251.3761
 20
-2324.1383
 30
0.0
 10
3251.3761
 20
-2324.1383
 30
0.0
 10
3251.3761
 20
-2322.1071
 30
0.0
 10
3251.0028
 20
-2320.5794
 30
0.0
 10
3250.2563
 20
-2319.5638
 30
0.0
 10
3250.2563
 20
-2319.5638
 30
0.0
 10
3249.5098
 20
-2318.5483
 30
0.0
 10
3248.2859
 20
-2318.0361
 30
0.0
 10
3246.5933
 20
-2318.0361
 30
0.0
 10
3246.5933
 20
-2318.0361
 30
0.0
 10
3245.3086
 20
-2318.0361
 30
0.0
 10
3244.1194
 20
-2318.3747
 30
0.0
 10
3243.0257
 20
-2319.0517
 30
0.0
 10
3243.0257
 20
-2319.0517
 30
0.0
 10
3241.932
 20
-2319.7288
 30
0.0
 10
3241.1421
 20
-2320.7183
 30
0.0
 10
3240.6473
 20
-2322.029
 30
0.0
 10
3240.6473
 20
-2322.029
 30
0.0
 10
3240.1613
 20
-2323.3311
 30
0.0
 10
3239.9182
 20
-2325.2147
 30
0.0
 10
3239.9182
 20
-2327.6712
 30
0.0
 10
3239.9182
 20
-2327.6712
 30
0.0
 10
3239.9182
 20
-2327.6712
 30
0.0
 10
3239.9182
 20
-2341.681
 30
0.0
 10
3239.9182
 20
-2341.681
 30
0.0
 10
3239.9182
 20
-2341.681
 30
0.0
 10
3239.9182
 20
-2341.681
 30
0.0
 10
3235.3351
 20
-2341.681
 30
0.0
 10
3235.3351
 20
-2341.681
 30
0.0
  0
SPLINE
  5
74
330
1F
100
AcDbEntity
  8
Camada 1
 62
   175
370
     9
100
AcDbSpline
210
0.0
220
0.0
230
1.0
 70
    11
 71
     3
 72
    80
 73
    76
 74
     0
 42
0.000000001
 43
0.0000000001
 40
0.0
 40
0.0
 40
0.0
 40
0.0
 40
0.05
 40
0.05
 40
0.05
 40
0.05
 40
0.1
 40
0.1
 40
0.1
 40
0.1
 40
0.15
 40
0.15
 40
0.15
 40
0.15
 40
0.2
 40
0.2
 40
0.2
 40
0.2
 40
0.25
 40
0.25
 40
0.25
 40
0.25
 40
0.3
 40
0.3
 40
0.3
 40
0.3
 40
0.35
 40
0.35
 40
0.35
 40
0.35
 40
0.4
 40
0.4
 40
0.4
 40
0.4
 40
0.45
 40
0.45
 40
0.45
 40
0.45
 40
0.5
 40
0.5
 40
0.5
 40
0.5
 40
0.55
 40
0.55
 40
0.55
 40
0.55
 40
0.6
 40
0.6
 40
0.6
 40
0.6
 40
0.65
 40
0.65
 40
0.65
 40
0.65
 40
0.7
 40
0.7
 40
0.7
 40
0.7
 40
0.75
 40
0.75
 40
0.75
 40
0.75
 40
0.8
 40
0.8
 40
0.8
 40
0.8
 40
0.85
 40
0.85
 40
0.85
 40
0.85
 40
0.9
 40
0.9
 40
0.9
 40
0.9
 40
1.0
 40
1.0
 40
1.0
 40
1.0
 10
3185.5368
 20
-2313.5051
 30
0.0
 10
3185.5368
 20
-2313.5051
 30
0.0
 10
3181.0058
 20
-2313.8696
 30
0.0
 10
3181.0058
 20
-2313.8696
 30
0.0
 10
3181.0058
 20
-2313.8696
 30
0.0
 10
3180.5978
 20
-2312.0728
 30
0.0
 10
3180.0162
 20
-2310.7621
 30
0.0
 10
3179.261
 20
-2309.9462
 30
0.0
 10
3179.261
 20
-2309.9462
 30
0.0
 10
3178.0198
 20
-2308.6355
 30
0.0
 10
3176.4834
 20
-2307.9845
 30
0.0
 10
3174.6605
 20
-2307.9845
 30
0.0
 10
3174.6605
 20
-2307.9845
 30
0.0
 10
3173.1936
 20
-2307.9845
 30
0.0
 10
3171.8915
 20
-2308.3924
 30
0.0
 10
3170.7718
 20
-2309.2084
 30
0.0
 10
3170.7718
 20
-2309.2084
 30
0.0
 10
3169.3309
 20
-2310.2587
 30
0.0
 10
3168.2025
 20
-2311.7864
 30
0.0
 10
3167.3605
 20
-2313.8002
 30
0.0
 10
3167.3605
 20
-2313.8002
 30
0.0
 10
3166.5272
 20
-2315.8227
 30
0.0
 10
3166.0932
 20
-2318.6958
 30
0.0
 10
3166.0585
 20
-2322.4196
 30
0.0
 10
3166.0585
 20
-2322.4196
 30
0.0
 10
3167.1608
 20
-2320.7444
 30
0.0
 10
3168.5149
 20
-2319.4944
 30
0.0
 10
3170.1121
 20
-2318.6871
 30
0.0
 10
3170.1121
 20
-2318.6871
 30
0.0
 10
3171.7093
 20
-2317.8712
 30
0.0
 10
3173.3759
 20
-2317.4632
 30
0.0
 10
3175.1293
 20
-2317.4632
 30
0.0
 10
3175.1293
 20
-2317.4632
 30
0.0
 10
3178.1847
 20
-2317.4632
 30
0.0
 10
3180.7888
 20
-2318.5917
 30
0.0
 10
3182.9414
 20
-2320.8398
 30
0.0
 10
3182.9414
 20
-2320.8398
 30
0.0
 10
3185.0854
 20
-2323.088
 30
0.0
 10
3186.1618
 20
-2325.9872
 30
0.0
 10
3186.1618
 20
-2329.5548
 30
0.0
 10
3186.1618
 20
-2329.5548
 30
0.0
 10
3186.1618
 20
-2331.8984
 30
0.0
 10
3185.6583
 20
-2334.0685
 30
0.0
 10
3184.6514
 20
-2336.0823
 30
0.0
 10
3184.6514
 20
-2336.0823
 30
0.0
 10
3183.6359
 20
-2338.0961
 30
0.0
 10
3182.2557
 20
-2339.6325
 30
0.0
 10
3180.4849
 20
-2340.7001
 30
0.0
 10
3180.4849
 20
-2340.7001
 30
0.0
 10
3178.7229
 20
-2341.7678
 30
0.0
 10
3176.7177
 20
-2342.306
 30
0.0
 10
3174.4782
 20
-2342.306
 30
0.0
 10
3174.4782
 20
-2342.306
 30
0.0
 10
3170.6676
 20
-2342.306
 30
0.0
 10
3167.5514
 20
-2340.8998
 30
0.0
 10
3165.1383
 20
-2338.0961
 30
0.0
 10
3165.1383
 20
-2338.0961
 30
0.0
 10
3162.7339
 20
-2335.2924
 30
0.0
 10
3161.5274
 20
-2330.6658
 30
0.0
 10
3161.5274
 20
-2324.2251
 30
0.0
 10
3161.5274
 20
-2324.2251
 30
0.0
 10
3161.5274
 20
-2317.0206
 30
0.0
 10
3162.8641
 20
-2311.7777
 30
0.0
 10
3165.529
 20
-2308.5053
 30
0.0
 10
3165.529
 20
-2308.5053
 30
0.0
 10
3167.8553
 20
-2305.6582
 30
0.0
 10
3170.9888
 20
-2304.2346
 30
0.0
 10
3174.9383
 20
-2304.2346
 30
0.0
 10
3174.9383
 20
-2304.2346
 30
0.0
 10
3177.8722
 20
-2304.2346
 30
0.0
 10
3180.2853
 20
-2305.0592
 30
0.0
 10
3182.1602
 20
-2306.6998
 30
0.0
 10
3182.1602
 20
-2306.6998
 30
0.0
 10
3184.0351
 20
-2308.3404
 30
0.0
 10
3185.1636
 20
-2310.6059
 30
0.0
 10
3185.5368
 20
-2313.5051
 30
0.0
  0
SPLINE
  5
75
330
1F
100
AcDbEntity
  8
Camada 1
 62
   175
370
     9
100
AcDbSpline
210
0.0
220
0.0
230
1.0
 70
    11
 71
     3
 72
    40
 73
    36
 74
     0
 42
0.000000001
 43
0.0000000001
 40
0.0
 40
0.0
 40
0.0
 40
0.0
 40
0.1
 40
0.1
 40
0.1
 40
0.1
 40
0.2
 40
0.2
 40
0.2
 40
0.2
 40
0.3
 40
0.3
 40
0.3
 40
0.3
 40
0.4
 40
0.4
 40
0.4
 40
0.4
 40
0.5
 40
0.5
 40
0.5
 40
0.5
 40
0.6
 40
0.6
 40
0.6
 40
0.6
 40
0.7
 40
0.7
 40
0.7
 40
0.7
 40
0.8
 40
0.8
 40
0.8
 40
0.8
 40
1.0
 40
1.0
 40
1.0
 40
1.0
 10
3166.7876
 20
-2329.5982
 30
0.0
 10
3166.7876
 20
-2331.178
 30
0.0
 10
3167.1261
 20
-2332.6883
 30
0.0
 10
3167.7945
 20
-2334.1292
 30
0.0
 10
3167.7945
 20
-2334.1292
 30
0.0
 10
3168.4629
 20
-2335.5701
 30
0.0
 10
3169.4003
 20
-2336.6638
 30
0.0
 10
3170.5895
 20
-2337.419
 30
0.0
 10
3170.5895
 20
-2337.419
 30
0.0
 10
3171.7874
 20
-2338.1742
 30
0.0
 10
3173.0547
 20
-2338.5561
 30
0.0
 10
3174.4001
 20
-2338.5561
 30
0.0
 10
3174.4001
 20
-2338.5561
 30
0.0
 10
3176.3532
 20
-2338.5561
 30
0.0
 10
3178.0198
 20
-2337.7749
 30
0.0
 10
3179.3999
 20
-2336.2125
 30
0.0
 10
3179.3999
 20
-2336.2125
 30
0.0
 10
3180.7801
 20
-2334.65
 30
0.0
 10
3181.4745
 20
-2332.5321
 30
0.0
 10
3181.4745
 20
-2329.8499
 30
0.0
 10
3181.4745
 20
-2329.8499
 30
0.0
 10
3181.4745
 20
-2327.2719
 30
0.0
 10
3180.7888
 20
-2325.2407
 30
0.0
 10
3179.426
 20
-2323.7564
 30
0.0
 10
3179.426
 20
-2323.7564
 30
0.0
 10
3178.0632
 20
-2322.2721
 30
0.0
 10
3176.3271
 20
-2321.5256
 30
0.0
 10
3174.2178
 20
-2321.5256
 30
0.0
 10
3174.2178
 20
-2321.5256
 30
0.0
 10
3172.152
 20
-2321.5256
 30
0.0
 10
3170.3899
 20
-2322.2721
 30
0.0
 10
3168.949
 20
-2323.7564
 30
0.0
 10
3168.949
 20
-2323.7564
 30
0.0
 10
3167.508
 20
-2325.2407
 30
0.0
 10
3166.7876
 20
-2327.1851
 30
0.0
 10
3166.7876
 20
-2329.5982
 30
0.0
  0
SPLINE
  5
76
330
1F
100
AcDbEntity
  8
Camada 1
 62
   175
370
     9
100
AcDbSpline
210
0.0
220
0.0
230
1.0
 70
    11
 71
     3
 72
   116
 73
   112
 74
     0
 42
0.000000001
 43
0.0000000001
 40
0.0
 40
0.0
 40
0.0
 40
0.0
 40
0.0344827586206897
 40
0.0344827586206897
 40
0.0344827586206897
 40
0.0344827586206897
 40
0.0689655172413793
 40
0.0689655172413793
 40
0.0689655172413793
 40
0.0689655172413793
 40
0.103448275862069
 40
0.103448275862069
 40
0.103448275862069
 40
0.103448275862069
 40
0.1379310344827586
 40
0.1379310344827586
 40
0.1379310344827586
 40
0.1379310344827586
 40
0.1724137931034483
 40
0.1724137931034483
 40
0.1724137931034483
 40
0.1724137931034483
 40
0.2068965517241379
 40
0.2068965517241379
 40
0.2068965517241379
 40
0.2068965517241379
 40
0.2413793103448276
 40
0.2413793103448276
 40
0.2413793103448276
 40
0.2413793103448276
 40
0.2758620689655172
 40
0.2758620689655172
 40
0.2758620689655172
 40
0.2758620689655172
 40
0.3103448275862069
 40
0.3103448275862069
 40
0.3103448275862069
 40
0.3103448275862069
 40
0.3448275862068966
 40
0.3448275862068966
 40
0.3448275862068966
 40
0.3448275862068966
 40
0.3793103448275862
 40
0.3793103448275862
 40
0.3793103448275862
 40
0.3793103448275862
 40
0.4137931034482759
 40
0.4137931034482759
 40
0.4137931034482759
 40
0.4137931034482759
 40
0.4482758620689655
 40
0.4482758620689655
 40
0.4482758620689655
 40
0.4482758620689655
 40
0.4827586206896552
 40
0.4827586206896552
 40
0.4827586206896552
 40
0.4827586206896552
 40
0.5172413793103449
 40
0.5172413793103449
 40
0.5172413793103449
 40
0.5172413793103449
 40
0.5517241379310345
 40
0.5517241379310345
 40
0.5517241379310345
 40
0.5517241379310345
 40
0.5862068965517241
 40
0.5862068965517241
 40
0.5862068965517241
 40
0.5862068965517241
 40
0.6206896551724138
 40
0.6206896551724138
 40
0.6206896551724138
 40
0.6206896551724138
 40
0.6551724137931034
 40
0.6551724137931034
 40
0.6551724137931034
 40
0.6551724137931034
 40
0.6896551724137931
 40
0.6896551724137931
 40
0.6896551724137931
 40
0.6896551724137931
 40
0.7241379310344828
 40
0.7241379310344828
 40
0.7241379310344828
 40
0.7241379310344828
 40
0.7586206896551724
 40
0.7586206896551724
 40
0.7586206896551724
 40
0.7586206896551724
 40
0.7931034482758621
 40
0.7931034482758621
 40
0.7931034482758621
 40
0.7931034482758621
 40
0.8275862068965517
 40
0.8275862068965517
 40
0.8275862068965517
 40
0.8275862068965517
 40
0.8620689655172413
 40
0.8620689655172413
 40
0.8620689655172413
 40
0.8620689655172413
 40
0.896551724137931
 40
0.896551724137931
 40
0.896551724137931
 40
0.896551724137931
 40
0.9310344827586207
 40
0.9310344827586207
 40
0.9310344827586207
 40
0.9310344827586207
 40
1.0
 40
1.0
 40
1.0
 40
1.0
 10
3191.9515
 20
-2341.681
 30
0.0
 10
3191.9515
 20
-2341.681
 30
0.0
 10
3191.9515
 20
-2314.6509
 30
0.0
 10
3191.9515
 20
-2314.6509
 30
0.0
 10
3191.9515
 20
-2314.6509
 30
0.0
 10
3191.9515
 20
-2314.6509
 30
0.0
 10
3196.0659
 20
-2314.6509
 30
0.0
 10
3196.0659
 20
-2314.6509
 30
0.0
 10
3196.0659
 20
-2314.6509
 30
0.0
 10
3196.0659
 20
-2314.6509
 30
0.0
 10
3196.0659
 20
-2318.4701
 30
0.0
 10
3196.0659
 20
-2318.4701
 30
0.0
 10
3196.0659
 20
-2318.4701
 30
0.0
 10
3196.9079
 20
-2317.1508
 30
0.0
 10
3198.0363
 20
-2316.0831
 30
0.0
 10
3199.4425
 20
-2315.2845
 30
0.0
 10
3199.4425
 20
-2315.2845
 30
0.0
 10
3200.8487
 20
-2314.4773
 30
0.0
 10
3202.4458
 20
-2314.078
 30
0.0
 10
3204.2426
 20
-2314.078
 30
0.0
 10
3204.2426
 20
-2314.078
 30
0.0
 10
3206.2391
 20
-2314.078
 30
0.0
 10
3207.8796
 20
-2314.4946
 30
0.0
 10
3209.1556
 20
-2315.3192
 30
0.0
 10
3209.1556
 20
-2315.3192
 30
0.0
 10
3210.4316
 20
-2316.1525
 30
0.0
 10
3211.3343
 20
-2317.307
 30
0.0
 10
3211.8552
 20
-2318.8
 30
0.0
 10
3211.8552
 20
-2318.8
 30
0.0
 10
3214.0078
 20
-2315.6491
 30
0.0
 10
3216.7942
 20
-2314.078
 30
0.0
 10
3220.2316
 20
-2314.078
 30
0.0
 10
3220.2316
 20
-2314.078
 30
0.0
 10
3222.9224
 20
-2314.078
 30
0.0
 10
3224.997
 20
-2314.8158
 30
0.0
 10
3226.4379
 20
-2316.3001
 30
0.0
 10
3226.4379
 20
-2316.3001
 30
0.0
 10
3227.8875
 20
-2317.7844
 30
0.0
 10
3228.6166
 20
-2320.0673
 30
0.0
 10
3228.6166
 20
-2323.1488
 30
0.0
 10
3228.6166
 20
-2323.1488
 30
0.0
 10
3228.6166
 20
-2323.1488
 30
0.0
 10
3228.6166
 20
-2341.681
 30
0.0
 10
3228.6166
 20
-2341.681
 30
0.0
 10
3228.6166
 20
-2341.681
 30
0.0
 10
3228.6166
 20
-2341.681
 30
0.0
 10
3224.0335
 20
-2341.681
 30
0.0
 10
3224.0335
 20
-2341.681
 30
0.0
 10
3224.0335
 20
-2341.681
 30
0.0
 10
3224.0335
 20
-2341.681
 30
0.0
 10
3224.0335
 20
-2324.6678
 30
0.0
 10
3224.0335
 20
-2324.6678
 30
0.0
 10
3224.0335
 20
-2324.6678
 30
0.0
 10
3224.0335
 20
-2322.845
 30
0.0
 10
3223.8772
 20
-2321.5256
 30
0.0
 10
3223.5821
 20
-2320.7183
 30
0.0
 10
3223.5821
 20
-2320.7183
 30
0.0
 10
3223.287
 20
-2319.9111
 30
0.0
 10
3222.7488
 20
-2319.2687
 30
0.0
 10
3221.9589
 20
-2318.774
 30
0.0
 10
3221.9589
 20
-2318.774
 30
0.0
 10
3221.1777
 20
-2318.2792
 30
0.0
 10
3220.2576
 20
-2318.0361
 30
0.0
 10
3219.2073
 20
-2318.0361
 30
0.0
 10
3219.2073
 20
-2318.0361
 30
0.0
 10
3217.2976
 20
-2318.0361
 30
0.0
 10
3215.7178
 20
-2318.6698
 30
0.0
 10
3214.4592
 20
-2319.9284
 30
0.0
 10
3214.4592
 20
-2319.9284
 30
0.0
 10
3213.2006
 20
-2321.1957
 30
0.0
 10
3212.5756
 20
-2323.2182
 30
0.0
 10
3212.5756
 20
-2325.9959
 30
0.0
 10
3212.5756
 20
-2325.9959
 30
0.0
 10
3212.5756
 20
-2325.9959
 30
0.0
 10
3212.5756
 20
-2341.681
 30
0.0
 10
3212.5756
 20
-2341.681
 30
0.0
 10
3212.5756
 20
-2341.681
 30
0.0
 10
3212.5756
 20
-2341.681
 30
0.0
 10
3207.9925
 20
-2341.681
 30
0.0
 10
3207.9925
 20
-2341.681
 30
0.0
 10
3207.9925
 20
-2341.681
 30
0.0
 10
3207.9925
 20
-2341.681
 30
0.0
 10
3207.9925
 20
-2324.1383
 30
0.0
 10
3207.9925
 20
-2324.1383
 30
0.0
 10
3207.9925
 20
-2324.1383
 30
0.0
 10
3207.9925
 20
-2322.1071
 30
0.0
 10
3207.6192
 20
-2320.5794
 30
0.0
 10
3206.8727
 20
-2319.5638
 30
0.0
 10
3206.8727
 20
-2319.5638
 30
0.0
 10
3206.1262
 20
-2318.5483
 30
0.0
 10
3204.9023
 20
-2318.0361
 30
0.0
 10
3203.2097
 20
-2318.0361
 30
0.0
 10
3203.2097
 20
-2318.0361
 30
0.0
 10
3201.925
 20
-2318.0361
 30
0.0
 10
3200.7358
 20
-2318.3747
 30
0.0
 10
3199.6421
 20
-2319.0517
 30
0.0
 10
3199.6421
 20
-2319.0517
 30
0.0
 10
3198.5484
 20
-2319.7288
 30
0.0
 10
3197.7585
 20
-2320.7183
 30
0.0
 10
3197.2637
 20
-2322.029
 30
0.0
 10
3197.2637
 20
-2322.029
 30
0.0
 10
3196.7777
 20
-2323.3311
 30
0.0
 10
3196.5346
 20
-2325.2147
 30
0.0
 10
3196.5346
 20
-2327.6712
 30
0.0
 10
3196.5346
 20
-2327.6712
 30
0.0
 10
3196.5346
 20
-2327.6712
 30
0.0
 10
3196.5346
 20
-2341.681
 30
0.0
 10
3196.5346
 20
-2341.681
 30
0.0
 10
3196.5346
 20
-2341.681
 30
0.0
 10
3196.5346
 20
-2341.681
 30
0.0
 10
3191.9515
 20
-2341.681
 30
0.0
 10
3191.9515
 20
-2341.681
 30
0.0
  0
SPLINE
  5
77
330
1F
100
AcDbEntity
  8
Camada 1
 62
   175
370
     9
100
AcDbSpline
210
0.0
220
0.0
230
1.0
 70
    11
 71
     3
 72
   116
 73
   112
 74
     0
 42
0.000000001
 43
0.0000000001
 40
0.0
 40
0.0
 40
0.0
 40
0.0
 40
0.0344827586206897
 40
0.0344827586206897
 40
0.0344827586206897
 40
0.0344827586206897
 40
0.0689655172413793
 40
0.0689655172413793
 40
0.0689655172413793
 40
0.0689655172413793
 40
0.103448275862069
 40
0.103448275862069
 40
0.103448275862069
 40
0.103448275862069
 40
0.1379310344827586
 40
0.1379310344827586
 40
0.1379310344827586
 40
0.1379310344827586
 40
0.1724137931034483
 40
0.1724137931034483
 40
0.1724137931034483
 40
0.1724137931034483
 40
0.2068965517241379
 40
0.2068965517241379
 40
0.2068965517241379
 40
0.2068965517241379
 40
0.2413793103448276
 40
0.2413793103448276
 40
0.2413793103448276
 40
0.2413793103448276
 40
0.2758620689655172
 40
0.2758620689655172
 40
0.2758620689655172
 40
0.2758620689655172
 40
0.3103448275862069
 40
0.3103448275862069
 40
0.3103448275862069
 40
0.3103448275862069
 40
0.3448275862068966
 40
0.3448275862068966
 40
0.3448275862068966
 40
0.3448275862068966
 40
0.3793103448275862
 40
0.3793103448275862
 40
0.3793103448275862
 40
0.3793103448275862
 40
0.4137931034482759
 40
0.4137931034482759
 40
0.4137931034482759
 40
0.4137931034482759
 40
0.4482758620689655
 40
0.4482758620689655
 40
0.4482758620689655
 40
0.4482758620689655
 40
0.4827586206896552
 40
0.4827586206896552
 40
0.4827586206896552
 40
0.4827586206896552
 40
0.5172413793103449
 40
0.5172413793103449
 40
0.5172413793103449
 40
0.5172413793103449
 40
0.5517241379310345
 40
0.5517241379310345
 40
0.5517241379310345
 40
0.5517241379310345
 40
0.5862068965517241
 40
0.5862068965517241
 40
0.5862068965517241
 40
0.5862068965517241
 40
0.6206896551724138
 40
0.6206896551724138
 40
0.6206896551724138
 40
0.6206896551724138
 40
0.6551724137931034
 40
0.6551724137931034
 40
0.6551724137931034
 40
0.6551724137931034
 40
0.6896551724137931
 40
0.6896551724137931
 40
0.6896551724137931
 40
0.6896551724137931
 40
0.7241379310344828
 40
0.7241379310344828
 40
0.7241379310344828
 40
0.7241379310344828
 40
0.7586206896551724
 40
0.7586206896551724
 40
0.7586206896551724
 40
0.7586206896551724
 40
0.7931034482758621
 40
0.7931034482758621
 40
0.7931034482758621
 40
0.7931034482758621
 40
0.8275862068965517
 40
0.8275862068965517
 40
0.8275862068965517
 40
0.8275862068965517
 40
0.8620689655172413
 40
0.8620689655172413
 40
0.8620689655172413
 40
0.8620689655172413
 40
0.896551724137931
 40
0.896551724137931
 40
0.896551724137931
 40
0.896551724137931
 40
0.9310344827586207
 40
0.9310344827586207
 40
0.9310344827586207
 40
0.9310344827586207
 40
1.0
 40
1.0
 40
1.0
 40
1.0
 10
3235.3351
 20
-2341.681
 30
0.0
 10
3235.3351
 20
-2341.681
 30
0.0
 10
3235.3351
 20
-2314.6509
 30
0.0
 10
3235.3351
 20
-2314.6509
 30
0.0
 10
3235.3351
 20
-2314.6509
 30
0.0
 10
3235.3351
 20
-2314.6509
 30
0.0
 10
3239.4495
 20
-2314.6509
 30
0.0
 10
3239.4495
 20
-2314.6509
 30
0.0
 10
3239.4495
 20
-2314.6509
 30
0.0
 10
3239.4495
 20
-2314.6509
 30
0.0
 10
3239.4495
 20
-2318.4701
 30
0.0
 10
3239.4495
 20
-2318.4701
 30
0.0
 10
3239.4495
 20
-2318.4701
 30
0.0
 10
3240.2915
 20
-2317.1508
 30
0.0
 10
3241.4199
 20
-2316.0831
 30
0.0
 10
3242.8261
 20
-2315.2845
 30
0.0
 10
3242.8261
 20
-2315.2845
 30
0.0
 10
3244.2323
 20
-2314.4773
 30
0.0
 10
3245.8294
 20
-2314.078
 30
0.0
 10
3247.6262
 20
-2314.078
 30
0.0
 10
3247.6262
 20
-2314.078
 30
0.0
 10
3249.6227
 20
-2314.078
 30
0.0
 10
3251.2632
 20
-2314.4946
 30
0.0
 10
3252.5392
 20
-2315.3192
 30
0.0
 10
3252.5392
 20
-2315.3192
 30
0.0
 10
3253.8152
 20
-2316.1525
 30
0.0
 10
3254.7179
 20
-2317.307
 30
0.0
 10
3255.2388
 20
-2318.8
 30
0.0
 10
3255.2388
 20
-2318.8
 30
0.0
 10
3257.3914
 20
-2315.6491
 30
0.0
 10
3260.1778
 20
-2314.078
 30
0.0
 10
3263.6152
 20
-2314.078
 30
0.0
 10
3263.6152
 20
-2314.078
 30
0.0
 10
3266.306
 20
-2314.078
 30
0.0
 10
3268.3806
 20
-2314.8158
 30
0.0
 10
3269.8215
 20
-2316.3001
 30
0.0
 10
3269.8215
 20
-2316.3001
 30
0.0
 10
3271.2711
 20
-2317.7844
 30
0.0
 10
3272.0002
 20
-2320.0673
 30
0.0
 10
3272.0002
 20
-2323.1488
 30
0.0
 10
3272.0002
 20
-2323.1488
 30
0.0
 10
3272.0002
 20
-2323.1488
 30
0.0
 10
3272.0002
 20
-2341.681
 30
0.0
 10
3272.0002
 20
-2341.681
 30
0.0
 10
3272.0002
 20
-2341.681
 30
0.0
 10
3272.0002
 20
-2341.681
 30
0.0
 10
3267.4171
 20
-2341.681
 30
0.0
 10
3267.4171
 20
-2341.681
 30
0.0
 10
3267.4171
 20
-2341.681
 30
0.0
 10
3267.4171
 20
-2341.681
 30
0.0
 10
3267.4171
 20
-2324.6678
 30
0.0
 10
3267.4171
 20
-2324.6678
 30
0.0
 10
3267.4171
 20
-2324.6678
 30
0.0
 10
3267.4171
 20
-2322.845
 30
0.0
 10
3267.2608
 20
-2321.5256
 30
0.0
 10
3266.9657
 20
-2320.7183
 30
0.0
 10
3266.9657
 20
-2320.7183
 30
0.0
 10
3266.6706
 20
-2319.9111
 30
0.0
 10
3266.1324
 20
-2319.2687
 30
0.0
 10
3265.3425
 20
-2318.774
 30
0.0
 10
3265.3425
 20
-2318.774
 30
0.0
 10
3264.5613
 20
-2318.2792
 30
0.0
 10
3263.6412
 20
-2318.0361
 30
0.0
 10
3262.5909
 20
-2318.0361
 30
0.0
 10
3262.5909
 20
-2318.0361
 30
0.0
 10
3260.6812
 20
-2318.0361
 30
0.0
 10
3259.1014
 20
-2318.6698
 30
0.0
 10
3257.8428
 20
-2319.9284
 30
0.0
 10
3257.8428
 20
-2319.9284
 30
0.0
 10
3256.5842
 20
-2321.1957
 30
0.0
 10
3255.9592
 20
-2323.2182
 30
0.0
 10
3255.9592
 20
-2325.9959
 30
0.0
 10
3255.9592
 20
-2325.9959
 30
0.0
 10
3255.9592
 20
-2325.9959
 30
0.0
 10
3255.9592
 20
-2341.681
 30
0.0
 10
3255.9592
 20
-2341.681
 30
0.0
 10
3255.9592
 20
-2341.681
 30
0.0
 10
3255.9592
 20
-2341.681
 30
0.0
 10
3251.3761
 20
-2341.681
 30
0.0
 10
3251.3761
 20
-2341.681
 30
0.0
 10
3251.3761
 20
-2341.681
 30
0.0
 10
3251.3761
 20
-2341.681
 30
0.0
 10
3251.3761
 20
-2324.1383
 30
0.0
 10
3251.3761
 20
-2324.1383
 30
0.0
 10
3251.3761
 20
-2324.1383
 30
0.0
 10
3251.3761
 20
-2322.1071
 30
0.0
 10
3251.0028
 20
-2320.5794
 30
0.0
 10
3250.2563
 20
-2319.5638
 30
0.0
 10
3250.2563
 20
-2319.5638
 30
0.0
 10
3249.5098
 20
-2318.5483
 30
0.0
 10
3248.2859
 20
-2318.0361
 30
0.0
 10
3246.5933
 20
-2318.0361
 30
0.0
 10
3246.5933
 20
-2318.0361
 30
0.0
 10
3245.3086
 20
-2318.0361
 30
0.0
 10
3244.1194
 20
-2318.3747
 30
0.0
 10
3243.0257
 20
-2319.0517
 30
0.0
 10
3243.0257
 20
-2319.0517
 30
0.0
 10
3241.932
 20
-2319.7288
 30
0.0
 10
3241.1421
 20
-2320.7183
 30
0.0
 10
3240.6473
 20
-2322.029
 30
0.0
 10
3240.6473
 20
-2322.029
 30
0.0
 10
3240.1613
 20
-2323.3311
 30
0.0
 10
3239.9182
 20
-2325.2147
 30
0.0
 10
3239.9182
 20
-2327.6712
 30
0.0
 10
3239.9182
 20
-2327.6712
 30
0.0
 10
3239.9182
 20
-2327.6712
 30
0.0
 10
3239.9182
 20
-2341.681
 30
0.0
 10
3239.9182
 20
-2341.681
 30
0.0
 10
3239.9182
 20
-2341.681
 30
0.0
 10
3239.9182
 20
-2341.681
 30
0.0
 10
3235.3351
 20
-2341.681
 30
0.0
 10
3235.3351
 20
-2341.681
 30
0.0
  0
SPLINE
  5
78
330
1F
100
AcDbEntity
  8
Camada 1
 62
   250
100
AcDbSpline
210
0.0
220
0.0
230
1.0
 70
    11
 71
     3
 72
   124
 73
   120
 74
     0
 42
0.000000001
 43
0.0000000001
 40
0.0
 40
0.0
 40
0.0
 40
0.0
 40
0.032258064516129
 40
0.032258064516129
 40
0.032258064516129
 40
0.032258064516129
 40
0.0645161290322581
 40
0.0645161290322581
 40
0.0645161290322581
 40
0.0645161290322581
 40
0.0967741935483871
 40
0.0967741935483871
 40
0.0967741935483871
 40
0.0967741935483871
 40
0.1290322580645161
 40
0.1290322580645161
 40
0.1290322580645161
 40
0.1290322580645161
 40
0.1612903225806452
 40
0.1612903225806452
 40
0.1612903225806452
 40
0.1612903225806452
 40
0.1935483870967742
 40
0.1935483870967742
 40
0.1935483870967742
 40
0.1935483870967742
 40
0.2258064516129032
 40
0.2258064516129032
 40
0.2258064516129032
 40
0.2258064516129032
 40
0.2580645161290323
 40
0.2580645161290323
 40
0.2580645161290323
 40
0.2580645161290323
 40
0.2903225806451613
 40
0.2903225806451613
 40
0.2903225806451613
 40
0.2903225806451613
 40
0.3225806451612903
 40
0.3225806451612903
 40
0.3225806451612903
 40
0.3225806451612903
 40
0.3548387096774194
 40
0.3548387096774194
 40
0.3548387096774194
 40
0.3548387096774194
 40
0.3870967741935484
 40
0.3870967741935484
 40
0.3870967741935484
 40
0.3870967741935484
 40
0.4193548387096774
 40
0.4193548387096774
 40
0.4193548387096774
 40
0.4193548387096774
 40
0.4516129032258064
 40
0.4516129032258064
 40
0.4516129032258064
 40
0.4516129032258064
 40
0.4838709677419355
 40
0.4838709677419355
 40
0.4838709677419355
 40
0.4838709677419355
 40
0.5161290322580645
 40
0.5161290322580645
 40
0.5161290322580645
 40
0.5161290322580645
 40
0.5483870967741935
 40
0.5483870967741935
 40
0.5483870967741935
 40
0.5483870967741935
 40
0.5806451612903226
 40
0.5806451612903226
 40
0.5806451612903226
 40
0.5806451612903226
 40
0.6129032258064516
 40
0.6129032258064516
 40
0.6129032258064516
 40
0.6129032258064516
 40
0.6451612903225806
 40
0.6451612903225806
 40
0.6451612903225806
 40
0.6451612903225806
 40
0.6774193548387096
 40
0.6774193548387096
 40
0.6774193548387096
 40
0.6774193548387096
 40
0.7096774193548387
 40
0.7096774193548387
 40
0.7096774193548387
 40
0.7096774193548387
 40
0.7419354838709677
 40
0.7419354838709677
 40
0.7419354838709677
 40
0.7419354838709677
 40
0.7741935483870968
 40
0.7741935483870968
 40
0.7741935483870968
 40
0.7741935483870968
 40
0.8064516129032258
 40
0.8064516129032258
 40
0.8064516129032258
 40
0.8064516129032258
 40
0.8387096774193549
 40
0.8387096774193549
 40
0.8387096774193549
 40
0.8387096774193549
 40
0.8709677419354839
 40
0.8709677419354839
 40
0.8709677419354839
 40
0.8709677419354839
 40
0.9032258064516129
 40
0.9032258064516129
 40
0.9032258064516129
 40
0.9032258064516129
 40
0.9354838709677419
 40
0.9354838709677419
 40
0.9354838709677419
 40
0.9354838709677419
 40
1.0
 40
1.0
 40
1.0
 40
1.0
 10
2707.0291
 20
-2465.7447
 30
0.0
 10
2707.0291
 20
-2465.7447
 30
0.0
 10
2712.7329
 20
-2464.9669
 30
0.0
 10
2712.7329
 20
-2464.9669
 30
0.0
 10
2712.7329
 20
-2464.9669
 30
0.0
 10
2713.3919
 20
-2468.2077
 30
0.0
 10
2714.4938
 20
-2470.5411
 30
0.0
 10
2716.0602
 20
-2471.9671
 30
0.0
 10
2716.0602
 20
-2471.9671
 30
0.0
 10
2717.6265
 20
-2473.393
 30
0.0
 10
2719.5494
 20
-2474.106
 30
0.0
 10
2721.8288
 20
-2474.106
 30
0.0
 10
2721.8288
 20
-2474.106
 30
0.0
 10
2724.5295
 20
-2474.106
 30
0.0
 10
2726.8089
 20
-2473.177
 30
0.0
 10
2728.6453
 20
-2471.3189
 30
0.0
 10
2728.6453
 20
-2471.3189
 30
0.0
 10
2730.4818
 20
-2469.4608
 30
0.0
 10
2731.4
 20
-2467.1599
 30
0.0
 10
2731.4
 20
-2464.416
 30
0.0
 10
2731.4
 20
-2464.416
 30
0.0
 10
2731.4
 20
-2461.8017
 30
0.0
 10
2730.5466
 20
-2459.6412
 30
0.0
 10
2728.829
 20
-2457.9343
 30
0.0
 10
2728.829
 20
-2457.9343
 30
0.0
 10
2727.1221
 20
-2456.2383
 30
0.0
 10
2724.9508
 20
-2455.3849
 30
0.0
 10
2722.3041
 20
-2455.3849
 30
0.0
 10
2722.3041
 20
-2455.3849
 30
0.0
 10
2721.2239
 20
-2455.3849
 30
0.0
 10
2719.8843
 20
-2455.601
 30
0.0
 10
2718.2747
 20
-2456.0223
 30
0.0
 10
2718.2747
 20
-2456.0223
 30
0.0
 10
2718.2747
 20
-2456.0223
 30
0.0
 10
2718.9121
 20
-2451.0314
 30
0.0
 10
2718.9121
 20
-2451.0314
 30
0.0
 10
2718.9121
 20
-2451.0314
 30
0.0
 10
2719.2902
 20
-2451.0746
 30
0.0
 10
2719.6034
 20
-2451.0962
 30
0.0
 10
2719.8303
 20
-2451.0962
 30
0.0
 10
2719.8303
 20
-2451.0962
 30
0.0
 10
2722.2717
 20
-2451.0962
 30
0.0
 10
2724.4539
 20
-2450.4589
 30
0.0
 10
2726.4092
 20
-2449.1949
 30
0.0
 10
2726.4092
 20
-2449.1949
 30
0.0
 10
2728.3536
 20
-2447.931
 30
0.0
 10
2729.3259
 20
-2445.9865
 30
0.0
 10
2729.3259
 20
-2443.3615
 30
0.0
 10
2729.3259
 20
-2443.3615
 30
0.0
 10
2729.3259
 20
-2441.2766
 30
0.0
 10
2728.6129
 20
-2439.5481
 30
0.0
 10
2727.1978
 20
-2438.1762
 30
0.0
 10
2727.1978
 20
-2438.1762
 30
0.0
 10
2725.7826
 20
-2436.8042
 30
0.0
 10
2723.9569
 20
-2436.1237
 30
0.0
 10
2721.7208
 20
-2436.1237
 30
0.0
 10
2721.7208
 20
-2436.1237
 30
0.0
 10
2719.4954
 20
-2436.1237
 30
0.0
 10
2717.6482
 20
-2436.8258
 30
0.0
 10
2716.1682
 20
-2438.2302
 30
0.0
 10
2716.1682
 20
-2438.2302
 30
0.0
 10
2714.6882
 20
-2439.6345
 30
0.0
 10
2713.7376
 20
-2441.7411
 30
0.0
 10
2713.3163
 20
-2444.5498
 30
0.0
 10
2713.3163
 20
-2444.5498
 30
0.0
 10
2713.3163
 20
-2444.5498
 30
0.0
 10
2707.6124
 20
-2443.5127
 30
0.0
 10
2707.6124
 20
-2443.5127
 30
0.0
 10
2707.6124
 20
-2443.5127
 30
0.0
 10
2708.3146
 20
-2439.6886
 30
0.0
 10
2709.8918
 20
-2436.7178
 30
0.0
 10
2712.3656
 20
-2434.6113
 30
0.0
 10
2712.3656
 20
-2434.6113
 30
0.0
 10
2714.8286
 20
-2432.5047
 30
0.0
 10
2717.9074
 20
-2431.4569
 30
0.0
 10
2721.5803
 20
-2431.4569
 30
0.0
 10
2721.5803
 20
-2431.4569
 30
0.0
 10
2724.1082
 20
-2431.4569
 30
0.0
 10
2726.4416
 20
-2431.997
 30
0.0
 10
2728.5697
 20
-2433.0881
 30
0.0
 10
2728.5697
 20
-2433.0881
 30
0.0
 10
2730.7086
 20
-2434.1684
 30
0.0
 10
2732.3398
 20
-2435.6483
 30
0.0
 10
2733.4633
 20
-2437.5172
 30
0.0
 10
2733.4633
 20
-2437.5172
 30
0.0
 10
2734.5976
 20
-2439.3969
 30
0.0
 10
2735.1594
 20
-2441.3846
 30
0.0
 10
2735.1594
 20
-2443.4911
 30
0.0
 10
2735.1594
 20
-2443.4911
 30
0.0
 10
2735.1594
 20
-2445.4896
 30
0.0
 10
2734.6192
 20
-2447.3045
 30
0.0
 10
2733.5498
 20
-2448.9465
 30
0.0
 10
2733.5498
 20
-2448.9465
 30
0.0
 10
2732.4695
 20
-2450.5885
 30
0.0
 10
2730.8707
 20
-2451.8956
 30
0.0
 10
2728.7641
 20
-2452.8679
 30
0.0
 10
2728.7641
 20
-2452.8679
 30
0.0
 10
2731.508
 20
-2453.4944
 30
0.0
 10
2733.6362
 20
-2454.8124
 30
0.0
 10
2735.1594
 20
-2456.8109
 30
0.0
 10
2735.1594
 20
-2456.8109
 30
0.0
 10
2736.6717
 20
-2458.7986
 30
0.0
 10
2737.4279
 20
-2461.3048
 30
0.0
 10
2737.4279
 20
-2464.2971
 30
0.0
 10
2737.4279
 20
-2464.2971
 30
0.0
 10
2737.4279
 20
-2468.3482
 30
0.0
 10
2735.948
 20
-2471.7942
 30
0.0
 10
2732.9988
 20
-2474.6137
 30
0.0
 10
2732.9988
 20
-2474.6137
 30
0.0
 10
2730.0389
 20
-2477.4332
 30
0.0
 10
2726.3011
 20
-2478.8376
 30
0.0
 10
2721.7856
 20
-2478.8376
 30
0.0
 10
2721.7856
 20
-2478.8376
 30
0.0
 10
2717.713
 20
-2478.8376
 30
0.0
 10
2714.3317
 20
-2477.6169
 30
0.0
 10
2711.6418
 20
-2475.1863
 30
0.0
 10
2711.6418
 20
-2475.1863
 30
0.0
 10
2708.9412
 20
-2472.7557
 30
0.0
 10
2707.4072
 20
-2469.6121
 30
0.0
 10
2707.0291
 20
-2465.7447
 30
0.0
  0
SPLINE
  5
79
330
1F
100
AcDbEntity
  8
Camada 1
 62
   250
100
AcDbSpline
210
0.0
220
0.0
230
1.0
 70
    11
 71
     3
 72
   116
 73
   112
 74
     0
 42
0.000000001
 43
0.0000000001
 40
0.0
 40
0.0
 40
0.0
 40
0.0
 40
0.0344827586206897
 40
0.0344827586206897
 40
0.0344827586206897
 40
0.0344827586206897
 40
0.0689655172413793
 40
0.0689655172413793
 40
0.0689655172413793
 40
0.0689655172413793
 40
0.103448275862069
 40
0.103448275862069
 40
0.103448275862069
 40
0.103448275862069
 40
0.1379310344827586
 40
0.1379310344827586
 40
0.1379310344827586
 40
0.1379310344827586
 40
0.1724137931034483
 40
0.1724137931034483
 40
0.1724137931034483
 40
0.1724137931034483
 40
0.2068965517241379
 40
0.2068965517241379
 40
0.2068965517241379
 40
0.2068965517241379
 40
0.2413793103448276
 40
0.2413793103448276
 40
0.2413793103448276
 40
0.2413793103448276
 40
0.2758620689655172
 40
0.2758620689655172
 40
0.2758620689655172
 40
0.2758620689655172
 40
0.3103448275862069
 40
0.3103448275862069
 40
0.3103448275862069
 40
0.3103448275862069
 40
0.3448275862068966
 40
0.3448275862068966
 40
0.3448275862068966
 40
0.3448275862068966
 40
0.3793103448275862
 40
0.3793103448275862
 40
0.3793103448275862
 40
0.3793103448275862
 40
0.4137931034482759
 40
0.4137931034482759
 40
0.4137931034482759
 40
0.4137931034482759
 40
0.4482758620689655
 40
0.4482758620689655
 40
0.4482758620689655
 40
0.4482758620689655
 40
0.4827586206896552
 40
0.4827586206896552
 40
0.4827586206896552
 40
0.4827586206896552
 40
0.5172413793103449
 40
0.5172413793103449
 40
0.5172413793103449
 40
0.5172413793103449
 40
0.5517241379310345
 40
0.5517241379310345
 40
0.5517241379310345
 40
0.5517241379310345
 40
0.5862068965517241
 40
0.5862068965517241
 40
0.5862068965517241
 40
0.5862068965517241
 40
0.6206896551724138
 40
0.6206896551724138
 40
0.6206896551724138
 40
0.6206896551724138
 40
0.6551724137931034
 40
0.6551724137931034
 40
0.6551724137931034
 40
0.6551724137931034
 40
0.6896551724137931
 40
0.6896551724137931
 40
0.6896551724137931
 40
0.6896551724137931
 40
0.7241379310344828
 40
0.7241379310344828
 40
0.7241379310344828
 40
0.7241379310344828
 40
0.7586206896551724
 40
0.7586206896551724
 40
0.7586206896551724
 40
0.7586206896551724
 40
0.7931034482758621
 40
0.7931034482758621
 40
0.7931034482758621
 40
0.7931034482758621
 40
0.8275862068965517
 40
0.8275862068965517
 40
0.8275862068965517
 40
0.8275862068965517
 40
0.8620689655172413
 40
0.8620689655172413
 40
0.8620689655172413
 40
0.8620689655172413
 40
0.896551724137931
 40
0.896551724137931
 40
0.896551724137931
 40
0.896551724137931
 40
0.9310344827586207
 40
0.9310344827586207
 40
0.9310344827586207
 40
0.9310344827586207
 40
1.0
 40
1.0
 40
1.0
 40
1.0
 10
2744.6334
 20
-2478.0598
 30
0.0
 10
2744.6334
 20
-2478.0598
 30
0.0
 10
2744.6334
 20
-2444.4201
 30
0.0
 10
2744.6334
 20
-2444.4201
 30
0.0
 10
2744.6334
 20
-2444.4201
 30
0.0
 10
2744.6334
 20
-2444.4201
 30
0.0
 10
2749.7539
 20
-2444.4201
 30
0.0
 10
2749.7539
 20
-2444.4201
 30
0.0
 10
2749.7539
 20
-2444.4201
 30
0.0
 10
2749.7539
 20
-2444.4201
 30
0.0
 10
2749.7539
 20
-2449.1733
 30
0.0
 10
2749.7539
 20
-2449.1733
 30
0.0
 10
2749.7539
 20
-2449.1733
 30
0.0
 10
2750.8017
 20
-2447.5313
 30
0.0
 10
2752.2061
 20
-2446.2026
 30
0.0
 10
2753.9561
 20
-2445.2087
 30
0.0
 10
2753.9561
 20
-2445.2087
 30
0.0
 10
2755.7062
 20
-2444.2041
 30
0.0
 10
2757.6939
 20
-2443.7072
 30
0.0
 10
2759.93
 20
-2443.7072
 30
0.0
 10
2759.93
 20
-2443.7072
 30
0.0
 10
2762.4146
 20
-2443.7072
 30
0.0
 10
2764.4564
 20
-2444.2257
 30
0.0
 10
2766.0444
 20
-2445.252
 30
0.0
 10
2766.0444
 20
-2445.252
 30
0.0
 10
2767.6324
 20
-2446.289
 30
0.0
 10
2768.7558
 20
-2447.7258
 30
0.0
 10
2769.404
 20
-2449.5838
 30
0.0
 10
2769.404
 20
-2449.5838
 30
0.0
 10
2772.0831
 20
-2445.6625
 30
0.0
 10
2775.5507
 20
-2443.7072
 30
0.0
 10
2779.8286
 20
-2443.7072
 30
0.0
 10
2779.8286
 20
-2443.7072
 30
0.0
 10
2783.1775
 20
-2443.7072
 30
0.0
 10
2785.7593
 20
-2444.6254
 30
0.0
 10
2787.5526
 20
-2446.4727
 30
0.0
 10
2787.5526
 20
-2446.4727
 30
0.0
 10
2789.3566
 20
-2448.3199
 30
0.0
 10
2790.264
 20
-2451.161
 30
0.0
 10
2790.264
 20
-2454.996
 30
0.0
 10
2790.264
 20
-2454.996
 30
0.0
 10
2790.264
 20
-2454.996
 30
0.0
 10
2790.264
 20
-2478.0598
 30
0.0
 10
2790.264
 20
-2478.0598
 30
0.0
 10
2790.264
 20
-2478.0598
 30
0.0
 10
2790.264
 20
-2478.0598
 30
0.0
 10
2784.5602
 20
-2478.0598
 30
0.0
 10
2784.5602
 20
-2478.0598
 30
0.0
 10
2784.5602
 20
-2478.0598
 30
0.0
 10
2784.5602
 20
-2478.0598
 30
0.0
 10
2784.5602
 20
-2456.8865
 30
0.0
 10
2784.5602
 20
-2456.8865
 30
0.0
 10
2784.5602
 20
-2456.8865
 30
0.0
 10
2784.5602
 20
-2454.6179
 30
0.0
 10
2784.3658
 20
-2452.9759
 30
0.0
 10
2783.9985
 20
-2451.9712
 30
0.0
 10
2783.9985
 20
-2451.9712
 30
0.0
 10
2783.6312
 20
-2450.9666
 30
0.0
 10
2782.9614
 20
-2450.1672
 30
0.0
 10
2781.9784
 20
-2449.5514
 30
0.0
 10
2781.9784
 20
-2449.5514
 30
0.0
 10
2781.0061
 20
-2448.9357
 30
0.0
 10
2779.861
 20
-2448.6332
 30
0.0
 10
2778.5539
 20
-2448.6332
 30
0.0
 10
2778.5539
 20
-2448.6332
 30
0.0
 10
2776.1773
 20
-2448.6332
 30
0.0
 10
2774.2112
 20
-2449.4218
 30
0.0
 10
2772.6448
 20
-2450.9882
 30
0.0
 10
2772.6448
 20
-2450.9882
 30
0.0
 10
2771.0784
 20
-2452.5654
 30
0.0
 10
2770.3006
 20
-2455.0824
 30
0.0
 10
2770.3006
 20
-2458.5393
 30
0.0
 10
2770.3006
 20
-2458.5393
 30
0.0
 10
2770.3006
 20
-2458.5393
 30
0.0
 10
2770.3006
 20
-2478.0598
 30
0.0
 10
2770.3006
 20
-2478.0598
 30
0.0
 10
2770.3006
 20
-2478.0598
 30
0.0
 10
2770.3006
 20
-2478.0598
 30
0.0
 10
2764.5968
 20
-2478.0598
 30
0.0
 10
2764.5968
 20
-2478.0598
 30
0.0
 10
2764.5968
 20
-2478.0598
 30
0.0
 10
2764.5968
 20
-2478.0598
 30
0.0
 10
2764.5968
 20
-2456.2275
 30
0.0
 10
2764.5968
 20
-2456.2275
 30
0.0
 10
2764.5968
 20
-2456.2275
 30
0.0
 10
2764.5968
 20
-2453.6997
 30
0.0
 10
2764.1323
 20
-2451.7984
 30
0.0
 10
2763.2032
 20
-2450.5345
 30
0.0
 10
2763.2032
 20
-2450.5345
 30
0.0
 10
2762.2742
 20
-2449.2706
 30
0.0
 10
2760.751
 20
-2448.6332
 30
0.0
 10
2758.6445
 20
-2448.6332
 30
0.0
 10
2758.6445
 20
-2448.6332
 30
0.0
 10
2757.0457
 20
-2448.6332
 30
0.0
 10
2755.5657
 20
-2449.0545
 30
0.0
 10
2754.2046
 20
-2449.8971
 30
0.0
 10
2754.2046
 20
-2449.8971
 30
0.0
 10
2752.8434
 20
-2450.7397
 30
0.0
 10
2751.8604
 20
-2451.9712
 30
0.0
 10
2751.2446
 20
-2453.6025
 30
0.0
 10
2751.2446
 20
-2453.6025
 30
0.0
 10
2750.6397
 20
-2455.2229
 30
0.0
 10
2750.3372
 20
-2457.567
 30
0.0
 10
2750.3372
 20
-2460.6242
 30
0.0
 10
2750.3372
 20
-2460.6242
 30
0.0
 10
2750.3372
 20
-2460.6242
 30
0.0
 10
2750.3372
 20
-2478.0598
 30
0.0
 10
2750.3372
 20
-2478.0598
 30
0.0
 10
2750.3372
 20
-2478.0598
 30
0.0
 10
2750.3372
 20
-2478.0598
 30
0.0
 10
2744.6334
 20
-2478.0598
 30
0.0
 10
2744.6334
 20
-2478.0598
 30
0.0
  0
SPLINE
  5
7A
330
1F
100
AcDbEntity
  8
Camada 1
 62
   250
100
AcDbSpline
210
0.0
220
0.0
230
1.0
 70
    11
 71
     3
 72
   116
 73
   112
 74
     0
 42
0.000000001
 43
0.0000000001
 40
0.0
 40
0.0
 40
0.0
 40
0.0
 40
0.0344827586206897
 40
0.0344827586206897
 40
0.0344827586206897
 40
0.0344827586206897
 40
0.0689655172413793
 40
0.0689655172413793
 40
0.0689655172413793
 40
0.0689655172413793
 40
0.103448275862069
 40
0.103448275862069
 40
0.103448275862069
 40
0.103448275862069
 40
0.1379310344827586
 40
0.1379310344827586
 40
0.1379310344827586
 40
0.1379310344827586
 40
0.1724137931034483
 40
0.1724137931034483
 40
0.1724137931034483
 40
0.1724137931034483
 40
0.2068965517241379
 40
0.2068965517241379
 40
0.2068965517241379
 40
0.2068965517241379
 40
0.2413793103448276
 40
0.2413793103448276
 40
0.2413793103448276
 40
0.2413793103448276
 40
0.2758620689655172
 40
0.2758620689655172
 40
0.2758620689655172
 40
0.2758620689655172
 40
0.3103448275862069
 40
0.3103448275862069
 40
0.3103448275862069
 40
0.3103448275862069
 40
0.3448275862068966
 40
0.3448275862068966
 40
0.3448275862068966
 40
0.3448275862068966
 40
0.3793103448275862
 40
0.3793103448275862
 40
0.3793103448275862
 40
0.3793103448275862
 40
0.4137931034482759
 40
0.4137931034482759
 40
0.4137931034482759
 40
0.4137931034482759
 40
0.4482758620689655
 40
0.4482758620689655
 40
0.4482758620689655
 40
0.4482758620689655
 40
0.4827586206896552
 40
0.4827586206896552
 40
0.4827586206896552
 40
0.4827586206896552
 40
0.5172413793103449
 40
0.5172413793103449
 40
0.5172413793103449
 40
0.5172413793103449
 40
0.5517241379310345
 40
0.5517241379310345
 40
0.5517241379310345
 40
0.5517241379310345
 40
0.5862068965517241
 40
0.5862068965517241
 40
0.5862068965517241
 40
0.5862068965517241
 40
0.6206896551724138
 40
0.6206896551724138
 40
0.6206896551724138
 40
0.6206896551724138
 40
0.6551724137931034
 40
0.6551724137931034
 40
0.6551724137931034
 40
0.6551724137931034
 40
0.6896551724137931
 40
0.6896551724137931
 40
0.6896551724137931
 40
0.6896551724137931
 40
0.7241379310344828
 40
0.7241379310344828
 40
0.7241379310344828
 40
0.7241379310344828
 40
0.7586206896551724
 40
0.7586206896551724
 40
0.7586206896551724
 40
0.7586206896551724
 40
0.7931034482758621
 40
0.7931034482758621
 40
0.7931034482758621
 40
0.7931034482758621
 40
0.8275862068965517
 40
0.8275862068965517
 40
0.8275862068965517
 40
0.8275862068965517
 40
0.8620689655172413
 40
0.8620689655172413
 40
0.8620689655172413
 40
0.8620689655172413
 40
0.896551724137931
 40
0.896551724137931
 40
0.896551724137931
 40
0.896551724137931
 40
0.9310344827586207
 40
0.9310344827586207
 40
0.9310344827586207
 40
0.9310344827586207
 40
1.0
 40
1.0
 40
1.0
 40
1.0
 10
2798.6254
 20
-2478.0598
 30
0.0
 10
2798.6254
 20
-2478.0598
 30
0.0
 10
2798.6254
 20
-2444.4201
 30
0.0
 10
2798.6254
 20
-2444.4201
 30
0.0
 10
2798.6254
 20
-2444.4201
 30
0.0
 10
2798.6254
 20
-2444.4201
 30
0.0
 10
2803.7459
 20
-2444.4201
 30
0.0
 10
2803.7459
 20
-2444.4201
 30
0.0
 10
2803.7459
 20
-2444.4201
 30
0.0
 10
2803.7459
 20
-2444.4201
 30
0.0
 10
2803.7459
 20
-2449.1733
 30
0.0
 10
2803.7459
 20
-2449.1733
 30
0.0
 10
2803.7459
 20
-2449.1733
 30
0.0
 10
2804.7937
 20
-2447.5313
 30
0.0
 10
2806.1981
 20
-2446.2026
 30
0.0
 10
2807.9481
 20
-2445.2087
 30
0.0
 10
2807.9481
 20
-2445.2087
 30
0.0
 10
2809.6982
 20
-2444.2041
 30
0.0
 10
2811.6859
 20
-2443.7072
 30
0.0
 10
2813.922
 20
-2443.7072
 30
0.0
 10
2813.922
 20
-2443.7072
 30
0.0
 10
2816.4066
 20
-2443.7072
 30
0.0
 10
2818.4484
 20
-2444.2257
 30
0.0
 10
2820.0364
 20
-2445.252
 30
0.0
 10
2820.0364
 20
-2445.252
 30
0.0
 10
2821.6244
 20
-2446.289
 30
0.0
 10
2822.7478
 20
-2447.7258
 30
0.0
 10
2823.396
 20
-2449.5838
 30
0.0
 10
2823.396
 20
-2449.5838
 30
0.0
 10
2826.0751
 20
-2445.6625
 30
0.0
 10
2829.5427
 20
-2443.7072
 30
0.0
 10
2833.8206
 20
-2443.7072
 30
0.0
 10
2833.8206
 20
-2443.7072
 30
0.0
 10
2837.1695
 20
-2443.7072
 30
0.0
 10
2839.7513
 20
-2444.6254
 30
0.0
 10
2841.5446
 20
-2446.4727
 30
0.0
 10
2841.5446
 20
-2446.4727
 30
0.0
 10
2843.3486
 20
-2448.3199
 30
0.0
 10
2844.256
 20
-2451.161
 30
0.0
 10
2844.256
 20
-2454.996
 30
0.0
 10
2844.256
 20
-2454.996
 30
0.0
 10
2844.256
 20
-2454.996
 30
0.0
 10
2844.256
 20
-2478.0598
 30
0.0
 10
2844.256
 20
-2478.0598
 30
0.0
 10
2844.256
 20
-2478.0598
 30
0.0
 10
2844.256
 20
-2478.0598
 30
0.0
 10
2838.5522
 20
-2478.0598
 30
0.0
 10
2838.5522
 20
-2478.0598
 30
0.0
 10
2838.5522
 20
-2478.0598
 30
0.0
 10
2838.5522
 20
-2478.0598
 30
0.0
 10
2838.5522
 20
-2456.8865
 30
0.0
 10
2838.5522
 20
-2456.8865
 30
0.0
 10
2838.5522
 20
-2456.8865
 30
0.0
 10
2838.5522
 20
-2454.6179
 30
0.0
 10
2838.3578
 20
-2452.9759
 30
0.0
 10
2837.9905
 20
-2451.9712
 30
0.0
 10
2837.9905
 20
-2451.9712
 30
0.0
 10
2837.6232
 20
-2450.9666
 30
0.0
 10
2836.9534
 20
-2450.1672
 30
0.0
 10
2835.9704
 20
-2449.5514
 30
0.0
 10
2835.9704
 20
-2449.5514
 30
0.0
 10
2834.9981
 20
-2448.9357
 30
0.0
 10
2833.853
 20
-2448.6332
 30
0.0
 10
2832.5459
 20
-2448.6332
 30
0.0
 10
2832.5459
 20
-2448.6332
 30
0.0
 10
2830.1693
 20
-2448.6332
 30
0.0
 10
2828.2032
 20
-2449.4218
 30
0.0
 10
2826.6368
 20
-2450.9882
 30
0.0
 10
2826.6368
 20
-2450.9882
 30
0.0
 10
2825.0704
 20
-2452.5654
 30
0.0
 10
2824.2926
 20
-2455.0824
 30
0.0
 10
2824.2926
 20
-2458.5393
 30
0.0
 10
2824.2926
 20
-2458.5393
 30
0.0
 10
2824.2926
 20
-2458.5393
 30
0.0
 10
2824.2926
 20
-2478.0598
 30
0.0
 10
2824.2926
 20
-2478.0598
 30
0.0
 10
2824.2926
 20
-2478.0598
 30
0.0
 10
2824.2926
 20
-2478.0598
 30
0.0
 10
2818.5888
 20
-2478.0598
 30
0.0
 10
2818.5888
 20
-2478.0598
 30
0.0
 10
2818.5888
 20
-2478.0598
 30
0.0
 10
2818.5888
 20
-2478.0598
 30
0.0
 10
2818.5888
 20
-2456.2275
 30
0.0
 10
2818.5888
 20
-2456.2275
 30
0.0
 10
2818.5888
 20
-2456.2275
 30
0.0
 10
2818.5888
 20
-2453.6997
 30
0.0
 10
2818.1243
 20
-2451.7984
 30
0.0
 10
2817.1952
 20
-2450.5345
 30
0.0
 10
2817.1952
 20
-2450.5345
 30
0.0
 10
2816.2662
 20
-2449.2706
 30
0.0
 10
2814.743
 20
-2448.6332
 30
0.0
 10
2812.6365
 20
-2448.6332
 30
0.0
 10
2812.6365
 20
-2448.6332
 30
0.0
 10
2811.0377
 20
-2448.6332
 30
0.0
 10
2809.5577
 20
-2449.0545
 30
0.0
 10
2808.1966
 20
-2449.8971
 30
0.0
 10
2808.1966
 20
-2449.8971
 30
0.0
 10
2806.8354
 20
-2450.7397
 30
0.0
 10
2805.8524
 20
-2451.9712
 30
0.0
 10
2805.2366
 20
-2453.6025
 30
0.0
 10
2805.2366
 20
-2453.6025
 30
0.0
 10
2804.6317
 20
-2455.2229
 30
0.0
 10
2804.3292
 20
-2457.567
 30
0.0
 10
2804.3292
 20
-2460.6242
 30
0.0
 10
2804.3292
 20
-2460.6242
 30
0.0
 10
2804.3292
 20
-2460.6242
 30
0.0
 10
2804.3292
 20
-2478.0598
 30
0.0
 10
2804.3292
 20
-2478.0598
 30
0.0
 10
2804.3292
 20
-2478.0598
 30
0.0
 10
2804.3292
 20
-2478.0598
 30
0.0
 10
2798.6254
 20
-2478.0598
 30
0.0
 10
2798.6254
 20
-2478.0598
 30
0.0
  0
SPLINE
  5
7B
330
1F
100
AcDbEntity
  8
Camada 1
 62
   250
370
     9
100
AcDbSpline
210
0.0
220
0.0
230
1.0
 70
     8
 71
     3
 72
    12
 73
     8
 74
     0
 42
0.000000001
 43
0.0000000001
 40
0.0
 40
0.0
 40
0.0
 40
0.0
 40
0.3333333333333333
 40
0.3333333333333333
 40
0.3333333333333333
 40
0.3333333333333333
 40
1.0
 40
1.0
 40
1.0
 40
1.0
 10
2775.404
 20
-2422.1604
 30
0.0
 10
2777.5483
 20
-2412.504
 30
0.0
 10
2780.2527
 20
-2403.0355
 30
0.0
 10
2784.7356
 20
-2401.1637
 30
0.0
 10
2784.7356
 20
-2401.1637
 30
0.0
 10
2782.616
 20
-2407.3179
 30
0.0
 10
2784.4851
 20
-2415.1386
 30
0.0
 10
2787.8876
 20
-2422.3126
 30
0.0
  0
SPLINE
  5
7C
330
1F
100
AcDbEntity
  8
Camada 1
 62
   250
370
     9
100
AcDbSpline
210
0.0
220
0.0
230
1.0
 70
     8
 71
     3
 72
   204
 73
   200
 74
     0
 42
0.000000001
 43
0.0000000001
 40
0.0
 40
0.0
 40
0.0
 40
0.0
 40
0.0196078431372549
 40
0.0196078431372549
 40
0.0196078431372549
 40
0.0196078431372549
 40
0.0392156862745098
 40
0.0392156862745098
 40
0.0392156862745098
 40
0.0392156862745098
 40
0.0588235294117647
 40
0.0588235294117647
 40
0.0588235294117647
 40
0.0588235294117647
 40
0.0784313725490196
 40
0.0784313725490196
 40
0.0784313725490196
 40
0.0784313725490196
 40
0.0980392156862745
 40
0.0980392156862745
 40
0.0980392156862745
 40
0.0980392156862745
 40
0.1176470588235294
 40
0.1176470588235294
 40
0.1176470588235294
 40
0.1176470588235294
 40
0.1372549019607843
 40
0.1372549019607843
 40
0.1372549019607843
 40
0.1372549019607843
 40
0.1568627450980392
 40
0.1568627450980392
 40
0.1568627450980392
 40
0.1568627450980392
 40
0.1764705882352941
 40
0.1764705882352941
 40
0.1764705882352941
 40
0.1764705882352941
 40
0.196078431372549
 40
0.196078431372549
 40
0.196078431372549
 40
0.196078431372549
 40
0.2156862745098039
 40
0.2156862745098039
 40
0.2156862745098039
 40
0.2156862745098039
 40
0.2352941176470588
 40
0.2352941176470588
 40
0.2352941176470588
 40
0.2352941176470588
 40
0.2549019607843137
 40
0.2549019607843137
 40
0.2549019607843137
 40
0.2549019607843137
 40
0.2745098039215687
 40
0.2745098039215687
 40
0.2745098039215687
 40
0.2745098039215687
 40
0.2941176470588235
 40
0.2941176470588235
 40
0.2941176470588235
 40
0.2941176470588235
 40
0.3137254901960784
 40
0.3137254901960784
 40
0.3137254901960784
 40
0.3137254901960784
 40
0.3333333333333333
 40
0.3333333333333333
 40
0.3333333333333333
 40
0.3333333333333333
 40
0.3529411764705883
 40
0.3529411764705883
 40
0.3529411764705883
 40
0.3529411764705883
 40
0.3725490196078431
 40
0.3725490196078431
 40
0.3725490196078431
 40
0.3725490196078431
 40
0.392156862745098
 40
0.392156862745098
 40
0.392156862745098
 40
0.392156862745098
 40
0.4117647058823529
 40
0.4117647058823529
 40
0.4117647058823529
 40
0.4117647058823529
 40
0.4313725490196079
 40
0.4313725490196079
 40
0.4313725490196079
 40
0.4313725490196079
 40
0.4509803921568628
 40
0.4509803921568628
 40
0.4509803921568628
 40
0.4509803921568628
 40
0.4705882352941176
 40
0.4705882352941176
 40
0.4705882352941176
 40
0.4705882352941176
 40
0.4901960784313725
 40
0.4901960784313725
 40
0.4901960784313725
 40
0.4901960784313725
 40
0.5098039215686274
 40
0.5098039215686274
 40
0.5098039215686274
 40
0.5098039215686274
 40
0.5294117647058824
 40
0.5294117647058824
 40
0.5294117647058824
 40
0.5294117647058824
 40
0.5490196078431373
 40
0.5490196078431373
 40
0.5490196078431373
 40
0.5490196078431373
 40
0.5686274509803921
 40
0.5686274509803921
 40
0.5686274509803921
 40
0.5686274509803921
 40
0.5882352941176471
 40
0.5882352941176471
 40
0.5882352941176471
 40
0.5882352941176471
 40
0.6078431372549019
 40
0.6078431372549019
 40
0.6078431372549019
 40
0.6078431372549019
 40
0.6274509803921569
 40
0.6274509803921569
 40
0.6274509803921569
 40
0.6274509803921569
 40
0.6470588235294118
 40
0.6470588235294118
 40
0.6470588235294118
 40
0.6470588235294118
 40
0.6666666666666666
 40
0.6666666666666666
 40
0.6666666666666666
 40
0.6666666666666666
 40
0.6862745098039216
 40
0.6862745098039216
 40
0.6862745098039216
 40
0.6862745098039216
 40
0.7058823529411765
 40
0.7058823529411765
 40
0.7058823529411765
 40
0.7058823529411765
 40
0.7254901960784313
 40
0.7254901960784313
 40
0.7254901960784313
 40
0.7254901960784313
 40
0.7450980392156863
 40
0.7450980392156863
 40
0.7450980392156863
 40
0.7450980392156863
 40
0.7647058823529411
 40
0.7647058823529411
 40
0.7647058823529411
 40
0.7647058823529411
 40
0.7843137254901961
 40
0.7843137254901961
 40
0.7843137254901961
 40
0.7843137254901961
 40
0.803921568627451
 40
0.803921568627451
 40
0.803921568627451
 40
0.803921568627451
 40
0.8235294117647058
 40
0.8235294117647058
 40
0.8235294117647058
 40
0.8235294117647058
 40
0.8431372549019608
 40
0.8431372549019608
 40
0.8431372549019608
 40
0.8431372549019608
 40
0.8627450980392157
 40
0.8627450980392157
 40
0.8627450980392157
 40
0.8627450980392157
 40
0.8823529411764706
 40
0.8823529411764706
 40
0.8823529411764706
 40
0.8823529411764706
 40
0.9019607843137255
 40
0.9019607843137255
 40
0.9019607843137255
 40
0.9019607843137255
 40
0.9215686274509803
 40
0.9215686274509803
 40
0.9215686274509803
 40
0.9215686274509803
 40
0.9411764705882353
 40
0.9411764705882353
 40
0.9411764705882353
 40
0.9411764705882353
 40
0.9607843137254902
 40
0.9607843137254902
 40
0.9607843137254902
 40
0.9607843137254902
 40
1.0
 40
1.0
 40
1.0
 40
1.0
 10
2804.766
 20
-2422.2721
 30
0.0
 10
2809.2146
 20
-2419.9779
 30
0.0
 10
2812.0353
 20
-2417.2416
 30
0.0
 10
2812.6893
 20
-2413.9169
 30
0.0
 10
2812.6893
 20
-2413.9169
 30
0.0
 10
2808.8539
 20
-2406.8982
 30
0.0
 10
2801.9343
 20
-2400.5075
 30
0.0
 10
2802.6753
 20
-2391.8924
 30
0.0
 10
2802.6753
 20
-2391.8924
 30
0.0
 10
2803.2241
 20
-2385.511
 30
0.0
 10
2807.6512
 20
-2379.0342
 30
0.0
 10
2807.3013
 20
-2375.1368
 30
0.0
 10
2807.3013
 20
-2375.1368
 30
0.0
 10
2817.8359
 20
-2367.8977
 30
0.0
 10
2823.7305
 20
-2358.6297
 30
0.0
 10
2825.5199
 20
-2347.5672
 30
0.0
 10
2825.5199
 20
-2347.5672
 30
0.0
 10
2842.1628
 20
-2350.0185
 30
0.0
 10
2844.5651
 20
-2370.2721
 30
0.0
 10
2838.2461
 20
-2384.8071
 30
0.0
 10
2838.2461
 20
-2384.8071
 30
0.0
 10
2827.4738
 20
-2402.5287
 30
0.0
 10
2814.375
 20
-2379.9296
 30
0.0
 10
2827.1884
 20
-2376.7322
 30
0.0
 10
2827.1884
 20
-2376.7322
 30
0.0
 10
2825.3869
 20
-2370.4079
 30
0.0
 10
2813.2981
 20
-2374.02
 30
0.0
 10
2814.2805
 20
-2386.2701
 30
0.0
 10
2814.2805
 20
-2386.2701
 30
0.0
 10
2815.2803
 20
-2398.7388
 30
0.0
 10
2829.4887
 20
-2407.4386
 30
0.0
 10
2839.8039
 20
-2403.8434
 30
0.0
 10
2839.8039
 20
-2403.8434
 30
0.0
 10
2850.5812
 20
-2430.0243
 30
0.0
 10
2889.3801
 20
-2424.5098
 30
0.0
 10
2885.9456
 20
-2400.8387
 30
0.0
 10
2885.9456
 20
-2400.8387
 30
0.0
 10
2882.2045
 20
-2411.8537
 30
0.0
 10
2874.7896
 20
-2415.9253
 30
0.0
 10
2865.0143
 20
-2408.379
 30
0.0
 10
2865.0143
 20
-2408.379
 30
0.0
 10
2855.3905
 20
-2400.9499
 30
0.0
 10
2865.6133
 20
-2384.3016
 30
0.0
 10
2871.0842
 20
-2374.884
 30
0.0
 10
2871.0842
 20
-2374.884
 30
0.0
 10
2879.6344
 20
-2358.4037
 30
0.0
 10
2881.2071
 20
-2342.2365
 30
0.0
 10
2870.4889
 20
-2331.4277
 30
0.0
 10
2870.4889
 20
-2331.4277
 30
0.0
 10
2856.1515
 20
-2318.9624
 30
0.0
 10
2840.3969
 20
-2324.7595
 30
0.0
 10
2824.2765
 20
-2335.2734
 30
0.0
 10
2824.2765
 20
-2335.2734
 30
0.0
 10
2823.1763
 20
-2331.6976
 30
0.0
 10
2821.7629
 20
-2328.7807
 30
0.0
 10
2820.0016
 20
-2326.5949
 30
0.0
 10
2820.0016
 20
-2326.5949
 30
0.0
 10
2838.7498
 20
-2333.1124
 30
0.0
 10
2846.0054
 20
-2315.4959
 30
0.0
 10
2833.6959
 20
-2312.8699
 30
0.0
 10
2833.6959
 20
-2312.8699
 30
0.0
 10
2833.6959
 20
-2312.8699
 30
0.0
 10
2834.011
 20
-2311.8083
 30
0.0
 10
2834.011
 20
-2311.8083
 30
0.0
 10
2834.011
 20
-2311.8083
 30
0.0
 10
2844.6717
 20
-2314.1718
 30
0.0
 10
2849.2115
 20
-2300.4296
 30
0.0
 10
2843.3033
 20
-2286.6381
 30
0.0
 10
2843.3033
 20
-2286.6381
 30
0.0
 10
2837.9009
 20
-2296.7616
 30
0.0
 10
2829.4489
 20
-2302.1723
 30
0.0
 10
2817.7896
 20
-2302.6259
 30
0.0
 10
2817.7896
 20
-2302.6259
 30
0.0
 10
2821.4295
 20
-2290.9083
 30
0.0
 10
2816.584
 20
-2283.3335
 30
0.0
 10
2817.2286
 20
-2273.399
 30
0.0
 10
2817.2286
 20
-2273.399
 30
0.0
 10
2817.7468
 20
-2266.1243
 30
0.0
 10
2824.7233
 20
-2257.6231
 30
0.0
 10
2818.7925
 20
-2249.8215
 30
0.0
 10
2818.7925
 20
-2249.8215
 30
0.0
 10
2819.02
 20
-2247.8906
 30
0.0
 10
2819.2477
 20
-2245.9597
 30
0.0
 10
2819.4751
 20
-2244.0288
 30
0.0
 10
2819.4751
 20
-2244.0288
 30
0.0
 10
2823.1012
 20
-2240.5449
 30
0.0
 10
2825.5642
 20
-2235.9309
 30
0.0
 10
2826.0849
 20
-2229.4297
 30
0.0
 10
2826.0849
 20
-2229.4297
 30
0.0
 10
2826.1798
 20
-2227.6574
 30
0.0
 10
2826.033
 20
-2226.1102
 30
0.0
 10
2825.1236
 20
-2225.2737
 30
0.0
 10
2825.1236
 20
-2225.2737
 30
0.0
 10
2824.2657
 20
-2224.3791
 30
0.0
 10
2821.3188
 20
-2224.8289
 30
0.0
 10
2818.2034
 20
-2225.3873
 30
0.0
 10
2818.2034
 20
-2225.3873
 30
0.0
 10
2816.0703
 20
-2210.1712
 30
0.0
 10
2798.8067
 20
-2206.2753
 30
0.0
 10
2788.4316
 20
-2211.7784
 30
0.0
 10
2788.4316
 20
-2211.7784
 30
0.0
 10
2784.4997
 20
-2200.1736
 30
0.0
 10
2771.113
 20
-2195.5116
 30
0.0
 10
2762.7708
 20
-2199.2855
 30
0.0
 10
2762.7708
 20
-2199.2855
 30
0.0
 10
2759.1759
 20
-2194.1465
 30
0.0
 10
2753.1657
 20
-2172.4716
 30
0.0
 10
2749.2534
 20
-2173.3338
 30
0.0
 10
2749.2534
 20
-2173.3338
 30
0.0
 10
2745.9948
 20
-2174.0516
 30
0.0
 10
2748.6704
 20
-2186.0741
 30
0.0
 10
2748.8691
 20
-2201.941
 30
0.0
 10
2748.8691
 20
-2201.941
 30
0.0
 10
2743.9771
 20
-2199.6683
 30
0.0
 10
2739.7669
 20
-2197.3912
 30
0.0
 10
2735.8348
 20
-2193.6916
 30
0.0
 10
2735.8348
 20
-2193.6916
 30
0.0
 10
2728.7533
 20
-2187.0291
 30
0.0
 10
2727.8937
 20
-2203.3984
 30
0.0
 10
2729.4136
 20
-2207.8441
 30
0.0
 10
2729.4136
 20
-2207.8441
 30
0.0
 10
2720.1797
 20
-2216.4492
 30
0.0
 10
2719.3525
 20
-2231.091
 30
0.0
 10
2732.6305
 20
-2238.8339
 30
0.0
 10
2732.6305
 20
-2238.8339
 30
0.0
 10
2728.9261
 20
-2251.7101
 30
0.0
 10
2718.9531
 20
-2254.3944
 30
0.0
 10
2713.5982
 20
-2256.7626
 30
0.0
 10
2713.5982
 20
-2256.7626
 30
0.0
 10
2703.6196
 20
-2261.1762
 30
0.0
 10
2700.2699
 20
-2270.7317
 30
0.0
 10
2706.8893
 20
-2282.5666
 30
0.0
 10
2706.8893
 20
-2282.5666
 30
0.0
 10
2714.9155
 20
-2294.2143
 30
0.0
 10
2733.5718
 20
-2299.0017
 30
0.0
 10
2745.6149
 20
-2286.2888
 30
0.0
 10
2745.6149
 20
-2286.2888
 30
0.0
 10
2747.6377
 20
-2288.0523
 30
0.0
 10
2749.4928
 20
-2288.7697
 30
0.0
 10
2751.7667
 20
-2290.1784
 30
0.0
 10
2751.7667
 20
-2290.1784
 30
0.0
 10
2749.6808
 20
-2304.4358
 30
0.0
 10
2731.2222
 20
-2312.3677
 30
0.0
 10
2730.3895
 20
-2331.6088
 30
0.0
 10
2730.3895
 20
-2331.6088
 30
0.0
 10
2718.7977
 20
-2334.6767
 30
0.0
 10
2704.2658
 20
-2332.4706
 30
0.0
 10
2691.8027
 20
-2338.7933
 30
0.0
 10
2691.8027
 20
-2338.7933
 30
0.0
 10
2683.2801
 20
-2342.7319
 30
0.0
 10
2680.5733
 20
-2349.1542
 30
0.0
 10
2684.8901
 20
-2356.8428
 30
0.0
 10
2684.8901
 20
-2356.8428
 30
0.0
 10
2688.8432
 20
-2363.8838
 30
0.0
 10
2694.3176
 20
-2366.3749
 30
0.0
 10
2700.9334
 20
-2363.0107
 30
0.0
 10
2700.9334
 20
-2363.0107
 30
0.0
 10
2710.2895
 20
-2355.8579
 30
0.0
 10
2723.2048
 20
-2351.972
 30
0.0
 10
2734.3323
 20
-2348.8925
 30
0.0
 10
2734.3323
 20
-2348.8925
 30
0.0
 10
2734.972
 20
-2350.2857
 30
0.0
 10
2735.8802
 20
-2351.5655
 30
0.0
 10
2736.955
 20
-2352.7748
 30
0.0
 10
2736.955
 20
-2352.7748
 30
0.0
 10
2727.9029
 20
-2360.4553
 30
0.0
 10
2715.714
 20
-2363.5337
 30
0.0
 10
2706.4486
 20
-2374.6529
 30
0.0
 10
2706.4486
 20
-2374.6529
 30
0.0
 10
2701.7268
 20
-2380.0614
 30
0.0
 10
2700.0314
 20
-2385.8287
 30
0.0
 10
2706.18
 20
-2392.3327
 30
0.0
 10
2706.18
 20
-2392.3327
 30
0.0
 10
2717.2857
 20
-2404.0795
 30
0.0
 10
2721.7898
 20
-2395.3398
 30
0.0
 10
2729.6782
 20
-2386.7573
 30
0.0
 10
2729.6782
 20
-2386.7573
 30
0.0
 10
2736.3083
 20
-2379.662
 30
0.0
 10
2743.1729
 20
-2372.9899
 30
0.0
 10
2750.4336
 20
-2367.0321
 30
0.0
 10
2750.4336
 20
-2367.0321
 30
0.0
 10
2758.9833
 20
-2375.7664
 30
0.0
 10
2768.4706
 20
-2380.009
 30
0.0
 10
2778.8815
 20
-2379.829
 30
0.0
 10
2778.8815
 20
-2379.829
 30
0.0
 10
2782.1319
 20
-2383.0126
 30
0.0
 10
2779.5353
 20
-2387.8227
 30
0.0
 10
2774.1568
 20
-2390.6831
 30
0.0
 10
2774.1568
 20
-2390.6831
 30
0.0
 10
2764.5518
 20
-2395.791
 30
0.0
 10
2757.6815
 20
-2396.7369
 30
0.0
 10
2754.0801
 20
-2406.7884
 30
0.0
 10
2754.0801
 20
-2406.7884
 30
0.0
 10
2752.5633
 20
-2411.0216
 30
0.0
 10
2751.493
 20
-2417.608
 30
0.0
 10
2750.4374
 20
-2422.001
 30
0.0
 10
2750.4374
 20
-2422.001
 30
0.0
 10
2750.4374
 20
-2422.001
 30
0.0
 10
2752.3526
 20
-2422.5211
 30
0.0
 10
2752.3526
 20
-2422.5211
 30
0.0
  0
SPLINE
  5
7D
330
1F
100
AcDbEntity
  8
Camada 1
 62
   240
370
     9
100
AcDbSpline
210
0.0
220
0.0
230
1.0
 70
     8
 71
     3
 72
     8
 73
     4
 74
     0
 42
0.000000001
 43
0.0000000001
 40
0.0
 40
0.0
 40
0.0
 40
0.0
 40
1.0
 40
1.0
 40
1.0
 40
1.0
 10
2734.3323
 20
-2348.8925
 30
0.0
 10
2732.7831
 20
-2343.9554
 30
0.0
 10
2730.6457
 20
-2336.799
 30
0.0
 10
2730.3895
 20
-2331.6088
 30
0.0
  0
SPLINE
  5
7E
330
1F
100
AcDbEntity
  8
Camada 1
 62
   240
370
     9
100
AcDbSpline
210
0.0
220
0.0
230
1.0
 70
     8
 71
     3
 72
    12
 73
     8
 74
     0
 42
0.000000001
 43
0.0000000001
 40
0.0
 40
0.0
 40
0.0
 40
0.0
 40
0.3333333333333333
 40
0.3333333333333333
 40
0.3333333333333333
 40
0.3333333333333333
 40
1.0
 40
1.0
 40
1.0
 40
1.0
 10
2798.3651
 20
-2380.6559
 30
0.0
 10
2801.0071
 20
-2385.4629
 30
0.0
 10
2801.3236
 20
-2390.6261
 30
0.0
 10
2796.9957
 20
-2394.7761
 30
0.0
 10
2796.9957
 20
-2394.7761
 30
0.0
 10
2794.1138
 20
-2397.5393
 30
0.0
 10
2790.3124
 20
-2399.0856
 30
0.0
 10
2786.4471
 20
-2400.6974
 30
0.0
  0
SPLINE
  5
7F
330
1F
100
AcDbEntity
  8
Camada 1
 62
   240
370
     9
100
AcDbSpline
210
0.0
220
0.0
230
1.0
 70
     8
 71
     3
 72
     8
 73
     4
 74
     0
 42
0.000000001
 43
0.0000000001
 40
0.0
 40
0.0
 40
0.0
 40
0.0
 40
1.0
 40
1.0
 40
1.0
 40
1.0
 10
2825.9275
 20
-2344.7431
 30
0.0
 10
2826.0757
 20
-2345.605
 30
0.0
 10
2825.8195
 20
-2346.9476
 30
0.0
 10
2825.5199
 20
-2347.5673
 30
0.0
  0
SPLINE
  5
80
330
1F
100
AcDbEntity
  8
Camada 1
 62
   240
370
     9
100
AcDbSpline
210
0.0
220
0.0
230
1.0
 70
     8
 71
     3
 72
    24
 73
    20
 74
     0
 42
0.000000001
 43
0.0000000001
 40
0.0
 40
0.0
 40
0.0
 40
0.0
 40
0.1666666666666667
 40
0.1666666666666667
 40
0.1666666666666667
 40
0.1666666666666667
 40
0.3333333333333333
 40
0.3333333333333333
 40
0.3333333333333333
 40
0.3333333333333333
 40
0.5
 40
0.5
 40
0.5
 40
0.5
 40
0.6666666666666666
 40
0.6666666666666666
 40
0.6666666666666666
 40
0.6666666666666666
 40
1.0
 40
1.0
 40
1.0
 40
1.0
 10
2873.718
 20
-2419.8633
 30
0.0
 10
2863.741
 20
-2420.8629
 30
0.0
 10
2850.6542
 20
-2415.0221
 30
0.0
 10
2844.0696
 20
-2405.8323
 30
0.0
 10
2844.0696
 20
-2405.8323
 30
0.0
 10
2836.7348
 20
-2395.3168
 30
0.0
 10
2844.7053
 20
-2381.7118
 30
0.0
 10
2848.7447
 20
-2367.1583
 30
0.0
 10
2848.7447
 20
-2367.1583
 30
0.0
 10
2849.9918
 20
-2358.1108
 30
0.0
 10
2847.1454
 20
-2351.5943
 30
0.0
 10
2840.7923
 20
-2347.2462
 30
0.0
 10
2840.7923
 20
-2347.2462
 30
0.0
 10
2834.8402
 20
-2343.753
 30
0.0
 10
2830.3662
 20
-2344.8425
 30
0.0
 10
2825.9275
 20
-2344.7431
 30
0.0
 10
2825.9275
 20
-2344.7431
 30
0.0
 10
2825.9442
 20
-2343.7033
 30
0.0
 10
2826.0079
 20
-2341.9365
 30
0.0
 10
2825.5893
 20
-2341.0807
 30
0.0
  0
SPLINE
  5
81
330
1F
100
AcDbEntity
  8
Camada 1
 62
   240
370
     9
100
AcDbSpline
210
0.0
220
0.0
230
1.0
 70
     8
 71
     3
 72
    28
 73
    24
 74
     0
 42
0.000000001
 43
0.0000000001
 40
0.0
 40
0.0
 40
0.0
 40
0.0
 40
0.1428571428571428
 40
0.1428571428571428
 40
0.1428571428571428
 40
0.1428571428571428
 40
0.2857142857142857
 40
0.2857142857142857
 40
0.2857142857142857
 40
0.2857142857142857
 40
0.4285714285714285
 40
0.4285714285714285
 40
0.4285714285714285
 40
0.4285714285714285
 40
0.5714285714285714
 40
0.5714285714285714
 40
0.5714285714285714
 40
0.5714285714285714
 40
0.7142857142857143
 40
0.7142857142857143
 40
0.7142857142857143
 40
0.7142857142857143
 40
1.0
 40
1.0
 40
1.0
 40
1.0
 10
2824.2764
 20
-2335.2735
 30
0.0
 10
2824.7875
 20
-2336.1528
 30
0.0
 10
2825.4609
 20
-2340.0035
 30
0.0
 10
2825.5893
 20
-2341.0807
 30
0.0
 10
2825.5893
 20
-2341.0807
 30
0.0
 10
2835.9581
 20
-2337.507
 30
0.0
 10
2843.2066
 20
-2337.0796
 30
0.0
 10
2848.7115
 20
-2340.8813
 30
0.0
 10
2848.7115
 20
-2340.8813
 30
0.0
 10
2852.5892
 20
-2345.1364
 30
0.0
 10
2856.4507
 20
-2349.4211
 30
0.0
 10
2856.634
 20
-2360.7397
 30
0.0
 10
2856.634
 20
-2360.7397
 30
0.0
 10
2856.7704
 20
-2372.5557
 30
0.0
 10
2852.3864
 20
-2384.0188
 30
0.0
 10
2851.8296
 20
-2394.2158
 30
0.0
 10
2851.8296
 20
-2394.2158
 30
0.0
 10
2853.7644
 20
-2408.5993
 30
0.0
 10
2861.4705
 20
-2414.5585
 30
0.0
 10
2871.9173
 20
-2416.5171
 30
0.0
 10
2871.9173
 20
-2416.5171
 30
0.0
 10
2878.7541
 20
-2416.2865
 30
0.0
 10
2884.58
 20
-2409.8157
 30
0.0
 10
2886.1556
 20
-2403.3257
 30
0.0
  0
SPLINE
  5
82
330
1F
100
AcDbEntity
  8
Camada 1
 62
   240
370
     9
100
AcDbSpline
210
0.0
220
0.0
230
1.0
 70
     8
 71
     3
 72
     8
 73
     4
 74
     0
 42
0.000000001
 43
0.0000000001
 40
0.0
 40
0.0
 40
0.0
 40
0.0
 40
1.0
 40
1.0
 40
1.0
 40
1.0
 10
2792.937
 20
-2316.2641
 30
0.0
 10
2803.9589
 20
-2321.5006
 30
0.0
 10
2813.3017
 20
-2325.1824
 30
0.0
 10
2820.0015
 20
-2326.595
 30
0.0
  0
SPLINE
  5
83
330
1F
100
AcDbEntity
  8
Camada 1
 62
   240
370
     9
100
AcDbSpline
210
0.0
220
0.0
230
1.0
 70
     8
 71
     3
 72
    16
 73
    12
 74
     0
 42
0.000000001
 43
0.0000000001
 40
0.0
 40
0.0
 40
0.0
 40
0.0
 40
0.25
 40
0.25
 40
0.25
 40
0.25
 40
0.5
 40
0.5
 40
0.5
 40
0.5
 40
1.0
 40
1.0
 40
1.0
 40
1.0
 10
2833.7372
 20
-2311.4875
 30
0.0
 10
2828.2918
 20
-2314.234
 30
0.0
 10
2821.466
 20
-2311.1566
 30
0.0
 10
2808.9541
 20
-2310.0201
 30
0.0
 10
2808.9541
 20
-2310.0201
 30
0.0
 10
2803.8157
 20
-2308.7456
 30
0.0
 10
2798.6774
 20
-2307.4712
 30
0.0
 10
2793.5391
 20
-2306.1967
 30
0.0
 10
2793.5391
 20
-2306.1967
 30
0.0
 10
2799.6629
 20
-2316.23
 30
0.0
 10
2784.2638
 20
-2325.4076
 30
0.0
 10
2779.4463
 20
-2315.0504
 30
0.0
  0
SPLINE
  5
84
330
1F
100
AcDbEntity
  8
Camada 1
 62
   240
370
     9
100
AcDbSpline
210
0.0
220
0.0
230
1.0
 70
     8
 71
     3
 72
     8
 73
     4
 74
     0
 42
0.000000001
 43
0.0000000001
 40
0.0
 40
0.0
 40
0.0
 40
0.0
 40
1.0
 40
1.0
 40
1.0
 40
1.0
 10
2791.3381
 20
-2320.9967
 30
0.0
 10
2795.3714
 20
-2323.5464
 30
0.0
 10
2797.196
 20
-2326.3561
 30
0.0
 10
2797.1953
 20
-2329.3804
 30
0.0
  0
SPLINE
  5
85
330
1F
100
AcDbEntity
  8
Camada 1
 62
   240
370
     9
100
AcDbSpline
210
0.0
220
0.0
230
1.0
 70
     8
 71
     3
 72
    20
 73
    16
 74
     0
 42
0.000000001
 43
0.0000000001
 40
0.0
 40
0.0
 40
0.0
 40
0.0
 40
0.2
 40
0.2
 40
0.2
 40
0.2
 40
0.4
 40
0.4
 40
0.4
 40
0.4
 40
0.6
 40
0.6
 40
0.6
 40
0.6
 40
1.0
 40
1.0
 40
1.0
 40
1.0
 10
2824.7366
 20
-2336.4544
 30
0.0
 10
2817.1822
 20
-2344.9994
 30
0.0
 10
2803.5328
 20
-2338.0784
 30
0.0
 10
2797.3701
 20
-2331.1487
 30
0.0
 10
2797.3701
 20
-2331.1487
 30
0.0
 10
2795.1562
 20
-2338.7171
 30
0.0
 10
2791.2572
 20
-2340.6224
 30
0.0
 10
2784.9803
 20
-2338.4723
 30
0.0
 10
2784.9803
 20
-2338.4723
 30
0.0
 10
2778.0103
 20
-2336.085
 30
0.0
 10
2773.4113
 20
-2326.2178
 30
0.0
 10
2778.7559
 20
-2314.048
 30
0.0
 10
2778.7559
 20
-2314.048
 30
0.0
 10
2774.8103
 20
-2301.5725
 30
0.0
 10
2787.1572
 20
-2291.8964
 30
0.0
 10
2796.8406
 20
-2299.0696
 30
0.0
  0
SPLINE
  5
86
330
1F
100
AcDbEntity
  8
Camada 1
 62
   240
370
     9
100
AcDbSpline
210
0.0
220
0.0
230
1.0
 70
     8
 71
     3
 72
     8
 73
     4
 74
     0
 42
0.000000001
 43
0.0000000001
 40
0.0
 40
0.0
 40
0.0
 40
0.0
 40
1.0
 40
1.0
 40
1.0
 40
1.0
 10
2802.0079
 20
-2369.7249
 30
0.0
 10
2803.0901
 20
-2370.0036
 30
0.0
 10
2796.2185
 20
-2375.4454
 30
0.0
 10
2798.4737
 20
-2380.8563
 30
0.0
  0
SPLINE
  5
87
330
1F
100
AcDbEntity
  8
Camada 1
 62
   240
370
     9
100
AcDbSpline
210
0.0
220
0.0
230
1.0
 70
     8
 71
     3
 72
     8
 73
     4
 74
     0
 42
0.000000001
 43
0.0000000001
 40
0.0
 40
0.0
 40
0.0
 40
0.0
 40
1.0
 40
1.0
 40
1.0
 40
1.0
 10
2784.3694
 20
-2348.8138
 30
0.0
 10
2779.4699
 20
-2350.9157
 30
0.0
 10
2773.4919
 20
-2371.3607
 30
0.0
 10
2778.8817
 20
-2379.829
 30
0.0
  0
SPLINE
  5
88
330
1F
100
AcDbEntity
  8
Camada 1
 62
   240
370
     9
100
AcDbSpline
210
0.0
220
0.0
230
1.0
 70
     8
 71
     3
 72
     8
 73
     4
 74
     0
 42
0.000000001
 43
0.0000000001
 40
0.0
 40
0.0
 40
0.0
 40
0.0
 40
1.0
 40
1.0
 40
1.0
 40
1.0
 10
2761.5255
 20
-2345.1349
 30
0.0
 10
2757.5009
 20
-2354.4685
 30
0.0
 10
2754.1331
 20
-2362.5386
 30
0.0
 10
2750.4336
 20
-2367.032
 30
0.0
  0
SPLINE
  5
89
330
1F
100
AcDbEntity
  8
Camada 1
 62
   240
370
     9
100
AcDbSpline
210
0.0
220
0.0
230
1.0
 70
     8
 71
     3
 72
     8
 73
     4
 74
     0
 42
0.000000001
 43
0.0000000001
 40
0.0
 40
0.0
 40
0.0
 40
0.0
 40
1.0
 40
1.0
 40
1.0
 40
1.0
 10
2747.7233
 20
-2334.7749
 30
0.0
 10
2744.9399
 20
-2342.2023
 30
0.0
 10
2740.6496
 20
-2348.928
 30
0.0
 10
2736.9551
 20
-2352.7748
 30
0.0
  0
SPLINE
  5
8A
330
1F
100
AcDbEntity
  8
Camada 1
 62
   240
370
     9
100
AcDbSpline
210
0.0
220
0.0
230
1.0
 70
     8
 71
     3
 72
     8
 73
     4
 74
     0
 42
0.000000001
 43
0.0000000001
 40
0.0
 40
0.0
 40
0.0
 40
0.0
 40
1.0
 40
1.0
 40
1.0
 40
1.0
 10
2752.5652
 20
-2291.0736
 30
0.0
 10
2763.3584
 20
-2295.6581
 30
0.0
 10
2780.4081
 20
-2291.6368
 30
0.0
 10
2783.2495
 20
-2280.4751
 30
0.0
  0
SPLINE
  5
8B
330
1F
100
AcDbEntity
  8
Camada 1
 62
   240
370
     9
100
AcDbSpline
210
0.0
220
0.0
230
1.0
 70
     8
 71
     3
 72
    24
 73
    20
 74
     0
 42
0.000000001
 43
0.0000000001
 40
0.0
 40
0.0
 40
0.0
 40
0.0
 40
0.1666666666666667
 40
0.1666666666666667
 40
0.1666666666666667
 40
0.1666666666666667
 40
0.3333333333333333
 40
0.3333333333333333
 40
0.3333333333333333
 40
0.3333333333333333
 40
0.5
 40
0.5
 40
0.5
 40
0.5
 40
0.6666666666666666
 40
0.6666666666666666
 40
0.6666666666666666
 40
0.6666666666666666
 40
1.0
 40
1.0
 40
1.0
 40
1.0
 10
2733.0338
 20
-2239.0791
 30
0.0
 10
2742.956
 20
-2241.8965
 30
0.0
 10
2752.2599
 20
-2239.6304
 30
0.0
 10
2761.2158
 20
-2234.504
 30
0.0
 10
2761.2158
 20
-2234.504
 30
0.0
 10
2770.8558
 20
-2230.2989
 30
0.0
 10
2780.3497
 20
-2226.4792
 30
0.0
 10
2784.6613
 20
-2236.3416
 30
0.0
 10
2784.6613
 20
-2236.3416
 30
0.0
 10
2784.9112
 20
-2235.1417
 30
0.0
 10
2784.9249
 20
-2233.9126
 30
0.0
 10
2784.1934
 20
-2232.5915
 30
0.0
 10
2784.1934
 20
-2232.5915
 30
0.0
 10
2785.0853
 20
-2220.0841
 30
0.0
 10
2777.9887
 20
-2212.2267
 30
0.0
 10
2769.3563
 20
-2215.1577
 30
0.0
 10
2769.3563
 20
-2215.1577
 30
0.0
 10
2767.28
 20
-2209.5398
 30
0.0
 10
2764.9808
 20
-2203.853
 30
0.0
 10
2762.7708
 20
-2199.2855
 30
0.0
  0
SPLINE
  5
8C
330
1F
100
AcDbEntity
  8
Camada 1
 62
   240
370
     9
100
AcDbSpline
210
0.0
220
0.0
230
1.0
 70
    11
 71
     3
 72
    12
 73
     8
 74
     0
 42
0.000000001
 43
0.0000000001
 40
0.0
 40
0.0
 40
0.0
 40
0.0
 40
0.3333333333333333
 40
0.3333333333333333
 40
0.3333333333333333
 40
0.3333333333333333
 40
1.0
 40
1.0
 40
1.0
 40
1.0
 10
2717.5515
 20
-2264.7687
 30
0.0
 10
2721.5407
 20
-2264.6513
 30
0.0
 10
2724.0566
 20
-2269.7638
 30
0.0
 10
2719.5651
 20
-2273.1954
 30
0.0
 10
2719.5651
 20
-2273.1954
 30
0.0
 10
2720.9168
 20
-2269.9405
 30
0.0
 10
2720.0292
 20
-2267.1794
 30
0.0
 10
2717.5515
 20
-2264.7687
 30
0.0
  0
SPLINE
  5
8D
330
1F
100
AcDbEntity
  8
Camada 1
 62
   240
370
     9
100
AcDbSpline
210
0.0
220
0.0
230
1.0
 70
    11
 71
     3
 72
    16
 73
    12
 74
     0
 42
0.000000001
 43
0.0000000001
 40
0.0
 40
0.0
 40
0.0
 40
0.0
 40
0.25
 40
0.25
 40
0.25
 40
0.25
 40
0.5
 40
0.5
 40
0.5
 40
0.5
 40
1.0
 40
1.0
 40
1.0
 40
1.0
 10
2780.791
 20
-2265.2566
 30
0.0
 10
2788.2742
 20
-2271.2658
 30
0.0
 10
2794.212
 20
-2267.0614
 30
0.0
 10
2798.631
 20
-2252.8191
 30
0.0
 10
2798.631
 20
-2252.8191
 30
0.0
 10
2802.5703
 20
-2252.6543
 30
0.0
 10
2806.6512
 20
-2251.8844
 30
0.0
 10
2810.7819
 20
-2250.9014
 30
0.0
 10
2810.7819
 20
-2250.9014
 30
0.0
 10
2802.9821
 20
-2279.6721
 30
0.0
 10
2780.8915
 20
-2275.9782
 30
0.0
 10
2780.791
 20
-2265.2566
 30
0.0
  0
SPLINE
  5
8E
330
1F
100
AcDbEntity
  8
Camada 1
 62
   240
370
     9
100
AcDbSpline
210
0.0
220
0.0
230
1.0
 70
    11
 71
     3
 72
    20
 73
    16
 74
     0
 42
0.000000001
 43
0.0000000001
 40
0.0
 40
0.0
 40
0.0
 40
0.0
 40
0.2
 40
0.2
 40
0.2
 40
0.2
 40
0.4
 40
0.4
 40
0.4
 40
0.4
 40
0.6
 40
0.6
 40
0.6
 40
0.6
 40
1.0
 40
1.0
 40
1.0
 40
1.0
 10
2812.6103
 20
-2249.9849
 30
0.0
 10
2814.3127
 20
-2248.8168
 30
0.0
 10
2816.0151
 20
-2247.6486
 30
0.0
 10
2817.7175
 20
-2246.4805
 30
0.0
 10
2817.7175
 20
-2246.4805
 30
0.0
 10
2816.2399
 20
-2263.1192
 30
0.0
 10
2803.584
 20
-2271.5779
 30
0.0
 10
2794.5417
 20
-2284.3156
 30
0.0
 10
2794.5417
 20
-2284.3156
 30
0.0
 10
2795.6951
 20
-2280.5348
 30
0.0
 10
2796.8486
 20
-2276.754
 30
0.0
 10
2798.002
 20
-2272.9732
 30
0.0
 10
2798.002
 20
-2272.9732
 30
0.0
 10
2806.2336
 20
-2266.8937
 30
0.0
 10
2811.6485
 20
-2259.4878
 30
0.0
 10
2812.6103
 20
-2249.9849
 30
0.0
  0
SPLINE
  5
8F
330
1F
100
AcDbEntity
  8
Camada 1
 62
   240
370
     9
100
AcDbSpline
210
0.0
220
0.0
230
1.0
 70
     8
 71
     3
 72
    24
 73
    20
 74
     0
 42
0.000000001
 43
0.0000000001
 40
0.0
 40
0.0
 40
0.0
 40
0.0
 40
0.1666666666666667
 40
0.1666666666666667
 40
0.1666666666666667
 40
0.1666666666666667
 40
0.3333333333333333
 40
0.3333333333333333
 40
0.3333333333333333
 40
0.3333333333333333
 40
0.5
 40
0.5
 40
0.5
 40
0.5
 40
0.6666666666666666
 40
0.6666666666666666
 40
0.6666666666666666
 40
0.6666666666666666
 40
1.0
 40
1.0
 40
1.0
 40
1.0
 10
2816.4543
 20
-2303.1998
 30
0.0
 10
2810.5991
 20
-2303.264
 30
0.0
 10
2803.9568
 20
-2301.6667
 30
0.0
 10
2796.8406
 20
-2299.0696
 30
0.0
 10
2796.8406
 20
-2299.0696
 30
0.0
 10
2795.0198
 20
-2291.6865
 30
0.0
 10
2793.4116
 20
-2287.5933
 30
0.0
 10
2798.4616
 20
-2281.3585
 30
0.0
 10
2798.4616
 20
-2281.3585
 30
0.0
 10
2808.3894
 20
-2272.6931
 30
0.0
 10
2816.3774
 20
-2263.0948
 30
0.0
 10
2818.6827
 20
-2250.7642
 30
0.0
 10
2818.6827
 20
-2250.7642
 30
0.0
 10
2821.5401
 20
-2255.9005
 30
0.0
 10
2819.5058
 20
-2262.9657
 30
0.0
 10
2815.3967
 20
-2270.849
 30
0.0
 10
2815.3967
 20
-2270.849
 30
0.0
 10
2809.8882
 20
-2280.869
 30
0.0
 10
2801.8613
 20
-2289.2682
 30
0.0
 10
2800.0525
 20
-2300.1826
 30
0.0
  0
SPLINE
  5
90
330
1F
100
AcDbEntity
  8
Camada 1
 62
   240
370
     9
100
AcDbSpline
210
0.0
220
0.0
230
1.0
 70
     8
 71
     3
 72
    12
 73
     8
 74
     0
 42
0.000000001
 43
0.0000000001
 40
0.0
 40
0.0
 40
0.0
 40
0.0
 40
0.3333333333333333
 40
0.3333333333333333
 40
0.3333333333333333
 40
0.3333333333333333
 40
1.0
 40
1.0
 40
1.0
 40
1.0
 10
2801.8903
 20
-2300.7614
 30
0.0
 10
2803.4235
 20
-2288.8498
 30
0.0
 10
2812.3037
 20
-2281.7357
 30
0.0
 10
2816.0815
 20
-2272.448
 30
0.0
 10
2816.0815
 20
-2272.448
 30
0.0
 10
2814.2124
 20
-2283.0267
 30
0.0
 10
2820.8616
 20
-2292.9841
 30
0.0
 10
2816.4543
 20
-2303.1998
 30
0.0
  0
SPLINE
  5
91
330
1F
100
AcDbEntity
  8
Camada 1
 62
   240
370
     9
100
AcDbSpline
210
0.0
220
0.0
230
1.0
 70
    11
 71
     3
 72
    16
 73
    12
 74
     0
 42
0.000000001
 43
0.0000000001
 40
0.0
 40
0.0
 40
0.0
 40
0.0
 40
0.25
 40
0.25
 40
0.25
 40
0.25
 40
0.5
 40
0.5
 40
0.5
 40
0.5
 40
1.0
 40
1.0
 40
1.0
 40
1.0
 10
2756.0411
 20
-2250.5199
 30
0.0
 10
2747.6306
 20
-2250.0267
 30
0.0
 10
2741.1974
 20
-2257.4156
 30
0.0
 10
2743.2471
 20
-2267.2623
 30
0.0
 10
2743.2471
 20
-2267.2623
 30
0.0
 10
2747.0568
 20
-2276.4492
 30
0.0
 10
2759.8322
 20
-2276.932
 30
0.0
 10
2765.0271
 20
-2267.3071
 30
0.0
 10
2765.0271
 20
-2267.3071
 30
0.0
 10
2769.257
 20
-2259.4701
 30
0.0
 10
2765.3236
 20
-2251.5952
 30
0.0
 10
2756.0411
 20
-2250.5199
 30
0.0
  0
SPLINE
  5
92
330
1F
100
AcDbEntity
  8
Camada 1
 62
   240
370
     9
100
AcDbSpline
210
0.0
220
0.0
230
1.0
 70
    11
 71
     3
 72
    12
 73
     8
 74
     0
 42
0.000000001
 43
0.0000000001
 40
0.0
 40
0.0
 40
0.0
 40
0.0
 40
0.3333333333333333
 40
0.3333333333333333
 40
0.3333333333333333
 40
0.3333333333333333
 40
1.0
 40
1.0
 40
1.0
 40
1.0
 10
2747.6059
 20
-2271.0544
 30
0.0
 10
2770.5331
 20
-2277.9428
 30
0.0
 10
2768.0957
 20
-2245.3263
 30
0.0
 10
2750.4608
 20
-2253.2437
 30
0.0
 10
2750.4608
 20
-2253.2437
 30
0.0
 10
2760.3223
 20
-2253.0266
 30
0.0
 10
2760.3812
 20
-2270.3326
 30
0.0
 10
2747.6059
 20
-2271.0544
 30
0.0
  0
SPLINE
  5
93
330
1F
100
AcDbEntity
  8
Camada 1
 62
   240
370
     9
100
AcDbSpline
210
0.0
220
0.0
230
1.0
 70
    11
 71
     3
 72
    12
 73
     8
 74
     0
 42
0.000000001
 43
0.0000000001
 40
0.0
 40
0.0
 40
0.0
 40
0.0
 40
0.3333333333333333
 40
0.3333333333333333
 40
0.3333333333333333
 40
0.3333333333333333
 40
1.0
 40
1.0
 40
1.0
 40
1.0
 10
2746.6417
 20
-2259.6519
 30
0.0
 10
2745.4436
 20
-2256.4345
 30
0.0
 10
2751.4544
 20
-2253.6703
 30
0.0
 10
2752.7442
 20
-2256.8527
 30
0.0
 10
2752.7442
 20
-2256.8527
 30
0.0
 10
2753.2424
 20
-2260.3576
 30
0.0
 10
2748.2208
 20
-2262.2907
 30
0.0
 10
2746.6417
 20
-2259.6519
 30
0.0
  0
SPLINE
  5
94
330
1F
100
AcDbEntity
  8
Camada 1
 62
   240
370
     9
100
AcDbSpline
210
0.0
220
0.0
230
1.0
 70
     8
 71
     3
 72
    12
 73
     8
 74
     0
 42
0.000000001
 43
0.0000000001
 40
0.0
 40
0.0
 40
0.0
 40
0.0
 40
0.3333333333333333
 40
0.3333333333333333
 40
0.3333333333333333
 40
0.3333333333333333
 40
1.0
 40
1.0
 40
1.0
 40
1.0
 10
2756.8356
 20
-2250.6305
 30
0.0
 10
2758.1233
 20
-2249.5788
 30
0.0
 10
2758.5094
 20
-2247.6643
 30
0.0
 10
2758.4232
 20
-2245.2975
 30
0.0
 10
2758.4232
 20
-2245.2975
 30
0.0
 10
2759.5299
 20
-2246.9806
 30
0.0
 10
2759.5323
 20
-2248.8768
 30
0.0
 10
2758.4555
 20
-2250.9814
 30
0.0
  0
SPLINE
  5
95
330
1F
100
AcDbEntity
  8
Camada 1
 62
   240
370
     9
100
AcDbSpline
210
0.0
220
0.0
230
1.0
 70
     8
 71
     3
 72
    12
 73
     8
 74
     0
 42
0.000000001
 43
0.0000000001
 40
0.0
 40
0.0
 40
0.0
 40
0.0
 40
0.3333333333333333
 40
0.3333333333333333
 40
0.3333333333333333
 40
0.3333333333333333
 40
1.0
 40
1.0
 40
1.0
 40
1.0
 10
2762.1399
 20
-2252.6127
 30
0.0
 10
2763.6566
 20
-2251.9359
 30
0.0
 10
2764.6769
 20
-2250.4935
 30
0.0
 10
2765.4519
 20
-2248.6733
 30
0.0
 10
2765.4519
 20
-2248.6733
 30
0.0
 10
2765.3308
 20
-2250.8351
 30
0.0
 10
2764.5959
 20
-2252.4275
 30
0.0
 10
2763.1485
 20
-2253.3594
 30
0.0
  0
SPLINE
  5
96
330
1F
100
AcDbEntity
  8
Camada 1
 62
   240
370
     9
100
AcDbSpline
210
0.0
220
0.0
230
1.0
 70
     8
 71
     3
 72
    12
 73
     8
 74
     0
 42
0.000000001
 43
0.0000000001
 40
0.0
 40
0.0
 40
0.0
 40
0.0
 40
0.3333333333333333
 40
0.3333333333333333
 40
0.3333333333333333
 40
0.3333333333333333
 40
1.0
 40
1.0
 40
1.0
 40
1.0
 10
2766.0296
 20
-2257.3143
 30
0.0
 10
2768.2682
 20
-2257.406
 30
0.0
 10
2769.8344
 20
-2256.5022
 30
0.0
 10
2770.8742
 20
-2254.8192
 30
0.0
 10
2770.8742
 20
-2254.8192
 30
0.0
 10
2770.4058
 20
-2257.2002
 30
0.0
 10
2769.0746
 20
-2258.3316
 30
0.0
 10
2766.4899
 20
-2258.8334
 30
0.0
  0
SPLINE
  5
97
330
1F
100
AcDbEntity
  8
Camada 1
 62
   240
370
     9
100
AcDbSpline
210
0.0
220
0.0
230
1.0
 70
     8
 71
     3
 72
    12
 73
     8
 74
     0
 42
0.000000001
 43
0.0000000001
 40
0.0
 40
0.0
 40
0.0
 40
0.0
 40
0.3333333333333333
 40
0.3333333333333333
 40
0.3333333333333333
 40
0.3333333333333333
 40
1.0
 40
1.0
 40
1.0
 40
1.0
 10
2766.5364
 20
-2263.0992
 30
0.0
 10
2767.8332
 20
-2264.7652
 30
0.0
 10
2769.5602
 20
-2264.7975
 30
0.0
 10
2771.4626
 20
-2264.1634
 30
0.0
 10
2771.4626
 20
-2264.1634
 30
0.0
 10
2769.9941
 20
-2265.7777
 30
0.0
 10
2768.1831
 20
-2266.3303
 30
0.0
 10
2765.8964
 20
-2265.4039
 30
0.0
  0
SPLINE
  5
98
330
1F
100
AcDbEntity
  8
Camada 1
 62
   240
370
     9
100
AcDbSpline
210
0.0
220
0.0
230
1.0
 70
     8
 71
     3
 72
    12
 73
     8
 74
     0
 42
0.000000001
 43
0.0000000001
 40
0.0
 40
0.0
 40
0.0
 40
0.0
 40
0.3333333333333333
 40
0.3333333333333333
 40
0.3333333333333333
 40
0.3333333333333333
 40
1.0
 40
1.0
 40
1.0
 40
1.0
 10
2764.8612
 20
-2267.6066
 30
0.0
 10
2765.5028
 20
-2269.5906
 30
0.0
 10
2766.7804
 20
-2270.3219
 30
0.0
 10
2768.2955
 20
-2270.5856
 30
0.0
 10
2768.2955
 20
-2270.5856
 30
0.0
 10
2766.4564
 20
-2271.4912
 30
0.0
 10
2765.0491
 20
-2270.863
 30
0.0
 10
2764.0059
 20
-2268.9416
 30
0.0
  0
SPLINE
  5
99
330
1F
100
AcDbEntity
  8
Camada 1
 62
   240
370
     9
100
AcDbSpline
210
0.0
220
0.0
230
1.0
 70
     8
 71
     3
 72
     8
 73
     4
 74
     0
 42
0.000000001
 43
0.0000000001
 40
0.0
 40
0.0
 40
0.0
 40
0.0
 40
1.0
 40
1.0
 40
1.0
 40
1.0
 10
2752.3493
 20
-2224.6824
 30
0.0
 10
2741.1002
 20
-2233.9701
 30
0.0
 10
2726.2137
 20
-2224.4514
 30
0.0
 10
2723.1961
 20
-2217.9711
 30
0.0
  0
SPLINE
  5
9A
330
1F
100
AcDbEntity
  8
Camada 1
 62
   240
370
     9
100
AcDbSpline
210
0.0
220
0.0
230
1.0
 70
     8
 71
     3
 72
     8
 73
     4
 74
     0
 42
0.000000001
 43
0.0000000001
 40
0.0
 40
0.0
 40
0.0
 40
0.0
 40
1.0
 40
1.0
 40
1.0
 40
1.0
 10
2752.3493
 20
-2224.6824
 30
0.0
 10
2731.9786
 20
-2228.6509
 30
0.0
 10
2731.0835
 20
-2212.8932
 30
0.0
 10
2729.4136
 20
-2207.8441
 30
0.0
  0
SPLINE
  5
9B
330
1F
100
AcDbEntity
  8
Camada 1
 62
   240
370
     9
100
AcDbSpline
210
0.0
220
0.0
230
1.0
 70
     8
 71
     3
 72
    28
 73
    24
 74
     0
 42
0.000000001
 43
0.0000000001
 40
0.0
 40
0.0
 40
0.0
 40
0.0
 40
0.1428571428571428
 40
0.1428571428571428
 40
0.1428571428571428
 40
0.1428571428571428
 40
0.2857142857142857
 40
0.2857142857142857
 40
0.2857142857142857
 40
0.2857142857142857
 40
0.4285714285714285
 40
0.4285714285714285
 40
0.4285714285714285
 40
0.4285714285714285
 40
0.5714285714285714
 40
0.5714285714285714
 40
0.5714285714285714
 40
0.5714285714285714
 40
0.7142857142857143
 40
0.7142857142857143
 40
0.7142857142857143
 40
0.7142857142857143
 40
1.0
 40
1.0
 40
1.0
 40
1.0
 10
2782.1167
 20
-2228.8457
 30
0.0
 10
2783.0407
 20
-2217.2718
 30
0.0
 10
2775.6254
 20
-2214.4929
 30
0.0
 10
2768.5193
 20
-2217.3346
 30
0.0
 10
2768.5193
 20
-2217.3346
 30
0.0
 10
2765.2514
 20
-2209.31
 30
0.0
 10
2761.9836
 20
-2201.2853
 30
0.0
 10
2758.7158
 20
-2193.2607
 30
0.0
 10
2758.7158
 20
-2193.2607
 30
0.0
 10
2756.7851
 20
-2188.138
 30
0.0
 10
2754.8998
 20
-2182.9922
 30
0.0
 10
2752.7286
 20
-2177.9944
 30
0.0
 10
2752.7286
 20
-2177.9944
 30
0.0
 10
2750.3627
 20
-2173.2867
 30
0.0
 10
2748.4961
 20
-2173.7515
 30
0.0
 10
2748.9601
 20
-2179.2263
 30
0.0
 10
2748.9601
 20
-2179.2263
 30
0.0
 10
2749.6413
 20
-2193.4904
 30
0.0
 10
2750.5635
 20
-2208.232
 30
0.0
 10
2752.3493
 20
-2224.6824
 30
0.0
 10
2752.3493
 20
-2224.6824
 30
0.0
 10
2757.2098
 20
-2222.6613
 30
0.0
 10
2762.311
 20
-2220.9817
 30
0.0
 10
2768.1819
 20
-2220.395
 30
0.0
  0
SPLINE
  5
9C
330
1F
100
AcDbEntity
  8
Camada 1
 62
   240
370
     9
100
AcDbSpline
210
0.0
220
0.0
230
1.0
 70
     8
 71
     3
 72
     8
 73
     4
 74
     0
 42
0.000000001
 43
0.0000000001
 40
0.0
 40
0.0
 40
0.0
 40
0.0
 40
1.0
 40
1.0
 40
1.0
 40
1.0
 10
2768.1819
 20
-2220.395
 30
0.0
 10
2769.2948
 20
-2220.2799
 30
0.0
 10
2768.9346
 20
-2218.7886
 30
0.0
 10
2768.5193
 20
-2217.3346
 30
0.0
  0
SPLINE
  5
9D
330
1F
100
AcDbEntity
  8
Camada 1
 62
   240
370
     9
100
AcDbSpline
210
0.0
220
0.0
230
1.0
 70
     8
 71
     3
 72
    12
 73
     8
 74
     0
 42
0.000000001
 43
0.0000000001
 40
0.0
 40
0.0
 40
0.0
 40
0.0
 40
0.3333333333333333
 40
0.3333333333333333
 40
0.3333333333333333
 40
0.3333333333333333
 40
1.0
 40
1.0
 40
1.0
 40
1.0
 10
2723.1961
 20
-2217.9711
 30
0.0
 10
2726.9161
 20
-2241.3086
 30
0.0
 10
2744.4275
 20
-2236.7833
 30
0.0
 10
2758.8324
 20
-2229.9615
 30
0.0
 10
2758.8324
 20
-2229.9615
 30
0.0
 10
2766.8111
 20
-2226.1832
 30
0.0
 10
2775.0676
 20
-2225.1333
 30
0.0
 10
2782.1167
 20
-2228.8457
 30
0.0
  0
SPLINE
  5
9E
330
1F
100
AcDbEntity
  8
Camada 1
 62
   240
370
     9
100
AcDbSpline
210
0.0
220
0.0
230
1.0
 70
     8
 71
     3
 72
    12
 73
     8
 74
     0
 42
0.000000001
 43
0.0000000001
 40
0.0
 40
0.0
 40
0.0
 40
0.0
 40
0.3333333333333333
 40
0.3333333333333333
 40
0.3333333333333333
 40
0.3333333333333333
 40
1.0
 40
1.0
 40
1.0
 40
1.0
 10
2766.4475
 20
-2207.6429
 30
0.0
 10
2776.8724
 20
-2206.194
 30
0.0
 10
2784.5027
 20
-2209.2567
 30
0.0
 10
2788.0116
 20
-2218.9728
 30
0.0
 10
2788.0116
 20
-2218.9728
 30
0.0
 10
2789.4244
 20
-2205.8881
 30
0.0
 10
2775.4125
 20
-2197.4349
 30
0.0
 10
2762.7708
 20
-2199.2855
 30
0.0
  0
SPLINE
  5
9F
330
1F
100
AcDbEntity
  8
Camada 1
 62
   240
370
     9
100
AcDbSpline
210
0.0
220
0.0
230
1.0
 70
     8
 71
     3
 72
     8
 73
     4
 74
     0
 42
0.000000001
 43
0.0000000001
 40
0.0
 40
0.0
 40
0.0
 40
0.0
 40
1.0
 40
1.0
 40
1.0
 40
1.0
 10
2749.1001
 20
-2182.0934
 30
0.0
 10
2750.9792
 20
-2183.4185
 30
0.0
 10
2753.103
 20
-2184.1895
 30
0.0
 10
2755.4105
 20
-2184.5443
 30
0.0
  0
SPLINE
  5
A0
330
1F
100
AcDbEntity
  8
Camada 1
 62
   240
370
     9
100
AcDbSpline
210
0.0
220
0.0
230
1.0
 70
     8
 71
     3
 72
     8
 73
     4
 74
     0
 42
0.000000001
 43
0.0000000001
 40
0.0
 40
0.0
 40
0.0
 40
0.0
 40
1.0
 40
1.0
 40
1.0
 40
1.0
 10
2749.4453
 20
-2188.6159
 30
0.0
 10
2752.16
 20
-2188.6329
 30
0.0
 10
2754.4885
 20
-2188.0613
 30
0.0
 10
2756.162
 20
-2186.4912
 30
0.0
  0
SPLINE
  5
A1
330
1F
100
AcDbEntity
  8
Camada 1
 62
   240
370
     9
100
AcDbSpline
210
0.0
220
0.0
230
1.0
 70
     8
 71
     3
 72
     8
 73
     4
 74
     0
 42
0.000000001
 43
0.0000000001
 40
0.0
 40
0.0
 40
0.0
 40
0.0
 40
1.0
 40
1.0
 40
1.0
 40
1.0
 10
2759.6381
 20
-2195.5256
 30
0.0
 10
2757.6184
 20
-2199.3394
 30
0.0
 10
2754.5486
 20
-2201.6283
 30
0.0
 10
2750.3201
 20
-2202.2337
 30
0.0
  0
SPLINE
  5
A2
330
1F
100
AcDbEntity
  8
Camada 1
 62
   240
370
     9
100
AcDbSpline
210
0.0
220
0.0
230
1.0
 70
     8
 71
     3
 72
     8
 73
     4
 74
     0
 42
0.000000001
 43
0.0000000001
 40
0.0
 40
0.0
 40
0.0
 40
0.0
 40
1.0
 40
1.0
 40
1.0
 40
1.0
 10
2761.7563
 20
-2200.7272
 30
0.0
 10
2758.8665
 20
-2204.8519
 30
0.0
 10
2753.1023
 20
-2205.2814
 30
0.0
 10
2750.4473
 20
-2203.9448
 30
0.0
  0
SPLINE
  5
A3
330
1F
100
AcDbEntity
  8
Camada 1
 62
   240
370
     9
100
AcDbSpline
210
0.0
220
0.0
230
1.0
 70
     8
 71
     3
 72
     8
 73
     4
 74
     0
 42
0.000000001
 43
0.0000000001
 40
0.0
 40
0.0
 40
0.0
 40
0.0
 40
1.0
 40
1.0
 40
1.0
 40
1.0
 10
2750.7496
 20
-2207.7967
 30
0.0
 10
2755.0077
 20
-2214.1761
 30
0.0
 10
2760.4119
 20
-2216.2155
 30
0.0
 10
2767.027
 20
-2213.6699
 30
0.0
  0
SPLINE
  5
A4
330
1F
100
AcDbEntity
  8
Camada 1
 62
   240
370
     9
100
AcDbSpline
210
0.0
220
0.0
230
1.0
 70
     8
 71
     3
 72
     8
 73
     4
 74
     0
 42
0.000000001
 43
0.0000000001
 40
0.0
 40
0.0
 40
0.0
 40
0.0
 40
1.0
 40
1.0
 40
1.0
 40
1.0
 10
2751.5573
 20
-2216.9268
 30
0.0
 10
2757.4985
 20
-2220.5442
 30
0.0
 10
2762.9505
 20
-2219.8965
 30
0.0
 10
2768.0507
 20
-2216.184
 30
0.0
  0
SPLINE
  5
A5
330
1F
100
AcDbEntity
  8
Camada 1
 62
   240
370
     9
100
AcDbSpline
210
0.0
220
0.0
230
1.0
 70
    11
 71
     3
 72
    20
 73
    16
 74
     0
 42
0.000000001
 43
0.0000000001
 40
0.0
 40
0.0
 40
0.0
 40
0.0
 40
0.2
 40
0.2
 40
0.2
 40
0.2
 40
0.4
 40
0.4
 40
0.4
 40
0.4
 40
0.6
 40
0.6
 40
0.6
 40
0.6
 40
1.0
 40
1.0
 40
1.0
 40
1.0
 10
2788.6756
 20
-2212.5776
 30
0.0
 10
2789.1786
 20
-2214.4826
 30
0.0
 10
2789.3491
 20
-2216.2453
 30
0.0
 10
2789.2345
 20
-2218.49
 30
0.0
 10
2789.2345
 20
-2218.49
 30
0.0
 10
2791.7671
 20
-2219.8823
 30
0.0
 10
2795.0124
 20
-2222.325
 30
0.0
 10
2797.1945
 20
-2225.2164
 30
0.0
 10
2797.1945
 20
-2225.2164
 30
0.0
 10
2803.2202
 20
-2223.2476
 30
0.0
 10
2815.4758
 20
-2226.9922
 30
0.0
 10
2817.0766
 20
-2225.1806
 30
0.0
 10
2817.0766
 20
-2225.1806
 30
0.0
 10
2816.313
 20
-2213.2343
 30
0.0
 10
2801.0242
 20
-2207.1271
 30
0.0
 10
2788.6756
 20
-2212.5776
 30
0.0
  0
SPLINE
  5
A6
330
1F
100
AcDbEntity
  8
Camada 1
 62
   240
370
     9
100
AcDbSpline
210
0.0
220
0.0
230
1.0
 70
     8
 71
     3
 72
     8
 73
     4
 74
     0
 42
0.000000001
 43
0.0000000001
 40
0.0
 40
0.0
 40
0.0
 40
0.0
 40
1.0
 40
1.0
 40
1.0
 40
1.0
 10
2841.9223
 20
-2401.5162
 30
0.0
 10
2841.2161
 20
-2402.292
 30
0.0
 10
2840.51
 20
-2403.0677
 30
0.0
 10
2839.8039
 20
-2403.8435
 30
0.0
  0
SPLINE
  5
A7
330
1F
100
AcDbEntity
  8
Camada 1
 62
   240
370
     9
100
AcDbSpline
210
0.0
220
0.0
230
1.0
 70
     8
 71
     3
 72
    12
 73
     8
 74
     0
 42
0.000000001
 43
0.0000000001
 40
0.0
 40
0.0
 40
0.0
 40
0.0
 40
0.3333333333333333
 40
0.3333333333333333
 40
0.3333333333333333
 40
0.3333333333333333
 40
1.0
 40
1.0
 40
1.0
 40
1.0
 10
2729.4136
 20
-2207.8441
 30
0.0
 10
2728.4738
 20
-2211.1059
 30
0.0
 10
2727.534
 20
-2214.3676
 30
0.0
 10
2727.2083
 20
-2216.9059
 30
0.0
 10
2727.2083
 20
-2216.9059
 30
0.0
 10
2726.8827
 20
-2219.4442
 30
0.0
 10
2727.1712
 20
-2221.2592
 30
0.0
 10
2727.4597
 20
-2223.0741
 30
0.0
  0
SPLINE
  5
A8
330
1F
100
AcDbEntity
  8
Camada 1
 62
   175
370
     9
100
AcDbSpline
210
0.0
220
0.0
230
1.0
 70
    11
 71
     3
 72
   368
 73
   364
 74
     0
 42
0.000000001
 43
0.0000000001
 40
0.0
 40
0.0
 40
0.0
 40
0.0
 40
0.0108695652173913
 40
0.0108695652173913
 40
0.0108695652173913
 40
0.0108695652173913
 40
0.0217391304347826
 40
0.0217391304347826
 40
0.0217391304347826
 40
0.0217391304347826
 40
0.0326086956521739
 40
0.0326086956521739
 40
0.0326086956521739
 40
0.0326086956521739
 40
0.0434782608695652
 40
0.0434782608695652
 40
0.0434782608695652
 40
0.0434782608695652
 40
0.0543478260869565
 40
0.0543478260869565
 40
0.0543478260869565
 40
0.0543478260869565
 40
0.0652173913043478
 40
0.0652173913043478
 40
0.0652173913043478
 40
0.0652173913043478
 40
0.0760869565217391
 40
0.0760869565217391
 40
0.0760869565217391
 40
0.0760869565217391
 40
0.0869565217391304
 40
0.0869565217391304
 40
0.0869565217391304
 40
0.0869565217391304
 40
0.0978260869565217
 40
0.0978260869565217
 40
0.0978260869565217
 40
0.0978260869565217
 40
0.108695652173913
 40
0.108695652173913
 40
0.108695652173913
 40
0.108695652173913
 40
0.1195652173913044
 40
0.1195652173913044
 40
0.1195652173913044
 40
0.1195652173913044
 40
0.1304347826086956
 40
0.1304347826086956
 40
0.1304347826086956
 40
0.1304347826086956
 40
0.1413043478260869
 40
0.1413043478260869
 40
0.1413043478260869
 40
0.1413043478260869
 40
0.1521739130434783
 40
0.1521739130434783
 40
0.1521739130434783
 40
0.1521739130434783
 40
0.1630434782608696
 40
0.1630434782608696
 40
0.1630434782608696
 40
0.1630434782608696
 40
0.1739130434782609
 40
0.1739130434782609
 40
0.1739130434782609
 40
0.1739130434782609
 40
0.1847826086956522
 40
0.1847826086956522
 40
0.1847826086956522
 40
0.1847826086956522
 40
0.1956521739130435
 40
0.1956521739130435
 40
0.1956521739130435
 40
0.1956521739130435
 40
0.2065217391304348
 40
0.2065217391304348
 40
0.2065217391304348
 40
0.2065217391304348
 40
0.2173913043478261
 40
0.2173913043478261
 40
0.2173913043478261
 40
0.2173913043478261
 40
0.2282608695652174
 40
0.2282608695652174
 40
0.2282608695652174
 40
0.2282608695652174
 40
0.2391304347826087
 40
0.2391304347826087
 40
0.2391304347826087
 40
0.2391304347826087
 40
0.25
 40
0.25
 40
0.25
 40
0.25
 40
0.2608695652173913
 40
0.2608695652173913
 40
0.2608695652173913
 40
0.2608695652173913
 40
0.2717391304347826
 40
0.2717391304347826
 40
0.2717391304347826
 40
0.2717391304347826
 40
0.2826086956521739
 40
0.2826086956521739
 40
0.2826086956521739
 40
0.2826086956521739
 40
0.2934782608695652
 40
0.2934782608695652
 40
0.2934782608695652
 40
0.2934782608695652
 40
0.3043478260869565
 40
0.3043478260869565
 40
0.3043478260869565
 40
0.3043478260869565
 40
0.3152173913043478
 40
0.3152173913043478
 40
0.3152173913043478
 40
0.3152173913043478
 40
0.3260869565217391
 40
0.3260869565217391
 40
0.3260869565217391
 40
0.3260869565217391
 40
0.3369565217391304
 40
0.3369565217391304
 40
0.3369565217391304
 40
0.3369565217391304
 40
0.3478260869565217
 40
0.3478260869565217
 40
0.3478260869565217
 40
0.3478260869565217
 40
0.358695652173913
 40
0.358695652173913
 40
0.358695652173913
 40
0.358695652173913
 40
0.3695652173913043
 40
0.3695652173913043
 40
0.3695652173913043
 40
0.3695652173913043
 40
0.3804347826086957
 40
0.3804347826086957
 40
0.3804347826086957
 40
0.3804347826086957
 40
0.391304347826087
 40
0.391304347826087
 40
0.391304347826087
 40
0.391304347826087
 40
0.4021739130434783
 40
0.4021739130434783
 40
0.4021739130434783
 40
0.4021739130434783
 40
0.4130434782608696
 40
0.4130434782608696
 40
0.4130434782608696
 40
0.4130434782608696
 40
0.4239130434782609
 40
0.4239130434782609
 40
0.4239130434782609
 40
0.4239130434782609
 40
0.4347826086956522
 40
0.4347826086956522
 40
0.4347826086956522
 40
0.4347826086956522
 40
0.4456521739130435
 40
0.4456521739130435
 40
0.4456521739130435
 40
0.4456521739130435
 40
0.4565217391304348
 40
0.4565217391304348
 40
0.4565217391304348
 40
0.4565217391304348
 40
0.4673913043478261
 40
0.4673913043478261
 40
0.4673913043478261
 40
0.4673913043478261
 40
0.4782608695652174
 40
0.4782608695652174
 40
0.4782608695652174
 40
0.4782608695652174
 40
0.4891304347826087
 40
0.4891304347826087
 40
0.4891304347826087
 40
0.4891304347826087
 40
0.5
 40
0.5
 40
0.5
 40
0.5
 40
0.5108695652173914
 40
0.5108695652173914
 40
0.5108695652173914
 40
0.5108695652173914
 40
0.5217391304347826
 40
0.5217391304347826
 40
0.5217391304347826
 40
0.5217391304347826
 40
0.532608695652174
 40
0.532608695652174
 40
0.532608695652174
 40
0.532608695652174
 40
0.5434782608695652
 40
0.5434782608695652
 40
0.5434782608695652
 40
0.5434782608695652
 40
0.5543478260869565
 40
0.5543478260869565
 40
0.5543478260869565
 40
0.5543478260869565
 40
0.5652173913043478
 40
0.5652173913043478
 40
0.5652173913043478
 40
0.5652173913043478
 40
0.5760869565217391
 40
0.5760869565217391
 40
0.5760869565217391
 40
0.5760869565217391
 40
0.5869565217391305
 40
0.5869565217391305
 40
0.5869565217391305
 40
0.5869565217391305
 40
0.5978260869565217
 40
0.5978260869565217
 40
0.5978260869565217
 40
0.5978260869565217
 40
0.6086956521739131
 40
0.6086956521739131
 40
0.6086956521739131
 40
0.6086956521739131
 40
0.6195652173913043
 40
0.6195652173913043
 40
0.6195652173913043
 40
0.6195652173913043
 40
0.6304347826086957
 40
0.6304347826086957
 40
0.6304347826086957
 40
0.6304347826086957
 40
0.6413043478260869
 40
0.6413043478260869
 40
0.6413043478260869
 40
0.6413043478260869
 40
0.6521739130434783
 40
0.6521739130434783
 40
0.6521739130434783
 40
0.6521739130434783
 40
0.6630434782608695
 40
0.6630434782608695
 40
0.6630434782608695
 40
0.6630434782608695
 40
0.6739130434782609
 40
0.6739130434782609
 40
0.6739130434782609
 40
0.6739130434782609
 40
0.6847826086956522
 40
0.6847826086956522
 40
0.6847826086956522
 40
0.6847826086956522
 40
0.6956521739130435
 40
0.6956521739130435
 40
0.6956521739130435
 40
0.6956521739130435
 40
0.7065217391304348
 40
0.7065217391304348
 40
0.7065217391304348
 40
0.7065217391304348
 40
0.717391304347826
 40
0.717391304347826
 40
0.717391304347826
 40
0.717391304347826
 40
0.7282608695652174
 40
0.7282608695652174
 40
0.7282608695652174
 40
0.7282608695652174
 40
0.7391304347826086
 40
0.7391304347826086
 40
0.7391304347826086
 40
0.7391304347826086
 40
0.75
 40
0.75
 40
0.75
 40
0.75
 40
0.7608695652173914
 40
0.7608695652173914
 40
0.7608695652173914
 40
0.7608695652173914
 40
0.7717391304347826
 40
0.7717391304347826
 40
0.7717391304347826
 40
0.7717391304347826
 40
0.782608695652174
 40
0.782608695652174
 40
0.782608695652174
 40
0.782608695652174
 40
0.7934782608695652
 40
0.7934782608695652
 40
0.7934782608695652
 40
0.7934782608695652
 40
0.8043478260869565
 40
0.8043478260869565
 40
0.8043478260869565
 40
0.8043478260869565
 40
0.8152173913043478
 40
0.8152173913043478
 40
0.8152173913043478
 40
0.8152173913043478
 40
0.8260869565217391
 40
0.8260869565217391
 40
0.8260869565217391
 40
0.8260869565217391
 40
0.8369565217391305
 40
0.8369565217391305
 40
0.8369565217391305
 40
0.8369565217391305
 40
0.8478260869565217
 40
0.8478260869565217
 40
0.8478260869565217
 40
0.8478260869565217
 40
0.8586956521739131
 40
0.8586956521739131
 40
0.8586956521739131
 40
0.8586956521739131
 40
0.8695652173913043
 40
0.8695652173913043
 40
0.8695652173913043
 40
0.8695652173913043
 40
0.8804347826086957
 40
0.8804347826086957
 40
0.8804347826086957
 40
0.8804347826086957
 40
0.8913043478260869
 40
0.8913043478260869
 40
0.8913043478260869
 40
0.8913043478260869
 40
0.9021739130434783
 40
0.9021739130434783
 40
0.9021739130434783
 40
0.9021739130434783
 40
0.9130434782608695
 40
0.9130434782608695
 40
0.9130434782608695
 40
0.9130434782608695
 40
0.9239130434782609
 40
0.9239130434782609
 40
0.9239130434782609
 40
0.9239130434782609
 40
0.9347826086956522
 40
0.9347826086956522
 40
0.9347826086956522
 40
0.9347826086956522
 40
0.9456521739130435
 40
0.9456521739130435
 40
0.9456521739130435
 40
0.9456521739130435
 40
0.9565217391304348
 40
0.9565217391304348
 40
0.9565217391304348
 40
0.9565217391304348
 40
0.967391304347826
 40
0.967391304347826
 40
0.967391304347826
 40
0.967391304347826
 40
0.9782608695652174
 40
0.9782608695652174
 40
0.9782608695652174
 40
0.9782608695652174
 40
1.0
 40
1.0
 40
1.0
 40
1.0
 10
3186.8003
 20
-2296.2313
 30
0.0
 10
3184.5575
 20
-2295.4054
 30
0.0
 10
3184.3129
 20
-2290.9354
 30
0.0
 10
3184.8141
 20
-2286.5649
 30
0.0
 10
3184.8141
 20
-2286.5649
 30
0.0
 10
3185.2442
 20
-2282.8205
 30
0.0
 10
3185.6641
 20
-2280.2153
 30
0.0
 10
3185.6409
 20
-2276.3385
 30
0.0
 10
3185.6409
 20
-2276.3385
 30
0.0
 10
3185.1629
 20
-2276.3135
 30
0.0
 10
3184.6875
 20
-2276.2703
 30
0.0
 10
3184.2151
 20
-2276.2297
 30
0.0
 10
3184.2151
 20
-2276.2297
 30
0.0
 10
3183.4827
 20
-2280.0587
 30
0.0
 10
3183.4209
 20
-2282.6957
 30
0.0
 10
3183.161
 20
-2286.457
 30
0.0
 10
3183.161
 20
-2286.457
 30
0.0
 10
3182.8574
 20
-2290.8507
 30
0.0
 10
3181.808
 20
-2295.1649
 30
0.0
 10
3179.4458
 20
-2295.5595
 30
0.0
 10
3179.4458
 20
-2295.5595
 30
0.0
 10
3177.3833
 20
-2294.3445
 30
0.0
 10
3177.957
 20
-2289.8999
 30
0.0
 10
3179.2486
 20
-2285.6886
 30
0.0
 10
3179.2486
 20
-2285.6886
 30
0.0
 10
3180.3534
 20
-2282.0852
 30
0.0
 10
3181.2403
 20
-2279.6007
 30
0.0
 10
3181.924
 20
-2275.786
 30
0.0
 10
3181.924
 20
-2275.786
 30
0.0
 10
3181.4588
 20
-2275.6759
 30
0.0
 10
3180.9995
 20
-2275.5464
 30
0.0
 10
3180.5418
 20
-2275.419
 30
0.0
 10
3180.5418
 20
-2275.419
 30
0.0
 10
3179.124
 20
-2279.0486
 30
0.0
 10
3178.5835
 20
-2281.6297
 30
0.0
 10
3177.642
 20
-2285.2801
 30
0.0
 10
3177.642
 20
-2285.2801
 30
0.0
 10
3176.543
 20
-2289.546
 30
0.0
 10
3174.7248
 20
-2293.5969
 30
0.0
 10
3172.3308
 20
-2293.5537
 30
0.0
 10
3172.3308
 20
-2293.5537
 30
0.0
 10
3170.5232
 20
-2291.9844
 30
0.0
 10
3171.8977
 20
-2287.7181
 30
0.0
 10
3173.9348
 20
-2283.8128
 30
0.0
 10
3173.9348
 20
-2283.8128
 30
0.0
 10
3175.6781
 20
-2280.4706
 30
0.0
 10
3177.0031
 20
-2278.1893
 30
0.0
 10
3178.3701
 20
-2274.5626
 30
0.0
 10
3178.3701
 20
-2274.5626
 30
0.0
 10
3177.9341
 20
-2274.37
 30
0.0
 10
3177.5065
 20
-2274.1587
 30
0.0
 10
3177.0789
 20
-2273.9496
 30
0.0
 10
3177.0789
 20
-2273.9496
 30
0.0
 10
3175.0232
 20
-2277.2609
 30
0.0
 10
3174.0208
 20
-2279.701
 30
0.0
 10
3172.4299
 20
-2283.119
 30
0.0
 10
3172.4299
 20
-2283.119
 30
0.0
 10
3170.5719
 20
-2287.1123
 30
0.0
 10
3168.0467
 20
-2290.7635
 30
0.0
 10
3165.7001
 20
-2290.286
 30
0.0
 10
3165.7001
 20
-2290.286
 30
0.0
 10
3164.2092
 20
-2288.4119
 30
0.0
 10
3166.3377
 20
-2284.4681
 30
0.0
 10
3169.0521
 20
-2280.9989
 30
0.0
 10
3169.0521
 20
-2280.9989
 30
0.0
 10
3171.3754
 20
-2278.0314
 30
0.0
 10
3173.0946
 20
-2276.0298
 30
0.0
 10
3175.0998
 20
-2272.7113
 30
0.0
 10
3175.0998
 20
-2272.7113
 30
0.0
 10
3174.7083
 20
-2272.4413
 30
0.0
 10
3174.3264
 20
-2272.1559
 30
0.0
 10
3173.9424
 20
-2271.8736
 30
0.0
 10
3173.9424
 20
-2271.8736
 30
0.0
 10
3171.3161
 20
-2274.7565
 30
0.0
 10
3169.8856
 20
-2276.9726
 30
0.0
 10
3167.6987
 20
-2280.0435
 30
0.0
 10
3167.6987
 20
-2280.0435
 30
0.0
 10
3165.1447
 20
-2283.6312
 30
0.0
 10
3161.996
 20
-2286.7613
 30
0.0
 10
3159.776
 20
-2285.8635
 30
0.0
 10
3159.776
 20
-2285.8635
 30
0.0
 10
3158.6512
 20
-2283.7502
 30
0.0
 10
3161.4634
 20
-2280.2602
 30
0.0
 10
3164.7646
 20
-2277.3439
 30
0.0
 10
3164.7646
 20
-2277.3439
 30
0.0
 10
3167.5895
 20
-2274.8483
 30
0.0
 10
3169.6443
 20
-2273.1939
 30
0.0
 10
3172.2216
 20
-2270.2958
 30
0.0
 10
3172.2216
 20
-2270.2958
 30
0.0
 10
3171.797
 20
-2269.8691
 30
0.0
 10
3171.6056
 20
-2269.7391
 30
0.0
 10
3171.22
 20
-2269.2751
 30
0.0
 10
3171.22
 20
-2269.2751
 30
0.0
 10
3168.1284
 20
-2271.6179
 30
0.0
 10
3166.3183
 20
-2273.5364
 30
0.0
 10
3163.6085
 20
-2276.1568
 30
0.0
 10
3163.6085
 20
-2276.1568
 30
0.0
 10
3160.4428
 20
-2279.2192
 30
0.0
 10
3156.7754
 20
-2281.7233
 30
0.0
 10
3154.757
 20
-2280.4363
 30
0.0
 10
3154.757
 20
-2280.4363
 30
0.0
 10
3154.036
 20
-2278.1529
 30
0.0
 10
3157.4371
 20
-2275.234
 30
0.0
 10
3161.2142
 20
-2272.9679
 30
0.0
 10
3161.2142
 20
-2272.9679
 30
0.0
 10
3164.4467
 20
-2271.0294
 30
0.0
 10
3166.7691
 20
-2269.7768
 30
0.0
 10
3169.8302
 20
-2267.3977
 30
0.0
 10
3169.8302
 20
-2267.3977
 30
0.0
 10
3169.5605
 20
-2267.0061
 30
0.0
 10
3169.3057
 20
-2266.6039
 30
0.0
 10
3169.0483
 20
-2266.2017
 30
0.0
 10
3169.0483
 20
-2266.2017
 30
0.0
 10
3165.5656
 20
-2267.9505
 30
0.0
 10
3163.4357
 20
-2269.5071
 30
0.0
 10
3160.2942
 20
-2271.5904
 30
0.0
 10
3160.2942
 20
-2271.5904
 30
0.0
 10
3156.623
 20
-2274.0245
 30
0.0
 10
3152.5612
 20
-2275.8178
 30
0.0
 10
3150.8107
 20
-2274.1841
 30
0.0
 10
3150.8107
 20
-2274.1841
 30
0.0
 10
3150.5177
 20
-2271.8088
 30
0.0
 10
3154.3942
 20
-2269.5579
 30
0.0
 10
3158.5213
 20
-2268.0187
 30
0.0
 10
3158.5213
 20
-2268.0187
 30
0.0
 10
3162.0527
 20
-2266.7009
 30
0.0
 10
3164.5643
 20
-2265.8936
 30
0.0
 10
3168.006
 20
-2264.1126
 30
0.0
 10
3168.006
 20
-2264.1126
 30
0.0
 10
3167.8113
 20
-2263.6799
 30
0.0
 10
3167.6339
 20
-2263.2371
 30
0.0
 10
3167.4561
 20
-2262.7931
 30
0.0
 10
3167.4561
 20
-2262.7931
 30
0.0
 10
3163.7139
 20
-2263.8781
 30
0.0
 10
3161.3365
 20
-2265.0211
 30
0.0
 10
3157.8673
 20
-2266.496
 30
0.0
 10
3157.8673
 20
-2266.496
 30
0.0
 10
3153.8142
 20
-2268.2206
 30
0.0
 10
3149.4941
 20
-2269.2438
 30
0.0
 10
3148.07
 20
-2267.3185
 30
0.0
 10
3148.07
 20
-2267.3185
 30
0.0
 10
3148.2156
 20
-2264.9288
 30
0.0
 10
3152.4367
 20
-2263.4221
 30
0.0
 10
3156.775
 20
-2262.661
 30
0.0
 10
3156.775
 20
-2262.661
 30
0.0
 10
3160.4876
 20
-2262.0099
 30
0.0
 10
3163.1038
 20
-2261.6716
 30
0.0
 10
3166.8131
 20
-2260.5494
 30
0.0
 10
3166.8131
 20
-2260.5494
 30
0.0
 10
3166.7013
 20
-2260.0888
 30
0.0
 10
3166.6086
 20
-2259.621
 30
0.0
 10
3166.5134
 20
-2259.1511
 30
0.0
 10
3166.5134
 20
-2259.1511
 30
0.0
 10
3162.6356
 20
-2259.5359
 30
0.0
 10
3160.0884
 20
-2260.2264
 30
0.0
 10
3156.4098
 20
-2261.0447
 30
0.0
 10
3156.4098
 20
-2261.0447
 30
0.0
 10
3152.1103
 20
-2262.0023
 30
0.0
 10
3147.6755
 20
-2262.2211
 30
0.0
 10
3146.6264
 20
-2260.0685
 30
0.0
 10
3146.6264
 20
-2260.0685
 30
0.0
 10
3147.2056
 20
-2257.7452
 30
0.0
 10
3151.6299
 20
-2257.0336
 30
0.0
 10
3156.0346
 20
-2257.0751
 30
0.0
 10
3156.0346
 20
-2257.0751
 30
0.0
 10
3159.8035
 20
-2257.1115
 30
0.0
 10
3162.4379
 20
-2257.2563
 30
0.0
 10
3166.2915
 20
-2256.8274
 30
0.0
 10
3166.2915
 20
-2256.8274
 30
0.0
 10
3166.2746
 20
-2256.5027
 30
0.0
 10
3166.2666
 20
-2256.1751
 30
0.0
 10
3166.2666
 20
-2255.8462
 30
0.0
 10
3166.2666
 20
-2255.8462
 30
0.0
 10
3166.2666
 20
-2255.8462
 30
0.0
 10
3186.9003
 20
-2255.8462
 30
0.0
 10
3186.9003
 20
-2255.8462
 30
0.0
 10
3186.9003
 20
-2255.8462
 30
0.0
 10
3186.9003
 20
-2255.8462
 30
0.0
 10
3186.9003
 20
-2252.1542
 30
0.0
 10
3186.9003
 20
-2252.1542
 30
0.0
 10
3186.9003
 20
-2252.1542
 30
0.0
 10
3186.9003
 20
-2252.1542
 30
0.0
 10
3196.9003
 20
-2252.1461
 30
0.0
 10
3196.9003
 20
-2252.1461
 30
0.0
 10
3196.9003
 20
-2252.1461
 30
0.0
 10
3196.9003
 20
-2252.1461
 30
0.0
 10
3196.9003
 20
-2255.8462
 30
0.0
 10
3196.9003
 20
-2255.8462
 30
0.0
 10
3196.9003
 20
-2255.8462
 30
0.0
 10
3196.9003
 20
-2255.8462
 30
0.0
 10
3207.3338
 20
-2255.8462
 30
0.0
 10
3207.3338
 20
-2255.8462
 30
0.0
 10
3207.3338
 20
-2255.8462
 30
0.0
 10
3207.3338
 20
-2256.1751
 30
0.0
 10
3207.3257
 20
-2256.5027
 30
0.0
 10
3207.3087
 20
-2256.8274
 30
0.0
 10
3207.3087
 20
-2256.8274
 30
0.0
 10
3211.1628
 20
-2257.2563
 30
0.0
 10
3213.7967
 20
-2257.1115
 30
0.0
 10
3217.5657
 20
-2257.0751
 30
0.0
 10
3217.5657
 20
-2257.0751
 30
0.0
 10
3221.9705
 20
-2257.0336
 30
0.0
 10
3226.3951
 20
-2257.7452
 30
0.0
 10
3226.9738
 20
-2260.0685
 30
0.0
 10
3226.9738
 20
-2260.0685
 30
0.0
 10
3225.9248
 20
-2262.2211
 30
0.0
 10
3221.49
 20
-2262.0023
 30
0.0
 10
3217.191
 20
-2261.0447
 30
0.0
 10
3217.191
 20
-2261.0447
 30
0.0
 10
3213.5118
 20
-2260.2264
 30
0.0
 10
3210.9646
 20
-2259.5359
 30
0.0
 10
3207.0869
 20
-2259.1511
 30
0.0
 10
3207.0869
 20
-2259.1511
 30
0.0
 10
3206.9917
 20
-2259.621
 30
0.0
 10
3206.899
 20
-2260.0888
 30
0.0
 10
3206.7872
 20
-2260.5494
 30
0.0
 10
3206.7872
 20
-2260.5494
 30
0.0
 10
3210.4964
 20
-2261.6716
 30
0.0
 10
3213.1126
 20
-2262.0099
 30
0.0
 10
3216.8257
 20
-2262.661
 30
0.0
 10
3216.8257
 20
-2262.661
 30
0.0
 10
3221.1636
 20
-2263.4221
 30
0.0
 10
3225.3846
 20
-2264.9288
 30
0.0
 10
3225.5303
 20
-2267.3185
 30
0.0
 10
3225.5303
 20
-2267.3185
 30
0.0
 10
3224.1062
 20
-2269.2438
 30
0.0
 10
3219.7861
 20
-2268.2206
 30
0.0
 10
3215.7331
 20
-2266.496
 30
0.0
 10
3215.7331
 20
-2266.496
 30
0.0
 10
3212.2643
 20
-2265.0211
 30
0.0
 10
3209.8864
 20
-2263.8781
 30
0.0
 10
3206.1446
 20
-2262.7931
 30
0.0
 10
3206.1446
 20
-2262.7931
 30
0.0
 10
3205.9663
 20
-2263.2371
 30
0.0
 10
3205.789
 20
-2263.6799
 30
0.0
 10
3205.5942
 20
-2264.1126
 30
0.0
 10
3205.5942
 20
-2264.1126
 30
0.0
 10
3209.0359
 20
-2265.8936
 30
0.0
 10
3211.548
 20
-2266.7009
 30
0.0
 10
3215.079
 20
-2268.0187
 30
0.0
 10
3215.079
 20
-2268.0187
 30
0.0
 10
3219.2061
 20
-2269.5579
 30
0.0
 10
3223.0826
 20
-2271.8088
 30
0.0
 10
3222.7896
 20
-2274.1841
 30
0.0
 10
3222.7896
 20
-2274.1841
 30
0.0
 10
3221.0391
 20
-2275.8178
 30
0.0
 10
3216.9772
 20
-2274.0245
 30
0.0
 10
3213.3061
 20
-2271.5904
 30
0.0
 10
3213.3061
 20
-2271.5904
 30
0.0
 10
3210.1645
 20
-2269.5071
 30
0.0
 10
3208.0348
 20
-2267.9505
 30
0.0
 10
3204.5521
 20
-2266.2017
 30
0.0
 10
3204.5521
 20
-2266.2017
 30
0.0
 10
3204.2946
 20
-2266.6039
 30
0.0
 10
3204.0398
 20
-2267.0061
 30
0.0
 10
3203.7705
 20
-2267.3977
 30
0.0
 10
3203.7705
 20
-2267.3977
 30
0.0
 10
3206.8312
 20
-2269.7768
 30
0.0
 10
3209.1536
 20
-2271.0294
 30
0.0
 10
3212.3862
 20
-2272.9679
 30
0.0
 10
3212.3862
 20
-2272.9679
 30
0.0
 10
3216.1632
 20
-2275.234
 30
0.0
 10
3219.5642
 20
-2278.1529
 30
0.0
 10
3218.8433
 20
-2280.4363
 30
0.0
 10
3218.8433
 20
-2280.4363
 30
0.0
 10
3216.8248
 20
-2281.7233
 30
0.0
 10
3213.1575
 20
-2279.2192
 30
0.0
 10
3209.9918
 20
-2276.1568
 30
0.0
 10
3209.9918
 20
-2276.1568
 30
0.0
 10
3207.2821
 20
-2273.5364
 30
0.0
 10
3205.4719
 20
-2271.6179
 30
0.0
 10
3202.3803
 20
-2269.2751
 30
0.0
 10
3202.3803
 20
-2269.2751
 30
0.0
 10
3201.9946
 20
-2269.7391
 30
0.0
 10
3201.8033
 20
-2269.8691
 30
0.0
 10
3201.3787
 20
-2270.2958
 30
0.0
 10
3201.3787
 20
-2270.2958
 30
0.0
 10
3203.9559
 20
-2273.1939
 30
0.0
 10
3206.0108
 20
-2274.8483
 30
0.0
 10
3208.8361
 20
-2277.3439
 30
0.0
 10
3208.8361
 20
-2277.3439
 30
0.0
 10
3212.1368
 20
-2280.2602
 30
0.0
 10
3214.9491
 20
-2283.7502
 30
0.0
 10
3213.8243
 20
-2285.8635
 30
0.0
 10
3213.8243
 20
-2285.8635
 30
0.0
 10
3211.6047
 20
-2286.7613
 30
0.0
 10
3208.4555
 20
-2283.6312
 30
0.0
 10
3205.9017
 20
-2280.0435
 30
0.0
 10
3205.9017
 20
-2280.0435
 30
0.0
 10
3203.7146
 20
-2276.9726
 30
0.0
 10
3202.2842
 20
-2274.7565
 30
0.0
 10
3199.6578
 20
-2271.8736
 30
0.0
 10
3199.6578
 20
-2271.8736
 30
0.0
 10
3199.274
 20
-2272.1559
 30
0.0
 10
3198.892
 20
-2272.4413
 30
0.0
 10
3198.5004
 20
-2272.7113
 30
0.0
 10
3198.5004
 20
-2272.7113
 30
0.0
 10
3200.5062
 20
-2276.0298
 30
0.0
 10
3202.2249
 20
-2278.0314
 30
0.0
 10
3204.5482
 20
-2280.9989
 30
0.0
 10
3204.5482
 20
-2280.9989
 30
0.0
 10
3207.2626
 20
-2284.4681
 30
0.0
 10
3209.3911
 20
-2288.4119
 30
0.0
 10
3207.9001
 20
-2290.286
 30
0.0
 10
3207.9001
 20
-2290.286
 30
0.0
 10
3205.5536
 20
-2290.7635
 30
0.0
 10
3203.0285
 20
-2287.1123
 30
0.0
 10
3201.1704
 20
-2283.119
 30
0.0
 10
3201.1704
 20
-2283.119
 30
0.0
 10
3199.5795
 20
-2279.701
 30
0.0
 10
3198.5771
 20
-2277.2609
 30
0.0
 10
3196.5214
 20
-2273.9496
 30
0.0
 10
3196.5214
 20
-2273.9496
 30
0.0
 10
3196.0942
 20
-2274.1587
 30
0.0
 10
3195.6662
 20
-2274.37
 30
0.0
 10
3195.2302
 20
-2274.5626
 30
0.0
 10
3195.2302
 20
-2274.5626
 30
0.0
 10
3196.5971
 20
-2278.1893
 30
0.0
 10
3197.9222
 20
-2280.4706
 30
0.0
 10
3199.6655
 20
-2283.8128
 30
0.0
 10
3199.6655
 20
-2283.8128
 30
0.0
 10
3201.7025
 20
-2287.7181
 30
0.0
 10
3203.0771
 20
-2291.9844
 30
0.0
 10
3201.2695
 20
-2293.5537
 30
0.0
 10
3201.2695
 20
-2293.5537
 30
0.0
 10
3198.8755
 20
-2293.5969
 30
0.0
 10
3197.0577
 20
-2289.546
 30
0.0
 10
3195.9583
 20
-2285.2801
 30
0.0
 10
3195.9583
 20
-2285.2801
 30
0.0
 10
3195.0168
 20
-2281.6297
 30
0.0
 10
3194.4762
 20
-2279.0486
 30
0.0
 10
3193.0589
 20
-2275.419
 30
0.0
 10
3193.0589
 20
-2275.419
 30
0.0
 10
3192.6009
 20
-2275.5464
 30
0.0
 10
3192.1415
 20
-2275.6759
 30
0.0
 10
3191.6763
 20
-2275.786
 30
0.0
 10
3191.6763
 20
-2275.786
 30
0.0
 10
3192.3601
 20
-2279.6007
 30
0.0
 10
3193.2469
 20
-2282.0852
 30
0.0
 10
3194.3522
 20
-2285.6886
 30
0.0
 10
3194.3522
 20
-2285.6886
 30
0.0
 10
3195.6434
 20
-2289.8999
 30
0.0
 10
3196.217
 20
-2294.3445
 30
0.0
 10
3194.1545
 20
-2295.5595
 30
0.0
 10
3194.1545
 20
-2295.5595
 30
0.0
 10
3191.7923
 20
-2295.1649
 30
0.0
 10
3190.7429
 20
-2290.8507
 30
0.0
 10
3190.4397
 20
-2286.457
 30
0.0
 10
3190.4397
 20
-2286.457
 30
0.0
 10
3190.1798
 20
-2282.6957
 30
0.0
 10
3190.1176
 20
-2280.0587
 30
0.0
 10
3189.3852
 20
-2276.2297
 30
0.0
 10
3189.3852
 20
-2276.2297
 30
0.0
 10
3188.9128
 20
-2276.2703
 30
0.0
 10
3188.4379
 20
-2276.3135
 30
0.0
 10
3187.9594
 20
-2276.3385
 30
0.0
 10
3187.9594
 20
-2276.3385
 30
0.0
 10
3187.9362
 20
-2280.2153
 30
0.0
 10
3188.3561
 20
-2282.8205
 30
0.0
 10
3188.7862
 20
-2286.5649
 30
0.0
 10
3188.7862
 20
-2286.5649
 30
0.0
 10
3189.2874
 20
-2290.9354
 30
0.0
 10
3189.0427
 20
-2295.4054
 30
0.0
 10
3186.8003
 20
-2296.2313
 30
0.0
  0
SPLINE
  5
A9
330
1F
100
AcDbEntity
  8
Camada 1
 62
   175
370
     9
100
AcDbSpline
210
0.0
220
0.0
230
1.0
 70
    11
 71
     3
 72
   368
 73
   364
 74
     0
 42
0.000000001
 43
0.0000000001
 40
0.0
 40
0.0
 40
0.0
 40
0.0
 40
0.0108695652173913
 40
0.0108695652173913
 40
0.0108695652173913
 40
0.0108695652173913
 40
0.0217391304347826
 40
0.0217391304347826
 40
0.0217391304347826
 40
0.0217391304347826
 40
0.0326086956521739
 40
0.0326086956521739
 40
0.0326086956521739
 40
0.0326086956521739
 40
0.0434782608695652
 40
0.0434782608695652
 40
0.0434782608695652
 40
0.0434782608695652
 40
0.0543478260869565
 40
0.0543478260869565
 40
0.0543478260869565
 40
0.0543478260869565
 40
0.0652173913043478
 40
0.0652173913043478
 40
0.0652173913043478
 40
0.0652173913043478
 40
0.0760869565217391
 40
0.0760869565217391
 40
0.0760869565217391
 40
0.0760869565217391
 40
0.0869565217391304
 40
0.0869565217391304
 40
0.0869565217391304
 40
0.0869565217391304
 40
0.0978260869565217
 40
0.0978260869565217
 40
0.0978260869565217
 40
0.0978260869565217
 40
0.108695652173913
 40
0.108695652173913
 40
0.108695652173913
 40
0.108695652173913
 40
0.1195652173913044
 40
0.1195652173913044
 40
0.1195652173913044
 40
0.1195652173913044
 40
0.1304347826086956
 40
0.1304347826086956
 40
0.1304347826086956
 40
0.1304347826086956
 40
0.1413043478260869
 40
0.1413043478260869
 40
0.1413043478260869
 40
0.1413043478260869
 40
0.1521739130434783
 40
0.1521739130434783
 40
0.1521739130434783
 40
0.1521739130434783
 40
0.1630434782608696
 40
0.1630434782608696
 40
0.1630434782608696
 40
0.1630434782608696
 40
0.1739130434782609
 40
0.1739130434782609
 40
0.1739130434782609
 40
0.1739130434782609
 40
0.1847826086956522
 40
0.1847826086956522
 40
0.1847826086956522
 40
0.1847826086956522
 40
0.1956521739130435
 40
0.1956521739130435
 40
0.1956521739130435
 40
0.1956521739130435
 40
0.2065217391304348
 40
0.2065217391304348
 40
0.2065217391304348
 40
0.2065217391304348
 40
0.2173913043478261
 40
0.2173913043478261
 40
0.2173913043478261
 40
0.2173913043478261
 40
0.2282608695652174
 40
0.2282608695652174
 40
0.2282608695652174
 40
0.2282608695652174
 40
0.2391304347826087
 40
0.2391304347826087
 40
0.2391304347826087
 40
0.2391304347826087
 40
0.25
 40
0.25
 40
0.25
 40
0.25
 40
0.2608695652173913
 40
0.2608695652173913
 40
0.2608695652173913
 40
0.2608695652173913
 40
0.2717391304347826
 40
0.2717391304347826
 40
0.2717391304347826
 40
0.2717391304347826
 40
0.2826086956521739
 40
0.2826086956521739
 40
0.2826086956521739
 40
0.2826086956521739
 40
0.2934782608695652
 40
0.2934782608695652
 40
0.2934782608695652
 40
0.2934782608695652
 40
0.3043478260869565
 40
0.3043478260869565
 40
0.3043478260869565
 40
0.3043478260869565
 40
0.3152173913043478
 40
0.3152173913043478
 40
0.3152173913043478
 40
0.3152173913043478
 40
0.3260869565217391
 40
0.3260869565217391
 40
0.3260869565217391
 40
0.3260869565217391
 40
0.3369565217391304
 40
0.3369565217391304
 40
0.3369565217391304
 40
0.3369565217391304
 40
0.3478260869565217
 40
0.3478260869565217
 40
0.3478260869565217
 40
0.3478260869565217
 40
0.358695652173913
 40
0.358695652173913
 40
0.358695652173913
 40
0.358695652173913
 40
0.3695652173913043
 40
0.3695652173913043
 40
0.3695652173913043
 40
0.3695652173913043
 40
0.3804347826086957
 40
0.3804347826086957
 40
0.3804347826086957
 40
0.3804347826086957
 40
0.391304347826087
 40
0.391304347826087
 40
0.391304347826087
 40
0.391304347826087
 40
0.4021739130434783
 40
0.4021739130434783
 40
0.4021739130434783
 40
0.4021739130434783
 40
0.4130434782608696
 40
0.4130434782608696
 40
0.4130434782608696
 40
0.4130434782608696
 40
0.4239130434782609
 40
0.4239130434782609
 40
0.4239130434782609
 40
0.4239130434782609
 40
0.4347826086956522
 40
0.4347826086956522
 40
0.4347826086956522
 40
0.4347826086956522
 40
0.4456521739130435
 40
0.4456521739130435
 40
0.4456521739130435
 40
0.4456521739130435
 40
0.4565217391304348
 40
0.4565217391304348
 40
0.4565217391304348
 40
0.4565217391304348
 40
0.4673913043478261
 40
0.4673913043478261
 40
0.4673913043478261
 40
0.4673913043478261
 40
0.4782608695652174
 40
0.4782608695652174
 40
0.4782608695652174
 40
0.4782608695652174
 40
0.4891304347826087
 40
0.4891304347826087
 40
0.4891304347826087
 40
0.4891304347826087
 40
0.5
 40
0.5
 40
0.5
 40
0.5
 40
0.5108695652173914
 40
0.5108695652173914
 40
0.5108695652173914
 40
0.5108695652173914
 40
0.5217391304347826
 40
0.5217391304347826
 40
0.5217391304347826
 40
0.5217391304347826
 40
0.532608695652174
 40
0.532608695652174
 40
0.532608695652174
 40
0.532608695652174
 40
0.5434782608695652
 40
0.5434782608695652
 40
0.5434782608695652
 40
0.5434782608695652
 40
0.5543478260869565
 40
0.5543478260869565
 40
0.5543478260869565
 40
0.5543478260869565
 40
0.5652173913043478
 40
0.5652173913043478
 40
0.5652173913043478
 40
0.5652173913043478
 40
0.5760869565217391
 40
0.5760869565217391
 40
0.5760869565217391
 40
0.5760869565217391
 40
0.5869565217391305
 40
0.5869565217391305
 40
0.5869565217391305
 40
0.5869565217391305
 40
0.5978260869565217
 40
0.5978260869565217
 40
0.5978260869565217
 40
0.5978260869565217
 40
0.6086956521739131
 40
0.6086956521739131
 40
0.6086956521739131
 40
0.6086956521739131
 40
0.6195652173913043
 40
0.6195652173913043
 40
0.6195652173913043
 40
0.6195652173913043
 40
0.6304347826086957
 40
0.6304347826086957
 40
0.6304347826086957
 40
0.6304347826086957
 40
0.6413043478260869
 40
0.6413043478260869
 40
0.6413043478260869
 40
0.6413043478260869
 40
0.6521739130434783
 40
0.6521739130434783
 40
0.6521739130434783
 40
0.6521739130434783
 40
0.6630434782608695
 40
0.6630434782608695
 40
0.6630434782608695
 40
0.6630434782608695
 40
0.6739130434782609
 40
0.6739130434782609
 40
0.6739130434782609
 40
0.6739130434782609
 40
0.6847826086956522
 40
0.6847826086956522
 40
0.6847826086956522
 40
0.6847826086956522
 40
0.6956521739130435
 40
0.6956521739130435
 40
0.6956521739130435
 40
0.6956521739130435
 40
0.7065217391304348
 40
0.7065217391304348
 40
0.7065217391304348
 40
0.7065217391304348
 40
0.717391304347826
 40
0.717391304347826
 40
0.717391304347826
 40
0.717391304347826
 40
0.7282608695652174
 40
0.7282608695652174
 40
0.7282608695652174
 40
0.7282608695652174
 40
0.7391304347826086
 40
0.7391304347826086
 40
0.7391304347826086
 40
0.7391304347826086
 40
0.75
 40
0.75
 40
0.75
 40
0.75
 40
0.7608695652173914
 40
0.7608695652173914
 40
0.7608695652173914
 40
0.7608695652173914
 40
0.7717391304347826
 40
0.7717391304347826
 40
0.7717391304347826
 40
0.7717391304347826
 40
0.782608695652174
 40
0.782608695652174
 40
0.782608695652174
 40
0.782608695652174
 40
0.7934782608695652
 40
0.7934782608695652
 40
0.7934782608695652
 40
0.7934782608695652
 40
0.8043478260869565
 40
0.8043478260869565
 40
0.8043478260869565
 40
0.8043478260869565
 40
0.8152173913043478
 40
0.8152173913043478
 40
0.8152173913043478
 40
0.8152173913043478
 40
0.8260869565217391
 40
0.8260869565217391
 40
0.8260869565217391
 40
0.8260869565217391
 40
0.8369565217391305
 40
0.8369565217391305
 40
0.8369565217391305
 40
0.8369565217391305
 40
0.8478260869565217
 40
0.8478260869565217
 40
0.8478260869565217
 40
0.8478260869565217
 40
0.8586956521739131
 40
0.8586956521739131
 40
0.8586956521739131
 40
0.8586956521739131
 40
0.8695652173913043
 40
0.8695652173913043
 40
0.8695652173913043
 40
0.8695652173913043
 40
0.8804347826086957
 40
0.8804347826086957
 40
0.8804347826086957
 40
0.8804347826086957
 40
0.8913043478260869
 40
0.8913043478260869
 40
0.8913043478260869
 40
0.8913043478260869
 40
0.9021739130434783
 40
0.9021739130434783
 40
0.9021739130434783
 40
0.9021739130434783
 40
0.9130434782608695
 40
0.9130434782608695
 40
0.9130434782608695
 40
0.9130434782608695
 40
0.9239130434782609
 40
0.9239130434782609
 40
0.9239130434782609
 40
0.9239130434782609
 40
0.9347826086956522
 40
0.9347826086956522
 40
0.9347826086956522
 40
0.9347826086956522
 40
0.9456521739130435
 40
0.9456521739130435
 40
0.9456521739130435
 40
0.9456521739130435
 40
0.9565217391304348
 40
0.9565217391304348
 40
0.9565217391304348
 40
0.9565217391304348
 40
0.967391304347826
 40
0.967391304347826
 40
0.967391304347826
 40
0.967391304347826
 40
0.9782608695652174
 40
0.9782608695652174
 40
0.9782608695652174
 40
0.9782608695652174
 40
1.0
 40
1.0
 40
1.0
 40
1.0
 10
3186.5058
 20
-2206.2187
 30
0.0
 10
3188.7486
 20
-2207.0446
 30
0.0
 10
3188.9933
 20
-2211.5146
 30
0.0
 10
3188.492
 20
-2215.8851
 30
0.0
 10
3188.492
 20
-2215.8851
 30
0.0
 10
3188.062
 20
-2219.6295
 30
0.0
 10
3187.642
 20
-2222.2347
 30
0.0
 10
3187.6653
 20
-2226.1115
 30
0.0
 10
3187.6653
 20
-2226.1115
 30
0.0
 10
3188.1432
 20
-2226.1365
 30
0.0
 10
3188.6186
 20
-2226.1797
 30
0.0
 10
3189.091
 20
-2226.2203
 30
0.0
 10
3189.091
 20
-2226.2203
 30
0.0
 10
3189.8234
 20
-2222.3913
 30
0.0
 10
3189.8852
 20
-2219.7543
 30
0.0
 10
3190.1451
 20
-2215.993
 30
0.0
 10
3190.1451
 20
-2215.993
 30
0.0
 10
3190.4487
 20
-2211.5993
 30
0.0
 10
3191.4981
 20
-2207.2851
 30
0.0
 10
3193.8603
 20
-2206.8905
 30
0.0
 10
3193.8603
 20
-2206.8905
 30
0.0
 10
3195.9228
 20
-2208.1055
 30
0.0
 10
3195.3492
 20
-2212.5501
 30
0.0
 10
3194.0576
 20
-2216.7614
 30
0.0
 10
3194.0576
 20
-2216.7614
 30
0.0
 10
3192.9527
 20
-2220.3648
 30
0.0
 10
3192.0658
 20
-2222.8493
 30
0.0
 10
3191.3821
 20
-2226.664
 30
0.0
 10
3191.3821
 20
-2226.664
 30
0.0
 10
3191.8474
 20
-2226.7741
 30
0.0
 10
3192.3067
 20
-2226.9036
 30
0.0
 10
3192.7643
 20
-2227.031
 30
0.0
 10
3192.7643
 20
-2227.031
 30
0.0
 10
3194.1821
 20
-2223.4014
 30
0.0
 10
3194.7226
 20
-2220.8203
 30
0.0
 10
3195.6641
 20
-2217.1699
 30
0.0
 10
3195.6641
 20
-2217.1699
 30
0.0
 10
3196.7632
 20
-2212.904
 30
0.0
 10
3198.5813
 20
-2208.8531
 30
0.0
 10
3200.9753
 20
-2208.8963
 30
0.0
 10
3200.9753
 20
-2208.8963
 30
0.0
 10
3202.783
 20
-2210.4656
 30
0.0
 10
3201.4084
 20
-2214.7319
 30
0.0
 10
3199.3713
 20
-2218.6372
 30
0.0
 10
3199.3713
 20
-2218.6372
 30
0.0
 10
3197.6281
 20
-2221.9794
 30
0.0
 10
3196.303
 20
-2224.2607
 30
0.0
 10
3194.9361
 20
-2227.8874
 30
0.0
 10
3194.9361
 20
-2227.8874
 30
0.0
 10
3195.372
 20
-2228.08
 30
0.0
 10
3195.7996
 20
-2228.2913
 30
0.0
 10
3196.2272
 20
-2228.5004
 30
0.0
 10
3196.2272
 20
-2228.5004
 30
0.0
 10
3198.283
 20
-2225.1891
 30
0.0
 10
3199.2853
 20
-2222.749
 30
0.0
 10
3200.8763
 20
-2219.331
 30
0.0
 10
3200.8763
 20
-2219.331
 30
0.0
 10
3202.7342
 20
-2215.3377
 30
0.0
 10
3205.2594
 20
-2211.6865
 30
0.0
 10
3207.606
 20
-2212.164
 30
0.0
 10
3207.606
 20
-2212.164
 30
0.0
 10
3209.0969
 20
-2214.0381
 30
0.0
 10
3206.9684
 20
-2217.9819
 30
0.0
 10
3204.254
 20
-2221.4511
 30
0.0
 10
3204.254
 20
-2221.4511
 30
0.0
 10
3201.9307
 20
-2224.4186
 30
0.0
 10
3200.2116
 20
-2226.4202
 30
0.0
 10
3198.2063
 20
-2229.7387
 30
0.0
 10
3198.2063
 20
-2229.7387
 30
0.0
 10
3198.5978
 20
-2230.0087
 30
0.0
 10
3198.9797
 20
-2230.2941
 30
0.0
 10
3199.3637
 20
-2230.5764
 30
0.0
 10
3199.3637
 20
-2230.5764
 30
0.0
 10
3201.99
 20
-2227.6935
 30
0.0
 10
3203.4205
 20
-2225.4774
 30
0.0
 10
3205.6074
 20
-2222.4065
 30
0.0
 10
3205.6074
 20
-2222.4065
 30
0.0
 10
3208.1614
 20
-2218.8188
 30
0.0
 10
3211.3102
 20
-2215.6887
 30
0.0
 10
3213.5301
 20
-2216.5865
 30
0.0
 10
3213.5301
 20
-2216.5865
 30
0.0
 10
3214.6549
 20
-2218.6998
 30
0.0
 10
3211.8428
 20
-2222.1898
 30
0.0
 10
3208.5415
 20
-2225.1061
 30
0.0
 10
3208.5415
 20
-2225.1061
 30
0.0
 10
3205.7166
 20
-2227.6017
 30
0.0
 10
3203.6618
 20
-2229.2561
 30
0.0
 10
3201.0845
 20
-2232.1542
 30
0.0
 10
3201.0845
 20
-2232.1542
 30
0.0
 10
3201.5091
 20
-2232.5809
 30
0.0
 10
3201.7005
 20
-2232.7109
 30
0.0
 10
3202.0861
 20
-2233.1749
 30
0.0
 10
3202.0861
 20
-2233.1749
 30
0.0
 10
3205.1777
 20
-2230.8321
 30
0.0
 10
3206.9879
 20
-2228.9136
 30
0.0
 10
3209.6976
 20
-2226.2932
 30
0.0
 10
3209.6976
 20
-2226.2932
 30
0.0
 10
3212.8633
 20
-2223.2308
 30
0.0
 10
3216.5307
 20
-2220.7267
 30
0.0
 10
3218.5491
 20
-2222.0137
 30
0.0
 10
3218.5491
 20
-2222.0137
 30
0.0
 10
3219.2701
 20
-2224.2971
 30
0.0
 10
3215.869
 20
-2227.216
 30
0.0
 10
3212.092
 20
-2229.4821
 30
0.0
 10
3212.092
 20
-2229.4821
 30
0.0
 10
3208.8594
 20
-2231.4206
 30
0.0
 10
3206.537
 20
-2232.6732
 30
0.0
 10
3203.4759
 20
-2235.0523
 30
0.0
 10
3203.4759
 20
-2235.0523
 30
0.0
 10
3203.7456
 20
-2235.4439
 30
0.0
 10
3204.0004
 20
-2235.8461
 30
0.0
 10
3204.2578
 20
-2236.2483
 30
0.0
 10
3204.2578
 20
-2236.2483
 30
0.0
 10
3207.7406
 20
-2234.4995
 30
0.0
 10
3209.8704
 20
-2232.9429
 30
0.0
 10
3213.0119
 20
-2230.8596
 30
0.0
 10
3213.0119
 20
-2230.8596
 30
0.0
 10
3216.6831
 20
-2228.4255
 30
0.0
 10
3220.7449
 20
-2226.6322
 30
0.0
 10
3222.4954
 20
-2228.2659
 30
0.0
 10
3222.4954
 20
-2228.2659
 30
0.0
 10
3222.7884
 20
-2230.6412
 30
0.0
 10
3218.9119
 20
-2232.8921
 30
0.0
 10
3214.7848
 20
-2234.4313
 30
0.0
 10
3214.7848
 20
-2234.4313
 30
0.0
 10
3211.2534
 20
-2235.7491
 30
0.0
 10
3208.7418
 20
-2236.5564
 30
0.0
 10
3205.3001
 20
-2238.3374
 30
0.0
 10
3205.3001
 20
-2238.3374
 30
0.0
 10
3205.4948
 20
-2238.7701
 30
0.0
 10
3205.6722
 20
-2239.2129
 30
0.0
 10
3205.85
 20
-2239.6569
 30
0.0
 10
3205.85
 20
-2239.6569
 30
0.0
 10
3209.5922
 20
-2238.5719
 30
0.0
 10
3211.9697
 20
-2237.4289
 30
0.0
 10
3215.4389
 20
-2235.954
 30
0.0
 10
3215.4389
 20
-2235.954
 30
0.0
 10
3219.4919
 20
-2234.2294
 30
0.0
 10
3223.812
 20
-2233.2062
 30
0.0
 10
3225.2361
 20
-2235.1315
 30
0.0
 10
3225.2361
 20
-2235.1315
 30
0.0
 10
3225.0905
 20
-2237.5212
 30
0.0
 10
3220.8694
 20
-2239.0279
 30
0.0
 10
3216.5311
 20
-2239.789
 30
0.0
 10
3216.5311
 20
-2239.789
 30
0.0
 10
3212.8185
 20
-2240.4401
 30
0.0
 10
3210.2023
 20
-2240.7784
 30
0.0
 10
3206.493
 20
-2241.9006
 30
0.0
 10
3206.493
 20
-2241.9006
 30
0.0
 10
3206.6048
 20
-2242.3612
 30
0.0
 10
3206.6975
 20
-2242.829
 30
0.0
 10
3206.7927
 20
-2243.2989
 30
0.0
 10
3206.7927
 20
-2243.2989
 30
0.0
 10
3210.6705
 20
-2242.9141
 30
0.0
 10
3213.2178
 20
-2242.2236
 30
0.0
 10
3216.8964
 20
-2241.4053
 30
0.0
 10
3216.8964
 20
-2241.4053
 30
0.0
 10
3221.1958
 20
-2240.4477
 30
0.0
 10
3225.6306
 20
-2240.2289
 30
0.0
 10
3226.6797
 20
-2242.3815
 30
0.0
 10
3226.6797
 20
-2242.3815
 30
0.0
 10
3226.1005
 20
-2244.7048
 30
0.0
 10
3221.6763
 20
-2245.4164
 30
0.0
 10
3217.2715
 20
-2245.3749
 30
0.0
 10
3217.2715
 20
-2245.3749
 30
0.0
 10
3213.5026
 20
-2245.3385
 30
0.0
 10
3210.8682
 20
-2245.1937
 30
0.0
 10
3207.0146
 20
-2245.6226
 30
0.0
 10
3207.0146
 20
-2245.6226
 30
0.0
 10
3207.0315
 20
-2245.9473
 30
0.0
 10
3207.0395
 20
-2246.2749
 30
0.0
 10
3207.0395
 20
-2246.6038
 30
0.0
 10
3207.0395
 20
-2246.6038
 30
0.0
 10
3207.0395
 20
-2246.6038
 30
0.0
 10
3186.5058
 20
-2246.6038
 30
0.0
 10
3186.5058
 20
-2246.6038
 30
0.0
 10
3186.5058
 20
-2246.6038
 30
0.0
 10
3186.5058
 20
-2246.6038
 30
0.0
 10
3186.5058
 20
-2250.2958
 30
0.0
 10
3186.5058
 20
-2250.2958
 30
0.0
 10
3186.5058
 20
-2250.2958
 30
0.0
 10
3186.5058
 20
-2250.2958
 30
0.0
 10
3176.4058
 20
-2250.3039
 30
0.0
 10
3176.4058
 20
-2250.3039
 30
0.0
 10
3176.4058
 20
-2250.3039
 30
0.0
 10
3176.4058
 20
-2250.3039
 30
0.0
 10
3176.4058
 20
-2246.6038
 30
0.0
 10
3176.4058
 20
-2246.6038
 30
0.0
 10
3176.4058
 20
-2246.6038
 30
0.0
 10
3176.4058
 20
-2246.6038
 30
0.0
 10
3165.9724
 20
-2246.6038
 30
0.0
 10
3165.9724
 20
-2246.6038
 30
0.0
 10
3165.9724
 20
-2246.6038
 30
0.0
 10
3165.9724
 20
-2246.2749
 30
0.0
 10
3165.9804
 20
-2245.9473
 30
0.0
 10
3165.9974
 20
-2245.6226
 30
0.0
 10
3165.9974
 20
-2245.6226
 30
0.0
 10
3162.1433
 20
-2245.1937
 30
0.0
 10
3159.5094
 20
-2245.3385
 30
0.0
 10
3155.7405
 20
-2245.3749
 30
0.0
 10
3155.7405
 20
-2245.3749
 30
0.0
 10
3151.3356
 20
-2245.4164
 30
0.0
 10
3146.911
 20
-2244.7048
 30
0.0
 10
3146.3323
 20
-2242.3815
 30
0.0
 10
3146.3323
 20
-2242.3815
 30
0.0
 10
3147.3813
 20
-2240.2289
 30
0.0
 10
3151.8161
 20
-2240.4477
 30
0.0
 10
3156.1151
 20
-2241.4053
 30
0.0
 10
3156.1151
 20
-2241.4053
 30
0.0
 10
3159.7943
 20
-2242.2236
 30
0.0
 10
3162.3415
 20
-2242.9141
 30
0.0
 10
3166.2192
 20
-2243.2989
 30
0.0
 10
3166.2192
 20
-2243.2989
 30
0.0
 10
3166.3144
 20
-2242.829
 30
0.0
 10
3166.4072
 20
-2242.3612
 30
0.0
 10
3166.5189
 20
-2241.9006
 30
0.0
 10
3166.5189
 20
-2241.9006
 30
0.0
 10
3162.8097
 20
-2240.7784
 30
0.0
 10
3160.1935
 20
-2240.4401
 30
0.0
 10
3156.4804
 20
-2239.789
 30
0.0
 10
3156.4804
 20
-2239.789
 30
0.0
 10
3152.1425
 20
-2239.0279
 30
0.0
 10
3147.9215
 20
-2237.5212
 30
0.0
 10
3147.7758
 20
-2235.1315
 30
0.0
 10
3147.7758
 20
-2235.1315
 30
0.0
 10
3149.1999
 20
-2233.2062
 30
0.0
 10
3153.52
 20
-2234.2294
 30
0.0
 10
3157.573
 20
-2235.954
 30
0.0
 10
3157.573
 20
-2235.954
 30
0.0
 10
3161.0418
 20
-2237.4289
 30
0.0
 10
3163.4197
 20
-2238.5719
 30
0.0
 10
3167.1616
 20
-2239.6569
 30
0.0
 10
3167.1616
 20
-2239.6569
 30
0.0
 10
3167.3398
 20
-2239.2129
 30
0.0
 10
3167.5171
 20
-2238.7701
 30
0.0
 10
3167.7119
 20
-2238.3374
 30
0.0
 10
3167.7119
 20
-2238.3374
 30
0.0
 10
3164.2702
 20
-2236.5564
 30
0.0
 10
3161.7581
 20
-2235.7491
 30
0.0
 10
3158.2271
 20
-2234.4313
 30
0.0
 10
3158.2271
 20
-2234.4313
 30
0.0
 10
3154.1
 20
-2232.8921
 30
0.0
 10
3150.2235
 20
-2230.6412
 30
0.0
 10
3150.5165
 20
-2228.2659
 30
0.0
 10
3150.5165
 20
-2228.2659
 30
0.0
 10
3152.267
 20
-2226.6322
 30
0.0
 10
3156.3289
 20
-2228.4255
 30
0.0
 10
3160.0
 20
-2230.8596
 30
0.0
 10
3160.0
 20
-2230.8596
 30
0.0
 10
3163.1416
 20
-2232.9429
 30
0.0
 10
3165.2714
 20
-2234.4995
 30
0.0
 10
3168.7541
 20
-2236.2483
 30
0.0
 10
3168.7541
 20
-2236.2483
 30
0.0
 10
3169.0115
 20
-2235.8461
 30
0.0
 10
3169.2663
 20
-2235.4439
 30
0.0
 10
3169.5357
 20
-2235.0523
 30
0.0
 10
3169.5357
 20
-2235.0523
 30
0.0
 10
3166.4749
 20
-2232.6732
 30
0.0
 10
3164.1526
 20
-2231.4206
 30
0.0
 10
3160.9199
 20
-2229.4821
 30
0.0
 10
3160.9199
 20
-2229.4821
 30
0.0
 10
3157.1429
 20
-2227.216
 30
0.0
 10
3153.7419
 20
-2224.2971
 30
0.0
 10
3154.4628
 20
-2222.0137
 30
0.0
 10
3154.4628
 20
-2222.0137
 30
0.0
 10
3156.4813
 20
-2220.7267
 30
0.0
 10
3160.1486
 20
-2223.2308
 30
0.0
 10
3163.3143
 20
-2226.2932
 30
0.0
 10
3163.3143
 20
-2226.2932
 30
0.0
 10
3166.024
 20
-2228.9136
 30
0.0
 10
3167.8342
 20
-2230.8321
 30
0.0
 10
3170.9258
 20
-2233.1749
 30
0.0
 10
3170.9258
 20
-2233.1749
 30
0.0
 10
3171.3115
 20
-2232.7109
 30
0.0
 10
3171.5028
 20
-2232.5809
 30
0.0
 10
3171.9274
 20
-2232.1542
 30
0.0
 10
3171.9274
 20
-2232.1542
 30
0.0
 10
3169.3502
 20
-2229.2561
 30
0.0
 10
3167.2953
 20
-2227.6017
 30
0.0
 10
3164.47
 20
-2225.1061
 30
0.0
 10
3164.47
 20
-2225.1061
 30
0.0
 10
3161.1693
 20
-2222.1898
 30
0.0
 10
3158.357
 20
-2218.6998
 30
0.0
 10
3159.4818
 20
-2216.5865
 30
0.0
 10
3159.4818
 20
-2216.5865
 30
0.0
 10
3161.7014
 20
-2215.6887
 30
0.0
 10
3164.8506
 20
-2218.8188
 30
0.0
 10
3167.4045
 20
-2222.4065
 30
0.0
 10
3167.4045
 20
-2222.4065
 30
0.0
 10
3169.5915
 20
-2225.4774
 30
0.0
 10
3171.0219
 20
-2227.6935
 30
0.0
 10
3173.6483
 20
-2230.5764
 30
0.0
 10
3173.6483
 20
-2230.5764
 30
0.0
 10
3174.0322
 20
-2230.2941
 30
0.0
 10
3174.4141
 20
-2230.0087
 30
0.0
 10
3174.8057
 20
-2229.7387
 30
0.0
 10
3174.8057
 20
-2229.7387
 30
0.0
 10
3172.7999
 20
-2226.4202
 30
0.0
 10
3171.0812
 20
-2224.4186
 30
0.0
 10
3168.7579
 20
-2221.4511
 30
0.0
 10
3168.7579
 20
-2221.4511
 30
0.0
 10
3166.0435
 20
-2217.9819
 30
0.0
 10
3163.915
 20
-2214.0381
 30
0.0
 10
3165.406
 20
-2212.164
 30
0.0
 10
3165.406
 20
-2212.164
 30
0.0
 10
3167.7525
 20
-2211.6865
 30
0.0
 10
3170.2777
 20
-2215.3377
 30
0.0
 10
3172.1357
 20
-2219.331
 30
0.0
 10
3172.1357
 20
-2219.331
 30
0.0
 10
3173.7266
 20
-2222.749
 30
0.0
 10
3174.729
 20
-2225.1891
 30
0.0
 10
3176.7848
 20
-2228.5004
 30
0.0
 10
3176.7848
 20
-2228.5004
 30
0.0
 10
3177.2119
 20
-2228.2913
 30
0.0
 10
3177.64
 20
-2228.08
 30
0.0
 10
3178.0759
 20
-2227.8874
 30
0.0
 10
3178.0759
 20
-2227.8874
 30
0.0
 10
3176.709
 20
-2224.2607
 30
0.0
 10
3175.3839
 20
-2221.9794
 30
0.0
 10
3173.6406
 20
-2218.6372
 30
0.0
 10
3173.6406
 20
-2218.6372
 30
0.0
 10
3171.6036
 20
-2214.7319
 30
0.0
 10
3170.229
 20
-2210.4656
 30
0.0
 10
3172.0366
 20
-2208.8963
 30
0.0
 10
3172.0366
 20
-2208.8963
 30
0.0
 10
3174.4307
 20
-2208.8531
 30
0.0
 10
3176.2484
 20
-2212.904
 30
0.0
 10
3177.3478
 20
-2217.1699
 30
0.0
 10
3177.3478
 20
-2217.1699
 30
0.0
 10
3178.2893
 20
-2220.8203
 30
0.0
 10
3178.8299
 20
-2223.4014
 30
0.0
 10
3180.2472
 20
-2227.031
 30
0.0
 10
3180.2472
 20
-2227.031
 30
0.0
 10
3180.7052
 20
-2226.9036
 30
0.0
 10
3181.1646
 20
-2226.7741
 30
0.0
 10
3181.6299
 20
-2226.664
 30
0.0
 10
3181.6299
 20
-2226.664
 30
0.0
 10
3180.9461
 20
-2222.8493
 30
0.0
 10
3180.0593
 20
-2220.3648
 30
0.0
 10
3178.9539
 20
-2216.7614
 30
0.0
 10
3178.9539
 20
-2216.7614
 30
0.0
 10
3177.6627
 20
-2212.5501
 30
0.0
 10
3177.0892
 20
-2208.1055
 30
0.0
 10
3179.1517
 20
-2206.8905
 30
0.0
 10
3179.1517
 20
-2206.8905
 30
0.0
 10
3181.5138
 20
-2207.2851
 30
0.0
 10
3182.5632
 20
-2211.5993
 30
0.0
 10
3182.8664
 20
-2215.993
 30
0.0
 10
3182.8664
 20
-2215.993
 30
0.0
 10
3183.1263
 20
-2219.7543
 30
0.0
 10
3183.1885
 20
-2222.3913
 30
0.0
 10
3183.9209
 20
-2226.2203
 30
0.0
 10
3183.9209
 20
-2226.2203
 30
0.0
 10
3184.3933
 20
-2226.1797
 30
0.0
 10
3184.8683
 20
-2226.1365
 30
0.0
 10
3185.3467
 20
-2226.1115
 30
0.0
 10
3185.3467
 20
-2226.1115
 30
0.0
 10
3185.37
 20
-2222.2347
 30
0.0
 10
3184.95
 20
-2219.6295
 30
0.0
 10
3184.5199
 20
-2215.8851
 30
0.0
 10
3184.5199
 20
-2215.8851
 30
0.0
 10
3184.0187
 20
-2211.5146
 30
0.0
 10
3184.2634
 20
-2207.0446
 30
0.0
 10
3186.5058
 20
-2206.2187
 30
0.0
  0
SPLINE
  5
AA
330
1F
100
AcDbEntity
  8
Camada 1
 62
   250
370
     9
100
AcDbSpline
210
0.0
220
0.0
230
1.0
 70
    11
 71
     3
 72
    20
 73
    16
 74
     0
 42
0.000000001
 43
0.0000000001
 40
0.0
 40
0.0
 40
0.0
 40
0.0
 40
0.2
 40
0.2
 40
0.2
 40
0.2
 40
0.4
 40
0.4
 40
0.4
 40
0.4
 40
0.6
 40
0.6
 40
0.6
 40
0.6
 40
1.0
 40
1.0
 40
1.0
 40
1.0
 10
2776.6028
 20
-2321.7869
 30
0.0
 10
2776.6028
 20
-2321.7869
 30
0.0
 10
2796.4206
 20
-2321.7869
 30
0.0
 10
2796.4206
 20
-2321.7869
 30
0.0
 10
2796.4206
 20
-2321.7869
 30
0.0
 10
2796.4206
 20
-2321.7869
 30
0.0
 10
2796.4206
 20
-2328.0869
 30
0.0
 10
2796.4206
 20
-2328.0869
 30
0.0
 10
2796.4206
 20
-2328.0869
 30
0.0
 10
2796.4206
 20
-2328.0869
 30
0.0
 10
2776.6028
 20
-2328.0869
 30
0.0
 10
2776.6028
 20
-2328.0869
 30
0.0
 10
2776.6028
 20
-2328.0869
 30
0.0
 10
2776.6028
 20
-2328.0869
 30
0.0
 10
2776.6028
 20
-2321.7869
 30
0.0
 10
2776.6028
 20
-2321.7869
 30
0.0
  0
SPLINE
  5
AB
330
1F
100
AcDbEntity
  8
Camada 1
 62
   250
370
    18
100
AcDbSpline
210
0.0
220
0.0
230
1.0
 70
     8
 71
     3
 72
    16
 73
    12
 74
     0
 42
0.000000001
 43
0.0000000001
 40
0.0
 40
0.0
 40
0.0
 40
0.0
 40
0.25
 40
0.25
 40
0.25
 40
0.25
 40
0.5
 40
0.5
 40
0.5
 40
0.5
 40
1.0
 40
1.0
 40
1.0
 40
1.0
 10
2812.2275
 20
-2422.6046
 30
0.0
 10
2812.2275
 20
-2422.6046
 30
0.0
 10
2812.2275
 20
-2428.7658
 30
0.0
 10
2812.2275
 20
-2428.7658
 30
0.0
 10
2812.2275
 20
-2428.7658
 30
0.0
 10
2812.2275
 20
-2428.7658
 30
0.0
 10
2752.2553
 20
-2428.7658
 30
0.0
 10
2752.2553
 20
-2428.7658
 30
0.0
 10
2752.2553
 20
-2428.7658
 30
0.0
 10
2752.2553
 20
-2428.7658
 30
0.0
 10
2752.2553
 20
-2422.6046
 30
0.0
 10
2752.2553
 20
-2422.6046
 30
0.0
  0
SPLINE
  5
AC
330
1F
100
AcDbEntity
  8
Camada 1
 62
   250
370
    18
100
AcDbSpline
210
0.0
220
0.0
230
1.0
 70
    11
 71
     3
 72
    20
 73
    16
 74
     0
 42
0.000000001
 43
0.0000000001
 40
0.0
 40
0.0
 40
0.0
 40
0.0
 40
0.2
 40
0.2
 40
0.2
 40
0.2
 40
0.4
 40
0.4
 40
0.4
 40
0.4
 40
0.6
 40
0.6
 40
0.6
 40
0.6
 40
1.0
 40
1.0
 40
1.0
 40
1.0
 10
2872.6565
 20
-2230.3888
 30
0.0
 10
2872.6565
 20
-2230.3888
 30
0.0
 10
2932.6287
 20
-2230.3888
 30
0.0
 10
2932.6287
 20
-2230.3888
 30
0.0
 10
2932.6287
 20
-2230.3888
 30
0.0
 10
2932.6287
 20
-2230.3888
 30
0.0
 10
2932.6287
 20
-2233.2888
 30
0.0
 10
2932.6287
 20
-2233.2888
 30
0.0
 10
2932.6287
 20
-2233.2888
 30
0.0
 10
2932.6287
 20
-2233.2888
 30
0.0
 10
2872.6565
 20
-2233.2888
 30
0.0
 10
2872.6565
 20
-2233.2888
 30
0.0
 10
2872.6565
 20
-2233.2888
 30
0.0
 10
2872.6565
 20
-2233.2888
 30
0.0
 10
2872.6565
 20
-2230.3888
 30
0.0
 10
2872.6565
 20
-2230.3888
 30
0.0
  0
SPLINE
  5
AD
330
1F
100
AcDbEntity
  8
Camada 1
 62
   250
370
    18
100
AcDbSpline
210
0.0
220
0.0
230
1.0
 70
     8
 71
     3
 72
    12
 73
     8
 74
     0
 42
0.000000001
 43
0.0000000001
 40
0.0
 40
0.0
 40
0.0
 40
0.0
 40
0.3333333333333333
 40
0.3333333333333333
 40
0.3333333333333333
 40
0.3333333333333333
 40
1.0
 40
1.0
 40
1.0
 40
1.0
 10
2775.404
 20
-2422.1604
 30
0.0
 10
2779.5652
 20
-2422.2111
 30
0.0
 10
2783.7264
 20
-2422.2619
 30
0.0
 10
2785.807
 20
-2422.2872
 30
0.0
 10
2785.807
 20
-2422.2872
 30
0.0
 10
2787.8876
 20
-2422.3126
 30
0.0
 10
2787.8876
 20
-2422.3126
 30
0.0
 10
2787.8876
 20
-2422.3126
 30
0.0
  0
SPLINE
  5
AE
330
1F
100
AcDbEntity
  8
Camada 1
 62
   250
370
    18
100
AcDbSpline
210
0.0
220
0.0
230
1.0
 70
     8
 71
     3
 72
     8
 73
     4
 74
     0
 42
0.000000001
 43
0.0000000001
 40
0.0
 40
0.0
 40
0.0
 40
0.0
 40
1.0
 40
1.0
 40
1.0
 40
1.0
 10
2804.766
 20
-2422.2721
 30
0.0
 10
2807.2532
 20
-2422.3829
 30
0.0
 10
2809.7403
 20
-2422.4938
 30
0.0
 10
2812.2275
 20
-2422.6046
 30
0.0
  0
SPLINE
  5
AF
330
1F
100
AcDbEntity
  8
Camada 1
 62
   250
370
    18
100
AcDbSpline
210
0.0
220
0.0
230
1.0
 70
    11
 71
     3
 72
    20
 73
    16
 74
     0
 42
0.000000001
 43
0.0000000001
 40
0.0
 40
0.0
 40
0.0
 40
0.0
 40
0.2
 40
0.2
 40
0.2
 40
0.2
 40
0.4
 40
0.4
 40
0.4
 40
0.4
 40
0.6
 40
0.6
 40
0.6
 40
0.6
 40
1.0
 40
1.0
 40
1.0
 40
1.0
 10
2902.6426
 20
-2161.8388
 30
0.0
 10
2941.3025
 20
-2161.8388
 30
0.0
 10
2972.6426
 20
-2193.1789
 30
0.0
 10
2972.6426
 20
-2231.8388
 30
0.0
 10
2972.6426
 20
-2231.8388
 30
0.0
 10
2972.6426
 20
-2270.4987
 30
0.0
 10
2941.3025
 20
-2301.8388
 30
0.0
 10
2902.6426
 20
-2301.8388
 30
0.0
 10
2902.6426
 20
-2301.8388
 30
0.0
 10
2863.9827
 20
-2301.8388
 30
0.0
 10
2832.6426
 20
-2270.4987
 30
0.0
 10
2832.6426
 20
-2231.8388
 30
0.0
 10
2832.6426
 20
-2231.8388
 30
0.0
 10
2832.6426
 20
-2193.1789
 30
0.0
 10
2863.9827
 20
-2161.8388
 30
0.0
 10
2902.6426
 20
-2161.8388
 30
0.0
  0
ENDSEC
  0
SECTION
  2
OBJECTS
  0
DICTIONARY
  5
C
330
0
100
AcDbDictionary
281
     1
  3
ACAD_DETAILVIEWSTYLE
350
EB
  3
ACAD_GROUP
350
D
  3
ACAD_LAYOUT
350
1A
  3
ACAD_MATERIAL
350
43
  3
ACAD_MLEADERSTYLE
350
6B
  3
ACAD_MLINESTYLE
350
17
  3
ACAD_PLOTSETTINGS
350
19
  3
ACAD_PLOTSTYLENAME
350
E
  3
ACAD_SCALELIST
350
47
  3
ACAD_SECTIONVIEWSTYLE
350
EC
  3
ACAD_TABLESTYLE
350
69
  3
ACAD_VISUALSTYLE
350
2A
  3
ACDB_RECOMPOSE_DATA
350
E8
  3
AcDbVariableDictionary
350
B0
  0
SUN
  5
6D
330
29
100
AcDbSun
 90
        1
290
     0
 63
     7
421
 16777215
 40
1.0
291
     1
 91
  2455826
 92
 54000000
292
     0
 70
     2
 71
   256
280
     1
  0
DICTIONARY
  5
EB
102
{ACAD_REACTORS
330
C
102
}
330
C
100
AcDbDictionary
281
     1
  0
DICTIONARY
  5
D
102
{ACAD_REACTORS
330
C
102
}
330
C
100
AcDbDictionary
281
     1
  0
DICTIONARY
  5
1A
102
{ACAD_REACTORS
330
C
102
}
330
C
100
AcDbDictionary
281
     1
  3
Layout1
350
1E
  3
Layout2
350
26
  3
Model
350
22
  0
DICTIONARY
  5
43
102
{ACAD_REACTORS
330
C
102
}
330
C
100
AcDbDictionary
281
     1
  3
ByBlock
350
45
  3
ByLayer
350
44
  3
Global
350
46
  0
DICTIONARY
  5
6B
102
{ACAD_REACTORS
330
C
102
}
330
C
100
AcDbDictionary
281
     1
  3
Standard
350
6C
  0
DICTIONARY
  5
17
102
{ACAD_REACTORS
330
C
102
}
330
C
100
AcDbDictionary
281
     1
  3
Standard
350
18
  0
DICTIONARY
  5
19
102
{ACAD_REACTORS
330
C
102
}
330
C
100
AcDbDictionary
281
     1
  0
ACDBDICTIONARYWDFLT
  5
E
102
{ACAD_REACTORS
330
C
102
}
330
C
100
AcDbDictionary
281
     1
  3
Normal
350
F
100
AcDbDictionaryWithDefault
340
F
  0
DICTIONARY
  5
47
102
{ACAD_REACTORS
330
C
102
}
330
C
100
AcDbDictionary
281
     1
  3
A0
350
48
  3
A1
350
49
  3
A2
350
4A
  3
A3
350
4B
  3
A4
350
4C
  3
A5
350
4D
  3
A6
350
4E
  3
A7
350
4F
  3
A8
350
50
  3
A9
350
51
  3
B0
350
52
  3
B1
350
53
  3
B2
350
54
  3
B3
350
55
  3
B4
350
56
  3
B5
350
57
  3
B6
350
58
  3
B7
350
59
  3
B8
350
5A
  3
B9
350
5B
  3
C0
350
5C
  3
C1
350
5D
  3
C2
350
5E
  3
C3
350
5F
  3
C4
350
60
  3
C5
350
61
  3
C6
350
62
  3
C7
350
63
  3
C8
350
64
  3
C9
350
65
  3
D0
350
66
  3
D1
350
67
  3
D2
350
68
  0
DICTIONARY
  5
EC
102
{ACAD_REACTORS
330
C
102
}
330
C
100
AcDbDictionary
281
     1
  0
DICTIONARY
  5
69
102
{ACAD_REACTORS
330
C
102
}
330
C
100
AcDbDictionary
281
     1
  3
Standard
350
6A
  0
DICTIONARY
  5
2A
102
{ACAD_REACTORS
330
C
102
}
330
C
100
AcDbDictionary
281
     1
  3
2dWireframe
350
2F
  3
Basic
350
32
  3
Brighten
350
36
  3
ColorChange
350
3A
  3
Conceptual
350
34
  3
Dim
350
35
  3
EdgeColorOff
350
3D
  3
Facepattern
350
39
  3
Flat
350
2B
  3
FlatWithEdges
350
2C
  3
Gouraud
350
2D
  3
GouraudWithEdges
350
2E
  3
Hidden
350
31
  3
JitterOff
350
3B
  3
Linepattern
350
38
  3
OverhangOff
350
3C
  3
Realistic
350
33
  3
Shaded
350
42
  3
Shaded with edges
350
41
  3
Shades of Gray
350
3E
  3
Sketchy
350
3F
  3
Thicken
350
37
  3
Wireframe
350
30
  3
X-Ray
350
40
  0
XRECORD
  5
E8
102
{ACAD_REACTORS
330
C
102
}
330
C
100
AcDbXrecord
280
     1
 90
        1
330
6A
  0
DICTIONARY
  5
B0
102
{ACAD_REACTORS
330
C
102
}
330
C
100
AcDbDictionary
281
     1
  3
CANNOSCALE
350
B1
  3
CMLEADERSTYLE
350
EA
  3
CTABLESTYLE
350
E9
  3
XCLIPFRAME
350
B2
  0
LAYOUT
  5
1E
102
{ACAD_REACTORS
330
1A
102
}
330
1A
100
AcDbPlotSettings
  1

  2
none_device
  4

  6

 40
0.0
 41
0.0
 42
0.0
 43
0.0
 44
0.0
 45
0.0
 46
0.0
 47
0.0
 48
0.0
 49
0.0
140
0.0
141
0.0
142
1.0
143
1.0
 70
   688
 72
     0
 73
     0
 74
     5
  7

 75
    16
 76
     0
 77
     2
 78
   300
147
1.0
148
0.0
149
0.0
100
AcDbLayout
  1
Layout1
 70
     1
 71
     1
 10
0.0
 20
0.0
 11
12.0
 21
9.0
 12
0.0
 22
0.0
 32
0.0
 14
1.000000000000000E+20
 24
1.000000000000000E+20
 34
1.000000000000000E+20
 15
-1.000000000000000E+20
 25
-1.000000000000000E+20
 35
-1.000000000000000E+20
146
0.0
 13
0.0
 23
0.0
 33
0.0
 16
1.0
 26
0.0
 36
0.0
 17
0.0
 27
1.0
 37
0.0
 76
     0
330
1B
  0
LAYOUT
  5
26
102
{ACAD_REACTORS
330
1A
102
}
330
1A
100
AcDbPlotSettings
  1

  2
none_device
  4

  6

 40
0.0
 41
0.0
 42
0.0
 43
0.0
 44
0.0
 45
0.0
 46
0.0
 47
0.0
 48
0.0
 49
0.0
140
0.0
141
0.0
142
1.0
143
1.0
 70
   688
 72
     0
 73
     0
 74
     5
  7

 75
    16
 76
     0
 77
     2
 78
   300
147
1.0
148
0.0
149
0.0
100
AcDbLayout
  1
Layout2
 70
     1
 71
     2
 10
0.0
 20
0.0
 11
0.0
 21
0.0
 12
0.0
 22
0.0
 32
0.0
 14
0.0
 24
0.0
 34
0.0
 15
0.0
 25
0.0
 35
0.0
146
0.0
 13
0.0
 23
0.0
 33
0.0
 16
1.0
 26
0.0
 36
0.0
 17
0.0
 27
1.0
 37
0.0
 76
     0
330
23
  0
LAYOUT
  5
22
102
{ACAD_REACTORS
330
1A
102
}
330
1A
100
AcDbPlotSettings
  1

  2
none_device
  4
Letter_(8.50_x_11.00_Inches)
  6

 40
6.35
 41
6.35
 42
6.35000508
 43
6.35000508
 44
215.9
 45
279.4
 46
0.0
 47
0.0
 48
0.0
 49
0.0
140
0.0
141
0.0
142
1.0
143
1.0
 70
  1712
 72
     0
 73
     0
 74
     0
  7

 75
     0
 76
     0
 77
     2
 78
   300
147
1.0
148
0.0
149
0.0
100
AcDbLayout
  1
Model
 70
     1
 71
     0
 10
0.0
 20
0.0
 11
12.0
 21
9.0
 12
0.0
 22
0.0
 32
0.0
 14
2682.8189
 24
-2478.8376
 34
0.0
 15
3272.0383
 25
-2161.7488
 35
0.0
146
0.0
 13
0.0
 23
0.0
 33
0.0
 16
1.0
 26
0.0
 36
0.0
 17
0.0
 27
1.0
 37
0.0
 76
     0
330
1F
331
29
  0
MATERIAL
  5
45
102
{ACAD_REACTORS
330
43
102
}
330
43
100
AcDbMaterial
  1
ByBlock
 72
     1
 94
      127
  0
MATERIAL
  5
44
102
{ACAD_REACTORS
330
43
102
}
330
43
100
AcDbMaterial
  1
ByLayer
 72
     1
 94
      127
  0
MATERIAL
  5
46
102
{ACAD_REACTORS
330
43
102
}
330
43
100
AcDbMaterial
  1
Global
 72
     1
 94
      127
  0
MLEADERSTYLE
  5
6C
102
{ACAD_REACTORS
330
6B
102
}
102
{ACAD_XDICTIONARY
360
E6
102
}
330
6B
100
AcDbMLeaderStyle
170
     2
171
     1
172
     0
 90
        2
 40
0.0
 41
0.0
173
     1
 91
-1056964608
340
14
 92
       -2
290
     1
 42
0.09
291
     1
 43
0.36
  3
Standard
341
0
 44
0.18
300

342
11
174
     1
178
     6
175
     1
176
     0
 93
-1056964608
 45
0.18
292
     0
297
     0
 46
0.18
343
0
 94
-1056964608
 47
1.0
 49
1.0
140
1.0
293
     1
141
0.0
294
     1
177
     0
142
1.0
295
     0
296
     0
143
0.125
1001
ACAD_MLEADERVER
1070
     2
  0
MLINESTYLE
  5
18
102
{ACAD_REACTORS
330
17
102
}
330
17
100
AcDbMlineStyle
  2
Standard
 70
     0
  3

 62
   256
 51
90.0
 52
90.0
 71
     2
 49
0.5
 62
   256
  6
BYLAYER
 49
-0.5
 62
   256
  6
BYLAYER
  0
ACDBPLACEHOLDER
  5
F
102
{ACAD_REACTORS
330
E
102
}
330
E
  0
SCALE
  5
48
102
{ACAD_REACTORS
330
47
102
}
330
47
100
AcDbScale
 70
     0
300
1:1
140
1.0
141
1.0
290
     1
  0
SCALE
  5
49
102
{ACAD_REACTORS
330
47
102
}
330
47
100
AcDbScale
 70
     0
300
1:2
140
1.0
141
2.0
290
     0
  0
SCALE
  5
4A
102
{ACAD_REACTORS
330
47
102
}
330
47
100
AcDbScale
 70
     0
300
1:4
140
1.0
141
4.0
290
     0
  0
SCALE
  5
4B
102
{ACAD_REACTORS
330
47
102
}
330
47
100
AcDbScale
 70
     0
300
1:5
140
1.0
141
5.0
290
     0
  0
SCALE
  5
4C
102
{ACAD_REACTORS
330
47
102
}
330
47
100
AcDbScale
 70
     0
300
1:8
140
1.0
141
8.0
290
     0
  0
SCALE
  5
4D
102
{ACAD_REACTORS
330
47
102
}
330
47
100
AcDbScale
 70
     0
300
1:10
140
1.0
141
10.0
290
     0
  0
SCALE
  5
4E
102
{ACAD_REACTORS
330
47
102
}
330
47
100
AcDbScale
 70
     0
300
1:16
140
1.0
141
16.0
290
     0
  0
SCALE
  5
4F
102
{ACAD_REACTORS
330
47
102
}
330
47
100
AcDbScale
 70
     0
300
1:20
140
1.0
141
20.0
290
     0
  0
SCALE
  5
50
102
{ACAD_REACTORS
330
47
102
}
330
47
100
AcDbScale
 70
     0
300
1:30
140
1.0
141
30.0
290
     0
  0
SCALE
  5
51
102
{ACAD_REACTORS
330
47
102
}
330
47
100
AcDbScale
 70
     0
300
1:40
140
1.0
141
40.0
290
     0
  0
SCALE
  5
52
102
{ACAD_REACTORS
330
47
102
}
330
47
100
AcDbScale
 70
     0
300
1:50
140
1.0
141
50.0
290
     0
  0
SCALE
  5
53
102
{ACAD_REACTORS
330
47
102
}
330
47
100
AcDbScale
 70
     0
300
1:100
140
1.0
141
100.0
290
     0
  0
SCALE
  5
54
102
{ACAD_REACTORS
330
47
102
}
330
47
100
AcDbScale
 70
     0
300
2:1
140
2.0
141
1.0
290
     0
  0
SCALE
  5
55
102
{ACAD_REACTORS
330
47
102
}
330
47
100
AcDbScale
 70
     0
300
4:1
140
4.0
141
1.0
290
     0
  0
SCALE
  5
56
102
{ACAD_REACTORS
330
47
102
}
330
47
100
AcDbScale
 70
     0
300
8:1
140
8.0
141
1.0
290
     0
  0
SCALE
  5
57
102
{ACAD_REACTORS
330
47
102
}
330
47
100
AcDbScale
 70
     0
300
10:1
140
10.0
141
1.0
290
     0
  0
SCALE
  5
58
102
{ACAD_REACTORS
330
47
102
}
330
47
100
AcDbScale
 70
     0
300
100:1
140
100.0
141
1.0
290
     0
  0
SCALE
  5
59
102
{ACAD_REACTORS
330
47
102
}
330
47
100
AcDbScale
 70
     0
300
1/128" = 1'-0"
140
0.0078125
141
12.0
290
     0
  0
SCALE
  5
5A
102
{ACAD_REACTORS
330
47
102
}
330
47
100
AcDbScale
 70
     0
300
1/64" = 1'-0"
140
0.015625
141
12.0
290
     0
  0
SCALE
  5
5B
102
{ACAD_REACTORS
330
47
102
}
330
47
100
AcDbScale
 70
     0
300
1/32" = 1'-0"
140
0.03125
141
12.0
290
     0
  0
SCALE
  5
5C
102
{ACAD_REACTORS
330
47
102
}
330
47
100
AcDbScale
 70
     0
300
1/16" = 1'-0"
140
0.0625
141
12.0
290
     0
  0
SCALE
  5
5D
102
{ACAD_REACTORS
330
47
102
}
330
47
100
AcDbScale
 70
     0
300
3/32" = 1'-0"
140
0.09375
141
12.0
290
     0
  0
SCALE
  5
5E
102
{ACAD_REACTORS
330
47
102
}
330
47
100
AcDbScale
 70
     0
300
1/8" = 1'-0"
140
0.125
141
12.0
290
     0
  0
SCALE
  5
5F
102
{ACAD_REACTORS
330
47
102
}
330
47
100
AcDbScale
 70
     0
300
3/16" = 1'-0"
140
0.1875
141
12.0
290
     0
  0
SCALE
  5
60
102
{ACAD_REACTORS
330
47
102
}
330
47
100
AcDbScale
 70
     0
300
1/4" = 1'-0"
140
0.25
141
12.0
290
     0
  0
SCALE
  5
61
102
{ACAD_REACTORS
330
47
102
}
330
47
100
AcDbScale
 70
     0
300
3/8" = 1'-0"
140
0.375
141
12.0
290
     0
  0
SCALE
  5
62
102
{ACAD_REACTORS
330
47
102
}
330
47
100
AcDbScale
 70
     0
300
1/2" = 1'-0"
140
0.5
141
12.0
290
     0
  0
SCALE
  5
63
102
{ACAD_REACTORS
330
47
102
}
330
47
100
AcDbScale
 70
     0
300
3/4" = 1'-0"
140
0.75
141
12.0
290
     0
  0
SCALE
  5
64
102
{ACAD_REACTORS
330
47
102
}
330
47
100
AcDbScale
 70
     0
300
1" = 1'-0"
140
1.0
141
12.0
290
     0
  0
SCALE
  5
65
102
{ACAD_REACTORS
330
47
102
}
330
47
100
AcDbScale
 70
     0
300
1-1/2" = 1'-0"
140
1.5
141
12.0
290
     0
  0
SCALE
  5
66
102
{ACAD_REACTORS
330
47
102
}
330
47
100
AcDbScale
 70
     0
300
3" = 1'-0"
140
3.0
141
12.0
290
     0
  0
SCALE
  5
67
102
{ACAD_REACTORS
330
47
102
}
330
47
100
AcDbScale
 70
     0
300
6" = 1'-0"
140
6.0
141
12.0
290
     0
  0
SCALE
  5
68
102
{ACAD_REACTORS
330
47
102
}
330
47
100
AcDbScale
 70
     0
300
1'-0" = 1'-0"
140
12.0
141
12.0
290
     0
  0
TABLESTYLE
  5
6A
102
{ACAD_REACTORS
330
69
102
}
102
{ACAD_XDICTIONARY
360
E3
102
}
330
69
100
AcDbTableStyle
  3
Standard
 70
     0
 71
     0
 40
0.06
 41
0.06
280
     0
281
     0
  7
Standard
140
0.18
170
     2
 62
     0
 63
   257
283
     0
 90
        4
 91
        0
  1

274
    -2
284
     1
 64
     0
275
    -2
285
     1
 65
     0
276
    -2
286
     1
 66
     0
277
    -2
287
     1
 67
     0
278
    -2
288
     1
 68
     0
279
    -2
289
     1
 69
     0
  7
Standard
140
0.25
170
     5
 62
     0
 63
   257
283
     0
 90
        4
 91
        0
  1

274
    -2
284
     1
 64
     0
275
    -2
285
     1
 65
     0
276
    -2
286
     1
 66
     0
277
    -2
287
     1
 67
     0
278
    -2
288
     1
 68
     0
279
    -2
289
     1
 69
     0
  7
Standard
140
0.18
170
     5
 62
     0
 63
   257
283
     0
 90
        4
 91
        0
  1

274
    -2
284
     1
 64
     0
275
    -2
285
     1
 65
     0
276
    -2
286
     1
 66
     0
277
    -2
287
     1
 67
     0
278
    -2
288
     1
 68
     0
279
    -2
289
     1
 69
     0
  0
VISUALSTYLE
  5
2F
102
{ACAD_REACTORS
330
2A
102
}
102
{ACAD_XDICTIONARY
360
BB
102
}
330
2A
100
AcDbVisualStyle
  2
2dWireframe
 70
     4
 71
     0
 72
     2
 73
     0
 90
        0
 40
0.6
 41
30.0
 62
     5
 63
     7
421
 16777215
 74
     1
 91
        4
 64
     7
 65
   257
 75
     1
175
     1
 42
1.0
 92
        0
 66
   257
 43
1.0
 76
     1
 77
     6
 78
     2
 67
     7
 79
     5
170
     0
171
     0
290
     0
174
     0
 93
        1
 44
0.0
173
     0
291
     0
 45
0.0
  0
VISUALSTYLE
  5
32
102
{ACAD_REACTORS
330
2A
102
}
102
{ACAD_XDICTIONARY
360
C1
102
}
330
2A
100
AcDbVisualStyle
  2
Basic
 70
     7
 71
     1
 72
     0
 73
     1
 90
        0
 40
0.6
 41
30.0
 62
     5
 63
     7
421
 16777215
 74
     0
 91
        4
 64
     7
 65
   257
 75
     1
175
     1
 42
1.0
 92
        8
 66
     7
 43
1.0
 76
     1
 77
     6
 78
     2
 67
     7
 79
     5
170
     0
171
     0
290
     0
174
     0
 93
        1
 44
0.0
173
     0
291
     1
 45
0.0
  0
VISUALSTYLE
  5
36
102
{ACAD_REACTORS
330
2A
102
}
102
{ACAD_XDICTIONARY
360
C9
102
}
330
2A
100
AcDbVisualStyle
  2
Brighten
 70
    12
 71
     2
 72
     2
 73
     0
 90
        0
 40
0.6
 41
30.0
 62
     5
 63
     7
421
 16777215
 74
     1
 91
        4
 64
     7
 65
   257
 75
     1
175
     1
 42
1.0
 92
        8
 66
     7
 43
1.0
 76
     1
 77
     6
 78
     2
 67
     7
 79
     5
170
     0
171
     0
290
     0
174
     0
 93
        1
 44
50.0
173
     0
291
     1
 45
0.0
  0
VISUALSTYLE
  5
3A
102
{ACAD_REACTORS
330
2A
102
}
102
{ACAD_XDICTIONARY
360
D1
102
}
330
2A
100
AcDbVisualStyle
  2
ColorChange
 70
    16
 71
     2
 72
     2
 73
     3
 90
        0
 40
0.6
 41
30.0
 62
     5
 63
     8
421
  8421504
 74
     1
 91
        4
 64
     7
 65
   257
 75
     1
175
     1
 42
1.0
 92
        8
 66
     8
424
  8421504
 43
1.0
 76
     1
 77
     6
 78
     2
 67
     7
 79
     5
170
     0
171
     0
290
     0
174
     0
 93
        1
 44
0.0
173
     0
291
     1
 45
0.0
  0
VISUALSTYLE
  5
34
102
{ACAD_REACTORS
330
2A
102
}
102
{ACAD_XDICTIONARY
360
C5
102
}
330
2A
100
AcDbVisualStyle
  2
Conceptual
 70
     9
 71
     3
 72
     2
 73
     0
 90
        0
 40
0.6
 41
30.0
 62
     5
 63
     7
421
 16777215
 74
     2
 91
        2
 64
     7
 65
   257
 75
     1
175
     1
 42
179.0
 92
        8
 66
     7
 43
1.0
 76
     1
 77
     6
 78
     2
 67
     7
 79
     3
170
     0
171
     0
290
     0
174
     0
 93
        1
 44
0.0
173
     0
291
     0
 45
0.0
  0
VISUALSTYLE
  5
35
102
{ACAD_REACTORS
330
2A
102
}
102
{ACAD_XDICTIONARY
360
C7
102
}
330
2A
100
AcDbVisualStyle
  2
Dim
 70
    11
 71
     2
 72
     2
 73
     0
 90
        0
 40
0.6
 41
30.0
 62
     5
 63
     7
421
 16777215
 74
     1
 91
        4
 64
     7
 65
   257
 75
     1
175
     1
 42
1.0
 92
        8
 66
     7
 43
1.0
 76
     1
 77
     6
 78
     2
 67
     7
 79
     5
170
     0
171
     0
290
     0
174
     0
 93
        1
 44
-50.0
173
     0
291
     1
 45
0.0
  0
VISUALSTYLE
  5
3D
102
{ACAD_REACTORS
330
2A
102
}
102
{ACAD_XDICTIONARY
360
D7
102
}
330
2A
100
AcDbVisualStyle
  2
EdgeColorOff
 70
    22
 71
     2
 72
     2
 73
     0
 90
        0
 40
0.6
 41
30.0
 62
     5
 63
     7
421
 16777215
 74
     1
 91
        4
 64
     7
 65
   257
 75
     1
175
     1
 42
1.0
 92
        8
 66
     7
 43
1.0
 76
     1
 77
     6
 78
     2
 67
     7
 79
     5
170
     0
171
     0
290
     0
174
     0
 93
        1
 44
0.0
173
     0
291
     1
 45
0.0
  0
VISUALSTYLE
  5
39
102
{ACAD_REACTORS
330
2A
102
}
102
{ACAD_XDICTIONARY
360
CF
102
}
330
2A
100
AcDbVisualStyle
  2
Facepattern
 70
    15
 71
     2
 72
     2
 73
     0
 90
        0
 40
0.6
 41
30.0
 62
     5
 63
     7
421
 16777215
 74
     1
 91
        4
 64
     7
 65
   257
 75
     1
175
     1
 42
1.0
 92
        8
 66
     7
 43
1.0
 76
     1
 77
     6
 78
     2
 67
     7
 79
     5
170
     0
171
     0
290
     0
174
     0
 93
        1
 44
0.0
173
     0
291
     1
 45
0.0
  0
VISUALSTYLE
  5
2B
102
{ACAD_REACTORS
330
2A
102
}
102
{ACAD_XDICTIONARY
360
B3
102
}
330
2A
100
AcDbVisualStyle
  2
Flat
 70
     0
 71
     2
 72
     1
 73
     1
 90
        2
 40
0.6
 41
30.0
 62
     5
 63
     7
421
 16777215
 74
     0
 91
        0
 64
     7
 65
   257
 75
     1
175
     1
 42
1.0
 92
        8
 66
     7
 43
1.0
 76
     1
 77
     6
 78
     2
 67
     7
 79
     5
170
     0
171
     0
290
     0
174
     0
 93
       13
 44
0.0
173
     0
291
     1
 45
0.0
  0
VISUALSTYLE
  5
2C
102
{ACAD_REACTORS
330
2A
102
}
102
{ACAD_XDICTIONARY
360
B5
102
}
330
2A
100
AcDbVisualStyle
  2
FlatWithEdges
 70
     1
 71
     2
 72
     1
 73
     1
 90
        2
 40
0.6
 41
30.0
 62
     5
 63
     7
421
 16777215
 74
     1
 91
        0
 64
     7
 65
   257
 75
     1
175
     1
 42
1.0
 92
        0
 66
   257
 43
1.0
 76
     1
 77
     6
 78
     2
 67
     7
 79
     5
170
     0
171
     0
290
     0
174
     0
 93
       13
 44
0.0
173
     0
291
     1
 45
0.0
  0
VISUALSTYLE
  5
2D
102
{ACAD_REACTORS
330
2A
102
}
102
{ACAD_XDICTIONARY
360
B7
102
}
330
2A
100
AcDbVisualStyle
  2
Gouraud
 70
     2
 71
     2
 72
     2
 73
     1
 90
        2
 40
0.6
 41
30.0
 62
     5
 63
     7
421
 16777215
 74
     0
 91
        0
 64
     7
 65
   257
 75
     1
175
     1
 42
1.0
 92
        0
 66
     7
 43
1.0
 76
     1
 77
     6
 78
     2
 67
     7
 79
     5
170
     0
171
     0
290
     0
174
     0
 93
       13
 44
0.0
173
     0
291
     1
 45
0.0
  0
VISUALSTYLE
  5
2E
102
{ACAD_REACTORS
330
2A
102
}
102
{ACAD_XDICTIONARY
360
B9
102
}
330
2A
100
AcDbVisualStyle
  2
GouraudWithEdges
 70
     3
 71
     2
 72
     2
 73
     1
 90
        2
 40
0.6
 41
30.0
 62
     5
 63
     7
421
 16777215
 74
     1
 91
        0
 64
     7
 65
   257
 75
     1
175
     1
 42
1.0
 92
        0
 66
   257
 43
1.0
 76
     1
 77
     6
 78
     2
 67
     7
 79
     5
170
     0
171
     0
290
     0
174
     0
 93
       13
 44
0.0
173
     0
291
     1
 45
0.0
  0
VISUALSTYLE
  5
31
102
{ACAD_REACTORS
330
2A
102
}
102
{ACAD_XDICTIONARY
360
BF
102
}
330
2A
100
AcDbVisualStyle
  2
Hidden
 70
     6
 71
     1
 72
     2
 73
     2
 90
        0
 40
0.6
 41
30.0
 62
     5
 63
     7
421
 16777215
 74
     2
 91
        2
 64
     7
 65
   257
 75
     2
175
     1
 42
40.0
 92
        0
 66
   257
 43
1.0
 76
     1
 77
     6
 78
     2
 67
     7
 79
     3
170
     0
171
     0
290
     0
174
     0
 93
        1
 44
0.0
173
     0
291
     0
 45
0.0
  0
VISUALSTYLE
  5
3B
102
{ACAD_REACTORS
330
2A
102
}
102
{ACAD_XDICTIONARY
360
D3
102
}
330
2A
100
AcDbVisualStyle
  2
JitterOff
 70
    20
 71
     2
 72
     2
 73
     0
 90
        0
 40
0.6
 41
30.0
 62
     5
 63
     7
421
 16777215
 74
     1
 91
        4
 64
     7
 65
   257
 75
     1
175
     1
 42
1.0
 92
       10
 66
     7
 43
1.0
 76
     1
 77
     6
 78
     2
 67
     7
 79
     5
170
     0
171
     0
290
     0
174
     0
 93
        1
 44
0.0
173
     0
291
     1
 45
0.0
  0
VISUALSTYLE
  5
38
102
{ACAD_REACTORS
330
2A
102
}
102
{ACAD_XDICTIONARY
360
CD
102
}
330
2A
100
AcDbVisualStyle
  2
Linepattern
 70
    14
 71
     2
 72
     2
 73
     0
 90
        0
 40
0.6
 41
30.0
 62
     5
 63
     7
421
 16777215
 74
     1
 91
        4
 64
     7
 65
   257
 75
     7
175
     7
 42
1.0
 92
        8
 66
     7
 43
1.0
 76
     1
 77
     6
 78
     2
 67
     7
 79
     5
170
     0
171
     0
290
     0
174
     0
 93
        1
 44
0.0
173
     0
291
     1
 45
0.0
  0
VISUALSTYLE
  5
3C
102
{ACAD_REACTORS
330
2A
102
}
102
{ACAD_XDICTIONARY
360
D5
102
}
330
2A
100
AcDbVisualStyle
  2
OverhangOff
 70
    21
 71
     2
 72
     2
 73
     0
 90
        0
 40
0.6
 41
30.0
 62
     5
 63
     7
421
 16777215
 74
     1
 91
        4
 64
     7
 65
   257
 75
     1
175
     1
 42
1.0
 92
        9
 66
     7
 43
1.0
 76
     1
 77
     6
 78
     2
 67
     7
 79
     5
170
     0
171
     0
290
     0
174
     0
 93
        1
 44
0.0
173
     0
291
     1
 45
0.0
  0
VISUALSTYLE
  5
33
102
{ACAD_REACTORS
330
2A
102
}
102
{ACAD_XDICTIONARY
360
C3
102
}
330
2A
100
AcDbVisualStyle
  2
Realistic
 70
     8
 71
     2
 72
     3
 73
     0
 90
        2
 40
0.6
 41
30.0
 62
     5
 63
     7
421
 16777215
 74
     0
 91
        0
 64
     7
 65
   257
 75
     1
175
     1
 42
1.0
 92
        8
 66
   257
 43
1.0
 76
     1
 77
     6
 78
     2
 67
     7
 79
     3
170
     0
171
     0
290
     0
174
     0
 93
       13
 44
0.0
173
     0
291
     0
 45
0.0
  0
VISUALSTYLE
  5
42
102
{ACAD_REACTORS
330
2A
102
}
102
{ACAD_XDICTIONARY
360
E1
102
}
330
2A
100
AcDbVisualStyle
  2
Shaded
 70
    27
 71
     2
 72
     2
 73
     1
 90
        2
 40
0.6
 41
30.0
 62
     5
 63
     7
421
 16777215
 74
     0
 91
        4
 64
     7
 65
   257
 75
     1
175
     1
 42
1.0
 92
        8
 66
   257
 43
1.0
 76
     1
 77
     6
 78
     2
 67
     8
425
  7895160
 79
     3
170
     0
171
     0
290
     0
174
     0
 93
        5
 44
0.0
173
     0
291
     0
 45
0.0
  0
VISUALSTYLE
  5
41
102
{ACAD_REACTORS
330
2A
102
}
102
{ACAD_XDICTIONARY
360
DF
102
}
330
2A
100
AcDbVisualStyle
  2
Shaded with edges
 70
    26
 71
     2
 72
     2
 73
     1
 90
        2
 40
0.6
 41
30.0
 62
     5
 63
     7
421
 16777215
 74
     1
 91
       10
 64
     7
 65
   257
 75
     2
175
     1
 42
1.0
 92
        8
 66
   257
 43
1.0
 76
     1
 77
     6
 78
     2
 67
     7
 79
     3
170
     0
171
     0
290
     0
174
     0
 93
        5
 44
0.0
173
     0
291
     0
 45
0.0
  0
VISUALSTYLE
  5
3E
102
{ACAD_REACTORS
330
2A
102
}
102
{ACAD_XDICTIONARY
360
D9
102
}
330
2A
100
AcDbVisualStyle
  2
Shades of Gray
 70
    23
 71
     2
 72
     2
 73
     3
 90
        0
 40
0.6
 41
30.0
 62
     5
 63
     7
421
 16777215
 74
     2
 91
        2
 64
     7
 65
     7
 75
     1
175
     1
 42
40.0
 92
        8
 66
     7
 43
1.0
 76
     1
 77
     6
 78
     2
 67
     7
 79
     3
170
     0
171
     0
290
     0
174
     0
 93
        1
 44
0.0
173
     0
291
     0
 45
0.0
  0
VISUALSTYLE
  5
3F
102
{ACAD_REACTORS
330
2A
102
}
102
{ACAD_XDICTIONARY
360
DB
102
}
330
2A
100
AcDbVisualStyle
  2
Sketchy
 70
    24
 71
     1
 72
     2
 73
     2
 90
        0
 40
0.6
 41
30.0
 62
     5
 63
     7
421
 16777215
 74
     2
 91
        2
 64
     7
 65
     7
 75
     1
175
     1
 42
40.0
 92
       11
 66
     7
 43
1.0
 76
     1
 77
     6
 78
     2
 67
     7
 79
     6
170
     0
171
     0
290
     0
174
     0
 93
        1
 44
0.0
173
     0
291
     0
 45
0.0
  0
VISUALSTYLE
  5
37
102
{ACAD_REACTORS
330
2A
102
}
102
{ACAD_XDICTIONARY
360
CB
102
}
330
2A
100
AcDbVisualStyle
  2
Thicken
 70
    13
 71
     2
 72
     2
 73
     0
 90
        0
 40
0.6
 41
30.0
 62
     5
 63
     7
421
 16777215
 74
     1
 91
        4
 64
     7
 65
   257
 75
     1
175
     1
 42
1.0
 92
       12
 66
     7
 43
1.0
 76
     1
 77
     6
 78
     2
 67
     7
 79
     5
170
     0
171
     0
290
     0
174
     0
 93
        1
 44
0.0
173
     0
291
     1
 45
0.0
  0
VISUALSTYLE
  5
30
102
{ACAD_REACTORS
330
2A
102
}
102
{ACAD_XDICTIONARY
360
BD
102
}
330
2A
100
AcDbVisualStyle
  2
Wireframe
 70
     5
 71
     0
 72
     2
 73
     0
 90
        0
 40
0.6
 41
30.0
 62
     5
 63
     7
421
 16777215
 74
     1
 91
        4
 64
     7
 65
   257
 75
     1
175
     1
 42
1.0
 92
        0
 66
   257
 43
1.0
 76
     1
 77
     6
 78
     2
 67
     7
 79
     3
170
     0
171
     0
290
     0
174
     0
 93
        1
 44
0.0
173
     0
291
     0
 45
0.0
  0
VISUALSTYLE
  5
40
102
{ACAD_REACTORS
330
2A
102
}
102
{ACAD_XDICTIONARY
360
DD
102
}
330
2A
100
AcDbVisualStyle
  2
X-Ray
 70
    25
 71
     2
 72
     2
 73
     1
 90
        1
 40
0.5
 41
30.0
 62
     5
 63
     7
421
 16777215
 74
     1
 91
        0
 64
     7
 65
   257
 75
     1
175
     1
 42
1.0
 92
        8
 66
     7
 43
1.0
 76
     1
 77
     6
 78
     2
 67
     7
 79
     3
170
     0
171
     0
290
     0
174
     0
 93
       13
 44
0.0
173
     0
291
     0
 45
0.0
  0
DICTIONARYVAR
  5
B1
102
{ACAD_REACTORS
330
B0
102
}
330
B0
100
DictionaryVariables
280
     0
  1
1:1
  0
DICTIONARYVAR
  5
EA
102
{ACAD_REACTORS
330
B0
102
}
330
B0
100
DictionaryVariables
280
     0
  1
Standard
  0
DICTIONARYVAR
  5
E9
102
{ACAD_REACTORS
330
B0
102
}
330
B0
100
DictionaryVariables
280
     0
  1
Standard
  0
DICTIONARYVAR
  5
B2
102
{ACAD_REACTORS
330
B0
102
}
330
B0
100
DictionaryVariables
280
     0
  1
2
  0
DICTIONARY
  5
E6
330
6C
100
AcDbDictionary
280
     1
281
     1
  3
ACAD_XREC_ROUNDTRIP
360
E7
  0
DICTIONARY
  5
E3
330
6A
100
AcDbDictionary
280
     1
281
     1
  3
ACAD_ROUNDTRIP_2008_TABLESTYLE_CELLSTYLEMAP
360
E4
  0
DICTIONARY
  5
BB
330
2F
100
AcDbDictionary
280
     1
281
     1
  3
ACAD_XREC_ROUNDTRIP
360
BC
  0
DICTIONARY
  5
C1
330
32
100
AcDbDictionary
280
     1
281
     1
  3
ACAD_XREC_ROUNDTRIP
360
C2
  0
DICTIONARY
  5
C9
330
36
100
AcDbDictionary
280
     1
281
     1
  3
ACAD_XREC_ROUNDTRIP
360
CA
  0
DICTIONARY
  5
D1
330
3A
100
AcDbDictionary
280
     1
281
     1
  3
ACAD_XREC_ROUNDTRIP
360
D2
  0
DICTIONARY
  5
C5
330
34
100
AcDbDictionary
280
     1
281
     1
  3
ACAD_XREC_ROUNDTRIP
360
C6
  0
DICTIONARY
  5
C7
330
35
100
AcDbDictionary
280
     1
281
     1
  3
ACAD_XREC_ROUNDTRIP
360
C8
  0
DICTIONARY
  5
D7
330
3D
100
AcDbDictionary
280
     1
281
     1
  3
ACAD_XREC_ROUNDTRIP
360
D8
  0
DICTIONARY
  5
CF
330
39
100
AcDbDictionary
280
     1
281
     1
  3
ACAD_XREC_ROUNDTRIP
360
D0
  0
DICTIONARY
  5
B3
330
2B
100
AcDbDictionary
280
     1
281
     1
  3
ACAD_XREC_ROUNDTRIP
360
B4
  0
DICTIONARY
  5
B5
330
2C
100
AcDbDictionary
280
     1
281
     1
  3
ACAD_XREC_ROUNDTRIP
360
B6
  0
DICTIONARY
  5
B7
330
2D
100
AcDbDictionary
280
     1
281
     1
  3
ACAD_XREC_ROUNDTRIP
360
B8
  0
DICTIONARY
  5
B9
330
2E
100
AcDbDictionary
280
     1
281
     1
  3
ACAD_XREC_ROUNDTRIP
360
BA
  0
DICTIONARY
  5
BF
330
31
100
AcDbDictionary
280
     1
281
     1
  3
ACAD_XREC_ROUNDTRIP
360
C0
  0
DICTIONARY
  5
D3
330
3B
100
AcDbDictionary
280
     1
281
     1
  3
ACAD_XREC_ROUNDTRIP
360
D4
  0
DICTIONARY
  5
CD
330
38
100
AcDbDictionary
280
     1
281
     1
  3
ACAD_XREC_ROUNDTRIP
360
CE
  0
DICTIONARY
  5
D5
330
3C
100
AcDbDictionary
280
     1
281
     1
  3
ACAD_XREC_ROUNDTRIP
360
D6
  0
DICTIONARY
  5
C3
330
33
100
AcDbDictionary
280
     1
281
     1
  3
ACAD_XREC_ROUNDTRIP
360
C4
  0
DICTIONARY
  5
E1
330
42
100
AcDbDictionary
280
     1
281
     1
  3
ACAD_XREC_ROUNDTRIP
360
E2
  0
DICTIONARY
  5
DF
330
41
100
AcDbDictionary
280
     1
281
     1
  3
ACAD_XREC_ROUNDTRIP
360
E0
  0
DICTIONARY
  5
D9
330
3E
100
AcDbDictionary
280
     1
281
     1
  3
ACAD_XREC_ROUNDTRIP
360
DA
  0
DICTIONARY
  5
DB
330
3F
100
AcDbDictionary
280
     1
281
     1
  3
ACAD_XREC_ROUNDTRIP
360
DC
  0
DICTIONARY
  5
CB
330
37
100
AcDbDictionary
280
     1
281
     1
  3
ACAD_XREC_ROUNDTRIP
360
CC
  0
DICTIONARY
  5
BD
330
30
100
AcDbDictionary
280
     1
281
     1
  3
ACAD_XREC_ROUNDTRIP
360
BE
  0
DICTIONARY
  5
DD
330
40
100
AcDbDictionary
280
     1
281
     1
  3
ACAD_XREC_ROUNDTRIP
360
DE
  0
XRECORD
  5
E7
102
{ACAD_REACTORS
330
E6
102
}
330
E6
100
AcDbXrecord
280
     1
102
ACAD_ROUNDTRIP_2010_MLEADER_STYLE
  0
CELLSTYLEMAP
  5
E4
102
{ACAD_REACTORS
330
E3
102
}
330
E3
100
AcDbCellStyleMap
 90
        3
300
CELLSTYLE
  1
TABLEFORMAT_BEGIN
 90
        5
170
     1
 91
        0
 92
    32768
 62
   257
 93
        1
300
CONTENTFORMAT
  1
CONTENTFORMAT_BEGIN
 90
        0
 91
        0
 92
        4
 93
        0
300

 40
0.0
140
1.0
 94
        5
 62
     0
340
11
144
0.25
309
CONTENTFORMAT_END
171
     1
301
MARGIN
  1
CELLMARGIN_BEGIN
 40
0.06
 40
0.06
 40
0.06
 40
0.06
 40
0.06
 40
0.06
309
CELLMARGIN_END
 94
        6
 95
        1
302
GRIDFORMAT
  1
GRIDFORMAT_BEGIN
 90
        0
 91
        1
 62
     0
 92
       -2
340
14
 93
        0
 40
0.045
309
GRIDFORMAT_END
 95
        2
302
GRIDFORMAT
  1
GRIDFORMAT_BEGIN
 90
        0
 91
        1
 62
     0
 92
       -2
340
14
 93
        0
 40
0.045
309
GRIDFORMAT_END
 95
        4
302
GRIDFORMAT
  1
GRIDFORMAT_BEGIN
 90
        0
 91
        1
 62
     0
 92
       -2
340
14
 93
        0
 40
0.045
309
GRIDFORMAT_END
 95
        8
302
GRIDFORMAT
  1
GRIDFORMAT_BEGIN
 90
        0
 91
        1
 62
     0
 92
       -2
340
14
 93
        0
 40
0.045
309
GRIDFORMAT_END
 95
       16
302
GRIDFORMAT
  1
GRIDFORMAT_BEGIN
 90
        0
 91
        1
 62
     0
 92
       -2
340
14
 93
        0
 40
0.045
309
GRIDFORMAT_END
 95
       32
302
GRIDFORMAT
  1
GRIDFORMAT_BEGIN
 90
        0
 91
        1
 62
     0
 92
       -2
340
14
 93
        0
 40
0.045
309
GRIDFORMAT_END
309
TABLEFORMAT_END
  1
CELLSTYLE_BEGIN
 90
        1
 91
        1
300
_TITLE
309
CELLSTYLE_END
300
CELLSTYLE
  1
TABLEFORMAT_BEGIN
 90
        5
170
     1
 91
        0
 92
        0
 62
   257
 93
        1
300
CONTENTFORMAT
  1
CONTENTFORMAT_BEGIN
 90
        0
 91
        0
 92
        4
 93
        0
300

 40
0.0
140
1.0
 94
        5
 62
     0
340
11
144
0.18
309
CONTENTFORMAT_END
171
     1
301
MARGIN
  1
CELLMARGIN_BEGIN
 40
0.06
 40
0.06
 40
0.06
 40
0.06
 40
0.06
 40
0.06
309
CELLMARGIN_END
 94
        6
 95
        1
302
GRIDFORMAT
  1
GRIDFORMAT_BEGIN
 90
        0
 91
        1
 62
     0
 92
       -2
340
14
 93
        0
 40
0.045
309
GRIDFORMAT_END
 95
        2
302
GRIDFORMAT
  1
GRIDFORMAT_BEGIN
 90
        0
 91
        1
 62
     0
 92
       -2
340
14
 93
        0
 40
0.045
309
GRIDFORMAT_END
 95
        4
302
GRIDFORMAT
  1
GRIDFORMAT_BEGIN
 90
        0
 91
        1
 62
     0
 92
       -2
340
14
 93
        0
 40
0.045
309
GRIDFORMAT_END
 95
        8
302
GRIDFORMAT
  1
GRIDFORMAT_BEGIN
 90
        0
 91
        1
 62
     0
 92
       -2
340
14
 93
        0
 40
0.045
309
GRIDFORMAT_END
 95
       16
302
GRIDFORMAT
  1
GRIDFORMAT_BEGIN
 90
        0
 91
        1
 62
     0
 92
       -2
340
14
 93
        0
 40
0.045
309
GRIDFORMAT_END
 95
       32
302
GRIDFORMAT
  1
GRIDFORMAT_BEGIN
 90
        0
 91
        1
 62
     0
 92
       -2
340
14
 93
        0
 40
0.045
309
GRIDFORMAT_END
309
TABLEFORMAT_END
  1
CELLSTYLE_BEGIN
 90
        2
 91
        1
300
_HEADER
309
CELLSTYLE_END
300
CELLSTYLE
  1
TABLEFORMAT_BEGIN
 90
        5
170
     1
 91
        0
 92
        0
 62
   257
 93
        1
300
CONTENTFORMAT
  1
CONTENTFORMAT_BEGIN
 90
        0
 91
        0
 92
        4
 93
        0
300

 40
0.0
140
1.0
 94
        2
 62
     0
340
11
144
0.18
309
CONTENTFORMAT_END
171
     1
301
MARGIN
  1
CELLMARGIN_BEGIN
 40
0.06
 40
0.06
 40
0.06
 40
0.06
 40
0.06
 40
0.06
309
CELLMARGIN_END
 94
        6
 95
        1
302
GRIDFORMAT
  1
GRIDFORMAT_BEGIN
 90
        0
 91
        1
 62
     0
 92
       -2
340
14
 93
        0
 40
0.045
309
GRIDFORMAT_END
 95
        2
302
GRIDFORMAT
  1
GRIDFORMAT_BEGIN
 90
        0
 91
        1
 62
     0
 92
       -2
340
14
 93
        0
 40
0.045
309
GRIDFORMAT_END
 95
        4
302
GRIDFORMAT
  1
GRIDFORMAT_BEGIN
 90
        0
 91
        1
 62
     0
 92
       -2
340
14
 93
        0
 40
0.045
309
GRIDFORMAT_END
 95
        8
302
GRIDFORMAT
  1
GRIDFORMAT_BEGIN
 90
        0
 91
        1
 62
     0
 92
       -2
340
14
 93
        0
 40
0.045
309
GRIDFORMAT_END
 95
       16
302
GRIDFORMAT
  1
GRIDFORMAT_BEGIN
 90
        0
 91
        1
 62
     0
 92
       -2
340
14
 93
        0
 40
0.045
309
GRIDFORMAT_END
 95
       32
302
GRIDFORMAT
  1
GRIDFORMAT_BEGIN
 90
        0
 91
        1
 62
     0
 92
       -2
340
14
 93
        0
 40
0.045
309
GRIDFORMAT_END
309
TABLEFORMAT_END
  1
CELLSTYLE_BEGIN
 90
        3
 91
        2
300
_DATA
309
CELLSTYLE_END
  0
XRECORD
  5
BC
102
{ACAD_REACTORS
330
BB
102
}
330
BB
100
AcDbXrecord
280
     1
102
RTVSPropertyOp0
 70
     1
102
RTVSPropertyOp1
 70
     1
102
RTVSPropertyOp2
 70
     1
102
RTVSPropertyOp3
 70
     1
102
RTVSPropertyOp4
 70
     1
102
RTVSPropertyOp5
 70
     1
102
RTVSPropertyOp6
 70
     1
102
RTVSPropertyOp7
 70
     1
102
RTVSPropertyOp8
 70
     1
102
RTVSPropertyOp9
 70
     1
102
RTVSPropertyOp10
 70
     1
102
RTVSPropertyOp11
 70
     1
102
RTVSPropertyOp12
 70
     1
102
RTVSPropertyOp13
 70
     1
102
RTVSPropertyOp14
 70
     1
102
RTVSPropertyOp15
 70
     1
102
RTVSPropertyOp16
 70
     1
102
RTVSPropertyOp17
 70
     1
102
RTVSPropertyOp18
 70
     1
102
RTVSPropertyOp19
 70
     1
102
RTVSPropertyOp20
 70
     1
102
RTVSPropertyOp21
 70
     1
102
RTVSPropertyOp22
 70
     1
102
RTVSPropertyOp23
 70
     1
102
RTVSPropertyOp24
 70
     1
102
RTVSPropertyOp25
 70
     1
102
RTVSPropertyOp26
 70
     1
102
RTVSPropertyOp27
 70
     1
102
RTVSPropertyOp28
 70
     1
102
RTVSPropertyOp29
 70
     1
102
RTVSPropertyOp30
 70
     1
102
RTVSPropertyOp31
 70
     1
102
RTVSPropertyOp32
 70
     1
102
RTVSPropertyOp33
 70
     1
102
RTVSPropertyOp34
 70
     1
102
RTVSPropertyOp35
 70
     1
102
RTVSPropertyOp36
 70
     1
102
RTVSPropertyOp37
 70
     1
102
RTVSPropertyOp38
 70
     1
102
RTVSPropertyOp39
 70
     1
102
RTVSPropertyOp40
 70
     1
102
RTVSPropertyOp41
 70
     1
102
RTVSPropertyOp42
 70
     1
102
RTVSPropertyOp43
 70
     1
102
RTVSPropertyOp44
 70
     1
102
RTVSPropertyOp45
 70
     1
102
RTVSPropertyOp46
 70
     1
102
RTVSPropertyOp47
 70
     1
102
RTVSPropertyOp48
 70
     1
102
RTVSPropertyOp49
 70
     1
102
RTVSPropertyOp50
 70
     1
102
RTVSPropertyOp51
 70
     0
102
RTVSPropertyOp52
 70
     0
102
RTVSPropertyOp53
 70
     1
102
RTVSPropertyOp54
 70
     1
102
RTVSPropertyOp55
 70
     1
102
RTVSPropertyOp56
 70
     1
102
RTVSPropertyOp57
 70
     1
102
RTVSPost2010Prop28
280
     1
102
RTVSPost2010PropOp28
 70
     1
102
RTVSPost2010Prop29
280
     1
102
RTVSPost2010PropOp29
 70
     1
102
RTVSPost2010Prop30
280
     0
102
RTVSPost2010PropOp30
 70
     1
102
RTVSPost2010Prop31
280
     0
102
RTVSPost2010PropOp31
 70
     1
102
RTVSPost2010Prop32
280
     0
102
RTVSPost2010PropOp32
 70
     1
102
RTVSPost2010Prop33
280
     0
102
RTVSPost2010PropOp33
 70
     1
102
RTVSPost2010Prop34
280
     0
102
RTVSPost2010PropOp34
 70
     1
102
RTVSPost2010Prop35
280
     0
102
RTVSPost2010PropOp35
 70
     1
102
RTVSPost2010Prop36
280
     0
102
RTVSPost2010PropOp36
 70
     1
102
RTVSPost2010Prop37
 90
       50
102
RTVSPost2010PropOp37
 70
     1
102
RTVSPost2010Prop38
140
0.0
102
RTVSPost2010PropOp38
 70
     1
102
RTVSPost2010Prop39
140
1.0
102
RTVSPost2010PropOp39
 70
     1
102
RTVSPost2010Prop40
 90
        0
102
RTVSPost2010PropOp40
 70
     1
102
RTVSPost2010Prop41ColorIndex
 90
       18
102
RTVSPost2010Prop41ColorRGB
 90
        0
102
RTVSPost2010PropOp41
 70
     1
102
RTVSPost2010Prop42
 90
       50
102
RTVSPost2010PropOp42
 70
     1
102
RTVSPost2010Prop43
 90
        3
102
RTVSPost2010PropOp43
 70
     1
102
RTVSPost2010Prop44ColorIndex
 90
        5
102
RTVSPost2010Prop44ColorRGB
 90
      255
102
RTVSPost2010PropOp44
 70
     1
102
RTVSPost2010Prop45
280
     0
102
RTVSPost2010PropOp45
 70
     1
102
RTVSPost2010Prop46
 90
       50
102
RTVSPost2010PropOp46
 70
     1
102
RTVSPost2010Prop47
 90
       50
102
RTVSPost2010PropOp47
 70
     1
102
RTVSPost2010Prop48
 90
       50
102
RTVSPost2010PropOp48
 70
     1
102
RTVSPost2010Prop49
280
     0
102
RTVSPost2010PropOp49
 70
     1
102
RTVSPost2010Prop50
 90
       50
102
RTVSPost2010PropOp50
 70
     1
102
RTVSPost2010Prop51ColorIndex
 90
      256
102
RTVSPost2010Prop51ColorRGB
 90
-16777216
102
RTVSPost2010PropOp51
 70
     0
102
RTVSPost2010Prop52
140
1.0
102
RTVSPost2010PropOp52
 70
     0
102
RTVSPost2010Prop53
 90
        2
102
RTVSPost2010PropOp53
 70
     1
102
RTVSPost2010Prop54
  1
strokes_ogs.tif
102
RTVSPost2010PropOp54
 70
     1
102
RTVSPost2010Prop55
280
     0
102
RTVSPost2010PropOp55
 70
     1
102
RTVSPost2010Prop56
140
1.0
102
RTVSPost2010PropOp56
 70
     1
102
RTVSPost2010Prop57
140
1.0
102
RTVSPost2010PropOp57
 70
     1
  0
XRECORD
  5
C2
102
{ACAD_REACTORS
330
C1
102
}
330
C1
100
AcDbXrecord
280
     1
102
RTVSPropertyOp0
 70
     1
102
RTVSPropertyOp1
 70
     1
102
RTVSPropertyOp2
 70
     1
102
RTVSPropertyOp3
 70
     1
102
RTVSPropertyOp4
 70
     1
102
RTVSPropertyOp5
 70
     1
102
RTVSPropertyOp6
 70
     1
102
RTVSPropertyOp7
 70
     1
102
RTVSPropertyOp8
 70
     1
102
RTVSPropertyOp9
 70
     1
102
RTVSPropertyOp10
 70
     1
102
RTVSPropertyOp11
 70
     1
102
RTVSPropertyOp12
 70
     1
102
RTVSPropertyOp13
 70
     1
102
RTVSPropertyOp14
 70
     1
102
RTVSPropertyOp15
 70
     1
102
RTVSPropertyOp16
 70
     1
102
RTVSPropertyOp17
 70
     1
102
RTVSPropertyOp18
 70
     1
102
RTVSPropertyOp19
 70
     1
102
RTVSPropertyOp20
 70
     1
102
RTVSPropertyOp21
 70
     1
102
RTVSPropertyOp22
 70
     1
102
RTVSPropertyOp23
 70
     1
102
RTVSPropertyOp24
 70
     1
102
RTVSPropertyOp25
 70
     1
102
RTVSPropertyOp26
 70
     1
102
RTVSPropertyOp27
 70
     1
102
RTVSPropertyOp28
 70
     1
102
RTVSPropertyOp29
 70
     1
102
RTVSPropertyOp30
 70
     1
102
RTVSPropertyOp31
 70
     1
102
RTVSPropertyOp32
 70
     1
102
RTVSPropertyOp33
 70
     1
102
RTVSPropertyOp34
 70
     1
102
RTVSPropertyOp35
 70
     1
102
RTVSPropertyOp36
 70
     1
102
RTVSPropertyOp37
 70
     1
102
RTVSPropertyOp38
 70
     1
102
RTVSPropertyOp39
 70
     1
102
RTVSPropertyOp40
 70
     1
102
RTVSPropertyOp41
 70
     1
102
RTVSPropertyOp42
 70
     1
102
RTVSPropertyOp43
 70
     1
102
RTVSPropertyOp44
 70
     1
102
RTVSPropertyOp45
 70
     1
102
RTVSPropertyOp46
 70
     1
102
RTVSPropertyOp47
 70
     1
102
RTVSPropertyOp48
 70
     1
102
RTVSPropertyOp49
 70
     1
102
RTVSPropertyOp50
 70
     1
102
RTVSPropertyOp51
 70
     0
102
RTVSPropertyOp52
 70
     0
102
RTVSPropertyOp53
 70
     1
102
RTVSPropertyOp54
 70
     1
102
RTVSPropertyOp55
 70
     1
102
RTVSPropertyOp56
 70
     1
102
RTVSPropertyOp57
 70
     1
102
RTVSPost2010Prop28
280
     0
102
RTVSPost2010PropOp28
 70
     1
102
RTVSPost2010Prop29
280
     1
102
RTVSPost2010PropOp29
 70
     1
102
RTVSPost2010Prop30
280
     1
102
RTVSPost2010PropOp30
 70
     1
102
RTVSPost2010Prop31
280
     0
102
RTVSPost2010PropOp31
 70
     1
102
RTVSPost2010Prop32
280
     0
102
RTVSPost2010PropOp32
 70
     1
102
RTVSPost2010Prop33
280
     0
102
RTVSPost2010PropOp33
 70
     1
102
RTVSPost2010Prop34
280
     0
102
RTVSPost2010PropOp34
 70
     1
102
RTVSPost2010Prop35
280
     0
102
RTVSPost2010PropOp35
 70
     1
102
RTVSPost2010Prop36
280
     0
102
RTVSPost2010PropOp36
 70
     1
102
RTVSPost2010Prop37
 90
       50
102
RTVSPost2010PropOp37
 70
     1
102
RTVSPost2010Prop38
140
0.0
102
RTVSPost2010PropOp38
 70
     1
102
RTVSPost2010Prop39
140
1.0
102
RTVSPost2010PropOp39
 70
     1
102
RTVSPost2010Prop40
 90
        0
102
RTVSPost2010PropOp40
 70
     1
102
RTVSPost2010Prop41ColorIndex
 90
       18
102
RTVSPost2010Prop41ColorRGB
 90
        0
102
RTVSPost2010PropOp41
 70
     1
102
RTVSPost2010Prop42
 90
       50
102
RTVSPost2010PropOp42
 70
     1
102
RTVSPost2010Prop43
 90
        3
102
RTVSPost2010PropOp43
 70
     1
102
RTVSPost2010Prop44ColorIndex
 90
        5
102
RTVSPost2010Prop44ColorRGB
 90
      255
102
RTVSPost2010PropOp44
 70
     1
102
RTVSPost2010Prop45
280
     0
102
RTVSPost2010PropOp45
 70
     1
102
RTVSPost2010Prop46
 90
       50
102
RTVSPost2010PropOp46
 70
     1
102
RTVSPost2010Prop47
 90
       50
102
RTVSPost2010PropOp47
 70
     1
102
RTVSPost2010Prop48
 90
       50
102
RTVSPost2010PropOp48
 70
     1
102
RTVSPost2010Prop49
280
     0
102
RTVSPost2010PropOp49
 70
     1
102
RTVSPost2010Prop50
 90
       50
102
RTVSPost2010PropOp50
 70
     1
102
RTVSPost2010Prop51ColorIndex
 90
      256
102
RTVSPost2010Prop51ColorRGB
 90
-16777216
102
RTVSPost2010PropOp51
 70
     0
102
RTVSPost2010Prop52
140
1.0
102
RTVSPost2010PropOp52
 70
     0
102
RTVSPost2010Prop53
 90
        2
102
RTVSPost2010PropOp53
 70
     1
102
RTVSPost2010Prop54
  1
strokes_ogs.tif
102
RTVSPost2010PropOp54
 70
     1
102
RTVSPost2010Prop55
280
     0
102
RTVSPost2010PropOp55
 70
     1
102
RTVSPost2010Prop56
140
1.0
102
RTVSPost2010PropOp56
 70
     1
102
RTVSPost2010Prop57
140
1.0
102
RTVSPost2010PropOp57
 70
     1
  0
XRECORD
  5
CA
102
{ACAD_REACTORS
330
C9
102
}
330
C9
100
AcDbXrecord
280
     1
102
RTVSPropertyOp0
 70
     1
102
RTVSPropertyOp1
 70
     1
102
RTVSPropertyOp2
 70
     1
102
RTVSPropertyOp3
 70
     1
102
RTVSPropertyOp4
 70
     1
102
RTVSPropertyOp5
 70
     1
102
RTVSPropertyOp6
 70
     1
102
RTVSPropertyOp7
 70
     1
102
RTVSPropertyOp8
 70
     1
102
RTVSPropertyOp9
 70
     1
102
RTVSPropertyOp10
 70
     1
102
RTVSPropertyOp11
 70
     1
102
RTVSPropertyOp12
 70
     1
102
RTVSPropertyOp13
 70
     1
102
RTVSPropertyOp14
 70
     1
102
RTVSPropertyOp15
 70
     1
102
RTVSPropertyOp16
 70
     1
102
RTVSPropertyOp17
 70
     1
102
RTVSPropertyOp18
 70
     1
102
RTVSPropertyOp19
 70
     1
102
RTVSPropertyOp20
 70
     1
102
RTVSPropertyOp21
 70
     1
102
RTVSPropertyOp22
 70
     1
102
RTVSPropertyOp23
 70
     1
102
RTVSPropertyOp24
 70
     1
102
RTVSPropertyOp25
 70
     1
102
RTVSPropertyOp26
 70
     1
102
RTVSPropertyOp27
 70
     1
102
RTVSPropertyOp28
 70
     1
102
RTVSPropertyOp29
 70
     1
102
RTVSPropertyOp30
 70
     1
102
RTVSPropertyOp31
 70
     1
102
RTVSPropertyOp32
 70
     1
102
RTVSPropertyOp33
 70
     1
102
RTVSPropertyOp34
 70
     1
102
RTVSPropertyOp35
 70
     1
102
RTVSPropertyOp36
 70
     1
102
RTVSPropertyOp37
 70
     1
102
RTVSPropertyOp38
 70
     1
102
RTVSPropertyOp39
 70
     1
102
RTVSPropertyOp40
 70
     1
102
RTVSPropertyOp41
 70
     1
102
RTVSPropertyOp42
 70
     1
102
RTVSPropertyOp43
 70
     1
102
RTVSPropertyOp44
 70
     1
102
RTVSPropertyOp45
 70
     1
102
RTVSPropertyOp46
 70
     1
102
RTVSPropertyOp47
 70
     1
102
RTVSPropertyOp48
 70
     1
102
RTVSPropertyOp49
 70
     1
102
RTVSPropertyOp50
 70
     1
102
RTVSPropertyOp51
 70
     0
102
RTVSPropertyOp52
 70
     0
102
RTVSPropertyOp53
 70
     1
102
RTVSPropertyOp54
 70
     1
102
RTVSPropertyOp55
 70
     1
102
RTVSPropertyOp56
 70
     1
102
RTVSPropertyOp57
 70
     1
102
RTVSPost2010Prop28
280
     0
102
RTVSPost2010PropOp28
 70
     1
102
RTVSPost2010Prop29
280
     1
102
RTVSPost2010PropOp29
 70
     1
102
RTVSPost2010Prop30
280
     1
102
RTVSPost2010PropOp30
 70
     1
102
RTVSPost2010Prop31
280
     0
102
RTVSPost2010PropOp31
 70
     1
102
RTVSPost2010Prop32
280
     0
102
RTVSPost2010PropOp32
 70
     1
102
RTVSPost2010Prop33
280
     0
102
RTVSPost2010PropOp33
 70
     1
102
RTVSPost2010Prop34
280
     0
102
RTVSPost2010PropOp34
 70
     1
102
RTVSPost2010Prop35
280
     0
102
RTVSPost2010PropOp35
 70
     1
102
RTVSPost2010Prop36
280
     0
102
RTVSPost2010PropOp36
 70
     1
102
RTVSPost2010Prop37
 90
       50
102
RTVSPost2010PropOp37
 70
     1
102
RTVSPost2010Prop38
140
0.0
102
RTVSPost2010PropOp38
 70
     1
102
RTVSPost2010Prop39
140
1.0
102
RTVSPost2010PropOp39
 70
     1
102
RTVSPost2010Prop40
 90
        0
102
RTVSPost2010PropOp40
 70
     1
102
RTVSPost2010Prop41ColorIndex
 90
       18
102
RTVSPost2010Prop41ColorRGB
 90
        0
102
RTVSPost2010PropOp41
 70
     1
102
RTVSPost2010Prop42
 90
       50
102
RTVSPost2010PropOp42
 70
     1
102
RTVSPost2010Prop43
 90
        3
102
RTVSPost2010PropOp43
 70
     1
102
RTVSPost2010Prop44ColorIndex
 90
        5
102
RTVSPost2010Prop44ColorRGB
 90
      255
102
RTVSPost2010PropOp44
 70
     1
102
RTVSPost2010Prop45
280
     0
102
RTVSPost2010PropOp45
 70
     1
102
RTVSPost2010Prop46
 90
       50
102
RTVSPost2010PropOp46
 70
     1
102
RTVSPost2010Prop47
 90
       50
102
RTVSPost2010PropOp47
 70
     1
102
RTVSPost2010Prop48
 90
       50
102
RTVSPost2010PropOp48
 70
     1
102
RTVSPost2010Prop49
280
     0
102
RTVSPost2010PropOp49
 70
     1
102
RTVSPost2010Prop50
 90
       50
102
RTVSPost2010PropOp50
 70
     1
102
RTVSPost2010Prop51ColorIndex
 90
      256
102
RTVSPost2010Prop51ColorRGB
 90
-16777216
102
RTVSPost2010PropOp51
 70
     0
102
RTVSPost2010Prop52
140
1.0
102
RTVSPost2010PropOp52
 70
     0
102
RTVSPost2010Prop53
 90
        2
102
RTVSPost2010PropOp53
 70
     1
102
RTVSPost2010Prop54
  1
strokes_ogs.tif
102
RTVSPost2010PropOp54
 70
     1
102
RTVSPost2010Prop55
280
     0
102
RTVSPost2010PropOp55
 70
     1
102
RTVSPost2010Prop56
140
1.0
102
RTVSPost2010PropOp56
 70
     1
102
RTVSPost2010Prop57
140
1.0
102
RTVSPost2010PropOp57
 70
     1
  0
XRECORD
  5
D2
102
{ACAD_REACTORS
330
D1
102
}
330
D1
100
AcDbXrecord
280
     1
102
RTVSPropertyOp0
 70
     1
102
RTVSPropertyOp1
 70
     1
102
RTVSPropertyOp2
 70
     1
102
RTVSPropertyOp3
 70
     1
102
RTVSPropertyOp4
 70
     1
102
RTVSPropertyOp5
 70
     1
102
RTVSPropertyOp6
 70
     1
102
RTVSPropertyOp7
 70
     1
102
RTVSPropertyOp8
 70
     1
102
RTVSPropertyOp9
 70
     1
102
RTVSPropertyOp10
 70
     1
102
RTVSPropertyOp11
 70
     1
102
RTVSPropertyOp12
 70
     1
102
RTVSPropertyOp13
 70
     1
102
RTVSPropertyOp14
 70
     1
102
RTVSPropertyOp15
 70
     1
102
RTVSPropertyOp16
 70
     1
102
RTVSPropertyOp17
 70
     1
102
RTVSPropertyOp18
 70
     1
102
RTVSPropertyOp19
 70
     1
102
RTVSPropertyOp20
 70
     1
102
RTVSPropertyOp21
 70
     1
102
RTVSPropertyOp22
 70
     1
102
RTVSPropertyOp23
 70
     1
102
RTVSPropertyOp24
 70
     1
102
RTVSPropertyOp25
 70
     1
102
RTVSPropertyOp26
 70
     1
102
RTVSPropertyOp27
 70
     1
102
RTVSPropertyOp28
 70
     1
102
RTVSPropertyOp29
 70
     1
102
RTVSPropertyOp30
 70
     1
102
RTVSPropertyOp31
 70
     1
102
RTVSPropertyOp32
 70
     1
102
RTVSPropertyOp33
 70
     1
102
RTVSPropertyOp34
 70
     1
102
RTVSPropertyOp35
 70
     1
102
RTVSPropertyOp36
 70
     1
102
RTVSPropertyOp37
 70
     1
102
RTVSPropertyOp38
 70
     1
102
RTVSPropertyOp39
 70
     1
102
RTVSPropertyOp40
 70
     1
102
RTVSPropertyOp41
 70
     1
102
RTVSPropertyOp42
 70
     1
102
RTVSPropertyOp43
 70
     1
102
RTVSPropertyOp44
 70
     1
102
RTVSPropertyOp45
 70
     1
102
RTVSPropertyOp46
 70
     1
102
RTVSPropertyOp47
 70
     1
102
RTVSPropertyOp48
 70
     1
102
RTVSPropertyOp49
 70
     1
102
RTVSPropertyOp50
 70
     1
102
RTVSPropertyOp51
 70
     0
102
RTVSPropertyOp52
 70
     0
102
RTVSPropertyOp53
 70
     1
102
RTVSPropertyOp54
 70
     1
102
RTVSPropertyOp55
 70
     1
102
RTVSPropertyOp56
 70
     1
102
RTVSPropertyOp57
 70
     1
102
RTVSPost2010Prop28
280
     0
102
RTVSPost2010PropOp28
 70
     1
102
RTVSPost2010Prop29
280
     1
102
RTVSPost2010PropOp29
 70
     1
102
RTVSPost2010Prop30
280
     1
102
RTVSPost2010PropOp30
 70
     1
102
RTVSPost2010Prop31
280
     0
102
RTVSPost2010PropOp31
 70
     1
102
RTVSPost2010Prop32
280
     0
102
RTVSPost2010PropOp32
 70
     1
102
RTVSPost2010Prop33
280
     0
102
RTVSPost2010PropOp33
 70
     1
102
RTVSPost2010Prop34
280
     0
102
RTVSPost2010PropOp34
 70
     1
102
RTVSPost2010Prop35
280
     0
102
RTVSPost2010PropOp35
 70
     1
102
RTVSPost2010Prop36
280
     0
102
RTVSPost2010PropOp36
 70
     1
102
RTVSPost2010Prop37
 90
       50
102
RTVSPost2010PropOp37
 70
     1
102
RTVSPost2010Prop38
140
0.0
102
RTVSPost2010PropOp38
 70
     1
102
RTVSPost2010Prop39
140
1.0
102
RTVSPost2010PropOp39
 70
     1
102
RTVSPost2010Prop40
 90
        0
102
RTVSPost2010PropOp40
 70
     1
102
RTVSPost2010Prop41ColorIndex
 90
       18
102
RTVSPost2010Prop41ColorRGB
 90
        0
102
RTVSPost2010PropOp41
 70
     1
102
RTVSPost2010Prop42
 90
       50
102
RTVSPost2010PropOp42
 70
     1
102
RTVSPost2010Prop43
 90
        3
102
RTVSPost2010PropOp43
 70
     1
102
RTVSPost2010Prop44ColorIndex
 90
        5
102
RTVSPost2010Prop44ColorRGB
 90
      255
102
RTVSPost2010PropOp44
 70
     1
102
RTVSPost2010Prop45
280
     0
102
RTVSPost2010PropOp45
 70
     1
102
RTVSPost2010Prop46
 90
       50
102
RTVSPost2010PropOp46
 70
     1
102
RTVSPost2010Prop47
 90
       50
102
RTVSPost2010PropOp47
 70
     1
102
RTVSPost2010Prop48
 90
       50
102
RTVSPost2010PropOp48
 70
     1
102
RTVSPost2010Prop49
280
     0
102
RTVSPost2010PropOp49
 70
     1
102
RTVSPost2010Prop50
 90
       50
102
RTVSPost2010PropOp50
 70
     1
102
RTVSPost2010Prop51ColorIndex
 90
      256
102
RTVSPost2010Prop51ColorRGB
 90
-16777216
102
RTVSPost2010PropOp51
 70
     0
102
RTVSPost2010Prop52
140
1.0
102
RTVSPost2010PropOp52
 70
     0
102
RTVSPost2010Prop53
 90
        2
102
RTVSPost2010PropOp53
 70
     1
102
RTVSPost2010Prop54
  1
strokes_ogs.tif
102
RTVSPost2010PropOp54
 70
     1
102
RTVSPost2010Prop55
280
     0
102
RTVSPost2010PropOp55
 70
     1
102
RTVSPost2010Prop56
140
1.0
102
RTVSPost2010PropOp56
 70
     1
102
RTVSPost2010Prop57
140
1.0
102
RTVSPost2010PropOp57
 70
     1
  0
XRECORD
  5
C6
102
{ACAD_REACTORS
330
C5
102
}
330
C5
100
AcDbXrecord
280
     1
102
RTVSPropertyOp0
 70
     1
102
RTVSPropertyOp1
 70
     1
102
RTVSPropertyOp2
 70
     1
102
RTVSPropertyOp3
 70
     1
102
RTVSPropertyOp4
 70
     1
102
RTVSPropertyOp5
 70
     1
102
RTVSPropertyOp6
 70
     1
102
RTVSPropertyOp7
 70
     1
102
RTVSPropertyOp8
 70
     1
102
RTVSPropertyOp9
 70
     1
102
RTVSPropertyOp10
 70
     1
102
RTVSPropertyOp11
 70
     1
102
RTVSPropertyOp12
 70
     1
102
RTVSPropertyOp13
 70
     1
102
RTVSPropertyOp14
 70
     1
102
RTVSPropertyOp15
 70
     1
102
RTVSPropertyOp16
 70
     1
102
RTVSPropertyOp17
 70
     1
102
RTVSPropertyOp18
 70
     1
102
RTVSPropertyOp19
 70
     1
102
RTVSPropertyOp20
 70
     1
102
RTVSPropertyOp21
 70
     1
102
RTVSPropertyOp22
 70
     1
102
RTVSPropertyOp23
 70
     1
102
RTVSPropertyOp24
 70
     1
102
RTVSPropertyOp25
 70
     1
102
RTVSPropertyOp26
 70
     1
102
RTVSPropertyOp27
 70
     1
102
RTVSPropertyOp28
 70
     1
102
RTVSPropertyOp29
 70
     1
102
RTVSPropertyOp30
 70
     1
102
RTVSPropertyOp31
 70
     1
102
RTVSPropertyOp32
 70
     1
102
RTVSPropertyOp33
 70
     1
102
RTVSPropertyOp34
 70
     1
102
RTVSPropertyOp35
 70
     1
102
RTVSPropertyOp36
 70
     1
102
RTVSPropertyOp37
 70
     1
102
RTVSPropertyOp38
 70
     1
102
RTVSPropertyOp39
 70
     1
102
RTVSPropertyOp40
 70
     1
102
RTVSPropertyOp41
 70
     1
102
RTVSPropertyOp42
 70
     1
102
RTVSPropertyOp43
 70
     1
102
RTVSPropertyOp44
 70
     1
102
RTVSPropertyOp45
 70
     1
102
RTVSPropertyOp46
 70
     1
102
RTVSPropertyOp47
 70
     1
102
RTVSPropertyOp48
 70
     1
102
RTVSPropertyOp49
 70
     1
102
RTVSPropertyOp50
 70
     1
102
RTVSPropertyOp51
 70
     0
102
RTVSPropertyOp52
 70
     0
102
RTVSPropertyOp53
 70
     1
102
RTVSPropertyOp54
 70
     1
102
RTVSPropertyOp55
 70
     1
102
RTVSPropertyOp56
 70
     1
102
RTVSPropertyOp57
 70
     1
102
RTVSPost2010Prop28
280
     0
102
RTVSPost2010PropOp28
 70
     1
102
RTVSPost2010Prop29
280
     1
102
RTVSPost2010PropOp29
 70
     1
102
RTVSPost2010Prop30
280
     1
102
RTVSPost2010PropOp30
 70
     1
102
RTVSPost2010Prop31
280
     0
102
RTVSPost2010PropOp31
 70
     1
102
RTVSPost2010Prop32
280
     0
102
RTVSPost2010PropOp32
 70
     1
102
RTVSPost2010Prop33
280
     0
102
RTVSPost2010PropOp33
 70
     1
102
RTVSPost2010Prop34
280
     0
102
RTVSPost2010PropOp34
 70
     1
102
RTVSPost2010Prop35
280
     0
102
RTVSPost2010PropOp35
 70
     1
102
RTVSPost2010Prop36
280
     0
102
RTVSPost2010PropOp36
 70
     1
102
RTVSPost2010Prop37
 90
       50
102
RTVSPost2010PropOp37
 70
     1
102
RTVSPost2010Prop38
140
0.0
102
RTVSPost2010PropOp38
 70
     1
102
RTVSPost2010Prop39
140
1.0
102
RTVSPost2010PropOp39
 70
     1
102
RTVSPost2010Prop40
 90
        0
102
RTVSPost2010PropOp40
 70
     1
102
RTVSPost2010Prop41ColorIndex
 90
       18
102
RTVSPost2010Prop41ColorRGB
 90
        0
102
RTVSPost2010PropOp41
 70
     1
102
RTVSPost2010Prop42
 90
       50
102
RTVSPost2010PropOp42
 70
     1
102
RTVSPost2010Prop43
 90
        3
102
RTVSPost2010PropOp43
 70
     1
102
RTVSPost2010Prop44ColorIndex
 90
        5
102
RTVSPost2010Prop44ColorRGB
 90
      255
102
RTVSPost2010PropOp44
 70
     1
102
RTVSPost2010Prop45
280
     0
102
RTVSPost2010PropOp45
 70
     1
102
RTVSPost2010Prop46
 90
       50
102
RTVSPost2010PropOp46
 70
     1
102
RTVSPost2010Prop47
 90
       50
102
RTVSPost2010PropOp47
 70
     1
102
RTVSPost2010Prop48
 90
       50
102
RTVSPost2010PropOp48
 70
     1
102
RTVSPost2010Prop49
280
     0
102
RTVSPost2010PropOp49
 70
     1
102
RTVSPost2010Prop50
 90
       50
102
RTVSPost2010PropOp50
 70
     1
102
RTVSPost2010Prop51ColorIndex
 90
      256
102
RTVSPost2010Prop51ColorRGB
 90
-16777216
102
RTVSPost2010PropOp51
 70
     0
102
RTVSPost2010Prop52
140
1.0
102
RTVSPost2010PropOp52
 70
     0
102
RTVSPost2010Prop53
 90
        2
102
RTVSPost2010PropOp53
 70
     1
102
RTVSPost2010Prop54
  1
strokes_ogs.tif
102
RTVSPost2010PropOp54
 70
     1
102
RTVSPost2010Prop55
280
     0
102
RTVSPost2010PropOp55
 70
     1
102
RTVSPost2010Prop56
140
1.0
102
RTVSPost2010PropOp56
 70
     1
102
RTVSPost2010Prop57
140
1.0
102
RTVSPost2010PropOp57
 70
     1
  0
XRECORD
  5
C8
102
{ACAD_REACTORS
330
C7
102
}
330
C7
100
AcDbXrecord
280
     1
102
RTVSPropertyOp0
 70
     1
102
RTVSPropertyOp1
 70
     1
102
RTVSPropertyOp2
 70
     1
102
RTVSPropertyOp3
 70
     1
102
RTVSPropertyOp4
 70
     1
102
RTVSPropertyOp5
 70
     1
102
RTVSPropertyOp6
 70
     1
102
RTVSPropertyOp7
 70
     1
102
RTVSPropertyOp8
 70
     1
102
RTVSPropertyOp9
 70
     1
102
RTVSPropertyOp10
 70
     1
102
RTVSPropertyOp11
 70
     1
102
RTVSPropertyOp12
 70
     1
102
RTVSPropertyOp13
 70
     1
102
RTVSPropertyOp14
 70
     1
102
RTVSPropertyOp15
 70
     1
102
RTVSPropertyOp16
 70
     1
102
RTVSPropertyOp17
 70
     1
102
RTVSPropertyOp18
 70
     1
102
RTVSPropertyOp19
 70
     1
102
RTVSPropertyOp20
 70
     1
102
RTVSPropertyOp21
 70
     1
102
RTVSPropertyOp22
 70
     1
102
RTVSPropertyOp23
 70
     1
102
RTVSPropertyOp24
 70
     1
102
RTVSPropertyOp25
 70
     1
102
RTVSPropertyOp26
 70
     1
102
RTVSPropertyOp27
 70
     1
102
RTVSPropertyOp28
 70
     1
102
RTVSPropertyOp29
 70
     1
102
RTVSPropertyOp30
 70
     1
102
RTVSPropertyOp31
 70
     1
102
RTVSPropertyOp32
 70
     1
102
RTVSPropertyOp33
 70
     1
102
RTVSPropertyOp34
 70
     1
102
RTVSPropertyOp35
 70
     1
102
RTVSPropertyOp36
 70
     1
102
RTVSPropertyOp37
 70
     1
102
RTVSPropertyOp38
 70
     1
102
RTVSPropertyOp39
 70
     1
102
RTVSPropertyOp40
 70
     1
102
RTVSPropertyOp41
 70
     1
102
RTVSPropertyOp42
 70
     1
102
RTVSPropertyOp43
 70
     1
102
RTVSPropertyOp44
 70
     1
102
RTVSPropertyOp45
 70
     1
102
RTVSPropertyOp46
 70
     1
102
RTVSPropertyOp47
 70
     1
102
RTVSPropertyOp48
 70
     1
102
RTVSPropertyOp49
 70
     1
102
RTVSPropertyOp50
 70
     1
102
RTVSPropertyOp51
 70
     0
102
RTVSPropertyOp52
 70
     0
102
RTVSPropertyOp53
 70
     1
102
RTVSPropertyOp54
 70
     1
102
RTVSPropertyOp55
 70
     1
102
RTVSPropertyOp56
 70
     1
102
RTVSPropertyOp57
 70
     1
102
RTVSPost2010Prop28
280
     0
102
RTVSPost2010PropOp28
 70
     1
102
RTVSPost2010Prop29
280
     1
102
RTVSPost2010PropOp29
 70
     1
102
RTVSPost2010Prop30
280
     1
102
RTVSPost2010PropOp30
 70
     1
102
RTVSPost2010Prop31
280
     0
102
RTVSPost2010PropOp31
 70
     1
102
RTVSPost2010Prop32
280
     0
102
RTVSPost2010PropOp32
 70
     1
102
RTVSPost2010Prop33
280
     0
102
RTVSPost2010PropOp33
 70
     1
102
RTVSPost2010Prop34
280
     0
102
RTVSPost2010PropOp34
 70
     1
102
RTVSPost2010Prop35
280
     0
102
RTVSPost2010PropOp35
 70
     1
102
RTVSPost2010Prop36
280
     0
102
RTVSPost2010PropOp36
 70
     1
102
RTVSPost2010Prop37
 90
       50
102
RTVSPost2010PropOp37
 70
     1
102
RTVSPost2010Prop38
140
0.0
102
RTVSPost2010PropOp38
 70
     1
102
RTVSPost2010Prop39
140
1.0
102
RTVSPost2010PropOp39
 70
     1
102
RTVSPost2010Prop40
 90
        0
102
RTVSPost2010PropOp40
 70
     1
102
RTVSPost2010Prop41ColorIndex
 90
       18
102
RTVSPost2010Prop41ColorRGB
 90
        0
102
RTVSPost2010PropOp41
 70
     1
102
RTVSPost2010Prop42
 90
       50
102
RTVSPost2010PropOp42
 70
     1
102
RTVSPost2010Prop43
 90
        3
102
RTVSPost2010PropOp43
 70
     1
102
RTVSPost2010Prop44ColorIndex
 90
        5
102
RTVSPost2010Prop44ColorRGB
 90
      255
102
RTVSPost2010PropOp44
 70
     1
102
RTVSPost2010Prop45
280
     0
102
RTVSPost2010PropOp45
 70
     1
102
RTVSPost2010Prop46
 90
       50
102
RTVSPost2010PropOp46
 70
     1
102
RTVSPost2010Prop47
 90
       50
102
RTVSPost2010PropOp47
 70
     1
102
RTVSPost2010Prop48
 90
       50
102
RTVSPost2010PropOp48
 70
     1
102
RTVSPost2010Prop49
280
     0
102
RTVSPost2010PropOp49
 70
     1
102
RTVSPost2010Prop50
 90
       50
102
RTVSPost2010PropOp50
 70
     1
102
RTVSPost2010Prop51ColorIndex
 90
      256
102
RTVSPost2010Prop51ColorRGB
 90
-16777216
102
RTVSPost2010PropOp51
 70
     0
102
RTVSPost2010Prop52
140
1.0
102
RTVSPost2010PropOp52
 70
     0
102
RTVSPost2010Prop53
 90
        2
102
RTVSPost2010PropOp53
 70
     1
102
RTVSPost2010Prop54
  1
strokes_ogs.tif
102
RTVSPost2010PropOp54
 70
     1
102
RTVSPost2010Prop55
280
     0
102
RTVSPost2010PropOp55
 70
     1
102
RTVSPost2010Prop56
140
1.0
102
RTVSPost2010PropOp56
 70
     1
102
RTVSPost2010Prop57
140
1.0
102
RTVSPost2010PropOp57
 70
     1
  0
XRECORD
  5
D8
102
{ACAD_REACTORS
330
D7
102
}
330
D7
100
AcDbXrecord
280
     1
102
RTVSPropertyOp0
 70
     0
102
RTVSPropertyOp1
 70
     0
102
RTVSPropertyOp2
 70
     0
102
RTVSPropertyOp3
 70
     0
102
RTVSPropertyOp4
 70
     0
102
RTVSPropertyOp5
 70
     0
102
RTVSPropertyOp6
 70
     0
102
RTVSPropertyOp7
 70
     0
102
RTVSPropertyOp8
 70
     0
102
RTVSPropertyOp9
 70
     0
102
RTVSPropertyOp10
 70
     0
102
RTVSPropertyOp11
 70
     0
102
RTVSPropertyOp12
 70
     0
102
RTVSPropertyOp13
 70
     0
102
RTVSPropertyOp14
 70
     2
102
RTVSPropertyOp15
 70
     0
102
RTVSPropertyOp16
 70
     0
102
RTVSPropertyOp17
 70
     0
102
RTVSPropertyOp18
 70
     0
102
RTVSPropertyOp19
 70
     0
102
RTVSPropertyOp20
 70
     0
102
RTVSPropertyOp21
 70
     0
102
RTVSPropertyOp22
 70
     0
102
RTVSPropertyOp23
 70
     0
102
RTVSPropertyOp24
 70
     0
102
RTVSPropertyOp25
 70
     0
102
RTVSPropertyOp26
 70
     0
102
RTVSPropertyOp27
 70
     0
102
RTVSPropertyOp28
 70
     0
102
RTVSPropertyOp29
 70
     0
102
RTVSPropertyOp30
 70
     0
102
RTVSPropertyOp31
 70
     0
102
RTVSPropertyOp32
 70
     0
102
RTVSPropertyOp33
 70
     0
102
RTVSPropertyOp34
 70
     0
102
RTVSPropertyOp35
 70
     0
102
RTVSPropertyOp36
 70
     0
102
RTVSPropertyOp37
 70
     0
102
RTVSPropertyOp38
 70
     0
102
RTVSPropertyOp39
 70
     0
102
RTVSPropertyOp40
 70
     0
102
RTVSPropertyOp41
 70
     0
102
RTVSPropertyOp42
 70
     0
102
RTVSPropertyOp43
 70
     0
102
RTVSPropertyOp44
 70
     0
102
RTVSPropertyOp45
 70
     0
102
RTVSPropertyOp46
 70
     0
102
RTVSPropertyOp47
 70
     0
102
RTVSPropertyOp48
 70
     0
102
RTVSPropertyOp49
 70
     0
102
RTVSPropertyOp50
 70
     0
102
RTVSPropertyOp51
 70
     0
102
RTVSPropertyOp52
 70
     0
102
RTVSPropertyOp53
 70
     0
102
RTVSPropertyOp54
 70
     0
102
RTVSPropertyOp55
 70
     0
102
RTVSPropertyOp56
 70
     0
102
RTVSPropertyOp57
 70
     0
102
RTVSPost2010Prop28
280
     0
102
RTVSPost2010PropOp28
 70
     0
102
RTVSPost2010Prop29
280
     1
102
RTVSPost2010PropOp29
 70
     0
102
RTVSPost2010Prop30
280
     1
102
RTVSPost2010PropOp30
 70
     0
102
RTVSPost2010Prop31
280
     0
102
RTVSPost2010PropOp31
 70
     0
102
RTVSPost2010Prop32
280
     0
102
RTVSPost2010PropOp32
 70
     0
102
RTVSPost2010Prop33
280
     0
102
RTVSPost2010PropOp33
 70
     0
102
RTVSPost2010Prop34
280
     0
102
RTVSPost2010PropOp34
 70
     0
102
RTVSPost2010Prop35
280
     0
102
RTVSPost2010PropOp35
 70
     0
102
RTVSPost2010Prop36
280
     0
102
RTVSPost2010PropOp36
 70
     0
102
RTVSPost2010Prop37
 90
       50
102
RTVSPost2010PropOp37
 70
     0
102
RTVSPost2010Prop38
140
0.0
102
RTVSPost2010PropOp38
 70
     0
102
RTVSPost2010Prop39
140
1.0
102
RTVSPost2010PropOp39
 70
     0
102
RTVSPost2010Prop40
 90
        0
102
RTVSPost2010PropOp40
 70
     0
102
RTVSPost2010Prop41ColorIndex
 90
       18
102
RTVSPost2010Prop41ColorRGB
 90
        0
102
RTVSPost2010PropOp41
 70
     0
102
RTVSPost2010Prop42
 90
       50
102
RTVSPost2010PropOp42
 70
     0
102
RTVSPost2010Prop43
 90
        3
102
RTVSPost2010PropOp43
 70
     0
102
RTVSPost2010Prop44ColorIndex
 90
        5
102
RTVSPost2010Prop44ColorRGB
 90
      255
102
RTVSPost2010PropOp44
 70
     0
102
RTVSPost2010Prop45
280
     0
102
RTVSPost2010PropOp45
 70
     0
102
RTVSPost2010Prop46
 90
       50
102
RTVSPost2010PropOp46
 70
     0
102
RTVSPost2010Prop47
 90
       50
102
RTVSPost2010PropOp47
 70
     0
102
RTVSPost2010Prop48
 90
       50
102
RTVSPost2010PropOp48
 70
     0
102
RTVSPost2010Prop49
280
     0
102
RTVSPost2010PropOp49
 70
     0
102
RTVSPost2010Prop50
 90
       50
102
RTVSPost2010PropOp50
 70
     0
102
RTVSPost2010Prop51ColorIndex
 90
      256
102
RTVSPost2010Prop51ColorRGB
 90
-16777216
102
RTVSPost2010PropOp51
 70
     0
102
RTVSPost2010Prop52
140
1.0
102
RTVSPost2010PropOp52
 70
     0
102
RTVSPost2010Prop53
 90
        2
102
RTVSPost2010PropOp53
 70
     0
102
RTVSPost2010Prop54
  1
strokes_ogs.tif
102
RTVSPost2010PropOp54
 70
     0
102
RTVSPost2010Prop55
280
     0
102
RTVSPost2010PropOp55
 70
     0
102
RTVSPost2010Prop56
140
1.0
102
RTVSPost2010PropOp56
 70
     0
102
RTVSPost2010Prop57
140
1.0
102
RTVSPost2010PropOp57
 70
     0
  0
XRECORD
  5
D0
102
{ACAD_REACTORS
330
CF
102
}
330
CF
100
AcDbXrecord
280
     1
102
RTVSPropertyOp0
 70
     1
102
RTVSPropertyOp1
 70
     1
102
RTVSPropertyOp2
 70
     1
102
RTVSPropertyOp3
 70
     1
102
RTVSPropertyOp4
 70
     1
102
RTVSPropertyOp5
 70
     1
102
RTVSPropertyOp6
 70
     1
102
RTVSPropertyOp7
 70
     1
102
RTVSPropertyOp8
 70
     1
102
RTVSPropertyOp9
 70
     1
102
RTVSPropertyOp10
 70
     1
102
RTVSPropertyOp11
 70
     1
102
RTVSPropertyOp12
 70
     1
102
RTVSPropertyOp13
 70
     1
102
RTVSPropertyOp14
 70
     1
102
RTVSPropertyOp15
 70
     1
102
RTVSPropertyOp16
 70
     1
102
RTVSPropertyOp17
 70
     1
102
RTVSPropertyOp18
 70
     1
102
RTVSPropertyOp19
 70
     1
102
RTVSPropertyOp20
 70
     1
102
RTVSPropertyOp21
 70
     1
102
RTVSPropertyOp22
 70
     1
102
RTVSPropertyOp23
 70
     1
102
RTVSPropertyOp24
 70
     1
102
RTVSPropertyOp25
 70
     1
102
RTVSPropertyOp26
 70
     1
102
RTVSPropertyOp27
 70
     1
102
RTVSPropertyOp28
 70
     1
102
RTVSPropertyOp29
 70
     1
102
RTVSPropertyOp30
 70
     1
102
RTVSPropertyOp31
 70
     1
102
RTVSPropertyOp32
 70
     1
102
RTVSPropertyOp33
 70
     1
102
RTVSPropertyOp34
 70
     1
102
RTVSPropertyOp35
 70
     1
102
RTVSPropertyOp36
 70
     1
102
RTVSPropertyOp37
 70
     1
102
RTVSPropertyOp38
 70
     1
102
RTVSPropertyOp39
 70
     1
102
RTVSPropertyOp40
 70
     1
102
RTVSPropertyOp41
 70
     1
102
RTVSPropertyOp42
 70
     1
102
RTVSPropertyOp43
 70
     1
102
RTVSPropertyOp44
 70
     1
102
RTVSPropertyOp45
 70
     1
102
RTVSPropertyOp46
 70
     1
102
RTVSPropertyOp47
 70
     1
102
RTVSPropertyOp48
 70
     1
102
RTVSPropertyOp49
 70
     1
102
RTVSPropertyOp50
 70
     1
102
RTVSPropertyOp51
 70
     0
102
RTVSPropertyOp52
 70
     0
102
RTVSPropertyOp53
 70
     1
102
RTVSPropertyOp54
 70
     1
102
RTVSPropertyOp55
 70
     1
102
RTVSPropertyOp56
 70
     1
102
RTVSPropertyOp57
 70
     1
102
RTVSPost2010Prop28
280
     0
102
RTVSPost2010PropOp28
 70
     1
102
RTVSPost2010Prop29
280
     1
102
RTVSPost2010PropOp29
 70
     1
102
RTVSPost2010Prop30
280
     1
102
RTVSPost2010PropOp30
 70
     1
102
RTVSPost2010Prop31
280
     0
102
RTVSPost2010PropOp31
 70
     1
102
RTVSPost2010Prop32
280
     0
102
RTVSPost2010PropOp32
 70
     1
102
RTVSPost2010Prop33
280
     0
102
RTVSPost2010PropOp33
 70
     1
102
RTVSPost2010Prop34
280
     0
102
RTVSPost2010PropOp34
 70
     1
102
RTVSPost2010Prop35
280
     0
102
RTVSPost2010PropOp35
 70
     1
102
RTVSPost2010Prop36
280
     0
102
RTVSPost2010PropOp36
 70
     1
102
RTVSPost2010Prop37
 90
       50
102
RTVSPost2010PropOp37
 70
     1
102
RTVSPost2010Prop38
140
0.0
102
RTVSPost2010PropOp38
 70
     1
102
RTVSPost2010Prop39
140
1.0
102
RTVSPost2010PropOp39
 70
     1
102
RTVSPost2010Prop40
 90
        0
102
RTVSPost2010PropOp40
 70
     1
102
RTVSPost2010Prop41ColorIndex
 90
       18
102
RTVSPost2010Prop41ColorRGB
 90
        0
102
RTVSPost2010PropOp41
 70
     1
102
RTVSPost2010Prop42
 90
       50
102
RTVSPost2010PropOp42
 70
     1
102
RTVSPost2010Prop43
 90
        3
102
RTVSPost2010PropOp43
 70
     1
102
RTVSPost2010Prop44ColorIndex
 90
        5
102
RTVSPost2010Prop44ColorRGB
 90
      255
102
RTVSPost2010PropOp44
 70
     1
102
RTVSPost2010Prop45
280
     0
102
RTVSPost2010PropOp45
 70
     1
102
RTVSPost2010Prop46
 90
       50
102
RTVSPost2010PropOp46
 70
     1
102
RTVSPost2010Prop47
 90
       50
102
RTVSPost2010PropOp47
 70
     1
102
RTVSPost2010Prop48
 90
       50
102
RTVSPost2010PropOp48
 70
     1
102
RTVSPost2010Prop49
280
     0
102
RTVSPost2010PropOp49
 70
     1
102
RTVSPost2010Prop50
 90
       50
102
RTVSPost2010PropOp50
 70
     1
102
RTVSPost2010Prop51ColorIndex
 90
      256
102
RTVSPost2010Prop51ColorRGB
 90
-16777216
102
RTVSPost2010PropOp51
 70
     0
102
RTVSPost2010Prop52
140
1.0
102
RTVSPost2010PropOp52
 70
     0
102
RTVSPost2010Prop53
 90
        2
102
RTVSPost2010PropOp53
 70
     1
102
RTVSPost2010Prop54
  1
strokes_ogs.tif
102
RTVSPost2010PropOp54
 70
     1
102
RTVSPost2010Prop55
280
     0
102
RTVSPost2010PropOp55
 70
     1
102
RTVSPost2010Prop56
140
1.0
102
RTVSPost2010PropOp56
 70
     1
102
RTVSPost2010Prop57
140
1.0
102
RTVSPost2010PropOp57
 70
     1
  0
XRECORD
  5
B4
102
{ACAD_REACTORS
330
B3
102
}
330
B3
100
AcDbXrecord
280
     1
102
RTVSPropertyOp0
 70
     1
102
RTVSPropertyOp1
 70
     1
102
RTVSPropertyOp2
 70
     1
102
RTVSPropertyOp3
 70
     1
102
RTVSPropertyOp4
 70
     1
102
RTVSPropertyOp5
 70
     1
102
RTVSPropertyOp6
 70
     1
102
RTVSPropertyOp7
 70
     1
102
RTVSPropertyOp8
 70
     1
102
RTVSPropertyOp9
 70
     1
102
RTVSPropertyOp10
 70
     1
102
RTVSPropertyOp11
 70
     1
102
RTVSPropertyOp12
 70
     1
102
RTVSPropertyOp13
 70
     1
102
RTVSPropertyOp14
 70
     1
102
RTVSPropertyOp15
 70
     1
102
RTVSPropertyOp16
 70
     1
102
RTVSPropertyOp17
 70
     1
102
RTVSPropertyOp18
 70
     1
102
RTVSPropertyOp19
 70
     1
102
RTVSPropertyOp20
 70
     1
102
RTVSPropertyOp21
 70
     1
102
RTVSPropertyOp22
 70
     1
102
RTVSPropertyOp23
 70
     1
102
RTVSPropertyOp24
 70
     1
102
RTVSPropertyOp25
 70
     1
102
RTVSPropertyOp26
 70
     1
102
RTVSPropertyOp27
 70
     1
102
RTVSPropertyOp28
 70
     1
102
RTVSPropertyOp29
 70
     1
102
RTVSPropertyOp30
 70
     1
102
RTVSPropertyOp31
 70
     1
102
RTVSPropertyOp32
 70
     1
102
RTVSPropertyOp33
 70
     1
102
RTVSPropertyOp34
 70
     1
102
RTVSPropertyOp35
 70
     1
102
RTVSPropertyOp36
 70
     1
102
RTVSPropertyOp37
 70
     1
102
RTVSPropertyOp38
 70
     1
102
RTVSPropertyOp39
 70
     1
102
RTVSPropertyOp40
 70
     1
102
RTVSPropertyOp41
 70
     1
102
RTVSPropertyOp42
 70
     1
102
RTVSPropertyOp43
 70
     1
102
RTVSPropertyOp44
 70
     1
102
RTVSPropertyOp45
 70
     1
102
RTVSPropertyOp46
 70
     1
102
RTVSPropertyOp47
 70
     1
102
RTVSPropertyOp48
 70
     1
102
RTVSPropertyOp49
 70
     1
102
RTVSPropertyOp50
 70
     1
102
RTVSPropertyOp51
 70
     0
102
RTVSPropertyOp52
 70
     0
102
RTVSPropertyOp53
 70
     1
102
RTVSPropertyOp54
 70
     1
102
RTVSPropertyOp55
 70
     1
102
RTVSPropertyOp56
 70
     1
102
RTVSPropertyOp57
 70
     1
102
RTVSPost2010Prop28
280
     0
102
RTVSPost2010PropOp28
 70
     1
102
RTVSPost2010Prop29
280
     1
102
RTVSPost2010PropOp29
 70
     1
102
RTVSPost2010Prop30
280
     1
102
RTVSPost2010PropOp30
 70
     1
102
RTVSPost2010Prop31
280
     0
102
RTVSPost2010PropOp31
 70
     1
102
RTVSPost2010Prop32
280
     0
102
RTVSPost2010PropOp32
 70
     1
102
RTVSPost2010Prop33
280
     0
102
RTVSPost2010PropOp33
 70
     1
102
RTVSPost2010Prop34
280
     0
102
RTVSPost2010PropOp34
 70
     1
102
RTVSPost2010Prop35
280
     0
102
RTVSPost2010PropOp35
 70
     1
102
RTVSPost2010Prop36
280
     0
102
RTVSPost2010PropOp36
 70
     1
102
RTVSPost2010Prop37
 90
       50
102
RTVSPost2010PropOp37
 70
     1
102
RTVSPost2010Prop38
140
0.0
102
RTVSPost2010PropOp38
 70
     1
102
RTVSPost2010Prop39
140
1.0
102
RTVSPost2010PropOp39
 70
     1
102
RTVSPost2010Prop40
 90
        0
102
RTVSPost2010PropOp40
 70
     1
102
RTVSPost2010Prop41ColorIndex
 90
       18
102
RTVSPost2010Prop41ColorRGB
 90
        0
102
RTVSPost2010PropOp41
 70
     1
102
RTVSPost2010Prop42
 90
       50
102
RTVSPost2010PropOp42
 70
     1
102
RTVSPost2010Prop43
 90
        3
102
RTVSPost2010PropOp43
 70
     1
102
RTVSPost2010Prop44ColorIndex
 90
        5
102
RTVSPost2010Prop44ColorRGB
 90
      255
102
RTVSPost2010PropOp44
 70
     1
102
RTVSPost2010Prop45
280
     0
102
RTVSPost2010PropOp45
 70
     1
102
RTVSPost2010Prop46
 90
       50
102
RTVSPost2010PropOp46
 70
     1
102
RTVSPost2010Prop47
 90
       50
102
RTVSPost2010PropOp47
 70
     1
102
RTVSPost2010Prop48
 90
       50
102
RTVSPost2010PropOp48
 70
     1
102
RTVSPost2010Prop49
280
     0
102
RTVSPost2010PropOp49
 70
     1
102
RTVSPost2010Prop50
 90
       50
102
RTVSPost2010PropOp50
 70
     1
102
RTVSPost2010Prop51ColorIndex
 90
      256
102
RTVSPost2010Prop51ColorRGB
 90
-16777216
102
RTVSPost2010PropOp51
 70
     0
102
RTVSPost2010Prop52
140
1.0
102
RTVSPost2010PropOp52
 70
     0
102
RTVSPost2010Prop53
 90
        2
102
RTVSPost2010PropOp53
 70
     1
102
RTVSPost2010Prop54
  1
strokes_ogs.tif
102
RTVSPost2010PropOp54
 70
     1
102
RTVSPost2010Prop55
280
     0
102
RTVSPost2010PropOp55
 70
     1
102
RTVSPost2010Prop56
140
1.0
102
RTVSPost2010PropOp56
 70
     1
102
RTVSPost2010Prop57
140
1.0
102
RTVSPost2010PropOp57
 70
     1
  0
XRECORD
  5
B6
102
{ACAD_REACTORS
330
B5
102
}
330
B5
100
AcDbXrecord
280
     1
102
RTVSPropertyOp0
 70
     1
102
RTVSPropertyOp1
 70
     1
102
RTVSPropertyOp2
 70
     1
102
RTVSPropertyOp3
 70
     1
102
RTVSPropertyOp4
 70
     1
102
RTVSPropertyOp5
 70
     1
102
RTVSPropertyOp6
 70
     1
102
RTVSPropertyOp7
 70
     1
102
RTVSPropertyOp8
 70
     1
102
RTVSPropertyOp9
 70
     1
102
RTVSPropertyOp10
 70
     1
102
RTVSPropertyOp11
 70
     1
102
RTVSPropertyOp12
 70
     1
102
RTVSPropertyOp13
 70
     1
102
RTVSPropertyOp14
 70
     1
102
RTVSPropertyOp15
 70
     1
102
RTVSPropertyOp16
 70
     1
102
RTVSPropertyOp17
 70
     1
102
RTVSPropertyOp18
 70
     1
102
RTVSPropertyOp19
 70
     1
102
RTVSPropertyOp20
 70
     1
102
RTVSPropertyOp21
 70
     1
102
RTVSPropertyOp22
 70
     1
102
RTVSPropertyOp23
 70
     1
102
RTVSPropertyOp24
 70
     1
102
RTVSPropertyOp25
 70
     1
102
RTVSPropertyOp26
 70
     1
102
RTVSPropertyOp27
 70
     1
102
RTVSPropertyOp28
 70
     1
102
RTVSPropertyOp29
 70
     1
102
RTVSPropertyOp30
 70
     1
102
RTVSPropertyOp31
 70
     1
102
RTVSPropertyOp32
 70
     1
102
RTVSPropertyOp33
 70
     1
102
RTVSPropertyOp34
 70
     1
102
RTVSPropertyOp35
 70
     1
102
RTVSPropertyOp36
 70
     1
102
RTVSPropertyOp37
 70
     1
102
RTVSPropertyOp38
 70
     1
102
RTVSPropertyOp39
 70
     1
102
RTVSPropertyOp40
 70
     1
102
RTVSPropertyOp41
 70
     1
102
RTVSPropertyOp42
 70
     1
102
RTVSPropertyOp43
 70
     1
102
RTVSPropertyOp44
 70
     1
102
RTVSPropertyOp45
 70
     1
102
RTVSPropertyOp46
 70
     1
102
RTVSPropertyOp47
 70
     1
102
RTVSPropertyOp48
 70
     1
102
RTVSPropertyOp49
 70
     1
102
RTVSPropertyOp50
 70
     1
102
RTVSPropertyOp51
 70
     0
102
RTVSPropertyOp52
 70
     0
102
RTVSPropertyOp53
 70
     1
102
RTVSPropertyOp54
 70
     1
102
RTVSPropertyOp55
 70
     1
102
RTVSPropertyOp56
 70
     1
102
RTVSPropertyOp57
 70
     1
102
RTVSPost2010Prop28
280
     0
102
RTVSPost2010PropOp28
 70
     1
102
RTVSPost2010Prop29
280
     1
102
RTVSPost2010PropOp29
 70
     1
102
RTVSPost2010Prop30
280
     1
102
RTVSPost2010PropOp30
 70
     1
102
RTVSPost2010Prop31
280
     0
102
RTVSPost2010PropOp31
 70
     1
102
RTVSPost2010Prop32
280
     0
102
RTVSPost2010PropOp32
 70
     1
102
RTVSPost2010Prop33
280
     0
102
RTVSPost2010PropOp33
 70
     1
102
RTVSPost2010Prop34
280
     0
102
RTVSPost2010PropOp34
 70
     1
102
RTVSPost2010Prop35
280
     0
102
RTVSPost2010PropOp35
 70
     1
102
RTVSPost2010Prop36
280
     0
102
RTVSPost2010PropOp36
 70
     1
102
RTVSPost2010Prop37
 90
       50
102
RTVSPost2010PropOp37
 70
     1
102
RTVSPost2010Prop38
140
0.0
102
RTVSPost2010PropOp38
 70
     1
102
RTVSPost2010Prop39
140
1.0
102
RTVSPost2010PropOp39
 70
     1
102
RTVSPost2010Prop40
 90
        0
102
RTVSPost2010PropOp40
 70
     1
102
RTVSPost2010Prop41ColorIndex
 90
       18
102
RTVSPost2010Prop41ColorRGB
 90
        0
102
RTVSPost2010PropOp41
 70
     1
102
RTVSPost2010Prop42
 90
       50
102
RTVSPost2010PropOp42
 70
     1
102
RTVSPost2010Prop43
 90
        3
102
RTVSPost2010PropOp43
 70
     1
102
RTVSPost2010Prop44ColorIndex
 90
        5
102
RTVSPost2010Prop44ColorRGB
 90
      255
102
RTVSPost2010PropOp44
 70
     1
102
RTVSPost2010Prop45
280
     0
102
RTVSPost2010PropOp45
 70
     1
102
RTVSPost2010Prop46
 90
       50
102
RTVSPost2010PropOp46
 70
     1
102
RTVSPost2010Prop47
 90
       50
102
RTVSPost2010PropOp47
 70
     1
102
RTVSPost2010Prop48
 90
       50
102
RTVSPost2010PropOp48
 70
     1
102
RTVSPost2010Prop49
280
     0
102
RTVSPost2010PropOp49
 70
     1
102
RTVSPost2010Prop50
 90
       50
102
RTVSPost2010PropOp50
 70
     1
102
RTVSPost2010Prop51ColorIndex
 90
      256
102
RTVSPost2010Prop51ColorRGB
 90
-16777216
102
RTVSPost2010PropOp51
 70
     0
102
RTVSPost2010Prop52
140
1.0
102
RTVSPost2010PropOp52
 70
     0
102
RTVSPost2010Prop53
 90
        2
102
RTVSPost2010PropOp53
 70
     1
102
RTVSPost2010Prop54
  1
strokes_ogs.tif
102
RTVSPost2010PropOp54
 70
     1
102
RTVSPost2010Prop55
280
     0
102
RTVSPost2010PropOp55
 70
     1
102
RTVSPost2010Prop56
140
1.0
102
RTVSPost2010PropOp56
 70
     1
102
RTVSPost2010Prop57
140
1.0
102
RTVSPost2010PropOp57
 70
     1
  0
XRECORD
  5
B8
102
{ACAD_REACTORS
330
B7
102
}
330
B7
100
AcDbXrecord
280
     1
102
RTVSPropertyOp0
 70
     1
102
RTVSPropertyOp1
 70
     1
102
RTVSPropertyOp2
 70
     1
102
RTVSPropertyOp3
 70
     1
102
RTVSPropertyOp4
 70
     1
102
RTVSPropertyOp5
 70
     1
102
RTVSPropertyOp6
 70
     1
102
RTVSPropertyOp7
 70
     1
102
RTVSPropertyOp8
 70
     1
102
RTVSPropertyOp9
 70
     1
102
RTVSPropertyOp10
 70
     1
102
RTVSPropertyOp11
 70
     1
102
RTVSPropertyOp12
 70
     1
102
RTVSPropertyOp13
 70
     1
102
RTVSPropertyOp14
 70
     1
102
RTVSPropertyOp15
 70
     1
102
RTVSPropertyOp16
 70
     1
102
RTVSPropertyOp17
 70
     1
102
RTVSPropertyOp18
 70
     1
102
RTVSPropertyOp19
 70
     1
102
RTVSPropertyOp20
 70
     1
102
RTVSPropertyOp21
 70
     1
102
RTVSPropertyOp22
 70
     1
102
RTVSPropertyOp23
 70
     1
102
RTVSPropertyOp24
 70
     1
102
RTVSPropertyOp25
 70
     1
102
RTVSPropertyOp26
 70
     1
102
RTVSPropertyOp27
 70
     1
102
RTVSPropertyOp28
 70
     1
102
RTVSPropertyOp29
 70
     1
102
RTVSPropertyOp30
 70
     1
102
RTVSPropertyOp31
 70
     1
102
RTVSPropertyOp32
 70
     1
102
RTVSPropertyOp33
 70
     1
102
RTVSPropertyOp34
 70
     1
102
RTVSPropertyOp35
 70
     1
102
RTVSPropertyOp36
 70
     1
102
RTVSPropertyOp37
 70
     1
102
RTVSPropertyOp38
 70
     1
102
RTVSPropertyOp39
 70
     1
102
RTVSPropertyOp40
 70
     1
102
RTVSPropertyOp41
 70
     1
102
RTVSPropertyOp42
 70
     1
102
RTVSPropertyOp43
 70
     1
102
RTVSPropertyOp44
 70
     1
102
RTVSPropertyOp45
 70
     1
102
RTVSPropertyOp46
 70
     1
102
RTVSPropertyOp47
 70
     1
102
RTVSPropertyOp48
 70
     1
102
RTVSPropertyOp49
 70
     1
102
RTVSPropertyOp50
 70
     1
102
RTVSPropertyOp51
 70
     0
102
RTVSPropertyOp52
 70
     0
102
RTVSPropertyOp53
 70
     1
102
RTVSPropertyOp54
 70
     1
102
RTVSPropertyOp55
 70
     1
102
RTVSPropertyOp56
 70
     1
102
RTVSPropertyOp57
 70
     1
102
RTVSPost2010Prop28
280
     0
102
RTVSPost2010PropOp28
 70
     1
102
RTVSPost2010Prop29
280
     1
102
RTVSPost2010PropOp29
 70
     1
102
RTVSPost2010Prop30
280
     1
102
RTVSPost2010PropOp30
 70
     1
102
RTVSPost2010Prop31
280
     0
102
RTVSPost2010PropOp31
 70
     1
102
RTVSPost2010Prop32
280
     0
102
RTVSPost2010PropOp32
 70
     1
102
RTVSPost2010Prop33
280
     0
102
RTVSPost2010PropOp33
 70
     1
102
RTVSPost2010Prop34
280
     0
102
RTVSPost2010PropOp34
 70
     1
102
RTVSPost2010Prop35
280
     0
102
RTVSPost2010PropOp35
 70
     1
102
RTVSPost2010Prop36
280
     0
102
RTVSPost2010PropOp36
 70
     1
102
RTVSPost2010Prop37
 90
       50
102
RTVSPost2010PropOp37
 70
     1
102
RTVSPost2010Prop38
140
0.0
102
RTVSPost2010PropOp38
 70
     1
102
RTVSPost2010Prop39
140
1.0
102
RTVSPost2010PropOp39
 70
     1
102
RTVSPost2010Prop40
 90
        0
102
RTVSPost2010PropOp40
 70
     1
102
RTVSPost2010Prop41ColorIndex
 90
       18
102
RTVSPost2010Prop41ColorRGB
 90
        0
102
RTVSPost2010PropOp41
 70
     1
102
RTVSPost2010Prop42
 90
       50
102
RTVSPost2010PropOp42
 70
     1
102
RTVSPost2010Prop43
 90
        3
102
RTVSPost2010PropOp43
 70
     1
102
RTVSPost2010Prop44ColorIndex
 90
        5
102
RTVSPost2010Prop44ColorRGB
 90
      255
102
RTVSPost2010PropOp44
 70
     1
102
RTVSPost2010Prop45
280
     0
102
RTVSPost2010PropOp45
 70
     1
102
RTVSPost2010Prop46
 90
       50
102
RTVSPost2010PropOp46
 70
     1
102
RTVSPost2010Prop47
 90
       50
102
RTVSPost2010PropOp47
 70
     1
102
RTVSPost2010Prop48
 90
       50
102
RTVSPost2010PropOp48
 70
     1
102
RTVSPost2010Prop49
280
     0
102
RTVSPost2010PropOp49
 70
     1
102
RTVSPost2010Prop50
 90
       50
102
RTVSPost2010PropOp50
 70
     1
102
RTVSPost2010Prop51ColorIndex
 90
      256
102
RTVSPost2010Prop51ColorRGB
 90
-16777216
102
RTVSPost2010PropOp51
 70
     0
102
RTVSPost2010Prop52
140
1.0
102
RTVSPost2010PropOp52
 70
     0
102
RTVSPost2010Prop53
 90
        2
102
RTVSPost2010PropOp53
 70
     1
102
RTVSPost2010Prop54
  1
strokes_ogs.tif
102
RTVSPost2010PropOp54
 70
     1
102
RTVSPost2010Prop55
280
     0
102
RTVSPost2010PropOp55
 70
     1
102
RTVSPost2010Prop56
140
1.0
102
RTVSPost2010PropOp56
 70
     1
102
RTVSPost2010Prop57
140
1.0
102
RTVSPost2010PropOp57
 70
     1
  0
XRECORD
  5
BA
102
{ACAD_REACTORS
330
B9
102
}
330
B9
100
AcDbXrecord
280
     1
102
RTVSPropertyOp0
 70
     1
102
RTVSPropertyOp1
 70
     1
102
RTVSPropertyOp2
 70
     1
102
RTVSPropertyOp3
 70
     1
102
RTVSPropertyOp4
 70
     1
102
RTVSPropertyOp5
 70
     1
102
RTVSPropertyOp6
 70
     1
102
RTVSPropertyOp7
 70
     1
102
RTVSPropertyOp8
 70
     1
102
RTVSPropertyOp9
 70
     1
102
RTVSPropertyOp10
 70
     1
102
RTVSPropertyOp11
 70
     1
102
RTVSPropertyOp12
 70
     1
102
RTVSPropertyOp13
 70
     1
102
RTVSPropertyOp14
 70
     1
102
RTVSPropertyOp15
 70
     1
102
RTVSPropertyOp16
 70
     1
102
RTVSPropertyOp17
 70
     1
102
RTVSPropertyOp18
 70
     1
102
RTVSPropertyOp19
 70
     1
102
RTVSPropertyOp20
 70
     1
102
RTVSPropertyOp21
 70
     1
102
RTVSPropertyOp22
 70
     1
102
RTVSPropertyOp23
 70
     1
102
RTVSPropertyOp24
 70
     1
102
RTVSPropertyOp25
 70
     1
102
RTVSPropertyOp26
 70
     1
102
RTVSPropertyOp27
 70
     1
102
RTVSPropertyOp28
 70
     1
102
RTVSPropertyOp29
 70
     1
102
RTVSPropertyOp30
 70
     1
102
RTVSPropertyOp31
 70
     1
102
RTVSPropertyOp32
 70
     1
102
RTVSPropertyOp33
 70
     1
102
RTVSPropertyOp34
 70
     1
102
RTVSPropertyOp35
 70
     1
102
RTVSPropertyOp36
 70
     1
102
RTVSPropertyOp37
 70
     1
102
RTVSPropertyOp38
 70
     1
102
RTVSPropertyOp39
 70
     1
102
RTVSPropertyOp40
 70
     1
102
RTVSPropertyOp41
 70
     1
102
RTVSPropertyOp42
 70
     1
102
RTVSPropertyOp43
 70
     1
102
RTVSPropertyOp44
 70
     1
102
RTVSPropertyOp45
 70
     1
102
RTVSPropertyOp46
 70
     1
102
RTVSPropertyOp47
 70
     1
102
RTVSPropertyOp48
 70
     1
102
RTVSPropertyOp49
 70
     1
102
RTVSPropertyOp50
 70
     1
102
RTVSPropertyOp51
 70
     0
102
RTVSPropertyOp52
 70
     0
102
RTVSPropertyOp53
 70
     1
102
RTVSPropertyOp54
 70
     1
102
RTVSPropertyOp55
 70
     1
102
RTVSPropertyOp56
 70
     1
102
RTVSPropertyOp57
 70
     1
102
RTVSPost2010Prop28
280
     0
102
RTVSPost2010PropOp28
 70
     1
102
RTVSPost2010Prop29
280
     1
102
RTVSPost2010PropOp29
 70
     1
102
RTVSPost2010Prop30
280
     1
102
RTVSPost2010PropOp30
 70
     1
102
RTVSPost2010Prop31
280
     0
102
RTVSPost2010PropOp31
 70
     1
102
RTVSPost2010Prop32
280
     0
102
RTVSPost2010PropOp32
 70
     1
102
RTVSPost2010Prop33
280
     0
102
RTVSPost2010PropOp33
 70
     1
102
RTVSPost2010Prop34
280
     0
102
RTVSPost2010PropOp34
 70
     1
102
RTVSPost2010Prop35
280
     0
102
RTVSPost2010PropOp35
 70
     1
102
RTVSPost2010Prop36
280
     0
102
RTVSPost2010PropOp36
 70
     1
102
RTVSPost2010Prop37
 90
       50
102
RTVSPost2010PropOp37
 70
     1
102
RTVSPost2010Prop38
140
0.0
102
RTVSPost2010PropOp38
 70
     1
102
RTVSPost2010Prop39
140
1.0
102
RTVSPost2010PropOp39
 70
     1
102
RTVSPost2010Prop40
 90
        0
102
RTVSPost2010PropOp40
 70
     1
102
RTVSPost2010Prop41ColorIndex
 90
       18
102
RTVSPost2010Prop41ColorRGB
 90
        0
102
RTVSPost2010PropOp41
 70
     1
102
RTVSPost2010Prop42
 90
       50
102
RTVSPost2010PropOp42
 70
     1
102
RTVSPost2010Prop43
 90
        3
102
RTVSPost2010PropOp43
 70
     1
102
RTVSPost2010Prop44ColorIndex
 90
        5
102
RTVSPost2010Prop44ColorRGB
 90
      255
102
RTVSPost2010PropOp44
 70
     1
102
RTVSPost2010Prop45
280
     0
102
RTVSPost2010PropOp45
 70
     1
102
RTVSPost2010Prop46
 90
       50
102
RTVSPost2010PropOp46
 70
     1
102
RTVSPost2010Prop47
 90
       50
102
RTVSPost2010PropOp47
 70
     1
102
RTVSPost2010Prop48
 90
       50
102
RTVSPost2010PropOp48
 70
     1
102
RTVSPost2010Prop49
280
     0
102
RTVSPost2010PropOp49
 70
     1
102
RTVSPost2010Prop50
 90
       50
102
RTVSPost2010PropOp50
 70
     1
102
RTVSPost2010Prop51ColorIndex
 90
      256
102
RTVSPost2010Prop51ColorRGB
 90
-16777216
102
RTVSPost2010PropOp51
 70
     0
102
RTVSPost2010Prop52
140
1.0
102
RTVSPost2010PropOp52
 70
     0
102
RTVSPost2010Prop53
 90
        2
102
RTVSPost2010PropOp53
 70
     1
102
RTVSPost2010Prop54
  1
strokes_ogs.tif
102
RTVSPost2010PropOp54
 70
     1
102
RTVSPost2010Prop55
280
     0
102
RTVSPost2010PropOp55
 70
     1
102
RTVSPost2010Prop56
140
1.0
102
RTVSPost2010PropOp56
 70
     1
102
RTVSPost2010Prop57
140
1.0
102
RTVSPost2010PropOp57
 70
     1
  0
XRECORD
  5
C0
102
{ACAD_REACTORS
330
BF
102
}
330
BF
100
AcDbXrecord
280
     1
102
RTVSPropertyOp0
 70
     1
102
RTVSPropertyOp1
 70
     1
102
RTVSPropertyOp2
 70
     1
102
RTVSPropertyOp3
 70
     1
102
RTVSPropertyOp4
 70
     1
102
RTVSPropertyOp5
 70
     1
102
RTVSPropertyOp6
 70
     1
102
RTVSPropertyOp7
 70
     1
102
RTVSPropertyOp8
 70
     1
102
RTVSPropertyOp9
 70
     1
102
RTVSPropertyOp10
 70
     1
102
RTVSPropertyOp11
 70
     1
102
RTVSPropertyOp12
 70
     1
102
RTVSPropertyOp13
 70
     1
102
RTVSPropertyOp14
 70
     1
102
RTVSPropertyOp15
 70
     1
102
RTVSPropertyOp16
 70
     1
102
RTVSPropertyOp17
 70
     1
102
RTVSPropertyOp18
 70
     1
102
RTVSPropertyOp19
 70
     1
102
RTVSPropertyOp20
 70
     1
102
RTVSPropertyOp21
 70
     1
102
RTVSPropertyOp22
 70
     1
102
RTVSPropertyOp23
 70
     1
102
RTVSPropertyOp24
 70
     1
102
RTVSPropertyOp25
 70
     1
102
RTVSPropertyOp26
 70
     1
102
RTVSPropertyOp27
 70
     1
102
RTVSPropertyOp28
 70
     1
102
RTVSPropertyOp29
 70
     1
102
RTVSPropertyOp30
 70
     1
102
RTVSPropertyOp31
 70
     1
102
RTVSPropertyOp32
 70
     1
102
RTVSPropertyOp33
 70
     1
102
RTVSPropertyOp34
 70
     1
102
RTVSPropertyOp35
 70
     1
102
RTVSPropertyOp36
 70
     1
102
RTVSPropertyOp37
 70
     1
102
RTVSPropertyOp38
 70
     1
102
RTVSPropertyOp39
 70
     1
102
RTVSPropertyOp40
 70
     1
102
RTVSPropertyOp41
 70
     1
102
RTVSPropertyOp42
 70
     1
102
RTVSPropertyOp43
 70
     1
102
RTVSPropertyOp44
 70
     1
102
RTVSPropertyOp45
 70
     1
102
RTVSPropertyOp46
 70
     1
102
RTVSPropertyOp47
 70
     1
102
RTVSPropertyOp48
 70
     1
102
RTVSPropertyOp49
 70
     1
102
RTVSPropertyOp50
 70
     1
102
RTVSPropertyOp51
 70
     0
102
RTVSPropertyOp52
 70
     0
102
RTVSPropertyOp53
 70
     1
102
RTVSPropertyOp54
 70
     1
102
RTVSPropertyOp55
 70
     1
102
RTVSPropertyOp56
 70
     1
102
RTVSPropertyOp57
 70
     1
102
RTVSPost2010Prop28
280
     0
102
RTVSPost2010PropOp28
 70
     1
102
RTVSPost2010Prop29
280
     1
102
RTVSPost2010PropOp29
 70
     1
102
RTVSPost2010Prop30
280
     1
102
RTVSPost2010PropOp30
 70
     1
102
RTVSPost2010Prop31
280
     0
102
RTVSPost2010PropOp31
 70
     1
102
RTVSPost2010Prop32
280
     0
102
RTVSPost2010PropOp32
 70
     1
102
RTVSPost2010Prop33
280
     0
102
RTVSPost2010PropOp33
 70
     1
102
RTVSPost2010Prop34
280
     0
102
RTVSPost2010PropOp34
 70
     1
102
RTVSPost2010Prop35
280
     0
102
RTVSPost2010PropOp35
 70
     1
102
RTVSPost2010Prop36
280
     0
102
RTVSPost2010PropOp36
 70
     1
102
RTVSPost2010Prop37
 90
       50
102
RTVSPost2010PropOp37
 70
     1
102
RTVSPost2010Prop38
140
0.0
102
RTVSPost2010PropOp38
 70
     1
102
RTVSPost2010Prop39
140
1.0
102
RTVSPost2010PropOp39
 70
     1
102
RTVSPost2010Prop40
 90
        0
102
RTVSPost2010PropOp40
 70
     1
102
RTVSPost2010Prop41ColorIndex
 90
       18
102
RTVSPost2010Prop41ColorRGB
 90
        0
102
RTVSPost2010PropOp41
 70
     1
102
RTVSPost2010Prop42
 90
       50
102
RTVSPost2010PropOp42
 70
     1
102
RTVSPost2010Prop43
 90
        3
102
RTVSPost2010PropOp43
 70
     1
102
RTVSPost2010Prop44ColorIndex
 90
        5
102
RTVSPost2010Prop44ColorRGB
 90
      255
102
RTVSPost2010PropOp44
 70
     1
102
RTVSPost2010Prop45
280
     0
102
RTVSPost2010PropOp45
 70
     1
102
RTVSPost2010Prop46
 90
       50
102
RTVSPost2010PropOp46
 70
     1
102
RTVSPost2010Prop47
 90
       50
102
RTVSPost2010PropOp47
 70
     1
102
RTVSPost2010Prop48
 90
       50
102
RTVSPost2010PropOp48
 70
     1
102
RTVSPost2010Prop49
280
     0
102
RTVSPost2010PropOp49
 70
     1
102
RTVSPost2010Prop50
 90
       50
102
RTVSPost2010PropOp50
 70
     1
102
RTVSPost2010Prop51ColorIndex
 90
      256
102
RTVSPost2010Prop51ColorRGB
 90
-16777216
102
RTVSPost2010PropOp51
 70
     0
102
RTVSPost2010Prop52
140
1.0
102
RTVSPost2010PropOp52
 70
     0
102
RTVSPost2010Prop53
 90
        2
102
RTVSPost2010PropOp53
 70
     1
102
RTVSPost2010Prop54
  1
strokes_ogs.tif
102
RTVSPost2010PropOp54
 70
     1
102
RTVSPost2010Prop55
280
     0
102
RTVSPost2010PropOp55
 70
     1
102
RTVSPost2010Prop56
140
1.0
102
RTVSPost2010PropOp56
 70
     1
102
RTVSPost2010Prop57
140
1.0
102
RTVSPost2010PropOp57
 70
     1
  0
XRECORD
  5
D4
102
{ACAD_REACTORS
330
D3
102
}
330
D3
100
AcDbXrecord
280
     1
102
RTVSPropertyOp0
 70
     0
102
RTVSPropertyOp1
 70
     0
102
RTVSPropertyOp2
 70
     0
102
RTVSPropertyOp3
 70
     0
102
RTVSPropertyOp4
 70
     0
102
RTVSPropertyOp5
 70
     0
102
RTVSPropertyOp6
 70
     0
102
RTVSPropertyOp7
 70
     0
102
RTVSPropertyOp8
 70
     0
102
RTVSPropertyOp9
 70
     0
102
RTVSPropertyOp10
 70
     0
102
RTVSPropertyOp11
 70
     0
102
RTVSPropertyOp12
 70
     0
102
RTVSPropertyOp13
 70
     0
102
RTVSPropertyOp14
 70
     2
102
RTVSPropertyOp15
 70
     0
102
RTVSPropertyOp16
 70
     0
102
RTVSPropertyOp17
 70
     0
102
RTVSPropertyOp18
 70
     0
102
RTVSPropertyOp19
 70
     0
102
RTVSPropertyOp20
 70
     0
102
RTVSPropertyOp21
 70
     0
102
RTVSPropertyOp22
 70
     0
102
RTVSPropertyOp23
 70
     0
102
RTVSPropertyOp24
 70
     0
102
RTVSPropertyOp25
 70
     0
102
RTVSPropertyOp26
 70
     0
102
RTVSPropertyOp27
 70
     0
102
RTVSPropertyOp28
 70
     0
102
RTVSPropertyOp29
 70
     0
102
RTVSPropertyOp30
 70
     0
102
RTVSPropertyOp31
 70
     0
102
RTVSPropertyOp32
 70
     0
102
RTVSPropertyOp33
 70
     0
102
RTVSPropertyOp34
 70
     0
102
RTVSPropertyOp35
 70
     0
102
RTVSPropertyOp36
 70
     0
102
RTVSPropertyOp37
 70
     0
102
RTVSPropertyOp38
 70
     0
102
RTVSPropertyOp39
 70
     0
102
RTVSPropertyOp40
 70
     0
102
RTVSPropertyOp41
 70
     0
102
RTVSPropertyOp42
 70
     0
102
RTVSPropertyOp43
 70
     0
102
RTVSPropertyOp44
 70
     0
102
RTVSPropertyOp45
 70
     0
102
RTVSPropertyOp46
 70
     0
102
RTVSPropertyOp47
 70
     0
102
RTVSPropertyOp48
 70
     0
102
RTVSPropertyOp49
 70
     0
102
RTVSPropertyOp50
 70
     0
102
RTVSPropertyOp51
 70
     0
102
RTVSPropertyOp52
 70
     0
102
RTVSPropertyOp53
 70
     0
102
RTVSPropertyOp54
 70
     0
102
RTVSPropertyOp55
 70
     0
102
RTVSPropertyOp56
 70
     0
102
RTVSPropertyOp57
 70
     0
102
RTVSPost2010Prop28
280
     0
102
RTVSPost2010PropOp28
 70
     0
102
RTVSPost2010Prop29
280
     1
102
RTVSPost2010PropOp29
 70
     0
102
RTVSPost2010Prop30
280
     1
102
RTVSPost2010PropOp30
 70
     0
102
RTVSPost2010Prop31
280
     0
102
RTVSPost2010PropOp31
 70
     0
102
RTVSPost2010Prop32
280
     0
102
RTVSPost2010PropOp32
 70
     0
102
RTVSPost2010Prop33
280
     0
102
RTVSPost2010PropOp33
 70
     0
102
RTVSPost2010Prop34
280
     0
102
RTVSPost2010PropOp34
 70
     0
102
RTVSPost2010Prop35
280
     0
102
RTVSPost2010PropOp35
 70
     0
102
RTVSPost2010Prop36
280
     0
102
RTVSPost2010PropOp36
 70
     0
102
RTVSPost2010Prop37
 90
       50
102
RTVSPost2010PropOp37
 70
     0
102
RTVSPost2010Prop38
140
0.0
102
RTVSPost2010PropOp38
 70
     0
102
RTVSPost2010Prop39
140
1.0
102
RTVSPost2010PropOp39
 70
     0
102
RTVSPost2010Prop40
 90
        0
102
RTVSPost2010PropOp40
 70
     0
102
RTVSPost2010Prop41ColorIndex
 90
       18
102
RTVSPost2010Prop41ColorRGB
 90
        0
102
RTVSPost2010PropOp41
 70
     0
102
RTVSPost2010Prop42
 90
       50
102
RTVSPost2010PropOp42
 70
     0
102
RTVSPost2010Prop43
 90
        3
102
RTVSPost2010PropOp43
 70
     0
102
RTVSPost2010Prop44ColorIndex
 90
        5
102
RTVSPost2010Prop44ColorRGB
 90
      255
102
RTVSPost2010PropOp44
 70
     0
102
RTVSPost2010Prop45
280
     0
102
RTVSPost2010PropOp45
 70
     0
102
RTVSPost2010Prop46
 90
       50
102
RTVSPost2010PropOp46
 70
     0
102
RTVSPost2010Prop47
 90
       50
102
RTVSPost2010PropOp47
 70
     0
102
RTVSPost2010Prop48
 90
       50
102
RTVSPost2010PropOp48
 70
     0
102
RTVSPost2010Prop49
280
     0
102
RTVSPost2010PropOp49
 70
     0
102
RTVSPost2010Prop50
 90
       50
102
RTVSPost2010PropOp50
 70
     0
102
RTVSPost2010Prop51ColorIndex
 90
      256
102
RTVSPost2010Prop51ColorRGB
 90
-16777216
102
RTVSPost2010PropOp51
 70
     0
102
RTVSPost2010Prop52
140
1.0
102
RTVSPost2010PropOp52
 70
     0
102
RTVSPost2010Prop53
 90
        2
102
RTVSPost2010PropOp53
 70
     0
102
RTVSPost2010Prop54
  1
strokes_ogs.tif
102
RTVSPost2010PropOp54
 70
     0
102
RTVSPost2010Prop55
280
     0
102
RTVSPost2010PropOp55
 70
     0
102
RTVSPost2010Prop56
140
1.0
102
RTVSPost2010PropOp56
 70
     0
102
RTVSPost2010Prop57
140
1.0
102
RTVSPost2010PropOp57
 70
     0
  0
XRECORD
  5
CE
102
{ACAD_REACTORS
330
CD
102
}
330
CD
100
AcDbXrecord
280
     1
102
RTVSPropertyOp0
 70
     1
102
RTVSPropertyOp1
 70
     1
102
RTVSPropertyOp2
 70
     1
102
RTVSPropertyOp3
 70
     1
102
RTVSPropertyOp4
 70
     1
102
RTVSPropertyOp5
 70
     1
102
RTVSPropertyOp6
 70
     1
102
RTVSPropertyOp7
 70
     1
102
RTVSPropertyOp8
 70
     1
102
RTVSPropertyOp9
 70
     1
102
RTVSPropertyOp10
 70
     1
102
RTVSPropertyOp11
 70
     1
102
RTVSPropertyOp12
 70
     1
102
RTVSPropertyOp13
 70
     1
102
RTVSPropertyOp14
 70
     1
102
RTVSPropertyOp15
 70
     1
102
RTVSPropertyOp16
 70
     1
102
RTVSPropertyOp17
 70
     1
102
RTVSPropertyOp18
 70
     1
102
RTVSPropertyOp19
 70
     1
102
RTVSPropertyOp20
 70
     1
102
RTVSPropertyOp21
 70
     1
102
RTVSPropertyOp22
 70
     1
102
RTVSPropertyOp23
 70
     1
102
RTVSPropertyOp24
 70
     1
102
RTVSPropertyOp25
 70
     1
102
RTVSPropertyOp26
 70
     1
102
RTVSPropertyOp27
 70
     1
102
RTVSPropertyOp28
 70
     1
102
RTVSPropertyOp29
 70
     1
102
RTVSPropertyOp30
 70
     1
102
RTVSPropertyOp31
 70
     1
102
RTVSPropertyOp32
 70
     1
102
RTVSPropertyOp33
 70
     1
102
RTVSPropertyOp34
 70
     1
102
RTVSPropertyOp35
 70
     1
102
RTVSPropertyOp36
 70
     1
102
RTVSPropertyOp37
 70
     1
102
RTVSPropertyOp38
 70
     1
102
RTVSPropertyOp39
 70
     1
102
RTVSPropertyOp40
 70
     1
102
RTVSPropertyOp41
 70
     1
102
RTVSPropertyOp42
 70
     1
102
RTVSPropertyOp43
 70
     1
102
RTVSPropertyOp44
 70
     1
102
RTVSPropertyOp45
 70
     1
102
RTVSPropertyOp46
 70
     1
102
RTVSPropertyOp47
 70
     1
102
RTVSPropertyOp48
 70
     1
102
RTVSPropertyOp49
 70
     1
102
RTVSPropertyOp50
 70
     1
102
RTVSPropertyOp51
 70
     0
102
RTVSPropertyOp52
 70
     0
102
RTVSPropertyOp53
 70
     1
102
RTVSPropertyOp54
 70
     1
102
RTVSPropertyOp55
 70
     1
102
RTVSPropertyOp56
 70
     1
102
RTVSPropertyOp57
 70
     1
102
RTVSPost2010Prop28
280
     0
102
RTVSPost2010PropOp28
 70
     1
102
RTVSPost2010Prop29
280
     1
102
RTVSPost2010PropOp29
 70
     1
102
RTVSPost2010Prop30
280
     1
102
RTVSPost2010PropOp30
 70
     1
102
RTVSPost2010Prop31
280
     0
102
RTVSPost2010PropOp31
 70
     1
102
RTVSPost2010Prop32
280
     0
102
RTVSPost2010PropOp32
 70
     1
102
RTVSPost2010Prop33
280
     0
102
RTVSPost2010PropOp33
 70
     1
102
RTVSPost2010Prop34
280
     0
102
RTVSPost2010PropOp34
 70
     1
102
RTVSPost2010Prop35
280
     0
102
RTVSPost2010PropOp35
 70
     1
102
RTVSPost2010Prop36
280
     0
102
RTVSPost2010PropOp36
 70
     1
102
RTVSPost2010Prop37
 90
       50
102
RTVSPost2010PropOp37
 70
     1
102
RTVSPost2010Prop38
140
0.0
102
RTVSPost2010PropOp38
 70
     1
102
RTVSPost2010Prop39
140
1.0
102
RTVSPost2010PropOp39
 70
     1
102
RTVSPost2010Prop40
 90
        0
102
RTVSPost2010PropOp40
 70
     1
102
RTVSPost2010Prop41ColorIndex
 90
       18
102
RTVSPost2010Prop41ColorRGB
 90
        0
102
RTVSPost2010PropOp41
 70
     1
102
RTVSPost2010Prop42
 90
       50
102
RTVSPost2010PropOp42
 70
     1
102
RTVSPost2010Prop43
 90
        3
102
RTVSPost2010PropOp43
 70
     1
102
RTVSPost2010Prop44ColorIndex
 90
        5
102
RTVSPost2010Prop44ColorRGB
 90
      255
102
RTVSPost2010PropOp44
 70
     1
102
RTVSPost2010Prop45
280
     0
102
RTVSPost2010PropOp45
 70
     1
102
RTVSPost2010Prop46
 90
       50
102
RTVSPost2010PropOp46
 70
     1
102
RTVSPost2010Prop47
 90
       50
102
RTVSPost2010PropOp47
 70
     1
102
RTVSPost2010Prop48
 90
       50
102
RTVSPost2010PropOp48
 70
     1
102
RTVSPost2010Prop49
280
     0
102
RTVSPost2010PropOp49
 70
     1
102
RTVSPost2010Prop50
 90
       50
102
RTVSPost2010PropOp50
 70
     1
102
RTVSPost2010Prop51ColorIndex
 90
      256
102
RTVSPost2010Prop51ColorRGB
 90
-16777216
102
RTVSPost2010PropOp51
 70
     0
102
RTVSPost2010Prop52
140
1.0
102
RTVSPost2010PropOp52
 70
     0
102
RTVSPost2010Prop53
 90
        2
102
RTVSPost2010PropOp53
 70
     1
102
RTVSPost2010Prop54
  1
strokes_ogs.tif
102
RTVSPost2010PropOp54
 70
     1
102
RTVSPost2010Prop55
280
     0
102
RTVSPost2010PropOp55
 70
     1
102
RTVSPost2010Prop56
140
1.0
102
RTVSPost2010PropOp56
 70
     1
102
RTVSPost2010Prop57
140
1.0
102
RTVSPost2010PropOp57
 70
     1
  0
XRECORD
  5
D6
102
{ACAD_REACTORS
330
D5
102
}
330
D5
100
AcDbXrecord
280
     1
102
RTVSPropertyOp0
 70
     0
102
RTVSPropertyOp1
 70
     0
102
RTVSPropertyOp2
 70
     0
102
RTVSPropertyOp3
 70
     0
102
RTVSPropertyOp4
 70
     0
102
RTVSPropertyOp5
 70
     0
102
RTVSPropertyOp6
 70
     0
102
RTVSPropertyOp7
 70
     0
102
RTVSPropertyOp8
 70
     0
102
RTVSPropertyOp9
 70
     0
102
RTVSPropertyOp10
 70
     0
102
RTVSPropertyOp11
 70
     0
102
RTVSPropertyOp12
 70
     0
102
RTVSPropertyOp13
 70
     0
102
RTVSPropertyOp14
 70
     2
102
RTVSPropertyOp15
 70
     0
102
RTVSPropertyOp16
 70
     0
102
RTVSPropertyOp17
 70
     0
102
RTVSPropertyOp18
 70
     0
102
RTVSPropertyOp19
 70
     0
102
RTVSPropertyOp20
 70
     0
102
RTVSPropertyOp21
 70
     0
102
RTVSPropertyOp22
 70
     0
102
RTVSPropertyOp23
 70
     0
102
RTVSPropertyOp24
 70
     0
102
RTVSPropertyOp25
 70
     0
102
RTVSPropertyOp26
 70
     0
102
RTVSPropertyOp27
 70
     0
102
RTVSPropertyOp28
 70
     0
102
RTVSPropertyOp29
 70
     0
102
RTVSPropertyOp30
 70
     0
102
RTVSPropertyOp31
 70
     0
102
RTVSPropertyOp32
 70
     0
102
RTVSPropertyOp33
 70
     0
102
RTVSPropertyOp34
 70
     0
102
RTVSPropertyOp35
 70
     0
102
RTVSPropertyOp36
 70
     0
102
RTVSPropertyOp37
 70
     0
102
RTVSPropertyOp38
 70
     0
102
RTVSPropertyOp39
 70
     0
102
RTVSPropertyOp40
 70
     0
102
RTVSPropertyOp41
 70
     0
102
RTVSPropertyOp42
 70
     0
102
RTVSPropertyOp43
 70
     0
102
RTVSPropertyOp44
 70
     0
102
RTVSPropertyOp45
 70
     0
102
RTVSPropertyOp46
 70
     0
102
RTVSPropertyOp47
 70
     0
102
RTVSPropertyOp48
 70
     0
102
RTVSPropertyOp49
 70
     0
102
RTVSPropertyOp50
 70
     0
102
RTVSPropertyOp51
 70
     0
102
RTVSPropertyOp52
 70
     0
102
RTVSPropertyOp53
 70
     0
102
RTVSPropertyOp54
 70
     0
102
RTVSPropertyOp55
 70
     0
102
RTVSPropertyOp56
 70
     0
102
RTVSPropertyOp57
 70
     0
102
RTVSPost2010Prop28
280
     0
102
RTVSPost2010PropOp28
 70
     0
102
RTVSPost2010Prop29
280
     1
102
RTVSPost2010PropOp29
 70
     0
102
RTVSPost2010Prop30
280
     1
102
RTVSPost2010PropOp30
 70
     0
102
RTVSPost2010Prop31
280
     0
102
RTVSPost2010PropOp31
 70
     0
102
RTVSPost2010Prop32
280
     0
102
RTVSPost2010PropOp32
 70
     0
102
RTVSPost2010Prop33
280
     0
102
RTVSPost2010PropOp33
 70
     0
102
RTVSPost2010Prop34
280
     0
102
RTVSPost2010PropOp34
 70
     0
102
RTVSPost2010Prop35
280
     0
102
RTVSPost2010PropOp35
 70
     0
102
RTVSPost2010Prop36
280
     0
102
RTVSPost2010PropOp36
 70
     0
102
RTVSPost2010Prop37
 90
       50
102
RTVSPost2010PropOp37
 70
     0
102
RTVSPost2010Prop38
140
0.0
102
RTVSPost2010PropOp38
 70
     0
102
RTVSPost2010Prop39
140
1.0
102
RTVSPost2010PropOp39
 70
     0
102
RTVSPost2010Prop40
 90
        0
102
RTVSPost2010PropOp40
 70
     0
102
RTVSPost2010Prop41ColorIndex
 90
       18
102
RTVSPost2010Prop41ColorRGB
 90
        0
102
RTVSPost2010PropOp41
 70
     0
102
RTVSPost2010Prop42
 90
       50
102
RTVSPost2010PropOp42
 70
     0
102
RTVSPost2010Prop43
 90
        3
102
RTVSPost2010PropOp43
 70
     0
102
RTVSPost2010Prop44ColorIndex
 90
        5
102
RTVSPost2010Prop44ColorRGB
 90
      255
102
RTVSPost2010PropOp44
 70
     0
102
RTVSPost2010Prop45
280
     0
102
RTVSPost2010PropOp45
 70
     0
102
RTVSPost2010Prop46
 90
       50
102
RTVSPost2010PropOp46
 70
     0
102
RTVSPost2010Prop47
 90
       50
102
RTVSPost2010PropOp47
 70
     0
102
RTVSPost2010Prop48
 90
       50
102
RTVSPost2010PropOp48
 70
     0
102
RTVSPost2010Prop49
280
     0
102
RTVSPost2010PropOp49
 70
     0
102
RTVSPost2010Prop50
 90
       50
102
RTVSPost2010PropOp50
 70
     0
102
RTVSPost2010Prop51ColorIndex
 90
      256
102
RTVSPost2010Prop51ColorRGB
 90
-16777216
102
RTVSPost2010PropOp51
 70
     0
102
RTVSPost2010Prop52
140
1.0
102
RTVSPost2010PropOp52
 70
     0
102
RTVSPost2010Prop53
 90
        2
102
RTVSPost2010PropOp53
 70
     0
102
RTVSPost2010Prop54
  1
strokes_ogs.tif
102
RTVSPost2010PropOp54
 70
     0
102
RTVSPost2010Prop55
280
     0
102
RTVSPost2010PropOp55
 70
     0
102
RTVSPost2010Prop56
140
1.0
102
RTVSPost2010PropOp56
 70
     0
102
RTVSPost2010Prop57
140
1.0
102
RTVSPost2010PropOp57
 70
     0
  0
XRECORD
  5
C4
102
{ACAD_REACTORS
330
C3
102
}
330
C3
100
AcDbXrecord
280
     1
102
RTVSPropertyOp0
 70
     1
102
RTVSPropertyOp1
 70
     1
102
RTVSPropertyOp2
 70
     1
102
RTVSPropertyOp3
 70
     1
102
RTVSPropertyOp4
 70
     1
102
RTVSPropertyOp5
 70
     1
102
RTVSPropertyOp6
 70
     1
102
RTVSPropertyOp7
 70
     1
102
RTVSPropertyOp8
 70
     1
102
RTVSPropertyOp9
 70
     1
102
RTVSPropertyOp10
 70
     1
102
RTVSPropertyOp11
 70
     1
102
RTVSPropertyOp12
 70
     1
102
RTVSPropertyOp13
 70
     1
102
RTVSPropertyOp14
 70
     1
102
RTVSPropertyOp15
 70
     1
102
RTVSPropertyOp16
 70
     1
102
RTVSPropertyOp17
 70
     1
102
RTVSPropertyOp18
 70
     1
102
RTVSPropertyOp19
 70
     1
102
RTVSPropertyOp20
 70
     1
102
RTVSPropertyOp21
 70
     1
102
RTVSPropertyOp22
 70
     1
102
RTVSPropertyOp23
 70
     1
102
RTVSPropertyOp24
 70
     1
102
RTVSPropertyOp25
 70
     1
102
RTVSPropertyOp26
 70
     1
102
RTVSPropertyOp27
 70
     1
102
RTVSPropertyOp28
 70
     1
102
RTVSPropertyOp29
 70
     1
102
RTVSPropertyOp30
 70
     1
102
RTVSPropertyOp31
 70
     1
102
RTVSPropertyOp32
 70
     1
102
RTVSPropertyOp33
 70
     1
102
RTVSPropertyOp34
 70
     1
102
RTVSPropertyOp35
 70
     1
102
RTVSPropertyOp36
 70
     1
102
RTVSPropertyOp37
 70
     1
102
RTVSPropertyOp38
 70
     1
102
RTVSPropertyOp39
 70
     1
102
RTVSPropertyOp40
 70
     1
102
RTVSPropertyOp41
 70
     1
102
RTVSPropertyOp42
 70
     1
102
RTVSPropertyOp43
 70
     1
102
RTVSPropertyOp44
 70
     1
102
RTVSPropertyOp45
 70
     1
102
RTVSPropertyOp46
 70
     1
102
RTVSPropertyOp47
 70
     1
102
RTVSPropertyOp48
 70
     1
102
RTVSPropertyOp49
 70
     1
102
RTVSPropertyOp50
 70
     1
102
RTVSPropertyOp51
 70
     0
102
RTVSPropertyOp52
 70
     0
102
RTVSPropertyOp53
 70
     1
102
RTVSPropertyOp54
 70
     1
102
RTVSPropertyOp55
 70
     1
102
RTVSPropertyOp56
 70
     1
102
RTVSPropertyOp57
 70
     1
102
RTVSPost2010Prop28
280
     0
102
RTVSPost2010PropOp28
 70
     1
102
RTVSPost2010Prop29
280
     1
102
RTVSPost2010PropOp29
 70
     1
102
RTVSPost2010Prop30
280
     1
102
RTVSPost2010PropOp30
 70
     1
102
RTVSPost2010Prop31
280
     0
102
RTVSPost2010PropOp31
 70
     1
102
RTVSPost2010Prop32
280
     0
102
RTVSPost2010PropOp32
 70
     1
102
RTVSPost2010Prop33
280
     0
102
RTVSPost2010PropOp33
 70
     1
102
RTVSPost2010Prop34
280
     0
102
RTVSPost2010PropOp34
 70
     1
102
RTVSPost2010Prop35
280
     0
102
RTVSPost2010PropOp35
 70
     1
102
RTVSPost2010Prop36
280
     0
102
RTVSPost2010PropOp36
 70
     1
102
RTVSPost2010Prop37
 90
       50
102
RTVSPost2010PropOp37
 70
     1
102
RTVSPost2010Prop38
140
0.0
102
RTVSPost2010PropOp38
 70
     1
102
RTVSPost2010Prop39
140
1.0
102
RTVSPost2010PropOp39
 70
     1
102
RTVSPost2010Prop40
 90
        0
102
RTVSPost2010PropOp40
 70
     1
102
RTVSPost2010Prop41ColorIndex
 90
       18
102
RTVSPost2010Prop41ColorRGB
 90
        0
102
RTVSPost2010PropOp41
 70
     1
102
RTVSPost2010Prop42
 90
       50
102
RTVSPost2010PropOp42
 70
     1
102
RTVSPost2010Prop43
 90
        3
102
RTVSPost2010PropOp43
 70
     1
102
RTVSPost2010Prop44ColorIndex
 90
        5
102
RTVSPost2010Prop44ColorRGB
 90
      255
102
RTVSPost2010PropOp44
 70
     1
102
RTVSPost2010Prop45
280
     0
102
RTVSPost2010PropOp45
 70
     1
102
RTVSPost2010Prop46
 90
       50
102
RTVSPost2010PropOp46
 70
     1
102
RTVSPost2010Prop47
 90
       50
102
RTVSPost2010PropOp47
 70
     1
102
RTVSPost2010Prop48
 90
       50
102
RTVSPost2010PropOp48
 70
     1
102
RTVSPost2010Prop49
280
     0
102
RTVSPost2010PropOp49
 70
     1
102
RTVSPost2010Prop50
 90
       50
102
RTVSPost2010PropOp50
 70
     1
102
RTVSPost2010Prop51ColorIndex
 90
      256
102
RTVSPost2010Prop51ColorRGB
 90
-16777216
102
RTVSPost2010PropOp51
 70
     0
102
RTVSPost2010Prop52
140
1.0
102
RTVSPost2010PropOp52
 70
     0
102
RTVSPost2010Prop53
 90
        2
102
RTVSPost2010PropOp53
 70
     1
102
RTVSPost2010Prop54
  1
strokes_ogs.tif
102
RTVSPost2010PropOp54
 70
     1
102
RTVSPost2010Prop55
280
     0
102
RTVSPost2010PropOp55
 70
     1
102
RTVSPost2010Prop56
140
1.0
102
RTVSPost2010PropOp56
 70
     1
102
RTVSPost2010Prop57
140
1.0
102
RTVSPost2010PropOp57
 70
     1
  0
XRECORD
  5
E2
102
{ACAD_REACTORS
330
E1
102
}
330
E1
100
AcDbXrecord
280
     1
102
RTVSPropertyOp0
 70
     1
102
RTVSPropertyOp1
 70
     1
102
RTVSPropertyOp2
 70
     1
102
RTVSPropertyOp3
 70
     1
102
RTVSPropertyOp4
 70
     1
102
RTVSPropertyOp5
 70
     1
102
RTVSPropertyOp6
 70
     1
102
RTVSPropertyOp7
 70
     1
102
RTVSPropertyOp8
 70
     1
102
RTVSPropertyOp9
 70
     1
102
RTVSPropertyOp10
 70
     1
102
RTVSPropertyOp11
 70
     1
102
RTVSPropertyOp12
 70
     1
102
RTVSPropertyOp13
 70
     1
102
RTVSPropertyOp14
 70
     1
102
RTVSPropertyOp15
 70
     1
102
RTVSPropertyOp16
 70
     1
102
RTVSPropertyOp17
 70
     1
102
RTVSPropertyOp18
 70
     1
102
RTVSPropertyOp19
 70
     1
102
RTVSPropertyOp20
 70
     1
102
RTVSPropertyOp21
 70
     1
102
RTVSPropertyOp22
 70
     1
102
RTVSPropertyOp23
 70
     1
102
RTVSPropertyOp24
 70
     1
102
RTVSPropertyOp25
 70
     1
102
RTVSPropertyOp26
 70
     1
102
RTVSPropertyOp27
 70
     1
102
RTVSPropertyOp28
 70
     1
102
RTVSPropertyOp29
 70
     1
102
RTVSPropertyOp30
 70
     1
102
RTVSPropertyOp31
 70
     1
102
RTVSPropertyOp32
 70
     1
102
RTVSPropertyOp33
 70
     1
102
RTVSPropertyOp34
 70
     1
102
RTVSPropertyOp35
 70
     1
102
RTVSPropertyOp36
 70
     1
102
RTVSPropertyOp37
 70
     1
102
RTVSPropertyOp38
 70
     1
102
RTVSPropertyOp39
 70
     1
102
RTVSPropertyOp40
 70
     1
102
RTVSPropertyOp41
 70
     1
102
RTVSPropertyOp42
 70
     1
102
RTVSPropertyOp43
 70
     1
102
RTVSPropertyOp44
 70
     1
102
RTVSPropertyOp45
 70
     1
102
RTVSPropertyOp46
 70
     1
102
RTVSPropertyOp47
 70
     1
102
RTVSPropertyOp48
 70
     1
102
RTVSPropertyOp49
 70
     1
102
RTVSPropertyOp50
 70
     1
102
RTVSPropertyOp51
 70
     0
102
RTVSPropertyOp52
 70
     0
102
RTVSPropertyOp53
 70
     1
102
RTVSPropertyOp54
 70
     1
102
RTVSPropertyOp55
 70
     1
102
RTVSPropertyOp56
 70
     1
102
RTVSPropertyOp57
 70
     1
102
RTVSPost2010Prop28
280
     0
102
RTVSPost2010PropOp28
 70
     1
102
RTVSPost2010Prop29
280
     1
102
RTVSPost2010PropOp29
 70
     1
102
RTVSPost2010Prop30
280
     1
102
RTVSPost2010PropOp30
 70
     1
102
RTVSPost2010Prop31
280
     0
102
RTVSPost2010PropOp31
 70
     1
102
RTVSPost2010Prop32
280
     0
102
RTVSPost2010PropOp32
 70
     1
102
RTVSPost2010Prop33
280
     0
102
RTVSPost2010PropOp33
 70
     1
102
RTVSPost2010Prop34
280
     0
102
RTVSPost2010PropOp34
 70
     1
102
RTVSPost2010Prop35
280
     0
102
RTVSPost2010PropOp35
 70
     1
102
RTVSPost2010Prop36
280
     0
102
RTVSPost2010PropOp36
 70
     1
102
RTVSPost2010Prop37
 90
       50
102
RTVSPost2010PropOp37
 70
     1
102
RTVSPost2010Prop38
140
0.0
102
RTVSPost2010PropOp38
 70
     1
102
RTVSPost2010Prop39
140
1.0
102
RTVSPost2010PropOp39
 70
     1
102
RTVSPost2010Prop40
 90
        0
102
RTVSPost2010PropOp40
 70
     1
102
RTVSPost2010Prop41ColorIndex
 90
       18
102
RTVSPost2010Prop41ColorRGB
 90
        0
102
RTVSPost2010PropOp41
 70
     1
102
RTVSPost2010Prop42
 90
       50
102
RTVSPost2010PropOp42
 70
     1
102
RTVSPost2010Prop43
 90
        3
102
RTVSPost2010PropOp43
 70
     1
102
RTVSPost2010Prop44ColorIndex
 90
        5
102
RTVSPost2010Prop44ColorRGB
 90
      255
102
RTVSPost2010PropOp44
 70
     1
102
RTVSPost2010Prop45
280
     0
102
RTVSPost2010PropOp45
 70
     1
102
RTVSPost2010Prop46
 90
       50
102
RTVSPost2010PropOp46
 70
     1
102
RTVSPost2010Prop47
 90
       50
102
RTVSPost2010PropOp47
 70
     1
102
RTVSPost2010Prop48
 90
       50
102
RTVSPost2010PropOp48
 70
     1
102
RTVSPost2010Prop49
280
     0
102
RTVSPost2010PropOp49
 70
     1
102
RTVSPost2010Prop50
 90
       50
102
RTVSPost2010PropOp50
 70
     1
102
RTVSPost2010Prop51ColorIndex
 90
      256
102
RTVSPost2010Prop51ColorRGB
 90
-16777216
102
RTVSPost2010PropOp51
 70
     0
102
RTVSPost2010Prop52
140
1.0
102
RTVSPost2010PropOp52
 70
     0
102
RTVSPost2010Prop53
 90
        2
102
RTVSPost2010PropOp53
 70
     1
102
RTVSPost2010Prop54
  1
strokes_ogs.tif
102
RTVSPost2010PropOp54
 70
     1
102
RTVSPost2010Prop55
280
     0
102
RTVSPost2010PropOp55
 70
     1
102
RTVSPost2010Prop56
140
1.0
102
RTVSPost2010PropOp56
 70
     1
102
RTVSPost2010Prop57
140
1.0
102
RTVSPost2010PropOp57
 70
     1
  0
XRECORD
  5
E0
102
{ACAD_REACTORS
330
DF
102
}
330
DF
100
AcDbXrecord
280
     1
102
RTVSPropertyOp0
 70
     1
102
RTVSPropertyOp1
 70
     1
102
RTVSPropertyOp2
 70
     1
102
RTVSPropertyOp3
 70
     1
102
RTVSPropertyOp4
 70
     1
102
RTVSPropertyOp5
 70
     1
102
RTVSPropertyOp6
 70
     1
102
RTVSPropertyOp7
 70
     1
102
RTVSPropertyOp8
 70
     1
102
RTVSPropertyOp9
 70
     1
102
RTVSPropertyOp10
 70
     1
102
RTVSPropertyOp11
 70
     1
102
RTVSPropertyOp12
 70
     1
102
RTVSPropertyOp13
 70
     1
102
RTVSPropertyOp14
 70
     1
102
RTVSPropertyOp15
 70
     1
102
RTVSPropertyOp16
 70
     1
102
RTVSPropertyOp17
 70
     1
102
RTVSPropertyOp18
 70
     1
102
RTVSPropertyOp19
 70
     1
102
RTVSPropertyOp20
 70
     1
102
RTVSPropertyOp21
 70
     1
102
RTVSPropertyOp22
 70
     1
102
RTVSPropertyOp23
 70
     1
102
RTVSPropertyOp24
 70
     1
102
RTVSPropertyOp25
 70
     1
102
RTVSPropertyOp26
 70
     1
102
RTVSPropertyOp27
 70
     1
102
RTVSPropertyOp28
 70
     1
102
RTVSPropertyOp29
 70
     1
102
RTVSPropertyOp30
 70
     1
102
RTVSPropertyOp31
 70
     1
102
RTVSPropertyOp32
 70
     1
102
RTVSPropertyOp33
 70
     1
102
RTVSPropertyOp34
 70
     1
102
RTVSPropertyOp35
 70
     1
102
RTVSPropertyOp36
 70
     1
102
RTVSPropertyOp37
 70
     1
102
RTVSPropertyOp38
 70
     1
102
RTVSPropertyOp39
 70
     1
102
RTVSPropertyOp40
 70
     1
102
RTVSPropertyOp41
 70
     1
102
RTVSPropertyOp42
 70
     1
102
RTVSPropertyOp43
 70
     1
102
RTVSPropertyOp44
 70
     1
102
RTVSPropertyOp45
 70
     1
102
RTVSPropertyOp46
 70
     1
102
RTVSPropertyOp47
 70
     1
102
RTVSPropertyOp48
 70
     1
102
RTVSPropertyOp49
 70
     1
102
RTVSPropertyOp50
 70
     1
102
RTVSPropertyOp51
 70
     0
102
RTVSPropertyOp52
 70
     0
102
RTVSPropertyOp53
 70
     1
102
RTVSPropertyOp54
 70
     1
102
RTVSPropertyOp55
 70
     1
102
RTVSPropertyOp56
 70
     1
102
RTVSPropertyOp57
 70
     1
102
RTVSPost2010Prop28
280
     0
102
RTVSPost2010PropOp28
 70
     1
102
RTVSPost2010Prop29
280
     1
102
RTVSPost2010PropOp29
 70
     1
102
RTVSPost2010Prop30
280
     1
102
RTVSPost2010PropOp30
 70
     1
102
RTVSPost2010Prop31
280
     0
102
RTVSPost2010PropOp31
 70
     1
102
RTVSPost2010Prop32
280
     0
102
RTVSPost2010PropOp32
 70
     1
102
RTVSPost2010Prop33
280
     0
102
RTVSPost2010PropOp33
 70
     1
102
RTVSPost2010Prop34
280
     0
102
RTVSPost2010PropOp34
 70
     1
102
RTVSPost2010Prop35
280
     0
102
RTVSPost2010PropOp35
 70
     1
102
RTVSPost2010Prop36
280
     0
102
RTVSPost2010PropOp36
 70
     1
102
RTVSPost2010Prop37
 90
       50
102
RTVSPost2010PropOp37
 70
     1
102
RTVSPost2010Prop38
140
0.0
102
RTVSPost2010PropOp38
 70
     1
102
RTVSPost2010Prop39
140
1.0
102
RTVSPost2010PropOp39
 70
     1
102
RTVSPost2010Prop40
 90
        0
102
RTVSPost2010PropOp40
 70
     1
102
RTVSPost2010Prop41ColorIndex
 90
       18
102
RTVSPost2010Prop41ColorRGB
 90
        0
102
RTVSPost2010PropOp41
 70
     1
102
RTVSPost2010Prop42
 90
       50
102
RTVSPost2010PropOp42
 70
     1
102
RTVSPost2010Prop43
 90
        3
102
RTVSPost2010PropOp43
 70
     1
102
RTVSPost2010Prop44ColorIndex
 90
        5
102
RTVSPost2010Prop44ColorRGB
 90
      255
102
RTVSPost2010PropOp44
 70
     1
102
RTVSPost2010Prop45
280
     0
102
RTVSPost2010PropOp45
 70
     1
102
RTVSPost2010Prop46
 90
       50
102
RTVSPost2010PropOp46
 70
     1
102
RTVSPost2010Prop47
 90
       50
102
RTVSPost2010PropOp47
 70
     1
102
RTVSPost2010Prop48
 90
       50
102
RTVSPost2010PropOp48
 70
     1
102
RTVSPost2010Prop49
280
     0
102
RTVSPost2010PropOp49
 70
     1
102
RTVSPost2010Prop50
 90
       50
102
RTVSPost2010PropOp50
 70
     1
102
RTVSPost2010Prop51ColorIndex
 90
      256
102
RTVSPost2010Prop51ColorRGB
 90
-16777216
102
RTVSPost2010PropOp51
 70
     0
102
RTVSPost2010Prop52
140
1.0
102
RTVSPost2010PropOp52
 70
     0
102
RTVSPost2010Prop53
 90
        2
102
RTVSPost2010PropOp53
 70
     1
102
RTVSPost2010Prop54
  1
strokes_ogs.tif
102
RTVSPost2010PropOp54
 70
     1
102
RTVSPost2010Prop55
280
     0
102
RTVSPost2010PropOp55
 70
     1
102
RTVSPost2010Prop56
140
1.0
102
RTVSPost2010PropOp56
 70
     1
102
RTVSPost2010Prop57
140
1.0
102
RTVSPost2010PropOp57
 70
     1
  0
XRECORD
  5
DA
102
{ACAD_REACTORS
330
D9
102
}
330
D9
100
AcDbXrecord
280
     1
102
RTVSPropertyOp0
 70
     1
102
RTVSPropertyOp1
 70
     1
102
RTVSPropertyOp2
 70
     1
102
RTVSPropertyOp3
 70
     1
102
RTVSPropertyOp4
 70
     1
102
RTVSPropertyOp5
 70
     1
102
RTVSPropertyOp6
 70
     1
102
RTVSPropertyOp7
 70
     1
102
RTVSPropertyOp8
 70
     1
102
RTVSPropertyOp9
 70
     1
102
RTVSPropertyOp10
 70
     1
102
RTVSPropertyOp11
 70
     1
102
RTVSPropertyOp12
 70
     1
102
RTVSPropertyOp13
 70
     1
102
RTVSPropertyOp14
 70
     1
102
RTVSPropertyOp15
 70
     1
102
RTVSPropertyOp16
 70
     1
102
RTVSPropertyOp17
 70
     1
102
RTVSPropertyOp18
 70
     1
102
RTVSPropertyOp19
 70
     1
102
RTVSPropertyOp20
 70
     1
102
RTVSPropertyOp21
 70
     1
102
RTVSPropertyOp22
 70
     1
102
RTVSPropertyOp23
 70
     1
102
RTVSPropertyOp24
 70
     1
102
RTVSPropertyOp25
 70
     1
102
RTVSPropertyOp26
 70
     1
102
RTVSPropertyOp27
 70
     1
102
RTVSPropertyOp28
 70
     1
102
RTVSPropertyOp29
 70
     1
102
RTVSPropertyOp30
 70
     1
102
RTVSPropertyOp31
 70
     1
102
RTVSPropertyOp32
 70
     1
102
RTVSPropertyOp33
 70
     1
102
RTVSPropertyOp34
 70
     1
102
RTVSPropertyOp35
 70
     1
102
RTVSPropertyOp36
 70
     1
102
RTVSPropertyOp37
 70
     1
102
RTVSPropertyOp38
 70
     1
102
RTVSPropertyOp39
 70
     1
102
RTVSPropertyOp40
 70
     1
102
RTVSPropertyOp41
 70
     1
102
RTVSPropertyOp42
 70
     1
102
RTVSPropertyOp43
 70
     1
102
RTVSPropertyOp44
 70
     1
102
RTVSPropertyOp45
 70
     1
102
RTVSPropertyOp46
 70
     1
102
RTVSPropertyOp47
 70
     1
102
RTVSPropertyOp48
 70
     1
102
RTVSPropertyOp49
 70
     1
102
RTVSPropertyOp50
 70
     1
102
RTVSPropertyOp51
 70
     0
102
RTVSPropertyOp52
 70
     0
102
RTVSPropertyOp53
 70
     1
102
RTVSPropertyOp54
 70
     1
102
RTVSPropertyOp55
 70
     1
102
RTVSPropertyOp56
 70
     1
102
RTVSPropertyOp57
 70
     1
102
RTVSPost2010Prop28
280
     0
102
RTVSPost2010PropOp28
 70
     1
102
RTVSPost2010Prop29
280
     1
102
RTVSPost2010PropOp29
 70
     1
102
RTVSPost2010Prop30
280
     1
102
RTVSPost2010PropOp30
 70
     1
102
RTVSPost2010Prop31
280
     0
102
RTVSPost2010PropOp31
 70
     1
102
RTVSPost2010Prop32
280
     0
102
RTVSPost2010PropOp32
 70
     1
102
RTVSPost2010Prop33
280
     0
102
RTVSPost2010PropOp33
 70
     1
102
RTVSPost2010Prop34
280
     0
102
RTVSPost2010PropOp34
 70
     1
102
RTVSPost2010Prop35
280
     0
102
RTVSPost2010PropOp35
 70
     1
102
RTVSPost2010Prop36
280
     0
102
RTVSPost2010PropOp36
 70
     1
102
RTVSPost2010Prop37
 90
       50
102
RTVSPost2010PropOp37
 70
     1
102
RTVSPost2010Prop38
140
0.0
102
RTVSPost2010PropOp38
 70
     1
102
RTVSPost2010Prop39
140
1.0
102
RTVSPost2010PropOp39
 70
     1
102
RTVSPost2010Prop40
 90
        0
102
RTVSPost2010PropOp40
 70
     1
102
RTVSPost2010Prop41ColorIndex
 90
       18
102
RTVSPost2010Prop41ColorRGB
 90
        0
102
RTVSPost2010PropOp41
 70
     1
102
RTVSPost2010Prop42
 90
       50
102
RTVSPost2010PropOp42
 70
     1
102
RTVSPost2010Prop43
 90
        3
102
RTVSPost2010PropOp43
 70
     1
102
RTVSPost2010Prop44ColorIndex
 90
        5
102
RTVSPost2010Prop44ColorRGB
 90
      255
102
RTVSPost2010PropOp44
 70
     1
102
RTVSPost2010Prop45
280
     0
102
RTVSPost2010PropOp45
 70
     1
102
RTVSPost2010Prop46
 90
       50
102
RTVSPost2010PropOp46
 70
     1
102
RTVSPost2010Prop47
 90
       50
102
RTVSPost2010PropOp47
 70
     1
102
RTVSPost2010Prop48
 90
       50
102
RTVSPost2010PropOp48
 70
     1
102
RTVSPost2010Prop49
280
     0
102
RTVSPost2010PropOp49
 70
     1
102
RTVSPost2010Prop50
 90
       50
102
RTVSPost2010PropOp50
 70
     1
102
RTVSPost2010Prop51ColorIndex
 90
      256
102
RTVSPost2010Prop51ColorRGB
 90
-16777216
102
RTVSPost2010PropOp51
 70
     0
102
RTVSPost2010Prop52
140
1.0
102
RTVSPost2010PropOp52
 70
     0
102
RTVSPost2010Prop53
 90
        2
102
RTVSPost2010PropOp53
 70
     1
102
RTVSPost2010Prop54
  1
strokes_ogs.tif
102
RTVSPost2010PropOp54
 70
     1
102
RTVSPost2010Prop55
280
     0
102
RTVSPost2010PropOp55
 70
     1
102
RTVSPost2010Prop56
140
1.0
102
RTVSPost2010PropOp56
 70
     1
102
RTVSPost2010Prop57
140
1.0
102
RTVSPost2010PropOp57
 70
     1
  0
XRECORD
  5
DC
102
{ACAD_REACTORS
330
DB
102
}
330
DB
100
AcDbXrecord
280
     1
102
RTVSPropertyOp0
 70
     1
102
RTVSPropertyOp1
 70
     1
102
RTVSPropertyOp2
 70
     1
102
RTVSPropertyOp3
 70
     1
102
RTVSPropertyOp4
 70
     1
102
RTVSPropertyOp5
 70
     1
102
RTVSPropertyOp6
 70
     1
102
RTVSPropertyOp7
 70
     1
102
RTVSPropertyOp8
 70
     1
102
RTVSPropertyOp9
 70
     1
102
RTVSPropertyOp10
 70
     1
102
RTVSPropertyOp11
 70
     1
102
RTVSPropertyOp12
 70
     1
102
RTVSPropertyOp13
 70
     1
102
RTVSPropertyOp14
 70
     1
102
RTVSPropertyOp15
 70
     1
102
RTVSPropertyOp16
 70
     1
102
RTVSPropertyOp17
 70
     1
102
RTVSPropertyOp18
 70
     1
102
RTVSPropertyOp19
 70
     1
102
RTVSPropertyOp20
 70
     1
102
RTVSPropertyOp21
 70
     1
102
RTVSPropertyOp22
 70
     1
102
RTVSPropertyOp23
 70
     1
102
RTVSPropertyOp24
 70
     1
102
RTVSPropertyOp25
 70
     1
102
RTVSPropertyOp26
 70
     1
102
RTVSPropertyOp27
 70
     1
102
RTVSPropertyOp28
 70
     1
102
RTVSPropertyOp29
 70
     1
102
RTVSPropertyOp30
 70
     1
102
RTVSPropertyOp31
 70
     1
102
RTVSPropertyOp32
 70
     1
102
RTVSPropertyOp33
 70
     1
102
RTVSPropertyOp34
 70
     1
102
RTVSPropertyOp35
 70
     1
102
RTVSPropertyOp36
 70
     1
102
RTVSPropertyOp37
 70
     1
102
RTVSPropertyOp38
 70
     1
102
RTVSPropertyOp39
 70
     1
102
RTVSPropertyOp40
 70
     1
102
RTVSPropertyOp41
 70
     1
102
RTVSPropertyOp42
 70
     1
102
RTVSPropertyOp43
 70
     1
102
RTVSPropertyOp44
 70
     1
102
RTVSPropertyOp45
 70
     1
102
RTVSPropertyOp46
 70
     1
102
RTVSPropertyOp47
 70
     1
102
RTVSPropertyOp48
 70
     1
102
RTVSPropertyOp49
 70
     1
102
RTVSPropertyOp50
 70
     1
102
RTVSPropertyOp51
 70
     0
102
RTVSPropertyOp52
 70
     0
102
RTVSPropertyOp53
 70
     1
102
RTVSPropertyOp54
 70
     1
102
RTVSPropertyOp55
 70
     1
102
RTVSPropertyOp56
 70
     1
102
RTVSPropertyOp57
 70
     1
102
RTVSPost2010Prop28
280
     0
102
RTVSPost2010PropOp28
 70
     1
102
RTVSPost2010Prop29
280
     1
102
RTVSPost2010PropOp29
 70
     1
102
RTVSPost2010Prop30
280
     1
102
RTVSPost2010PropOp30
 70
     1
102
RTVSPost2010Prop31
280
     0
102
RTVSPost2010PropOp31
 70
     1
102
RTVSPost2010Prop32
280
     0
102
RTVSPost2010PropOp32
 70
     1
102
RTVSPost2010Prop33
280
     0
102
RTVSPost2010PropOp33
 70
     1
102
RTVSPost2010Prop34
280
     0
102
RTVSPost2010PropOp34
 70
     1
102
RTVSPost2010Prop35
280
     0
102
RTVSPost2010PropOp35
 70
     1
102
RTVSPost2010Prop36
280
     0
102
RTVSPost2010PropOp36
 70
     1
102
RTVSPost2010Prop37
 90
       50
102
RTVSPost2010PropOp37
 70
     1
102
RTVSPost2010Prop38
140
0.0
102
RTVSPost2010PropOp38
 70
     1
102
RTVSPost2010Prop39
140
1.0
102
RTVSPost2010PropOp39
 70
     1
102
RTVSPost2010Prop40
 90
        0
102
RTVSPost2010PropOp40
 70
     1
102
RTVSPost2010Prop41ColorIndex
 90
       18
102
RTVSPost2010Prop41ColorRGB
 90
        0
102
RTVSPost2010PropOp41
 70
     1
102
RTVSPost2010Prop42
 90
       50
102
RTVSPost2010PropOp42
 70
     1
102
RTVSPost2010Prop43
 90
        3
102
RTVSPost2010PropOp43
 70
     1
102
RTVSPost2010Prop44ColorIndex
 90
        5
102
RTVSPost2010Prop44ColorRGB
 90
      255
102
RTVSPost2010PropOp44
 70
     1
102
RTVSPost2010Prop45
280
     0
102
RTVSPost2010PropOp45
 70
     1
102
RTVSPost2010Prop46
 90
       50
102
RTVSPost2010PropOp46
 70
     1
102
RTVSPost2010Prop47
 90
       50
102
RTVSPost2010PropOp47
 70
     1
102
RTVSPost2010Prop48
 90
       50
102
RTVSPost2010PropOp48
 70
     1
102
RTVSPost2010Prop49
280
     0
102
RTVSPost2010PropOp49
 70
     1
102
RTVSPost2010Prop50
 90
       50
102
RTVSPost2010PropOp50
 70
     1
102
RTVSPost2010Prop51ColorIndex
 90
      256
102
RTVSPost2010Prop51ColorRGB
 90
-16777216
102
RTVSPost2010PropOp51
 70
     0
102
RTVSPost2010Prop52
140
1.0
102
RTVSPost2010PropOp52
 70
     0
102
RTVSPost2010Prop53
 90
        2
102
RTVSPost2010PropOp53
 70
     1
102
RTVSPost2010Prop54
  1
strokes_ogs.tif
102
RTVSPost2010PropOp54
 70
     1
102
RTVSPost2010Prop55
280
     0
102
RTVSPost2010PropOp55
 70
     1
102
RTVSPost2010Prop56
140
1.0
102
RTVSPost2010PropOp56
 70
     1
102
RTVSPost2010Prop57
140
1.0
102
RTVSPost2010PropOp57
 70
     1
  0
XRECORD
  5
CC
102
{ACAD_REACTORS
330
CB
102
}
330
CB
100
AcDbXrecord
280
     1
102
RTVSPropertyOp0
 70
     1
102
RTVSPropertyOp1
 70
     1
102
RTVSPropertyOp2
 70
     1
102
RTVSPropertyOp3
 70
     1
102
RTVSPropertyOp4
 70
     1
102
RTVSPropertyOp5
 70
     1
102
RTVSPropertyOp6
 70
     1
102
RTVSPropertyOp7
 70
     1
102
RTVSPropertyOp8
 70
     1
102
RTVSPropertyOp9
 70
     1
102
RTVSPropertyOp10
 70
     1
102
RTVSPropertyOp11
 70
     1
102
RTVSPropertyOp12
 70
     1
102
RTVSPropertyOp13
 70
     1
102
RTVSPropertyOp14
 70
     1
102
RTVSPropertyOp15
 70
     1
102
RTVSPropertyOp16
 70
     1
102
RTVSPropertyOp17
 70
     1
102
RTVSPropertyOp18
 70
     1
102
RTVSPropertyOp19
 70
     1
102
RTVSPropertyOp20
 70
     1
102
RTVSPropertyOp21
 70
     1
102
RTVSPropertyOp22
 70
     1
102
RTVSPropertyOp23
 70
     1
102
RTVSPropertyOp24
 70
     1
102
RTVSPropertyOp25
 70
     1
102
RTVSPropertyOp26
 70
     1
102
RTVSPropertyOp27
 70
     1
102
RTVSPropertyOp28
 70
     1
102
RTVSPropertyOp29
 70
     1
102
RTVSPropertyOp30
 70
     1
102
RTVSPropertyOp31
 70
     1
102
RTVSPropertyOp32
 70
     1
102
RTVSPropertyOp33
 70
     1
102
RTVSPropertyOp34
 70
     1
102
RTVSPropertyOp35
 70
     1
102
RTVSPropertyOp36
 70
     1
102
RTVSPropertyOp37
 70
     1
102
RTVSPropertyOp38
 70
     1
102
RTVSPropertyOp39
 70
     1
102
RTVSPropertyOp40
 70
     1
102
RTVSPropertyOp41
 70
     1
102
RTVSPropertyOp42
 70
     1
102
RTVSPropertyOp43
 70
     1
102
RTVSPropertyOp44
 70
     1
102
RTVSPropertyOp45
 70
     1
102
RTVSPropertyOp46
 70
     1
102
RTVSPropertyOp47
 70
     1
102
RTVSPropertyOp48
 70
     1
102
RTVSPropertyOp49
 70
     1
102
RTVSPropertyOp50
 70
     1
102
RTVSPropertyOp51
 70
     0
102
RTVSPropertyOp52
 70
     0
102
RTVSPropertyOp53
 70
     1
102
RTVSPropertyOp54
 70
     1
102
RTVSPropertyOp55
 70
     1
102
RTVSPropertyOp56
 70
     1
102
RTVSPropertyOp57
 70
     1
102
RTVSPost2010Prop28
280
     0
102
RTVSPost2010PropOp28
 70
     1
102
RTVSPost2010Prop29
280
     1
102
RTVSPost2010PropOp29
 70
     1
102
RTVSPost2010Prop30
280
     1
102
RTVSPost2010PropOp30
 70
     1
102
RTVSPost2010Prop31
280
     0
102
RTVSPost2010PropOp31
 70
     1
102
RTVSPost2010Prop32
280
     0
102
RTVSPost2010PropOp32
 70
     1
102
RTVSPost2010Prop33
280
     0
102
RTVSPost2010PropOp33
 70
     1
102
RTVSPost2010Prop34
280
     0
102
RTVSPost2010PropOp34
 70
     1
102
RTVSPost2010Prop35
280
     0
102
RTVSPost2010PropOp35
 70
     1
102
RTVSPost2010Prop36
280
     0
102
RTVSPost2010PropOp36
 70
     1
102
RTVSPost2010Prop37
 90
       50
102
RTVSPost2010PropOp37
 70
     1
102
RTVSPost2010Prop38
140
0.0
102
RTVSPost2010PropOp38
 70
     1
102
RTVSPost2010Prop39
140
1.0
102
RTVSPost2010PropOp39
 70
     1
102
RTVSPost2010Prop40
 90
        0
102
RTVSPost2010PropOp40
 70
     1
102
RTVSPost2010Prop41ColorIndex
 90
       18
102
RTVSPost2010Prop41ColorRGB
 90
        0
102
RTVSPost2010PropOp41
 70
     1
102
RTVSPost2010Prop42
 90
       50
102
RTVSPost2010PropOp42
 70
     1
102
RTVSPost2010Prop43
 90
        3
102
RTVSPost2010PropOp43
 70
     1
102
RTVSPost2010Prop44ColorIndex
 90
        5
102
RTVSPost2010Prop44ColorRGB
 90
      255
102
RTVSPost2010PropOp44
 70
     1
102
RTVSPost2010Prop45
280
     0
102
RTVSPost2010PropOp45
 70
     1
102
RTVSPost2010Prop46
 90
       50
102
RTVSPost2010PropOp46
 70
     1
102
RTVSPost2010Prop47
 90
       50
102
RTVSPost2010PropOp47
 70
     1
102
RTVSPost2010Prop48
 90
       50
102
RTVSPost2010PropOp48
 70
     1
102
RTVSPost2010Prop49
280
     0
102
RTVSPost2010PropOp49
 70
     1
102
RTVSPost2010Prop50
 90
       50
102
RTVSPost2010PropOp50
 70
     1
102
RTVSPost2010Prop51ColorIndex
 90
      256
102
RTVSPost2010Prop51ColorRGB
 90
-16777216
102
RTVSPost2010PropOp51
 70
     0
102
RTVSPost2010Prop52
140
1.0
102
RTVSPost2010PropOp52
 70
     0
102
RTVSPost2010Prop53
 90
        2
102
RTVSPost2010PropOp53
 70
     1
102
RTVSPost2010Prop54
  1
strokes_ogs.tif
102
RTVSPost2010PropOp54
 70
     1
102
RTVSPost2010Prop55
280
     0
102
RTVSPost2010PropOp55
 70
     1
102
RTVSPost2010Prop56
140
1.0
102
RTVSPost2010PropOp56
 70
     1
102
RTVSPost2010Prop57
140
1.0
102
RTVSPost2010PropOp57
 70
     1
  0
XRECORD
  5
BE
102
{ACAD_REACTORS
330
BD
102
}
330
BD
100
AcDbXrecord
280
     1
102
RTVSPropertyOp0
 70
     1
102
RTVSPropertyOp1
 70
     1
102
RTVSPropertyOp2
 70
     1
102
RTVSPropertyOp3
 70
     1
102
RTVSPropertyOp4
 70
     1
102
RTVSPropertyOp5
 70
     1
102
RTVSPropertyOp6
 70
     1
102
RTVSPropertyOp7
 70
     1
102
RTVSPropertyOp8
 70
     1
102
RTVSPropertyOp9
 70
     1
102
RTVSPropertyOp10
 70
     1
102
RTVSPropertyOp11
 70
     1
102
RTVSPropertyOp12
 70
     1
102
RTVSPropertyOp13
 70
     1
102
RTVSPropertyOp14
 70
     1
102
RTVSPropertyOp15
 70
     1
102
RTVSPropertyOp16
 70
     1
102
RTVSPropertyOp17
 70
     1
102
RTVSPropertyOp18
 70
     1
102
RTVSPropertyOp19
 70
     1
102
RTVSPropertyOp20
 70
     1
102
RTVSPropertyOp21
 70
     1
102
RTVSPropertyOp22
 70
     1
102
RTVSPropertyOp23
 70
     1
102
RTVSPropertyOp24
 70
     1
102
RTVSPropertyOp25
 70
     1
102
RTVSPropertyOp26
 70
     1
102
RTVSPropertyOp27
 70
     1
102
RTVSPropertyOp28
 70
     1
102
RTVSPropertyOp29
 70
     1
102
RTVSPropertyOp30
 70
     1
102
RTVSPropertyOp31
 70
     1
102
RTVSPropertyOp32
 70
     1
102
RTVSPropertyOp33
 70
     1
102
RTVSPropertyOp34
 70
     1
102
RTVSPropertyOp35
 70
     1
102
RTVSPropertyOp36
 70
     1
102
RTVSPropertyOp37
 70
     1
102
RTVSPropertyOp38
 70
     1
102
RTVSPropertyOp39
 70
     1
102
RTVSPropertyOp40
 70
     1
102
RTVSPropertyOp41
 70
     1
102
RTVSPropertyOp42
 70
     1
102
RTVSPropertyOp43
 70
     1
102
RTVSPropertyOp44
 70
     1
102
RTVSPropertyOp45
 70
     1
102
RTVSPropertyOp46
 70
     1
102
RTVSPropertyOp47
 70
     1
102
RTVSPropertyOp48
 70
     1
102
RTVSPropertyOp49
 70
     1
102
RTVSPropertyOp50
 70
     1
102
RTVSPropertyOp51
 70
     0
102
RTVSPropertyOp52
 70
     0
102
RTVSPropertyOp53
 70
     1
102
RTVSPropertyOp54
 70
     1
102
RTVSPropertyOp55
 70
     1
102
RTVSPropertyOp56
 70
     1
102
RTVSPropertyOp57
 70
     1
102
RTVSPost2010Prop28
280
     0
102
RTVSPost2010PropOp28
 70
     1
102
RTVSPost2010Prop29
280
     1
102
RTVSPost2010PropOp29
 70
     1
102
RTVSPost2010Prop30
280
     1
102
RTVSPost2010PropOp30
 70
     1
102
RTVSPost2010Prop31
280
     0
102
RTVSPost2010PropOp31
 70
     1
102
RTVSPost2010Prop32
280
     0
102
RTVSPost2010PropOp32
 70
     1
102
RTVSPost2010Prop33
280
     0
102
RTVSPost2010PropOp33
 70
     1
102
RTVSPost2010Prop34
280
     0
102
RTVSPost2010PropOp34
 70
     1
102
RTVSPost2010Prop35
280
     0
102
RTVSPost2010PropOp35
 70
     1
102
RTVSPost2010Prop36
280
     0
102
RTVSPost2010PropOp36
 70
     1
102
RTVSPost2010Prop37
 90
       50
102
RTVSPost2010PropOp37
 70
     1
102
RTVSPost2010Prop38
140
0.0
102
RTVSPost2010PropOp38
 70
     1
102
RTVSPost2010Prop39
140
1.0
102
RTVSPost2010PropOp39
 70
     1
102
RTVSPost2010Prop40
 90
        0
102
RTVSPost2010PropOp40
 70
     1
102
RTVSPost2010Prop41ColorIndex
 90
       18
102
RTVSPost2010Prop41ColorRGB
 90
        0
102
RTVSPost2010PropOp41
 70
     1
102
RTVSPost2010Prop42
 90
       50
102
RTVSPost2010PropOp42
 70
     1
102
RTVSPost2010Prop43
 90
        3
102
RTVSPost2010PropOp43
 70
     1
102
RTVSPost2010Prop44ColorIndex
 90
        5
102
RTVSPost2010Prop44ColorRGB
 90
      255
102
RTVSPost2010PropOp44
 70
     1
102
RTVSPost2010Prop45
280
     0
102
RTVSPost2010PropOp45
 70
     1
102
RTVSPost2010Prop46
 90
       50
102
RTVSPost2010PropOp46
 70
     1
102
RTVSPost2010Prop47
 90
       50
102
RTVSPost2010PropOp47
 70
     1
102
RTVSPost2010Prop48
 90
       50
102
RTVSPost2010PropOp48
 70
     1
102
RTVSPost2010Prop49
280
     0
102
RTVSPost2010PropOp49
 70
     1
102
RTVSPost2010Prop50
 90
       50
102
RTVSPost2010PropOp50
 70
     1
102
RTVSPost2010Prop51ColorIndex
 90
      256
102
RTVSPost2010Prop51ColorRGB
 90
-16777216
102
RTVSPost2010PropOp51
 70
     0
102
RTVSPost2010Prop52
140
1.0
102
RTVSPost2010PropOp52
 70
     0
102
RTVSPost2010Prop53
 90
        2
102
RTVSPost2010PropOp53
 70
     1
102
RTVSPost2010Prop54
  1
strokes_ogs.tif
102
RTVSPost2010PropOp54
 70
     1
102
RTVSPost2010Prop55
280
     0
102
RTVSPost2010PropOp55
 70
     1
102
RTVSPost2010Prop56
140
1.0
102
RTVSPost2010PropOp56
 70
     1
102
RTVSPost2010Prop57
140
1.0
102
RTVSPost2010PropOp57
 70
     1
  0
XRECORD
  5
DE
102
{ACAD_REACTORS
330
DD
102
}
330
DD
100
AcDbXrecord
280
     1
102
RTVSPropertyOp0
 70
     1
102
RTVSPropertyOp1
 70
     1
102
RTVSPropertyOp2
 70
     1
102
RTVSPropertyOp3
 70
     1
102
RTVSPropertyOp4
 70
     1
102
RTVSPropertyOp5
 70
     1
102
RTVSPropertyOp6
 70
     1
102
RTVSPropertyOp7
 70
     1
102
RTVSPropertyOp8
 70
     1
102
RTVSPropertyOp9
 70
     1
102
RTVSPropertyOp10
 70
     1
102
RTVSPropertyOp11
 70
     1
102
RTVSPropertyOp12
 70
     1
102
RTVSPropertyOp13
 70
     1
102
RTVSPropertyOp14
 70
     1
102
RTVSPropertyOp15
 70
     1
102
RTVSPropertyOp16
 70
     1
102
RTVSPropertyOp17
 70
     1
102
RTVSPropertyOp18
 70
     1
102
RTVSPropertyOp19
 70
     1
102
RTVSPropertyOp20
 70
     1
102
RTVSPropertyOp21
 70
     1
102
RTVSPropertyOp22
 70
     1
102
RTVSPropertyOp23
 70
     1
102
RTVSPropertyOp24
 70
     1
102
RTVSPropertyOp25
 70
     1
102
RTVSPropertyOp26
 70
     1
102
RTVSPropertyOp27
 70
     1
102
RTVSPropertyOp28
 70
     1
102
RTVSPropertyOp29
 70
     1
102
RTVSPropertyOp30
 70
     1
102
RTVSPropertyOp31
 70
     1
102
RTVSPropertyOp32
 70
     1
102
RTVSPropertyOp33
 70
     1
102
RTVSPropertyOp34
 70
     1
102
RTVSPropertyOp35
 70
     1
102
RTVSPropertyOp36
 70
     1
102
RTVSPropertyOp37
 70
     1
102
RTVSPropertyOp38
 70
     1
102
RTVSPropertyOp39
 70
     1
102
RTVSPropertyOp40
 70
     1
102
RTVSPropertyOp41
 70
     1
102
RTVSPropertyOp42
 70
     1
102
RTVSPropertyOp43
 70
     1
102
RTVSPropertyOp44
 70
     1
102
RTVSPropertyOp45
 70
     1
102
RTVSPropertyOp46
 70
     1
102
RTVSPropertyOp47
 70
     1
102
RTVSPropertyOp48
 70
     1
102
RTVSPropertyOp49
 70
     1
102
RTVSPropertyOp50
 70
     1
102
RTVSPropertyOp51
 70
     0
102
RTVSPropertyOp52
 70
     0
102
RTVSPropertyOp53
 70
     1
102
RTVSPropertyOp54
 70
     1
102
RTVSPropertyOp55
 70
     1
102
RTVSPropertyOp56
 70
     1
102
RTVSPropertyOp57
 70
     1
102
RTVSPost2010Prop28
280
     0
102
RTVSPost2010PropOp28
 70
     1
102
RTVSPost2010Prop29
280
     1
102
RTVSPost2010PropOp29
 70
     1
102
RTVSPost2010Prop30
280
     1
102
RTVSPost2010PropOp30
 70
     1
102
RTVSPost2010Prop31
280
     0
102
RTVSPost2010PropOp31
 70
     1
102
RTVSPost2010Prop32
280
     0
102
RTVSPost2010PropOp32
 70
     1
102
RTVSPost2010Prop33
280
     0
102
RTVSPost2010PropOp33
 70
     1
102
RTVSPost2010Prop34
280
     0
102
RTVSPost2010PropOp34
 70
     1
102
RTVSPost2010Prop35
280
     0
102
RTVSPost2010PropOp35
 70
     1
102
RTVSPost2010Prop36
280
     0
102
RTVSPost2010PropOp36
 70
     1
102
RTVSPost2010Prop37
 90
       50
102
RTVSPost2010PropOp37
 70
     1
102
RTVSPost2010Prop38
140
0.0
102
RTVSPost2010PropOp38
 70
     1
102
RTVSPost2010Prop39
140
1.0
102
RTVSPost2010PropOp39
 70
     1
102
RTVSPost2010Prop40
 90
        0
102
RTVSPost2010PropOp40
 70
     1
102
RTVSPost2010Prop41ColorIndex
 90
       18
102
RTVSPost2010Prop41ColorRGB
 90
        0
102
RTVSPost2010PropOp41
 70
     1
102
RTVSPost2010Prop42
 90
       50
102
RTVSPost2010PropOp42
 70
     1
102
RTVSPost2010Prop43
 90
        3
102
RTVSPost2010PropOp43
 70
     1
102
RTVSPost2010Prop44ColorIndex
 90
        5
102
RTVSPost2010Prop44ColorRGB
 90
      255
102
RTVSPost2010PropOp44
 70
     1
102
RTVSPost2010Prop45
280
     0
102
RTVSPost2010PropOp45
 70
     1
102
RTVSPost2010Prop46
 90
       50
102
RTVSPost2010PropOp46
 70
     1
102
RTVSPost2010Prop47
 90
       50
102
RTVSPost2010PropOp47
 70
     1
102
RTVSPost2010Prop48
 90
       50
102
RTVSPost2010PropOp48
 70
     1
102
RTVSPost2010Prop49
280
     0
102
RTVSPost2010PropOp49
 70
     1
102
RTVSPost2010Prop50
 90
       50
102
RTVSPost2010PropOp50
 70
     1
102
RTVSPost2010Prop51ColorIndex
 90
      256
102
RTVSPost2010Prop51ColorRGB
 90
-16777216
102
RTVSPost2010PropOp51
 70
     0
102
RTVSPost2010Prop52
140
1.0
102
RTVSPost2010PropOp52
 70
     0
102
RTVSPost2010Prop53
 90
        2
102
RTVSPost2010PropOp53
 70
     1
102
RTVSPost2010Prop54
  1
strokes_ogs.tif
102
RTVSPost2010PropOp54
 70
     1
102
RTVSPost2010Prop55
280
     0
102
RTVSPost2010PropOp55
 70
     1
102
RTVSPost2010Prop56
140
1.0
102
RTVSPost2010PropOp56
 70
     1
102
RTVSPost2010Prop57
140
1.0
102
RTVSPost2010PropOp57
 70
     1
  0
ENDSEC
  0
EOF
