  0
SECTION
  2
HEADER
  9
$ACADVER
  1
AC1021
  9
$ACADMAINTVER
 70
    25
  9
$DWGCODEPAGE
  3
ANSI_1251
  9
$INSBASE
 10
0.0
 20
0.0
 30
0.0
  9
$EXTMIN
 10
1.000000000000000E+20
 20
1.000000000000000E+20
 30
1.000000000000000E+20
  9
$EXTMAX
 10
-1.000000000000000E+20
 20
-1.000000000000000E+20
 30
-1.000000000000000E+20
  9
$LIMMIN
 10
0.0
 20
0.0
  9
$LIMMAX
 10
12.0
 20
9.0
  9
$ORTHOMODE
 70
     0
  9
$REGENMODE
 70
     1
  9
$FILLMODE
 70
     1
  9
$QTEXTMODE
 70
     0
  9
$MIRRTEXT
 70
     1
  9
$LTSCALE
 40
1.0
  9
$ATTMODE
 70
     1
  9
$TEXTSIZE
 40
0.2
  9
$TRACEWID
 40
0.05
  9
$TEXTSTYLE
  7
Standard
  9
$CLAYER
  8
0
  9
$CELTYPE
  6
ByLayer
  9
$CECOLOR
 62
   256
  9
$CELTSCALE
 40
1.0
  9
$DISPSILH
 70
     0
  9
$DIMSCALE
 40
1.0
  9
$DIMASZ
 40
0.18
  9
$DIMEXO
 40
0.0625
  9
$DIMDLI
 40
0.38
  9
$DIMRND
 40
0.0
  9
$DIMDLE
 40
0.0
  9
$DIMEXE
 40
0.18
  9
$DIMTP
 40
0.0
  9
$DIMTM
 40
0.0
  9
$DIMTXT
 40
0.18
  9
$DIMCEN
 40
0.09
  9
$DIMTSZ
 40
0.0
  9
$DIMTOL
 70
     0
  9
$DIMLIM
 70
     0
  9
$DIMTIH
 70
     1
  9
$DIMTOH
 70
     1
  9
$DIMSE1
 70
     0
  9
$DIMSE2
 70
     0
  9
$DIMTAD
 70
     0
  9
$DIMZIN
 70
     0
  9
$DIMBLK
  1

  9
$DIMASO
 70
     1
  9
$DIMSHO
 70
     1
  9
$DIMPOST
  1

  9
$DIMAPOST
  1

  9
$DIMALT
 70
     0
  9
$DIMALTD
 70
     2
  9
$DIMALTF
 40
25.4
  9
$DIMLFAC
 40
1.0
  9
$DIMTOFL
 70
     0
  9
$DIMTVP
 40
0.0
  9
$DIMTIX
 70
     0
  9
$DIMSOXD
 70
     0
  9
$DIMSAH
 70
     0
  9
$DIMBLK1
  1

  9
$DIMBLK2
  1

  9
$DIMSTYLE
  2
Standard
  9
$DIMCLRD
 70
     0
  9
$DIMCLRE
 70
     0
  9
$DIMCLRT
 70
     0
  9
$DIMTFAC
 40
1.0
  9
$DIMGAP
 40
0.09
  9
$DIMJUST
 70
     0
  9
$DIMSD1
 70
     0
  9
$DIMSD2
 70
     0
  9
$DIMTOLJ
 70
     1
  9
$DIMTZIN
 70
     0
  9
$DIMALTZ
 70
     0
  9
$DIMALTTZ
 70
     0
  9
$DIMUPT
 70
     0
  9
$DIMDEC
 70
     4
  9
$DIMTDEC
 70
     4
  9
$DIMALTU
 70
     2
  9
$DIMALTTD
 70
     2
  9
$DIMTXSTY
  7
Standard
  9
$DIMAUNIT
 70
     0
  9
$DIMADEC
 70
     0
  9
$DIMALTRND
 40
0.0
  9
$DIMAZIN
 70
     0
  9
$DIMDSEP
 70
    46
  9
$DIMATFIT
 70
     3
  9
$DIMFRAC
 70
     0
  9
$DIMLDRBLK
  1

  9
$DIMLUNIT
 70
     2
  9
$DIMLWD
 70
    -2
  9
$DIMLWE
 70
    -2
  9
$DIMTMOVE
 70
     0
  9
$DIMFXL
 40
1.0
  9
$DIMFXLON
 70
     0
  9
$DIMJOGANG
 40
0.7853981633974483
  9
$DIMTFILL
 70
     0
  9
$DIMTFILLCLR
 70
     0
  9
$DIMARCSYM
 70
     0
  9
$DIMLTYPE
  6

  9
$DIMLTEX1
  6

  9
$DIMLTEX2
  6

  9
$LUNITS
 70
     2
  9
$LUPREC
 70
     4
  9
$SKETCHINC
 40
0.1
  9
$FILLETRAD
 40
0.5
  9
$AUNITS
 70
     0
  9
$AUPREC
 70
     0
  9
$MENU
  1
.
  9
$ELEVATION
 40
0.0
  9
$PELEVATION
 40
0.0
  9
$THICKNESS
 40
0.0
  9
$LIMCHECK
 70
     0
  9
$CHAMFERA
 40
0.5
  9
$CHAMFERB
 40
0.5
  9
$CHAMFERC
 40
1.0
  9
$CHAMFERD
 40
0.0
  9
$SKPOLY
 70
     0
  9
$TDCREATE
 40
2458856.899665116
  9
$TDUCREATE
 40
2458856.774665116
  9
$TDUPDATE
 40
2458856.899665185
  9
$TDUUPDATE
 40
2458856.774665185
  9
$TDINDWG
 40
0.0000000116
  9
$TDUSRTIMER
 40
0.0000000116
  9
$USRTIMER
 70
     1
  9
$ANGBASE
 50
0.0
  9
$ANGDIR
 70
     0
  9
$PDMODE
 70
     0
  9
$PDSIZE
 40
0.0
  9
$PLINEWID
 40
0.0
  9
$SPLFRAME
 70
     0
  9
$SPLINETYPE
 70
     6
  9
$SPLINESEGS
 70
     8
  9
$HANDSEED
  5
7C
  9
$SURFTAB1
 70
     6
  9
$SURFTAB2
 70
     6
  9
$SURFTYPE
 70
     6
  9
$SURFU
 70
     6
  9
$SURFV
 70
     6
  9
$UCSBASE
  2

  9
$UCSNAME
  2

  9
$UCSORG
 10
0.0
 20
0.0
 30
0.0
  9
$UCSXDIR
 10
1.0
 20
0.0
 30
0.0
  9
$UCSYDIR
 10
0.0
 20
1.0
 30
0.0
  9
$UCSORTHOREF
  2

  9
$UCSORTHOVIEW
 70
     0
  9
$UCSORGTOP
 10
0.0
 20
0.0
 30
0.0
  9
$UCSORGBOTTOM
 10
0.0
 20
0.0
 30
0.0
  9
$UCSORGLEFT
 10
0.0
 20
0.0
 30
0.0
  9
$UCSORGRIGHT
 10
0.0
 20
0.0
 30
0.0
  9
$UCSORGFRONT
 10
0.0
 20
0.0
 30
0.0
  9
$UCSORGBACK
 10
0.0
 20
0.0
 30
0.0
  9
$PUCSBASE
  2

  9
$PUCSNAME
  2

  9
$PUCSORG
 10
0.0
 20
0.0
 30
0.0
  9
$PUCSXDIR
 10
1.0
 20
0.0
 30
0.0
  9
$PUCSYDIR
 10
0.0
 20
1.0
 30
0.0
  9
$PUCSORTHOREF
  2

  9
$PUCSORTHOVIEW
 70
     0
  9
$PUCSORGTOP
 10
0.0
 20
0.0
 30
0.0
  9
$PUCSORGBOTTOM
 10
0.0
 20
0.0
 30
0.0
  9
$PUCSORGLEFT
 10
0.0
 20
0.0
 30
0.0
  9
$PUCSORGRIGHT
 10
0.0
 20
0.0
 30
0.0
  9
$PUCSORGFRONT
 10
0.0
 20
0.0
 30
0.0
  9
$PUCSORGBACK
 10
0.0
 20
0.0
 30
0.0
  9
$USERI1
 70
     0
  9
$USERI2
 70
     0
  9
$USERI3
 70
     0
  9
$USERI4
 70
     0
  9
$USERI5
 70
     0
  9
$USERR1
 40
0.0
  9
$USERR2
 40
0.0
  9
$USERR3
 40
0.0
  9
$USERR4
 40
0.0
  9
$USERR5
 40
0.0
  9
$WORLDVIEW
 70
     1
  9
$SHADEDGE
 70
     3
  9
$SHADEDIF
 70
    70
  9
$TILEMODE
 70
     1
  9
$MAXACTVP
 70
    64
  9
$PINSBASE
 10
0.0
 20
0.0
 30
0.0
  9
$PLIMCHECK
 70
     0
  9
$PEXTMIN
 10
1.000000000000000E+20
 20
1.000000000000000E+20
 30
1.000000000000000E+20
  9
$PEXTMAX
 10
-1.000000000000000E+20
 20
-1.000000000000000E+20
 30
-1.000000000000000E+20
  9
$PLIMMIN
 10
0.0
 20
0.0
  9
$PLIMMAX
 10
12.0
 20
9.0
  9
$UNITMODE
 70
     0
  9
$VISRETAIN
 70
     1
  9
$PLINEGEN
 70
     0
  9
$PSLTSCALE
 70
     1
  9
$TREEDEPTH
 70
  3020
  9
$CMLSTYLE
  2
Standard
  9
$CMLJUST
 70
     0
  9
$CMLSCALE
 40
1.0
  9
$PROXYGRAPHICS
 70
     1
  9
$MEASUREMENT
 70
     0
  9
$CELWEIGHT
370
    -1
  9
$ENDCAPS
280
     0
  9
$JOINSTYLE
280
     0
  9
$LWDISPLAY
290
     1
  9
$INSUNITS
 70
     1
  9
$HYPERLINKBASE
  1

  9
$STYLESHEET
  1

  9
$XEDIT
290
     1
  9
$CEPSNTYPE
380
     0
  9
$PSTYLEMODE
290
     1
  9
$FINGERPRINTGUID
  2
{DE0E657D-BBA7-43A3-B3FC-C12A1C921B55}
  9
$VERSIONGUID
  2
{FAEB1C32-E019-11D5-929B-00C0DF256EC4}
  9
$EXTNAMES
290
     1
  9
$PSVPSCALE
 40
0.0
  9
$OLESTARTUP
290
     0
  9
$SORTENTS
280
   127
  9
$INDEXCTL
280
     0
  9
$HIDETEXT
280
     1
  9
$XCLIPFRAME
290
     0
  9
$HALOGAP
280
     0
  9
$OBSCOLOR
 70
   257
  9
$OBSLTYPE
280
     0
  9
$INTERSECTIONDISPLAY
280
     0
  9
$INTERSECTIONCOLOR
 70
   257
  9
$DIMASSOC
280
     2
  9
$PROJECTNAME
  1

  9
$CAMERADISPLAY
290
     0
  9
$LENSLENGTH
 40
50.0
  9
$CAMERAHEIGHT
 40
0.0
  9
$STEPSPERSEC
 40
2.0
  9
$STEPSIZE
 40
6.0
  9
$3DDWFPREC
 40
2.0
  9
$PSOLWIDTH
 40
0.25
  9
$PSOLHEIGHT
 40
4.0
  9
$LOFTANG1
 40
1.570796326794897
  9
$LOFTANG2
 40
1.570796326794897
  9
$LOFTMAG1
 40
0.0
  9
$LOFTMAG2
 40
0.0
  9
$LOFTPARAM
 70
     7
  9
$LOFTNORMALS
280
     1
  9
$LATITUDE
 40
37.795
  9
$LONGITUDE
 40
-122.394
  9
$NORTHDIRECTION
 40
0.0
  9
$TIMEZONE
 70
 -8000
  9
$LIGHTGLYPHDISPLAY
280
     1
  9
$TILEMODELIGHTSYNCH
280
     1
  9
$CMATERIAL
347
3C
  9
$SOLIDHIST
280
     1
  9
$SHOWHIST
280
     1
  9
$DWFFRAME
280
     2
  9
$DGNFRAME
280
     2
  9
$REALWORLDSCALE
290
     1
  9
$INTERFERECOLOR
 62
   256
  9
$CSHADOW
280
     0
  9
$SHADOWPLANELOCATION
 40
0.0
  0
ENDSEC
  0
SECTION
  2
CLASSES
  0
CLASS
  1
ACDBDICTIONARYWDFLT
  2
AcDbDictionaryWithDefault
  3
ObjectDBX Classes
 90
        0
 91
        4
280
     0
281
     0
  0
CLASS
  1
VISUALSTYLE
  2
AcDbVisualStyle
  3
ObjectDBX Classes
 90
     4095
 91
        4
280
     0
281
     0
  0
CLASS
  1
MATERIAL
  2
AcDbMaterial
  3
ObjectDBX Classes
 90
     1153
 91
        4
280
     0
281
     0
  0
CLASS
  1
SUN
  2
AcDbSun
  3
SCENEOE
 90
     1024
 91
        4
280
     0
281
     0
  0
ENDSEC
  0
SECTION
  2
TABLES
  0
TABLE
  2
VPORT
  5
8
330
0
100
AcDbSymbolTable
 70
     1
  0
VPORT
  5
29
330
8
100
AcDbSymbolTableRecord
100
AcDbViewportTableRecord
  2
*Active
 70
     0
 10
0.0
 20
0.0
 11
1.0
 21
1.0
 12
0.0
 22
0.0
 13
0.0
 23
0.0
 14
0.5
 24
0.5
 15
0.5
 25
0.5
 16
0.0
 26
0.0
 36
1.0
 17
1149.999999712504
 27
649.9999998374931
 37
0.0
 40
1299.999999674986
 41
1.769230769230794
 42
50.0
 43
0.0
 44
0.0
 50
0.0
 51
0.0
 71
     0
 72
   100
 73
     1
 74
     3
 75
     0
 76
     0
 77
     0
 78
     0
281
     0
 65
     1
110
0.0
120
0.0
130
0.0
111
1.0
121
0.0
131
0.0
112
0.0
122
1.0
132
0.0
 79
     0
146
0.0
 60
     3
 61
     5
292
     1
282
     1
141
0.0
142
0.0
 63
   250
361
3F
  0
ENDTAB
  0
TABLE
  2
LTYPE
  5
5
330
0
100
AcDbSymbolTable
 70
     1
  0
LTYPE
  5
14
330
5
100
AcDbSymbolTableRecord
100
AcDbLinetypeTableRecord
  2
ByBlock
 70
     0
  3

 72
    65
 73
     0
 40
0.0
  0
LTYPE
  5
15
330
5
100
AcDbSymbolTableRecord
100
AcDbLinetypeTableRecord
  2
ByLayer
 70
     0
  3

 72
    65
 73
     0
 40
0.0
  0
LTYPE
  5
16
330
5
100
AcDbSymbolTableRecord
100
AcDbLinetypeTableRecord
  2
Continuous
 70
     0
  3
Solid line
 72
    65
 73
     0
 40
0.0
  0
ENDTAB
  0
TABLE
  2
LAYER
  5
2
330
0
100
AcDbSymbolTable
 70
     2
  0
LAYER
  5
10
330
2
100
AcDbSymbolTableRecord
100
AcDbLayerTableRecord
  2
0
 70
     0
 62
     7
  6
Continuous
370
    -3
390
F
347
3E
  0
LAYER
  5
40
330
2
100
AcDbSymbolTableRecord
100
AcDbLayerTableRecord
  2
_U+0421_U+043B_U+043E_U+0439 1
 70
     0
 62
     7
  6
Continuous
370
    -3
390
F
347
3E
  0
ENDTAB
  0
TABLE
  2
STYLE
  5
3
330
0
100
AcDbSymbolTable
 70
     1
  0
STYLE
  5
11
330
3
100
AcDbSymbolTableRecord
100
AcDbTextStyleTableRecord
  2
Standard
 70
     0
 40
0.0
 41
1.0
 50
0.0
 71
     0
 42
0.2
  3
txt
  4

  0
ENDTAB
  0
TABLE
  2
VIEW
  5
6
330
0
100
AcDbSymbolTable
 70
     0
  0
ENDTAB
  0
TABLE
  2
UCS
  5
7
330
0
100
AcDbSymbolTable
 70
     0
  0
ENDTAB
  0
TABLE
  2
APPID
  5
9
330
0
100
AcDbSymbolTable
 70
     1
  0
APPID
  5
12
330
9
100
AcDbSymbolTableRecord
100
AcDbRegAppTableRecord
  2
ACAD
 70
     0
  0
ENDTAB
  0
TABLE
  2
DIMSTYLE
  5
A
330
0
100
AcDbSymbolTable
 70
     1
100
AcDbDimStyleTable
  0
DIMSTYLE
105
27
330
A
100
AcDbSymbolTableRecord
100
AcDbDimStyleTableRecord
  2
Standard
 70
     0
178
     0
340
11
  0
ENDTAB
  0
TABLE
  2
BLOCK_RECORD
  5
1
330
0
100
AcDbSymbolTable
 70
     1
  0
BLOCK_RECORD
  5
1F
330
1
100
AcDbSymbolTableRecord
100
AcDbBlockTableRecord
  2
*Model_Space
340
22
 70
     0
280
     1
281
     0
  0
BLOCK_RECORD
  5
1B
330
1
100
AcDbSymbolTableRecord
100
AcDbBlockTableRecord
  2
*Paper_Space
340
1E
 70
     0
280
     1
281
     0
  0
BLOCK_RECORD
  5
23
330
1
100
AcDbSymbolTableRecord
100
AcDbBlockTableRecord
  2
*Paper_Space0
340
26
 70
     0
280
     1
281
     0
  0
ENDTAB
  0
ENDSEC
  0
SECTION
  2
BLOCKS
  0
BLOCK
  5
20
330
1F
100
AcDbEntity
  8
0
100
AcDbBlockBegin
  2
*Model_Space
 70
     0
 10
0.0
 20
0.0
 30
0.0
  3
*Model_Space
  1

  0
ENDBLK
  5
21
330
1F
100
AcDbEntity
  8
0
100
AcDbBlockEnd
  0
BLOCK
  5
1C
330
1B
100
AcDbEntity
 67
     1
  8
0
100
AcDbBlockBegin
  2
*Paper_Space
 70
     0
 10
0.0
 20
0.0
 30
0.0
  3
*Paper_Space
  1

  0
ENDBLK
  5
1D
330
1B
100
AcDbEntity
 67
     1
  8
0
100
AcDbBlockEnd
  0
BLOCK
  5
24
330
23
100
AcDbEntity
  8
0
100
AcDbBlockBegin
  2
*Paper_Space0
 70
     0
 10
0.0
 20
0.0
 30
0.0
  3
*Paper_Space0
  1

  0
ENDBLK
  5
25
330
23
100
AcDbEntity
  8
0
100
AcDbBlockEnd
  0
ENDSEC
  0
SECTION
  2
ENTITIES
  0
SPLINE
  5
41
330
1F
100
AcDbEntity
  8
_U+0421_U+043B_U+043E_U+0439 1
370
     0
100
AcDbSpline
210
0.0
220
0.0
230
1.0
 70
    11
 71
     3
 72
   578
 73
   574
 74
     0
 42
0.0000000001
 43
0.0000000001
 12
1.0
 22
0.0
 32
0.0
 13
1.0
 23
0.0
 33
0.0
 40
0.0
 40
0.0
 40
0.0
 40
0.0
 40
1.0
 40
1.0
 40
1.0
 40
2.0
 40
2.0
 40
2.0
 40
3.0
 40
3.0
 40
3.0
 40
4.0
 40
4.0
 40
4.0
 40
5.0
 40
5.0
 40
5.0
 40
6.0
 40
6.0
 40
6.0
 40
7.0
 40
7.0
 40
7.0
 40
8.0
 40
8.0
 40
8.0
 40
9.0
 40
9.0
 40
9.0
 40
10.0
 40
10.0
 40
10.0
 40
11.0
 40
11.0
 40
11.0
 40
12.0
 40
12.0
 40
12.0
 40
13.0
 40
13.0
 40
13.0
 40
14.0
 40
14.0
 40
14.0
 40
15.0
 40
15.0
 40
15.0
 40
16.0
 40
16.0
 40
16.0
 40
17.0
 40
17.0
 40
17.0
 40
18.0
 40
18.0
 40
18.0
 40
19.0
 40
19.0
 40
19.0
 40
20.0
 40
20.0
 40
20.0
 40
21.0
 40
21.0
 40
21.0
 40
22.0
 40
22.0
 40
22.0
 40
23.0
 40
23.0
 40
23.0
 40
24.0
 40
24.0
 40
24.0
 40
25.0
 40
25.0
 40
25.0
 40
26.0
 40
26.0
 40
26.0
 40
27.0
 40
27.0
 40
27.0
 40
28.0
 40
28.0
 40
28.0
 40
29.0
 40
29.0
 40
29.0
 40
30.0
 40
30.0
 40
30.0
 40
31.0
 40
31.0
 40
31.0
 40
32.0
 40
32.0
 40
32.0
 40
33.0
 40
33.0
 40
33.0
 40
34.0
 40
34.0
 40
34.0
 40
35.0
 40
35.0
 40
35.0
 40
36.0
 40
36.0
 40
36.0
 40
37.0
 40
37.0
 40
37.0
 40
38.0
 40
38.0
 40
38.0
 40
39.0
 40
39.0
 40
39.0
 40
40.0
 40
40.0
 40
40.0
 40
41.0
 40
41.0
 40
41.0
 40
42.0
 40
42.0
 40
42.0
 40
43.0
 40
43.0
 40
43.0
 40
44.0
 40
44.0
 40
44.0
 40
45.0
 40
45.0
 40
45.0
 40
46.0
 40
46.0
 40
46.0
 40
47.0
 40
47.0
 40
47.0
 40
48.0
 40
48.0
 40
48.0
 40
49.0
 40
49.0
 40
49.0
 40
50.0
 40
50.0
 40
50.0
 40
51.0
 40
51.0
 40
51.0
 40
52.0
 40
52.0
 40
52.0
 40
53.0
 40
53.0
 40
53.0
 40
54.0
 40
54.0
 40
54.0
 40
55.0
 40
55.0
 40
55.0
 40
56.0
 40
56.0
 40
56.0
 40
57.0
 40
57.0
 40
57.0
 40
58.0
 40
58.0
 40
58.0
 40
59.0
 40
59.0
 40
59.0
 40
60.0
 40
60.0
 40
60.0
 40
61.0
 40
61.0
 40
61.0
 40
62.0
 40
62.0
 40
62.0
 40
63.0
 40
63.0
 40
63.0
 40
64.0
 40
64.0
 40
64.0
 40
65.0
 40
65.0
 40
65.0
 40
66.0
 40
66.0
 40
66.0
 40
67.0
 40
67.0
 40
67.0
 40
68.0
 40
68.0
 40
68.0
 40
69.0
 40
69.0
 40
69.0
 40
70.0
 40
70.0
 40
70.0
 40
71.0
 40
71.0
 40
71.0
 40
72.0
 40
72.0
 40
72.0
 40
73.0
 40
73.0
 40
73.0
 40
74.0
 40
74.0
 40
74.0
 40
75.0
 40
75.0
 40
75.0
 40
76.0
 40
76.0
 40
76.0
 40
77.0
 40
77.0
 40
77.0
 40
78.0
 40
78.0
 40
78.0
 40
79.0
 40
79.0
 40
79.0
 40
80.0
 40
80.0
 40
80.0
 40
81.0
 40
81.0
 40
81.0
 40
82.0
 40
82.0
 40
82.0
 40
83.0
 40
83.0
 40
83.0
 40
84.0
 40
84.0
 40
84.0
 40
85.0
 40
85.0
 40
85.0
 40
86.0
 40
86.0
 40
86.0
 40
87.0
 40
87.0
 40
87.0
 40
88.0
 40
88.0
 40
88.0
 40
89.0
 40
89.0
 40
89.0
 40
90.0
 40
90.0
 40
90.0
 40
91.0
 40
91.0
 40
91.0
 40
92.0
 40
92.0
 40
92.0
 40
93.0
 40
93.0
 40
93.0
 40
94.0
 40
94.0
 40
94.0
 40
95.0
 40
95.0
 40
95.0
 40
96.0
 40
96.0
 40
96.0
 40
97.0
 40
97.0
 40
97.0
 40
98.0
 40
98.0
 40
98.0
 40
99.0
 40
99.0
 40
99.0
 40
100.0
 40
100.0
 40
100.0
 40
101.0
 40
101.0
 40
101.0
 40
102.0
 40
102.0
 40
102.0
 40
103.0
 40
103.0
 40
103.0
 40
104.0
 40
104.0
 40
104.0
 40
105.0
 40
105.0
 40
105.0
 40
106.0
 40
106.0
 40
106.0
 40
107.0
 40
107.0
 40
107.0
 40
108.0
 40
108.0
 40
108.0
 40
109.0
 40
109.0
 40
109.0
 40
110.0
 40
110.0
 40
110.0
 40
111.0
 40
111.0
 40
111.0
 40
112.0
 40
112.0
 40
112.0
 40
113.0
 40
113.0
 40
113.0
 40
114.0
 40
114.0
 40
114.0
 40
115.0
 40
115.0
 40
115.0
 40
116.0
 40
116.0
 40
116.0
 40
117.0
 40
117.0
 40
117.0
 40
118.0
 40
118.0
 40
118.0
 40
119.0
 40
119.0
 40
119.0
 40
120.0
 40
120.0
 40
120.0
 40
121.0
 40
121.0
 40
121.0
 40
122.0
 40
122.0
 40
122.0
 40
123.0
 40
123.0
 40
123.0
 40
124.0
 40
124.0
 40
124.0
 40
125.0
 40
125.0
 40
125.0
 40
126.0
 40
126.0
 40
126.0
 40
127.0
 40
127.0
 40
127.0
 40
128.0
 40
128.0
 40
128.0
 40
129.0
 40
129.0
 40
129.0
 40
130.0
 40
130.0
 40
130.0
 40
131.0
 40
131.0
 40
131.0
 40
132.0
 40
132.0
 40
132.0
 40
133.0
 40
133.0
 40
133.0
 40
134.0
 40
134.0
 40
134.0
 40
135.0
 40
135.0
 40
135.0
 40
136.0
 40
136.0
 40
136.0
 40
137.0
 40
137.0
 40
137.0
 40
138.0
 40
138.0
 40
138.0
 40
139.0
 40
139.0
 40
139.0
 40
140.0
 40
140.0
 40
140.0
 40
141.0
 40
141.0
 40
141.0
 40
142.0
 40
142.0
 40
142.0
 40
143.0
 40
143.0
 40
143.0
 40
144.0
 40
144.0
 40
144.0
 40
145.0
 40
145.0
 40
145.0
 40
146.0
 40
146.0
 40
146.0
 40
147.0
 40
147.0
 40
147.0
 40
148.0
 40
148.0
 40
148.0
 40
149.0
 40
149.0
 40
149.0
 40
150.0
 40
150.0
 40
150.0
 40
151.0
 40
151.0
 40
151.0
 40
152.0
 40
152.0
 40
152.0
 40
153.0
 40
153.0
 40
153.0
 40
154.0
 40
154.0
 40
154.0
 40
155.0
 40
155.0
 40
155.0
 40
156.0
 40
156.0
 40
156.0
 40
157.0
 40
157.0
 40
157.0
 40
158.0
 40
158.0
 40
158.0
 40
159.0
 40
159.0
 40
159.0
 40
160.0
 40
160.0
 40
160.0
 40
161.0
 40
161.0
 40
161.0
 40
162.0
 40
162.0
 40
162.0
 40
163.0
 40
163.0
 40
163.0
 40
164.0
 40
164.0
 40
164.0
 40
165.0
 40
165.0
 40
165.0
 40
166.0
 40
166.0
 40
166.0
 40
167.0
 40
167.0
 40
167.0
 40
168.0
 40
168.0
 40
168.0
 40
169.0
 40
169.0
 40
169.0
 40
170.0
 40
170.0
 40
170.0
 40
171.0
 40
171.0
 40
171.0
 40
172.0
 40
172.0
 40
172.0
 40
173.0
 40
173.0
 40
173.0
 40
174.0
 40
174.0
 40
174.0
 40
175.0
 40
175.0
 40
175.0
 40
176.0
 40
176.0
 40
176.0
 40
177.0
 40
177.0
 40
177.0
 40
178.0
 40
178.0
 40
178.0
 40
179.0
 40
179.0
 40
179.0
 40
180.0
 40
180.0
 40
180.0
 40
181.0
 40
181.0
 40
181.0
 40
182.0
 40
182.0
 40
182.0
 40
183.0
 40
183.0
 40
183.0
 40
184.0
 40
184.0
 40
184.0
 40
185.0
 40
185.0
 40
185.0
 40
186.0
 40
186.0
 40
186.0
 40
187.0
 40
187.0
 40
187.0
 40
188.0
 40
188.0
 40
188.0
 40
189.0
 40
189.0
 40
189.0
 40
190.0
 40
190.0
 40
190.0
 40
191.0
 40
191.0
 40
191.0
 40
191.0
 10
1606.572726462642
 20
673.5255756899732
 30
0.0
 10
1606.82445528338
 20
674.4403615835026
 30
0.0
 10
1607.076200253003
 20
675.3551636259172
 30
0.0
 10
1607.403279771557
 20
676.5437700149836
 30
0.0
 10
1606.528090944261
 20
676.1953901169994
 30
0.0
 10
1606.021355079113
 20
675.9936905422614
 30
0.0
 10
1605.369586076997
 20
675.734242554452
 30
0.0
 10
1605.369586076997
 20
676.740899455242
 30
0.0
 10
1605.369586076997
 20
677.5934717689734
 30
0.0
 10
1605.369586076997
 20
678.6032131068149
 30
0.0
 10
1605.004201403016
 20
678.5078458659331
 30
0.0
 10
1604.750421673872
 20
678.4416031393057
 30
0.0
 10
1604.449713284665
 20
678.3631195577824
 30
0.0
 10
1603.730974856093
 20
679.5159884641511
 30
0.0
 10
1604.97805635806
 20
681.6583641553473
 30
0.0
 10
1603.049007438864
 20
682.0315083686125
 30
0.0
 10
1601.873998411041
 20
682.2588120006561
 30
0.0
 10
1600.241007002148
 20
682.3159144583241
 30
0.0
 10
1599.466619515566
 20
680.6447309361996
 30
0.0
 10
1599.079320804522
 20
680.9257538344855
 30
0.0
 10
1598.792177478788
 20
681.1340986754368
 30
0.0
 10
1598.442877094354
 20
681.387555426879
 30
0.0
 10
1597.868138274104
 20
680.4045566427416
 30
0.0
 10
1597.747376911422
 20
679.4468793104207
 30
0.0
 10
1598.545341770231
 20
678.6964809926355
 30
0.0
 10
1599.340012256483
 20
677.9491751863445
 30
0.0
 10
1600.827227679695
 20
678.2660566839663
 30
0.0
 10
1601.636012291513
 20
679.2183968097659
 30
0.0
 10
1601.919312182596
 20
679.5519843290102
 30
0.0
 10
1602.124774447559
 20
679.9505468874027
 30
0.0
 10
1602.381412529363
 20
680.3082366176395
 30
0.0
 10
1602.601376493135
 20
680.6148232010182
 30
0.0
 10
1602.843609769442
 20
680.9054062392757
 30
0.0
 10
1603.22422284206
 20
681.3929007078428
 30
0.0
 10
1604.251550315761
 20
679.1260009637399
 30
0.0
 10
1603.467731880288
 20
677.3508912916374
 30
0.0
 10
1602.438692624768
 20
675.6450845598861
 30
0.0
 10
1601.871446887198
 20
674.704783427919
 30
0.0
 10
1601.159943159145
 20
673.8525421663319
 30
0.0
 10
1600.534399946411
 20
672.9461375441626
 30
0.0
 10
1599.577594653884
 20
671.5597396105493
 30
0.0
 10
1599.641302005553
 20
671.0140364856858
 30
0.0
 10
1600.9569516736
 20
669.5485736106859
 30
0.0
 10
1601.389176582956
 20
669.9456746949779
 30
0.0
 10
1601.821433790083
 20
670.342791928155
 30
0.0
 10
1602.345303622309
 20
670.8240932992911
 30
0.0
 10
1602.524233269074
 20
670.4396690897926
 30
0.0
 10
1602.662241641028
 20
670.1431432618231
 30
0.0
 10
1602.82750933101
 20
669.7880938742978
 30
0.0
 10
1603.076266756892
 20
669.9897773001508
 30
0.0
 10
1603.321697512446
 20
670.1887638621942
 30
0.0
 10
1603.616543856366
 20
670.4277996592535
 30
0.0
 10
1603.919577685025
 20
668.5419651565511
 30
0.0
 10
1604.735338615201
 20
667.5656197130696
 30
0.0
 10
1606.046111319951
 20
667.41457919085
 30
0.0
 10
1606.271323671376
 20
665.224241310945
 30
0.0
 10
1606.339924135226
 20
665.1688667839813
 30
0.0
 10
1608.464600648367
 20
665.7330603822696
 30
0.0
 10
1607.995071814459
 20
664.679571714727
 30
0.0
 10
1607.588636674587
 20
663.767628024973
 30
0.0
 10
1607.182201534714
 20
662.8557004841039
 30
0.0
 10
1607.285473654847
 20
662.7925421945282
 30
0.0
 10
1607.388729626093
 20
662.7293839049526
 30
0.0
 10
1607.492001746225
 20
662.6662094664918
 30
0.0
 10
1608.717056168934
 20
664.3431904383625
 30
0.0
 10
1609.942110591641
 20
666.0201875591184
 30
0.0
 10
1611.167181163235
 20
667.6971685309892
 30
0.0
 10
1611.963111262523
 20
665.1661699201718
 30
0.0
 10
1610.066973771135
 20
663.5789283027301
 30
0.0
 10
1609.272642411471
 20
661.5660505210474
 30
0.0
 10
1610.140903367064
 20
662.3230618072757
 30
0.0
 10
1611.009164322657
 20
663.0800569446191
 30
0.0
 10
1611.877425278251
 20
663.8370520819624
 30
0.0
 10
1611.947592183954
 20
663.7882017045739
 30
0.0
 10
1612.017775238543
 20
663.7393674760705
 30
0.0
 10
1612.087958293132
 20
663.690517098682
 30
0.0
 10
1611.978468852241
 20
663.2544972013301
 30
0.0
 10
1611.86897941135
 20
662.818477303978
 30
0.0
 10
1611.726239416065
 20
662.2500688466821
 30
0.0
 10
1612.128088272573
 20
662.3559086395429
 30
0.0
 10
1612.469281916693
 20
662.4457610361676
 30
0.0
 10
1613.002937973282
 20
662.5863047830808
 30
0.0
 10
1612.756925857865
 20
662.1163722270459
 30
0.0
 10
1612.602510218662
 20
661.8214128409298
 30
0.0
 10
1612.392736201381
 20
661.4207267041485
 30
0.0
 10
1612.775674713451
 20
661.4984674369579
 30
0.0
 10
1613.085878647089
 20
661.5614480887975
 30
0.0
 10
1613.445272084703
 20
661.6344087516211
 30
0.0
 10
1613.445272084703
 20
661.3727645154398
 30
0.0
 10
1613.445272084703
 20
661.1458080844255
 30
0.0
 10
1613.445272084703
 20
660.801982172036
 30
0.0
 10
1614.117211044292
 20
661.1040470675903
 30
0.0
 10
1614.692983393188
 20
661.3628813977665
 30
0.0
 10
1615.410995121931
 20
661.6856653128876
 30
0.0
 10
1615.20592043021
 20
660.0946610052206
 30
0.0
 10
1614.15656587725
 20
659.2834863584101
 30
0.0
 10
1613.191815333261
 20
658.424204182925
 30
0.0
 10
1612.898147857952
 20
658.162624542284
 30
0.0
 10
1612.418235290933
 20
658.0323030396311
 30
0.0
 10
1612.250690608154
 20
657.7200320487016
 30
0.0
 10
1611.387532700248
 20
656.1111509252431
 30
0.0
 10
1610.102178340625
 20
656.2729466049309
 30
0.0
 10
1608.625508139375
 20
656.625202235336
 30
0.0
 10
1605.924897788487
 20
657.2694458570011
 30
0.0
 10
1604.422793093225
 20
656.1587578384799
 30
0.0
 10
1604.164750058418
 20
653.3191540336478
 30
0.0
 10
1602.117814278087
 20
655.7992190609006
 30
0.0
 10
1599.732074888628
 20
657.8520330354037
 30
0.0
 10
1598.247233351523
 20
660.6426895695367
 30
0.0
 10
1598.048004556204
 20
661.0171014702813
 30
0.0
 10
1597.976997908476
 20
661.4837235048733
 30
0.0
 10
1597.93895113521
 20
661.9157869253789
 30
0.0
 10
1597.757631453452
 20
663.9750443050317
 30
0.0
 10
1597.184733606102
 20
665.0365428195776
 30
0.0
 10
1595.398973744285
 20
666.4571279429204
 30
0.0
 10
1595.335330988156
 20
666.0180236085167
 30
0.0
 10
1595.276161473197
 20
665.6097797935147
 30
0.0
 10
1595.216991958238
 20
665.2015198296275
 30
0.0
 10
1595.09138593003
 20
665.1674295332085
 30
0.0
 10
1594.965779901823
 20
665.1333392367897
 30
0.0
 10
1594.84015772473
 20
665.0992327914857
 30
0.0
 10
1594.584601618227
 20
665.835460462607
 30
0.0
 10
1594.230375823841
 20
666.5537305735114
 30
0.0
 10
1594.092593536278
 20
667.3113555173732
 30
0.0
 10
1593.729550450635
 20
669.3077614362669
 30
0.0
 10
1593.766983566266
 20
669.3145762657737
 30
0.0
 10
1591.746451213053
 20
669.3357313052378
 30
0.0
 10
1591.920423152096
 20
671.2374563108659
 30
0.0
 10
1592.463962326358
 20
672.8969480401873
 30
0.0
 10
1593.990581029183
 20
674.1959643565943
 30
0.0
 10
1594.801497293832
 20
674.8859739185963
 30
0.0
 10
1595.426846719945
 20
675.7940741736998
 30
0.0
 10
1595.964297764529
 20
676.4077318070098
 30
0.0
 10
1595.361653670848
 20
677.1586872613306
 30
0.0
 10
1594.960612258595
 20
677.6583983614661
 30
0.0
 10
1594.68711474076
 20
677.9991882834593
 30
0.0
 10
1594.064090754099
 20
677.8702959571366
 30
0.0
 10
1593.451079076192
 20
677.7434706881049
 30
0.0
 10
1592.682198359425
 20
677.5843960955543
 30
0.0
 10
1592.682198359425
 20
677.4555279925593
 30
0.0
 10
1592.682198359425
 20
677.0090516921134
 30
0.0
 10
1592.682198359425
 20
676.3542466996013
 30
0.0
 10
1592.195810089486
 20
676.6652257797238
 30
0.0
 10
1591.844507243301
 20
676.8898244735153
 30
0.0
 10
1591.493236694887
 20
677.114455465077
 30
0.0
 10
1590.052142487483
 20
678.0360158159004
 30
0.0
 10
1588.57111208726
 20
677.4399927651054
 30
0.0
 10
1588.165581284952
 20
675.7522970079793
 30
0.0
 10
1587.961846950693
 20
674.904448243136
 30
0.0
 10
1588.087937445453
 20
673.7417446657493
 30
0.0
 10
1587.567765707912
 20
673.2725226606582
 30
0.0
 10
1587.058736701081
 20
672.8133614109764
 30
0.0
 10
1585.915121105868
 20
673.0791882083953
 30
0.0
 10
1585.055596697106
 20
672.979000525315
 30
0.0
 10
1584.533341753389
 20
672.9181353774217
 30
0.0
 10
1584.021309053932
 20
672.6761281855062
 30
0.0
 10
1583.505206835433
 20
672.6777915206702
 30
0.0
 10
1582.769964246302
 20
672.680165406778
 30
0.0
 10
1582.036530332301
 20
672.8451424168279
 30
0.0
 10
1581.299931236823
 20
672.9159068312796
 30
0.0
 10
1580.306855548391
 20
673.0113305932593
 30
0.0
 10
1579.310663125138
 20
673.1537314619575
 30
0.0
 10
1578.31740979897
 20
673.1417974358781
 30
0.0
 10
1577.585445433512
 20
673.1329962935056
 30
0.0
 10
1576.856064889667
 20
672.9093826817044
 30
0.0
 10
1575.791627278036
 20
672.7230406966843
 30
0.0
 10
1576.331371464302
 20
673.361454570833
 30
0.0
 10
1576.638248727612
 20
673.8161748771157
 30
0.0
 10
1577.031877801611
 20
674.1759720368565
 30
0.0
 10
1581.648246539267
 20
678.3956837845606
 30
0.0
 10
1586.297962724628
 20
682.5790928385887
 30
0.0
 10
1590.896632284228
 20
686.8179248662359
 30
0.0
 10
1594.072746556506
 20
689.745515871465
 30
0.0
 10
1597.178387094263
 20
692.7494991775989
 30
0.0
 10
1600.325336480073
 20
695.7088954120071
 30
0.0
 10
1601.463073881115
 20
696.7788236445684
 30
0.0
 10
1602.157249855469
 20
698.0777107698948
 30
0.0
 10
1602.336082608924
 20
699.6173051018869
 30
0.0
 10
1602.566462603577
 20
701.600686944958
 30
0.0
 10
1601.827861046348
 20
702.9557883392725
 30
0.0
 10
1599.917447940543
 20
703.6782248625294
 30
0.0
 10
1594.936582717585
 20
705.5617581491069
 30
0.0
 10
1589.955265325846
 20
707.454601267937
 30
0.0
 10
1584.913018190672
 20
709.1633793945443
 30
0.0
 10
1571.911566955926
 20
713.5694573505962
 30
0.0
 10
1558.875621702634
 20
717.8736439161909
 30
0.0
 10
1545.857698605099
 20
722.2312025469985
 30
0.0
 10
1544.23011707271
 20
722.7760013342971
 30
0.0
 10
1542.657748578433
 20
723.5049862304569
 30
0.0
 10
1541.007574755807
 20
723.9586810825366
 30
0.0
 10
1538.217160454951
 20
724.7258419430423
 30
0.0
 10
1535.342949589377
 20
725.2047290558579
 30
0.0
 10
1532.581570983906
 20
726.0564697020073
 30
0.0
 10
1529.432360754184
 20
727.0278332144394
 30
0.0
 10
1526.355707465159
 20
728.2418660230755
 30
0.0
 10
1523.269639376127
 20
729.4089459483209
 30
0.0
 10
1517.838058770389
 20
731.4630276103032
 30
0.0
 10
1512.425994092278
 20
733.5686968856965
 30
0.0
 10
1506.997183020332
 20
735.6301908859339
 30
0.0
 10
1506.470204527727
 20
735.8302917210482
 30
0.0
 10
1505.879219929079
 20
735.8559603738942
 30
0.0
 10
1505.324965969562
 20
735.9913284031369
 30
0.0
 10
1504.132233540356
 20
736.2826300667807
 30
0.0
 10
1502.618364382307
 20
735.8079255152026
 30
0.0
 10
1501.967620834394
 20
737.4345300400441
 30
0.0
 10
1501.886456537947
 20
737.6374084833935
 30
0.0
 10
1501.433746767857
 20
737.698305929057
 30
0.0
 10
1501.14786305516
 20
737.8115580601728
 30
0.0
 10
1498.978922447996
 20
738.6707271934623
 30
0.0
 10
1496.822376110136
 20
739.563502156618
 30
0.0
 10
1494.635800920456
 20
740.3753631310448
 30
0.0
 10
1490.678492406532
 20
741.8447017384656
 30
0.0
 10
1487.533626226899
 20
744.3432007180452
 30
0.0
 10
1485.515362792039
 20
748.0240766542689
 30
0.0
 10
1483.490817440881
 20
751.7163860011343
 30
0.0
 10
1480.526188967705
 20
753.9693694435134
 30
0.0
 10
1476.483646638291
 20
754.9306076049959
 30
0.0
 10
1475.522804124494
 20
755.1590739567657
 30
0.0
 10
1474.46766019623
 20
755.2648087818736
 30
0.0
 10
1474.200105468106
 20
756.5655974384189
 30
0.0
 10
1474.13726208179
 20
756.8710939720543
 30
0.0
 10
1473.676405199174
 20
757.1788876845933
 30
0.0
 10
1473.330641420574
 20
757.3288462315122
 30
0.0
 10
1470.310493080468
 20
758.6387186359191
 30
0.0
 10
1467.331831226151
 20
760.0797078755694
 30
0.0
 10
1464.224454683247
 20
761.1409318590687
 30
0.0
 10
1462.041811747086
 20
761.8863442085833
 30
0.0
 10
1460.042377912238
 20
762.7321541766844
 30
0.0
 10
1458.51981257957
 20
764.5012362774282
 30
0.0
 10
1457.338033131675
 20
765.8743517530575
 30
0.0
 10
1456.022601473577
 20
766.8265949855464
 30
0.0
 10
1454.035388307519
 20
766.3044450095824
 30
0.0
 10
1453.611358957344
 20
766.193025776924
 30
0.0
 10
1452.981241572909
 20
766.4746542584006
 30
0.0
 10
1452.571875410393
 20
766.7573727896206
 30
0.0
 10
1446.406768034564
 20
771.0151272733685
 30
0.0
 10
1439.490854581602
 20
773.8357521010021
 30
0.0
 10
1432.802151904593
 20
777.084294122895
 30
0.0
 10
1430.956257631932
 20
777.9808035157271
 30
0.0
 10
1428.938551333609
 20
778.5178992848392
 30
0.0
 10
1427.062539390261
 20
779.3599606929895
 30
0.0
 10
1425.725791203848
 20
779.9599704997904
 30
0.0
 10
1424.494248966556
 20
780.7943672433562
 30
0.0
 10
1423.215757883095
 20
781.5241636209915
 30
0.0
 10
1423.293446132027
 20
781.6738637857491
 30
0.0
 10
1423.37113438096
 20
781.8235659691172
 30
0.0
 10
1423.448824648504
 20
781.9732661338746
 30
0.0
 10
1424.360261666988
 20
781.5275387379747
 30
0.0
 10
1425.29191103377
 20
781.1183764551333
 30
0.0
 10
1426.178706872222
 20
780.6280821736143
 30
0.0
 10
1427.773950262224
 20
779.7461047587499
 30
0.0
 10
1429.382145058066
 20
779.0445285578043
 30
0.0
 10
1431.282125984105
 20
779.0527947683582
 30
0.0
 10
1432.006197581977
 20
779.0559458195609
 30
0.0
 10
1432.735969736285
 20
778.5185169796938
 30
0.0
 10
1433.457473661428
 20
778.21400956527
 30
0.0
 10
1437.629094029343
 20
776.4533854430905
 30
0.0
 10
1441.798768456604
 20
774.6881629258825
 30
0.0
 10
1445.972322653508
 20
772.9321412359528
 30
0.0
 10
1446.023462135358
 20
772.9106268837955
 30
0.0
 10
1446.116956105569
 20
772.9897887184926
 30
0.0
 10
1446.344610975864
 20
773.0891205106634
 30
0.0
 10
1445.592319201302
 20
773.6459986640073
 30
0.0
 10
1444.90246709093
 20
774.1566546710105
 30
0.0
 10
1444.212619017778
 20
774.6673106780138
 30
0.0
 10
1444.266915606663
 20
774.7528715084266
 30
0.0
 10
1444.321208158326
 20
774.838428301618
 30
0.0
 10
1444.375500709989
 20
774.9239891320308
 30
0.0
 10
1445.765269723364
 20
774.2969400357622
 30
0.0
 10
1447.399839685774
 20
773.9474054924943
 30
0.0
 10
1448.49250958576
 20
772.9835471744065
 30
0.0
 10
1450.596341925474
 20
771.1277374863023
 30
0.0
 10
1453.017560415469
 20
770.3176528892351
 30
0.0
 10
1455.661177313663
 20
769.9353966675594
 30
0.0
 10
1457.314056074541
 20
769.6964012427127
 30
0.0
 10
1458.708649567337
 20
769.1684376681173
 30
0.0
 10
1460.013414886835
 20
768.0012285517913
 30
0.0
 10
1461.883698013198
 20
766.3281273495627
 30
0.0
 10
1464.397247753679
 20
765.9756335231026
 30
0.0
 10
1467.066351629761
 20
765.1353626225863
 30
0.0
 10
1466.534278163911
 20
767.7533270168191
 30
0.0
 10
1464.47575555853
 20
768.7384978260008
 30
0.0
 10
1463.338938643938
 20
770.5240194917633
 30
0.0
 10
1463.742394314512
 20
770.2905066134036
 30
0.0
 10
1464.186690515471
 20
770.1067968966527
 30
0.0
 10
1464.542426230612
 20
769.8150915108818
 30
0.0
 10
1466.346224397072
 20
768.3359464929918
 30
0.0
 10
1468.093622582365
 20
766.7886006961578
 30
0.0
 10
1470.369057012236
 20
766.0194091133525
 30
0.0
 10
1470.803615435488
 20
765.8725148173788
 30
0.0
 10
1471.213264203493
 20
765.5151440276223
 30
0.0
 10
1471.522806032842
 20
765.1581164016741
 30
0.0
 10
1473.13892185682
 20
763.2940425216266
 30
0.0
 10
1475.370051820455
 20
762.4928882580125
 30
0.0
 10
1477.481308610088
 20
761.3878281259442
 30
0.0
 10
1480.953173563851
 20
759.5705981243132
 30
0.0
 10
1485.054740068257
 20
759.3749705303679
 30
0.0
 10
1488.266494929922
 20
756.9848063463952
 30
0.0
 10
1488.503504041903
 20
756.80841611181
 30
0.0
 10
1488.83433817624
 20
756.69486522632
 30
0.0
 10
1489.129523646747
 20
756.675837802466
 30
0.0
 10
1489.499744911812
 20
756.6519778247499
 30
0.0
 10
1489.878210182713
 20
756.7559766447108
 30
0.0
 10
1490.253114624453
 20
756.8047947243292
 30
0.0
 10
1490.138304125926
 20
757.1912092839148
 30
0.0
 10
1490.12561917669
 20
757.6610812816306
 30
0.0
 10
1489.890321846528
 20
757.9490482005039
 30
0.0
 10
1489.045605965392
 20
758.9828069676913
 30
0.0
 10
1488.428888118358
 20
760.272965620628
 30
0.0
 10
1486.918910841615
 20
760.6161334659504
 30
0.0
 10
1486.640415243846
 20
760.6794249838281
 30
0.0
 10
1486.41548549791
 20
761.1892129882579
 30
0.0
 10
1486.256435128687
 20
761.5346336030499
 30
0.0
 10
1484.692617469064
 20
764.9308571790644
 30
0.0
 10
1482.431862375737
 20
767.7391038862786
 30
0.0
 10
1479.350396718955
 20
769.8823758405971
 30
0.0
 10
1479.016704231958
 20
770.1144676170691
 30
0.0
 10
1478.804112234228
 20
770.5206766725502
 30
0.0
 10
1478.657771037569
 20
770.9769149740312
 30
0.0
 10
1480.890863090742
 20
770.4579584400932
 30
0.0
 10
1482.674216768682
 20
769.2759609822485
 30
0.0
 10
1484.324826611205
 20
767.7942523288511
 30
0.0
 10
1486.083932738186
 20
766.215145712272
 30
0.0
 10
1487.908094648741
 20
764.7011675492492
 30
0.0
 10
1489.785943527768
 20
763.2661937692939
 30
0.0
 10
1490.340173263957
 20
762.8426811834419
 30
0.0
 10
1491.164218572182
 20
762.6327416400882
 30
0.0
 10
1491.879807968162
 20
762.5920181891198
 30
0.0
 10
1493.004747377773
 20
762.5279999714132
 30
0.0
 10
1493.677574526042
 20
762.011150866979
 30
0.0
 10
1494.392921688746
 20
761.1756559992273
 30
0.0
 10
1495.558895415363
 20
759.8138366687165
 30
0.0
 10
1496.979060667693
 20
758.6732812872267
 30
0.0
 10
1498.232545202597
 20
757.381697495181
 30
0.0
 10
1499.387368124061
 20
756.19177497198
 30
0.0
 10
1500.602313344705
 20
755.022547245018
 30
0.0
 10
1501.545061032763
 20
753.6726094567101
 30
0.0
 10
1503.301268434871
 20
751.157836438184
 30
0.0
 10
1505.819460979814
 20
750.0975571644622
 30
0.0
 10
1508.65329963267
 20
749.5640666339458
 30
0.0
 10
1510.116945758098
 20
749.2885222449257
 30
0.0
 10
1511.638009244452
 20
749.2881225600198
 30
0.0
 10
1513.080468032646
 20
748.9431823745591
 30
0.0
 10
1513.742362385711
 20
748.7849031145992
 30
0.0
 10
1514.639812451099
 20
748.202424941171
 30
0.0
 10
1514.807655888252
 20
747.6297774015395
 30
0.0
 10
1515.559031213585
 20
745.0661782289525
 30
0.0
 10
1517.345897274031
 20
743.7951883026142
 30
0.0
 10
1519.696819667242
 20
742.8792396893584
 30
0.0
 10
1522.442501556408
 20
741.809472945648
 30
0.0
 10
1525.090514988567
 20
740.4906661705668
 30
0.0
 10
1527.795735846146
 20
739.3140261053499
 30
0.0
 10
1528.317958492093
 20
739.0868839621571
 30
0.0
 10
1528.908571666384
 20
739.0170319597128
 30
0.0
 10
1529.800087016503
 20
738.7899382631754
 30
0.0
 10
1529.519467840344
 20
739.6851274846516
 30
0.0
 10
1529.357106949678
 20
740.203078750493
 30
0.0
 10
1529.122140671661
 20
740.952613102926
 30
0.0
 10
1529.54097815528
 20
740.7172673261091
 30
0.0
 10
1529.863406794929
 20
740.6198007301658
 30
0.0
 10
1530.068400742225
 20
740.4084602710308
 30
0.0
 10
1533.620800185917
 20
736.7461030687807
 30
0.0
 10
1538.251234602484
 20
735.0350721727037
 30
0.0
 10
1542.843977521258
 20
733.19624707449
 30
0.0
 10
1548.150226629835
 20
731.0717401246427
 30
0.0
 10
1553.377539988107
 20
728.7507981365958
 30
0.0
 10
1558.658935962535
 20
726.5629633338793
 30
0.0
 10
1559.557476077667
 20
726.1907476815067
 30
0.0
 10
1560.555509473821
 20
726.0587386203621
 30
0.0
 10
1561.507566994131
 20
725.8157624953415
 30
0.0
 10
1561.628118421306
 20
725.9804811232299
 30
0.0
 10
1561.748653699597
 20
726.1451916766758
 30
0.0
 10
1561.869205126772
 20
726.3099103045644
 30
0.0
 10
1561.067186897806
 20
727.2284346649915
 30
0.0
 10
1560.236762779971
 20
728.1240033852673
 30
0.0
 10
1559.4709180536
 20
729.0717653021446
 30
0.0
 10
1558.661794315196
 20
730.0730849964133
 30
0.0
 10
1557.914197828973
 20
731.1241351823078
 30
0.0
 10
1557.293499281765
 20
732.357288270887
 30
0.0
 10
1558.013723407765
 20
731.9093908685535
 30
0.0
 10
1558.754085193469
 20
731.4905695338193
 30
0.0
 10
1559.450651202816
 20
731.0085010906415
 30
0.0
 10
1562.349795946964
 20
729.0021555329766
 30
0.0
 10
1565.213009421794
 20
726.9430838655023
 30
0.0
 10
1568.135376262697
 20
724.9714987829874
 30
0.0
 10
1569.77379369698
 20
723.8661479709875
 30
0.0
 10
1571.838493250907
 20
723.5231375772947
 30
0.0
 10
1573.34986740621
 20
722.1561829013262
 30
0.0
 10
1573.64096720879
 20
721.8929076277511
 30
0.0
 10
1574.087419285908
 20
721.7555290623151
 30
0.0
 10
1574.289474136118
 20
721.4469642405132
 30
0.0
 10
1575.929684096645
 20
718.9420137813413
 30
0.0
 10
1578.464994459781
 20
718.4419877779466
 30
0.0
 10
1581.173178637774
 20
718.2444626900036
 30
0.0
 10
1581.526435499055
 20
718.2186971438472
 30
0.0
 10
1581.925635938408
 20
717.9484455519143
 30
0.0
 10
1582.1873770679
 20
717.6787026498619
 30
0.0
 10
1584.595272727698
 20
715.1974103073425
 30
0.0
 10
1587.909831391827
 20
714.7079618236799
 30
0.0
 10
1590.970497284617
 20
713.6774368707312
 30
0.0
 10
1591.310463613471
 20
713.5629816476762
 30
0.0
 10
1591.946665090363
 20
713.7140625421086
 30
0.0
 10
1592.146216863384
 20
713.9727999789743
 30
0.0
 10
1592.339066849094
 20
714.2228250923355
 30
0.0
 10
1592.297451172225
 20
714.8770810227546
 30
0.0
 10
1592.094088262323
 20
715.1699006815967
 30
0.0
 10
1591.294007899567
 20
716.3218975481706
 30
0.0
 10
1590.431592840375
 20
717.4380277409662
 30
0.0
 10
1589.510040563994
 20
718.4958120119419
 30
0.0
 10
1588.817705562539
 20
719.290490572636
 30
0.0
 10
1587.942985052911
 20
719.9272895582759
 30
0.0
 10
1587.259257407208
 20
720.7281208441882
 30
0.0
 10
1586.861526516398
 20
721.1939515834109
 30
0.0
 10
1586.700134558837
 20
721.855619852085
 30
0.0
 10
1586.393951697586
 20
722.4078552009663
 30
0.0
 10
1586.226293972611
 20
722.710251148665
 30
0.0
 10
1586.002793403006
 20
722.9913386424912
 30
0.0
 10
1585.762901715037
 20
723.2423003911874
 30
0.0
 10
1584.880655824958
 20
724.1653383649964
 30
0.0
 10
1584.006645866273
 20
725.0986631786058
 30
0.0
 10
1583.082945788176
 20
725.9792457335208
 30
0.0
 10
1580.570098524196
 20
728.374779421785
 30
0.0
 10
1578.037581918181
 20
730.7497636537759
 30
0.0
 10
1575.498944884717
 20
733.1179815029153
 30
0.0
 10
1575.281806975836
 20
733.320553117448
 30
0.0
 10
1574.961332351282
 20
733.4123676036107
 30
0.0
 10
1574.688868362092
 20
733.555632437661
 30
0.0
 10
1574.815911641072
 20
733.7217479441096
 30
0.0
 10
1574.942954920053
 20
733.8878634505581
 30
0.0
 10
1575.070014347918
 20
734.0539870314492
 30
0.0
 10
1575.766515761725
 20
733.6724453979386
 30
0.0
 10
1576.6091322878
 20
733.4319077545662
 30
0.0
 10
1577.135666686066
 20
732.8863418952258
 30
0.0
 10
1580.39459244107
 20
729.5096584701666
 30
0.0
 10
1584.592624310544
 20
727.4504576116116
 30
0.0
 10
1588.328668875447
 20
724.7474491512888
 30
0.0
 10
1589.107093583301
 20
724.1842648583184
 30
0.0
 10
1589.736108806329
 20
723.4192437250869
 30
0.0
 10
1590.474678065787
 20
722.795444591942
 30
0.0
 10
1593.159607849255
 20
720.5276970313721
 30
0.0
 10
1595.883924763451
 20
718.3059334210877
 30
0.0
 10
1598.539415129404
 20
716.0045315839963
 30
0.0
 10
1599.089849877598
 20
715.5275096674081
 30
0.0
 10
1599.390558266806
 20
714.7698847235464
 30
0.0
 10
1599.838786721283
 20
714.165625741357
 30
0.0
 10
1600.53141240267
 20
713.2318729822928
 30
0.0
 10
1601.09132654641
 20
712.094644271131
 30
0.0
 10
1601.99605168453
 20
711.4464118748493
 30
0.0
 10
1603.592159039884
 20
710.3028205029632
 30
0.0
 10
1605.405743430707
 20
709.4627958729444
 30
0.0
 10
1607.115296703799
 20
708.5029788133496
 30
0.0
 10
1608.22598472232
 20
709.8749719414653
 30
0.0
 10
1608.169285986779
 20
710.1420906496911
 30
0.0
 10
1606.78563336363
 20
710.9899394145345
 30
0.0
 10
1606.539605099328
 20
711.1406892568227
 30
0.0
 10
1606.208052339605
 20
711.6227819233281
 30
0.0
 10
1606.278251543078
 20
711.7467569141419
 30
0.0
 10
1607.092026160388
 20
713.1839269424692
 30
0.0
 10
1606.036018266772
 20
714.1586009763441
 30
0.0
 10
1605.482805910343
 20
715.2568624277907
 30
0.0
 10
1605.371540092093
 20
715.4777953246675
 30
0.0
 10
1605.251860704712
 20
715.6945052880939
 30
0.0
 10
1605.314146954493
 20
716.0949814893692
 30
0.0
 10
1605.66586967169
 20
715.821233663815
 30
0.0
 10
1606.081832653764
 20
715.6003169158233
 30
0.0
 10
1606.358059333179
 20
715.2644766271093
 30
0.0
 10
1607.475772116713
 20
713.9055640959142
 30
0.0
 10
1608.380707190339
 20
712.3177088208391
 30
0.0
 10
1609.681855159578
 20
711.1765801539287
 30
0.0
 10
1611.511814519879
 20
709.5716797306443
 30
0.0
 10
1611.807145330352
 20
707.2300429463583
 30
0.0
 10
1613.021735275523
 20
705.3695298954725
 30
0.0
 10
1613.823672760064
 20
704.1411326535514
 30
0.0
 10
1614.952980443091
 20
703.1261752258266
 30
0.0
 10
1615.937820200128
 20
702.0175219668265
 30
0.0
 10
1617.481411381179
 20
700.2798050381431
 30
0.0
 10
1619.053876768766
 20
698.5667474569876
 30
0.0
 10
1620.56090687398
 20
696.7979197011839
 30
0.0
 10
1621.418041247749
 20
695.7919006813548
 30
0.0
 10
1621.300041344417
 20
694.7416256419446
 30
0.0
 10
1620.555496997476
 20
693.653570285873
 30
0.0
 10
1619.190028018936
 20
691.6581090767568
 30
0.0
 10
1619.415789432453
 20
690.9943495274639
 30
0.0
 10
1621.674259458541
 20
690.0075799786587
 30
0.0
 10
1622.728830101384
 20
689.5468119149108
 30
0.0
 10
1623.866648246852
 20
689.1775838062791
 30
0.0
 10
1623.846284502757
 20
687.7113942314503
 30
0.0
 10
1623.767041923635
 20
687.6494228849285
 30
0.0
 10
1623.706661242294
 20
687.5642132927665
 30
0.0
 10
1623.632973879641
 20
687.5504625171147
 30
0.0
 10
1622.903028124819
 20
687.4144000858133
 30
0.0
 10
1621.965666089938
 20
688.3672004548379
 30
0.0
 10
1621.445139076925
 20
687.1421298832447
 30
0.0
 10
1620.886855970579
 20
685.8283373369829
 30
0.0
 10
1620.740175647332
 20
684.4638130682201
 30
0.0
 10
1621.456717827532
 20
683.2039255003791
 30
0.0
 10
1621.60730618097
 20
682.9391483804909
 30
0.0
 10
1622.461485308767
 20
683.0154437880849
 30
0.0
 10
1622.987018476157
 20
683.0381329716323
 30
0.0
 10
1623.627564003137
 20
683.0657960117866
 30
0.0
 10
1624.263394055672
 20
683.2028677484059
 30
0.0
 10
1624.901258867728
 20
683.2926151772775
 30
0.0
 10
1624.941340400514
 20
683.1466857771878
 30
0.0
 10
1624.981438082185
 20
683.0007563770982
 30
0.0
 10
1625.021519614971
 20
682.8548269770085
 30
0.0
 10
1624.796662539018
 20
682.7212756973382
 30
0.0
 10
1624.569641512464
 20
682.5912448746168
 30
0.0
 10
1624.34735210924
 20
682.4535514059215
 30
0.0
 10
1623.537356331041
 20
681.9517732484949
 30
0.0
 10
1623.234677777853
 20
680.6618891266047
 30
0.0
 10
1623.929968025278
 20
680.0818050253906
 30
0.0
 10
1624.911303474252
 20
679.2631372958997
 30
0.0
 10
1625.19189035264
 20
678.263884658922
 30
0.0
 10
1625.279433458698
 20
677.0678336338304
 30
0.0
 10
1625.359887204202
 20
675.968950450308
 30
0.0
 10
1625.62187056697
 20
674.8833739480973
 30
0.0
 10
1625.803884650787
 20
673.7919354006
 30
0.0
 10
1625.697851071305
 20
673.7608164990371
 30
0.0
 10
1625.591833640708
 20
673.7296975974742
 30
0.0
 10
1625.485800061226
 20
673.6985948447965
 30
0.0
 10
1625.116071337156
 20
674.2432159943593
 30
0.0
 10
1624.746358761972
 20
674.7878532928071
 30
0.0
 10
1624.16380388134
 20
675.646005046336
 30
0.0
 10
1624.16380388134
 20
673.9276021842168
 30
0.0
 10
1624.16380388134
 20
672.5846124537176
 30
0.0
 10
1624.16380388134
 20
671.2416227232184
 30
0.0
 10
1624.069768923478
 20
671.2077423623056
 30
0.0
 10
1623.975733965615
 20
671.1738781502779
 30
0.0
 10
1623.881699007753
 20
671.1399977893652
 30
0.0
 10
1623.409344118955
 20
672.0031556972712
 30
0.0
 10
1622.936973081272
 20
672.866297456292
 30
0.0
 10
1622.298252378307
 20
674.0334419770777
 30
0.0
 10
1621.971883410696
 20
672.3513902552895
 30
0.0
 10
1621.716585686354
 20
671.0356436939322
 30
0.0
 10
1621.461271813127
 20
669.7198809836899
 30
0.0
 10
1621.285814176656
 20
669.733252260542
 30
0.0
 10
1621.110356540184
 20
669.7466073885091
 30
0.0
 10
1620.934898903713
 20
669.7599625164761
 30
0.0
 10
1620.900808607294
 20
670.2029102855304
 30
0.0
 10
1620.878636188069
 20
670.6471822631619
 30
0.0
 10
1620.830334872774
 20
671.0885797392478
 30
0.0
 10
1620.691761289841
 20
672.3547815211579
 30
0.0
 10
1620.614989490137
 20
673.6065784975701
 30
0.0
 10
1619.516590773167
 20
674.5642881276611
 30
0.0
 10
1619.171133823384
 20
674.8655132811909
 30
0.0
 10
1619.220872389452
 20
675.6097507993154
 30
0.0
 10
1619.068572254196
 20
676.1452155310338
 30
0.0
 10
1618.842940031758
 20
676.9386264042486
 30
0.0
 10
1618.598429762655
 20
677.7266677731718
 30
0.0
 10
1618.159664554838
 20
678.4830411784393
 30
0.0
 10
1617.361538207178
 20
675.2501474261957
 30
0.0
 10
1617.798284804358
 20
671.7743259955868
 30
0.0
 10
1615.479046523688
 20
669.0197299218532
 30
0.0
 10
1615.336128890667
 20
672.1494322983901
 30
0.0
 10
1616.294694411668
 20
675.3651920835563
 30
0.0
 10
1614.584414438748
 20
678.6219135157459
 30
0.0
 10
1613.6079236553
 20
675.9990681209955
 30
0.0
 10
1612.622195709583
 20
673.6993376935105
 30
0.0
 10
1609.994061554967
 20
672.5994532791126
 30
0.0
 10
1610.122848913536
 20
673.032953950391
 30
0.0
 10
1610.317491425491
 20
673.4602050031406
 30
0.0
 10
1610.359526973373
 20
673.9019577546984
 30
0.0
 10
1610.392971314389
 20
674.2536643230106
 30
0.0
 10
1610.240122117039
 20
674.6230862182633
 30
0.0
 10
1610.169987509106
 20
674.9846436064786
 30
0.0
 10
1609.853873083526
 20
674.8979240935607
 30
0.0
 10
1609.504459656896
 20
674.8700511179004
 30
0.0
 10
1609.227893850894
 20
674.7134715280959
 30
0.0
 10
1608.394191509387
 20
674.2414719147698
 30
0.0
 10
1607.588814312323
 20
673.7194430554439
 30
0.0
 10
1606.772391277859
 20
673.2169059004182
 30
0.0
 10
1606.705841722415
 20
673.3197904473082
 30
0.0
 10
1606.639276018086
 20
673.4226749941981
 30
0.0
 10
1606.572726462642
 20
673.5255756899732
 30
0.0
  0
SPLINE
  5
42
330
1F
100
AcDbEntity
  8
_U+0421_U+043B_U+043E_U+0439 1
370
     0
100
AcDbSpline
210
0.0
220
0.0
230
1.0
 70
    11
 71
     3
 72
    29
 73
    25
 74
     0
 42
0.0000000001
 43
0.0000000001
 12
1.0
 22
0.0
 32
0.0
 13
1.0
 23
0.0
 33
0.0
 40
0.0
 40
0.0
 40
0.0
 40
0.0
 40
1.0
 40
1.0
 40
1.0
 40
2.0
 40
2.0
 40
2.0
 40
3.0
 40
3.0
 40
3.0
 40
4.0
 40
4.0
 40
4.0
 40
5.0
 40
5.0
 40
5.0
 40
6.0
 40
6.0
 40
6.0
 40
7.0
 40
7.0
 40
7.0
 40
8.0
 40
8.0
 40
8.0
 40
8.0
 10
1610.87438572772
 20
694.954161118576
 30
0.0
 10
1610.87438572772
 20
693.4025358671939
 30
0.0
 10
1610.826714218943
 20
691.9715750851826
 30
0.0
 10
1610.910316997039
 20
690.5483092469154
 30
0.0
 10
1610.929501872523
 20
690.2219241304199
 30
0.0
 10
1611.362065908466
 20
689.7095603788187
 30
0.0
 10
1611.671268611229
 20
689.653814427498
 30
0.0
 10
1612.333566686421
 20
689.534425720049
 30
0.0
 10
1612.499561076232
 20
689.1739260838069
 30
0.0
 10
1612.801674418441
 20
688.6365557836483
 30
0.0
 10
1613.783155207381
 20
686.8908693801743
 30
0.0
 10
1615.091021112815
 20
685.741391739674
 30
0.0
 10
1616.915328363336
 20
687.6754548876889
 30
0.0
 10
1617.116737258142
 20
687.8889835207533
 30
0.0
 10
1617.404025923842
 20
688.0944054135039
 30
0.0
 10
1617.682222767238
 20
688.1501029181693
 30
0.0
 10
1618.949248142287
 20
688.4037938284453
 30
0.0
 10
1618.880631529552
 20
689.1951214954837
 30
0.0
 10
1618.584590168135
 20
690.1489634675963
 30
0.0
 10
1618.345344435569
 20
690.9198143483444
 30
0.0
 10
1618.171533985377
 20
691.7109724520894
 30
0.0
 10
1617.941735350587
 20
692.597045627934
 30
0.0
 10
1615.337663034751
 20
692.0233887829846
 30
0.0
 10
1613.681885548999
 20
694.4390116842973
 30
0.0
 10
1610.87438572772
 20
694.954161118576
 30
0.0
  0
SPLINE
  5
43
330
1F
100
AcDbEntity
  8
_U+0421_U+043B_U+043E_U+0439 1
370
     0
100
AcDbSpline
210
0.0
220
0.0
230
1.0
 70
    11
 71
     3
 72
    41
 73
    37
 74
     0
 42
0.0000000001
 43
0.0000000001
 12
1.0
 22
0.0
 32
0.0
 13
1.0
 23
0.0
 33
0.0
 40
0.0
 40
0.0
 40
0.0
 40
0.0
 40
1.0
 40
1.0
 40
1.0
 40
2.0
 40
2.0
 40
2.0
 40
3.0
 40
3.0
 40
3.0
 40
4.0
 40
4.0
 40
4.0
 40
5.0
 40
5.0
 40
5.0
 40
6.0
 40
6.0
 40
6.0
 40
7.0
 40
7.0
 40
7.0
 40
8.0
 40
8.0
 40
8.0
 40
9.0
 40
9.0
 40
9.0
 40
10.0
 40
10.0
 40
10.0
 40
11.0
 40
11.0
 40
11.0
 40
12.0
 40
12.0
 40
12.0
 40
12.0
 10
1606.532095867763
 20
695.0472352177756
 30
0.0
 10
1603.230262525082
 20
691.5635331312442
 30
0.0
 10
1600.031669004764
 20
688.1887633490678
 30
0.0
 10
1596.83309163333
 20
684.8139935668916
 30
0.0
 10
1596.870589344503
 20
684.7277342971987
 30
0.0
 10
1596.908087055675
 20
684.6414669530634
 30
0.0
 10
1596.945600915732
 20
684.5552076833706
 30
0.0
 10
1598.418782957804
 20
684.934222016365
 30
0.0
 10
1599.891964999875
 20
685.3132363493595
 30
0.0
 10
1601.614970294244
 20
685.7565232450006
 30
0.0
 10
1601.029718549802
 20
686.2977046820398
 30
0.0
 10
1600.765700427513
 20
686.5418273779015
 30
0.0
 10
1600.501698454109
 20
686.785958148206
 30
0.0
 10
1600.537452085692
 20
686.911273496482
 30
0.0
 10
1600.573205717275
 20
687.0365969192004
 30
0.0
 10
1600.608959348858
 20
687.1619122674764
 30
0.0
 10
1603.214646553203
 20
686.8043678772052
 30
0.0
 10
1605.820349906433
 20
686.4468234869341
 30
0.0
 10
1608.694964494134
 20
686.0523788942389
 30
0.0
 10
1608.232137447538
 20
686.7286538294744
 30
0.0
 10
1607.746588919624
 20
687.1459410201253
 30
0.0
 10
1607.650099331228
 20
687.6393136828641
 30
0.0
 10
1607.442247031272
 20
688.7021041082169
 30
0.0
 10
1606.954534552756
 20
689.4331641361102
 30
0.0
 10
1606.13118364659
 20
690.1696098171802
 30
0.0
 10
1605.033996096002
 20
691.1510421594642
 30
0.0
 10
1605.564906842126
 20
692.8018215652811
 30
0.0
 10
1607.002399848154
 20
693.4059998030451
 30
0.0
 10
1607.297779105283
 20
693.0618589873962
 30
0.0
 10
1607.596468883854
 20
692.7138424393265
 30
0.0
 10
1607.895158662425
 20
692.3658258912568
 30
0.0
 10
1608.012286525962
 20
692.4455206391617
 30
0.0
 10
1608.129414389499
 20
692.5252234615091
 30
0.0
 10
1608.246542253036
 20
692.604918209414
 30
0.0
 10
1607.699288835204
 20
693.3845137114367
 30
0.0
 10
1607.152035417372
 20
694.1641092134594
 30
0.0
 10
1606.532095867763
 20
695.0472352177756
 30
0.0
  0
HATCH
  5
44
330
1F
100
AcDbEntity
  8
_U+0421_U+043B_U+043E_U+0439 1
 62
     7
100
AcDbHatch
 10
0.0
 20
0.0
 30
0.0
210
0.0
220
0.0
230
1.0
  2
SOLID
 70
     1
 71
     0
 91
        3
 92
        1
 93
        1
 72
     4
 94
        3
 73
     0
 74
     1
 95
      578
 96
      574
 40
0.0
 40
0.0
 40
0.0
 40
0.0
 40
1.0
 40
1.0
 40
1.0
 40
2.0
 40
2.0
 40
2.0
 40
3.0
 40
3.0
 40
3.0
 40
4.0
 40
4.0
 40
4.0
 40
5.0
 40
5.0
 40
5.0
 40
6.0
 40
6.0
 40
6.0
 40
7.0
 40
7.0
 40
7.0
 40
8.0
 40
8.0
 40
8.0
 40
9.0
 40
9.0
 40
9.0
 40
10.0
 40
10.0
 40
10.0
 40
11.0
 40
11.0
 40
11.0
 40
12.0
 40
12.0
 40
12.0
 40
13.0
 40
13.0
 40
13.0
 40
14.0
 40
14.0
 40
14.0
 40
15.0
 40
15.0
 40
15.0
 40
16.0
 40
16.0
 40
16.0
 40
17.0
 40
17.0
 40
17.0
 40
18.0
 40
18.0
 40
18.0
 40
19.0
 40
19.0
 40
19.0
 40
20.0
 40
20.0
 40
20.0
 40
21.0
 40
21.0
 40
21.0
 40
22.0
 40
22.0
 40
22.0
 40
23.0
 40
23.0
 40
23.0
 40
24.0
 40
24.0
 40
24.0
 40
25.0
 40
25.0
 40
25.0
 40
26.0
 40
26.0
 40
26.0
 40
27.0
 40
27.0
 40
27.0
 40
28.0
 40
28.0
 40
28.0
 40
29.0
 40
29.0
 40
29.0
 40
30.0
 40
30.0
 40
30.0
 40
31.0
 40
31.0
 40
31.0
 40
32.0
 40
32.0
 40
32.0
 40
33.0
 40
33.0
 40
33.0
 40
34.0
 40
34.0
 40
34.0
 40
35.0
 40
35.0
 40
35.0
 40
36.0
 40
36.0
 40
36.0
 40
37.0
 40
37.0
 40
37.0
 40
38.0
 40
38.0
 40
38.0
 40
39.0
 40
39.0
 40
39.0
 40
40.0
 40
40.0
 40
40.0
 40
41.0
 40
41.0
 40
41.0
 40
42.0
 40
42.0
 40
42.0
 40
43.0
 40
43.0
 40
43.0
 40
44.0
 40
44.0
 40
44.0
 40
45.0
 40
45.0
 40
45.0
 40
46.0
 40
46.0
 40
46.0
 40
47.0
 40
47.0
 40
47.0
 40
48.0
 40
48.0
 40
48.0
 40
49.0
 40
49.0
 40
49.0
 40
50.0
 40
50.0
 40
50.0
 40
51.0
 40
51.0
 40
51.0
 40
52.0
 40
52.0
 40
52.0
 40
53.0
 40
53.0
 40
53.0
 40
54.0
 40
54.0
 40
54.0
 40
55.0
 40
55.0
 40
55.0
 40
56.0
 40
56.0
 40
56.0
 40
57.0
 40
57.0
 40
57.0
 40
58.0
 40
58.0
 40
58.0
 40
59.0
 40
59.0
 40
59.0
 40
60.0
 40
60.0
 40
60.0
 40
61.0
 40
61.0
 40
61.0
 40
62.0
 40
62.0
 40
62.0
 40
63.0
 40
63.0
 40
63.0
 40
64.0
 40
64.0
 40
64.0
 40
65.0
 40
65.0
 40
65.0
 40
66.0
 40
66.0
 40
66.0
 40
67.0
 40
67.0
 40
67.0
 40
68.0
 40
68.0
 40
68.0
 40
69.0
 40
69.0
 40
69.0
 40
70.0
 40
70.0
 40
70.0
 40
71.0
 40
71.0
 40
71.0
 40
72.0
 40
72.0
 40
72.0
 40
73.0
 40
73.0
 40
73.0
 40
74.0
 40
74.0
 40
74.0
 40
75.0
 40
75.0
 40
75.0
 40
76.0
 40
76.0
 40
76.0
 40
77.0
 40
77.0
 40
77.0
 40
78.0
 40
78.0
 40
78.0
 40
79.0
 40
79.0
 40
79.0
 40
80.0
 40
80.0
 40
80.0
 40
81.0
 40
81.0
 40
81.0
 40
82.0
 40
82.0
 40
82.0
 40
83.0
 40
83.0
 40
83.0
 40
84.0
 40
84.0
 40
84.0
 40
85.0
 40
85.0
 40
85.0
 40
86.0
 40
86.0
 40
86.0
 40
87.0
 40
87.0
 40
87.0
 40
88.0
 40
88.0
 40
88.0
 40
89.0
 40
89.0
 40
89.0
 40
90.0
 40
90.0
 40
90.0
 40
91.0
 40
91.0
 40
91.0
 40
92.0
 40
92.0
 40
92.0
 40
93.0
 40
93.0
 40
93.0
 40
94.0
 40
94.0
 40
94.0
 40
95.0
 40
95.0
 40
95.0
 40
96.0
 40
96.0
 40
96.0
 40
97.0
 40
97.0
 40
97.0
 40
98.0
 40
98.0
 40
98.0
 40
99.0
 40
99.0
 40
99.0
 40
100.0
 40
100.0
 40
100.0
 40
101.0
 40
101.0
 40
101.0
 40
102.0
 40
102.0
 40
102.0
 40
103.0
 40
103.0
 40
103.0
 40
104.0
 40
104.0
 40
104.0
 40
105.0
 40
105.0
 40
105.0
 40
106.0
 40
106.0
 40
106.0
 40
107.0
 40
107.0
 40
107.0
 40
108.0
 40
108.0
 40
108.0
 40
109.0
 40
109.0
 40
109.0
 40
110.0
 40
110.0
 40
110.0
 40
111.0
 40
111.0
 40
111.0
 40
112.0
 40
112.0
 40
112.0
 40
113.0
 40
113.0
 40
113.0
 40
114.0
 40
114.0
 40
114.0
 40
115.0
 40
115.0
 40
115.0
 40
116.0
 40
116.0
 40
116.0
 40
117.0
 40
117.0
 40
117.0
 40
118.0
 40
118.0
 40
118.0
 40
119.0
 40
119.0
 40
119.0
 40
120.0
 40
120.0
 40
120.0
 40
121.0
 40
121.0
 40
121.0
 40
122.0
 40
122.0
 40
122.0
 40
123.0
 40
123.0
 40
123.0
 40
124.0
 40
124.0
 40
124.0
 40
125.0
 40
125.0
 40
125.0
 40
126.0
 40
126.0
 40
126.0
 40
127.0
 40
127.0
 40
127.0
 40
128.0
 40
128.0
 40
128.0
 40
129.0
 40
129.0
 40
129.0
 40
130.0
 40
130.0
 40
130.0
 40
131.0
 40
131.0
 40
131.0
 40
132.0
 40
132.0
 40
132.0
 40
133.0
 40
133.0
 40
133.0
 40
134.0
 40
134.0
 40
134.0
 40
135.0
 40
135.0
 40
135.0
 40
136.0
 40
136.0
 40
136.0
 40
137.0
 40
137.0
 40
137.0
 40
138.0
 40
138.0
 40
138.0
 40
139.0
 40
139.0
 40
139.0
 40
140.0
 40
140.0
 40
140.0
 40
141.0
 40
141.0
 40
141.0
 40
142.0
 40
142.0
 40
142.0
 40
143.0
 40
143.0
 40
143.0
 40
144.0
 40
144.0
 40
144.0
 40
145.0
 40
145.0
 40
145.0
 40
146.0
 40
146.0
 40
146.0
 40
147.0
 40
147.0
 40
147.0
 40
148.0
 40
148.0
 40
148.0
 40
149.0
 40
149.0
 40
149.0
 40
150.0
 40
150.0
 40
150.0
 40
151.0
 40
151.0
 40
151.0
 40
152.0
 40
152.0
 40
152.0
 40
153.0
 40
153.0
 40
153.0
 40
154.0
 40
154.0
 40
154.0
 40
155.0
 40
155.0
 40
155.0
 40
156.0
 40
156.0
 40
156.0
 40
157.0
 40
157.0
 40
157.0
 40
158.0
 40
158.0
 40
158.0
 40
159.0
 40
159.0
 40
159.0
 40
160.0
 40
160.0
 40
160.0
 40
161.0
 40
161.0
 40
161.0
 40
162.0
 40
162.0
 40
162.0
 40
163.0
 40
163.0
 40
163.0
 40
164.0
 40
164.0
 40
164.0
 40
165.0
 40
165.0
 40
165.0
 40
166.0
 40
166.0
 40
166.0
 40
167.0
 40
167.0
 40
167.0
 40
168.0
 40
168.0
 40
168.0
 40
169.0
 40
169.0
 40
169.0
 40
170.0
 40
170.0
 40
170.0
 40
171.0
 40
171.0
 40
171.0
 40
172.0
 40
172.0
 40
172.0
 40
173.0
 40
173.0
 40
173.0
 40
174.0
 40
174.0
 40
174.0
 40
175.0
 40
175.0
 40
175.0
 40
176.0
 40
176.0
 40
176.0
 40
177.0
 40
177.0
 40
177.0
 40
178.0
 40
178.0
 40
178.0
 40
179.0
 40
179.0
 40
179.0
 40
180.0
 40
180.0
 40
180.0
 40
181.0
 40
181.0
 40
181.0
 40
182.0
 40
182.0
 40
182.0
 40
183.0
 40
183.0
 40
183.0
 40
184.0
 40
184.0
 40
184.0
 40
185.0
 40
185.0
 40
185.0
 40
186.0
 40
186.0
 40
186.0
 40
187.0
 40
187.0
 40
187.0
 40
188.0
 40
188.0
 40
188.0
 40
189.0
 40
189.0
 40
189.0
 40
190.0
 40
190.0
 40
190.0
 40
191.0
 40
191.0
 40
191.0
 40
191.0
 10
1606.572726462642
 20
673.5255756899732
 10
1606.82445528338
 20
674.4403615835026
 10
1607.076200253003
 20
675.3551636259172
 10
1607.403279771557
 20
676.5437700149836
 10
1606.528090944261
 20
676.1953901169994
 10
1606.021355079113
 20
675.9936905422614
 10
1605.369586076997
 20
675.734242554452
 10
1605.369586076997
 20
676.740899455242
 10
1605.369586076997
 20
677.5934717689734
 10
1605.369586076997
 20
678.6032131068149
 10
1605.004201403016
 20
678.5078458659331
 10
1604.750421673872
 20
678.4416031393057
 10
1604.449713284665
 20
678.3631195577824
 10
1603.730974856093
 20
679.5159884641511
 10
1604.97805635806
 20
681.6583641553473
 10
1603.049007438864
 20
682.0315083686125
 10
1601.873998411041
 20
682.2588120006561
 10
1600.241007002148
 20
682.3159144583241
 10
1599.466619515566
 20
680.6447309361996
 10
1599.079320804522
 20
680.9257538344855
 10
1598.792177478788
 20
681.1340986754368
 10
1598.442877094354
 20
681.387555426879
 10
1597.868138274104
 20
680.4045566427416
 10
1597.747376911422
 20
679.4468793104207
 10
1598.545341770231
 20
678.6964809926355
 10
1599.340012256483
 20
677.9491751863445
 10
1600.827227679695
 20
678.2660566839663
 10
1601.636012291513
 20
679.2183968097659
 10
1601.919312182596
 20
679.5519843290102
 10
1602.124774447559
 20
679.9505468874027
 10
1602.381412529363
 20
680.3082366176395
 10
1602.601376493135
 20
680.6148232010182
 10
1602.843609769442
 20
680.9054062392757
 10
1603.22422284206
 20
681.3929007078428
 10
1604.251550315761
 20
679.1260009637399
 10
1603.467731880288
 20
677.3508912916374
 10
1602.438692624768
 20
675.6450845598861
 10
1601.871446887198
 20
674.704783427919
 10
1601.159943159145
 20
673.8525421663319
 10
1600.534399946411
 20
672.9461375441626
 10
1599.577594653884
 20
671.5597396105493
 10
1599.641302005553
 20
671.0140364856858
 10
1600.9569516736
 20
669.5485736106859
 10
1601.389176582956
 20
669.9456746949779
 10
1601.821433790083
 20
670.342791928155
 10
1602.345303622309
 20
670.8240932992911
 10
1602.524233269074
 20
670.4396690897926
 10
1602.662241641028
 20
670.1431432618231
 10
1602.82750933101
 20
669.7880938742978
 10
1603.076266756892
 20
669.9897773001508
 10
1603.321697512446
 20
670.1887638621942
 10
1603.616543856366
 20
670.4277996592535
 10
1603.919577685025
 20
668.5419651565511
 10
1604.735338615201
 20
667.5656197130696
 10
1606.046111319951
 20
667.41457919085
 10
1606.271323671376
 20
665.224241310945
 10
1606.339924135226
 20
665.1688667839813
 10
1608.464600648367
 20
665.7330603822696
 10
1607.995071814459
 20
664.679571714727
 10
1607.588636674587
 20
663.767628024973
 10
1607.182201534714
 20
662.8557004841039
 10
1607.285473654847
 20
662.7925421945282
 10
1607.388729626093
 20
662.7293839049526
 10
1607.492001746225
 20
662.6662094664918
 10
1608.717056168934
 20
664.3431904383625
 10
1609.942110591641
 20
666.0201875591184
 10
1611.167181163235
 20
667.6971685309892
 10
1611.963111262523
 20
665.1661699201718
 10
1610.066973771135
 20
663.5789283027301
 10
1609.272642411471
 20
661.5660505210474
 10
1610.140903367064
 20
662.3230618072757
 10
1611.009164322657
 20
663.0800569446191
 10
1611.877425278251
 20
663.8370520819624
 10
1611.947592183954
 20
663.7882017045739
 10
1612.017775238543
 20
663.7393674760705
 10
1612.087958293132
 20
663.690517098682
 10
1611.978468852241
 20
663.2544972013301
 10
1611.86897941135
 20
662.818477303978
 10
1611.726239416065
 20
662.2500688466821
 10
1612.128088272573
 20
662.3559086395429
 10
1612.469281916693
 20
662.4457610361676
 10
1613.002937973282
 20
662.5863047830808
 10
1612.756925857865
 20
662.1163722270459
 10
1612.602510218662
 20
661.8214128409298
 10
1612.392736201381
 20
661.4207267041485
 10
1612.775674713451
 20
661.4984674369579
 10
1613.085878647089
 20
661.5614480887975
 10
1613.445272084703
 20
661.6344087516211
 10
1613.445272084703
 20
661.3727645154398
 10
1613.445272084703
 20
661.1458080844255
 10
1613.445272084703
 20
660.801982172036
 10
1614.117211044292
 20
661.1040470675903
 10
1614.692983393188
 20
661.3628813977665
 10
1615.410995121931
 20
661.6856653128876
 10
1615.20592043021
 20
660.0946610052206
 10
1614.15656587725
 20
659.2834863584101
 10
1613.191815333261
 20
658.424204182925
 10
1612.898147857952
 20
658.162624542284
 10
1612.418235290933
 20
658.0323030396311
 10
1612.250690608154
 20
657.7200320487016
 10
1611.387532700248
 20
656.1111509252431
 10
1610.102178340625
 20
656.2729466049309
 10
1608.625508139375
 20
656.625202235336
 10
1605.924897788487
 20
657.2694458570011
 10
1604.422793093225
 20
656.1587578384799
 10
1604.164750058418
 20
653.3191540336478
 10
1602.117814278087
 20
655.7992190609006
 10
1599.732074888628
 20
657.8520330354037
 10
1598.247233351523
 20
660.6426895695367
 10
1598.048004556204
 20
661.0171014702813
 10
1597.976997908476
 20
661.4837235048733
 10
1597.93895113521
 20
661.9157869253789
 10
1597.757631453452
 20
663.9750443050317
 10
1597.184733606102
 20
665.0365428195776
 10
1595.398973744285
 20
666.4571279429204
 10
1595.335330988156
 20
666.0180236085167
 10
1595.276161473197
 20
665.6097797935147
 10
1595.216991958238
 20
665.2015198296275
 10
1595.09138593003
 20
665.1674295332085
 10
1594.965779901823
 20
665.1333392367897
 10
1594.84015772473
 20
665.0992327914857
 10
1594.584601618227
 20
665.835460462607
 10
1594.230375823841
 20
666.5537305735114
 10
1594.092593536278
 20
667.3113555173732
 10
1593.729550450635
 20
669.3077614362669
 10
1593.766983566266
 20
669.3145762657737
 10
1591.746451213053
 20
669.3357313052378
 10
1591.920423152096
 20
671.2374563108659
 10
1592.463962326358
 20
672.8969480401873
 10
1593.990581029183
 20
674.1959643565943
 10
1594.801497293832
 20
674.8859739185963
 10
1595.426846719945
 20
675.7940741736998
 10
1595.964297764529
 20
676.4077318070098
 10
1595.361653670848
 20
677.1586872613306
 10
1594.960612258595
 20
677.6583983614661
 10
1594.68711474076
 20
677.9991882834593
 10
1594.064090754099
 20
677.8702959571366
 10
1593.451079076192
 20
677.7434706881049
 10
1592.682198359425
 20
677.5843960955543
 10
1592.682198359425
 20
677.4555279925593
 10
1592.682198359425
 20
677.0090516921134
 10
1592.682198359425
 20
676.3542466996013
 10
1592.195810089486
 20
676.6652257797238
 10
1591.844507243301
 20
676.8898244735153
 10
1591.493236694887
 20
677.114455465077
 10
1590.052142487483
 20
678.0360158159004
 10
1588.57111208726
 20
677.4399927651054
 10
1588.165581284952
 20
675.7522970079793
 10
1587.961846950693
 20
674.904448243136
 10
1588.087937445453
 20
673.7417446657493
 10
1587.567765707912
 20
673.2725226606582
 10
1587.058736701081
 20
672.8133614109764
 10
1585.915121105868
 20
673.0791882083953
 10
1585.055596697106
 20
672.979000525315
 10
1584.533341753389
 20
672.9181353774217
 10
1584.021309053932
 20
672.6761281855062
 10
1583.505206835433
 20
672.6777915206702
 10
1582.769964246302
 20
672.680165406778
 10
1582.036530332301
 20
672.8451424168279
 10
1581.299931236823
 20
672.9159068312796
 10
1580.306855548391
 20
673.0113305932593
 10
1579.310663125138
 20
673.1537314619575
 10
1578.31740979897
 20
673.1417974358781
 10
1577.585445433512
 20
673.1329962935056
 10
1576.856064889667
 20
672.9093826817044
 10
1575.791627278036
 20
672.7230406966843
 10
1576.331371464302
 20
673.361454570833
 10
1576.638248727612
 20
673.8161748771157
 10
1577.031877801611
 20
674.1759720368565
 10
1581.648246539267
 20
678.3956837845606
 10
1586.297962724628
 20
682.5790928385887
 10
1590.896632284228
 20
686.8179248662359
 10
1594.072746556506
 20
689.745515871465
 10
1597.178387094263
 20
692.7494991775989
 10
1600.325336480073
 20
695.7088954120071
 10
1601.463073881115
 20
696.7788236445684
 10
1602.157249855469
 20
698.0777107698948
 10
1602.336082608924
 20
699.6173051018869
 10
1602.566462603577
 20
701.600686944958
 10
1601.827861046348
 20
702.9557883392725
 10
1599.917447940543
 20
703.6782248625294
 10
1594.936582717585
 20
705.5617581491069
 10
1589.955265325846
 20
707.454601267937
 10
1584.913018190672
 20
709.1633793945443
 10
1571.911566955926
 20
713.5694573505962
 10
1558.875621702634
 20
717.8736439161909
 10
1545.857698605099
 20
722.2312025469985
 10
1544.23011707271
 20
722.7760013342971
 10
1542.657748578433
 20
723.5049862304569
 10
1541.007574755807
 20
723.9586810825366
 10
1538.217160454951
 20
724.7258419430423
 10
1535.342949589377
 20
725.2047290558579
 10
1532.581570983906
 20
726.0564697020073
 10
1529.432360754184
 20
727.0278332144394
 10
1526.355707465159
 20
728.2418660230755
 10
1523.269639376127
 20
729.4089459483209
 10
1517.838058770389
 20
731.4630276103032
 10
1512.425994092278
 20
733.5686968856965
 10
1506.997183020332
 20
735.6301908859339
 10
1506.470204527727
 20
735.8302917210482
 10
1505.879219929079
 20
735.8559603738942
 10
1505.324965969562
 20
735.9913284031369
 10
1504.132233540356
 20
736.2826300667807
 10
1502.618364382307
 20
735.8079255152026
 10
1501.967620834394
 20
737.4345300400441
 10
1501.886456537947
 20
737.6374084833935
 10
1501.433746767857
 20
737.698305929057
 10
1501.14786305516
 20
737.8115580601728
 10
1498.978922447996
 20
738.6707271934623
 10
1496.822376110136
 20
739.563502156618
 10
1494.635800920456
 20
740.3753631310448
 10
1490.678492406532
 20
741.8447017384656
 10
1487.533626226899
 20
744.3432007180452
 10
1485.515362792039
 20
748.0240766542689
 10
1483.490817440881
 20
751.7163860011343
 10
1480.526188967705
 20
753.9693694435134
 10
1476.483646638291
 20
754.9306076049959
 10
1475.522804124494
 20
755.1590739567657
 10
1474.46766019623
 20
755.2648087818736
 10
1474.200105468106
 20
756.5655974384189
 10
1474.13726208179
 20
756.8710939720543
 10
1473.676405199174
 20
757.1788876845933
 10
1473.330641420574
 20
757.3288462315122
 10
1470.310493080468
 20
758.6387186359191
 10
1467.331831226151
 20
760.0797078755694
 10
1464.224454683247
 20
761.1409318590687
 10
1462.041811747086
 20
761.8863442085833
 10
1460.042377912238
 20
762.7321541766844
 10
1458.51981257957
 20
764.5012362774282
 10
1457.338033131675
 20
765.8743517530575
 10
1456.022601473577
 20
766.8265949855464
 10
1454.035388307519
 20
766.3044450095824
 10
1453.611358957344
 20
766.193025776924
 10
1452.981241572909
 20
766.4746542584006
 10
1452.571875410393
 20
766.7573727896206
 10
1446.406768034564
 20
771.0151272733685
 10
1439.490854581602
 20
773.8357521010021
 10
1432.802151904593
 20
777.084294122895
 10
1430.956257631932
 20
777.9808035157271
 10
1428.938551333609
 20
778.5178992848392
 10
1427.062539390261
 20
779.3599606929895
 10
1425.725791203848
 20
779.9599704997904
 10
1424.494248966556
 20
780.7943672433562
 10
1423.215757883095
 20
781.5241636209915
 10
1423.293446132027
 20
781.6738637857491
 10
1423.37113438096
 20
781.8235659691172
 10
1423.448824648504
 20
781.9732661338746
 10
1424.360261666988
 20
781.5275387379747
 10
1425.29191103377
 20
781.1183764551333
 10
1426.178706872222
 20
780.6280821736143
 10
1427.773950262224
 20
779.7461047587499
 10
1429.382145058066
 20
779.0445285578043
 10
1431.282125984105
 20
779.0527947683582
 10
1432.006197581977
 20
779.0559458195609
 10
1432.735969736285
 20
778.5185169796938
 10
1433.457473661428
 20
778.21400956527
 10
1437.629094029343
 20
776.4533854430905
 10
1441.798768456604
 20
774.6881629258825
 10
1445.972322653508
 20
772.9321412359528
 10
1446.023462135358
 20
772.9106268837955
 10
1446.116956105569
 20
772.9897887184926
 10
1446.344610975864
 20
773.0891205106634
 10
1445.592319201302
 20
773.6459986640073
 10
1444.90246709093
 20
774.1566546710105
 10
1444.212619017778
 20
774.6673106780138
 10
1444.266915606663
 20
774.7528715084266
 10
1444.321208158326
 20
774.838428301618
 10
1444.375500709989
 20
774.9239891320308
 10
1445.765269723364
 20
774.2969400357622
 10
1447.399839685774
 20
773.9474054924943
 10
1448.49250958576
 20
772.9835471744065
 10
1450.596341925474
 20
771.1277374863023
 10
1453.017560415469
 20
770.3176528892351
 10
1455.661177313663
 20
769.9353966675594
 10
1457.314056074541
 20
769.6964012427127
 10
1458.708649567337
 20
769.1684376681173
 10
1460.013414886835
 20
768.0012285517913
 10
1461.883698013198
 20
766.3281273495627
 10
1464.397247753679
 20
765.9756335231026
 10
1467.066351629761
 20
765.1353626225863
 10
1466.534278163911
 20
767.7533270168191
 10
1464.47575555853
 20
768.7384978260008
 10
1463.338938643938
 20
770.5240194917633
 10
1463.742394314512
 20
770.2905066134036
 10
1464.186690515471
 20
770.1067968966527
 10
1464.542426230612
 20
769.8150915108818
 10
1466.346224397072
 20
768.3359464929918
 10
1468.093622582365
 20
766.7886006961578
 10
1470.369057012236
 20
766.0194091133525
 10
1470.803615435488
 20
765.8725148173788
 10
1471.213264203493
 20
765.5151440276223
 10
1471.522806032842
 20
765.1581164016741
 10
1473.13892185682
 20
763.2940425216266
 10
1475.370051820455
 20
762.4928882580125
 10
1477.481308610088
 20
761.3878281259442
 10
1480.953173563851
 20
759.5705981243132
 10
1485.054740068257
 20
759.3749705303679
 10
1488.266494929922
 20
756.9848063463952
 10
1488.503504041903
 20
756.80841611181
 10
1488.83433817624
 20
756.69486522632
 10
1489.129523646747
 20
756.675837802466
 10
1489.499744911812
 20
756.6519778247499
 10
1489.878210182713
 20
756.7559766447108
 10
1490.253114624453
 20
756.8047947243292
 10
1490.138304125926
 20
757.1912092839148
 10
1490.12561917669
 20
757.6610812816306
 10
1489.890321846528
 20
757.9490482005039
 10
1489.045605965392
 20
758.9828069676913
 10
1488.428888118358
 20
760.272965620628
 10
1486.918910841615
 20
760.6161334659504
 10
1486.640415243846
 20
760.6794249838281
 10
1486.41548549791
 20
761.1892129882579
 10
1486.256435128687
 20
761.5346336030499
 10
1484.692617469064
 20
764.9308571790644
 10
1482.431862375737
 20
767.7391038862786
 10
1479.350396718955
 20
769.8823758405971
 10
1479.016704231958
 20
770.1144676170691
 10
1478.804112234228
 20
770.5206766725502
 10
1478.657771037569
 20
770.9769149740312
 10
1480.890863090742
 20
770.4579584400932
 10
1482.674216768682
 20
769.2759609822485
 10
1484.324826611205
 20
767.7942523288511
 10
1486.083932738186
 20
766.215145712272
 10
1487.908094648741
 20
764.7011675492492
 10
1489.785943527768
 20
763.2661937692939
 10
1490.340173263957
 20
762.8426811834419
 10
1491.164218572182
 20
762.6327416400882
 10
1491.879807968162
 20
762.5920181891198
 10
1493.004747377773
 20
762.5279999714132
 10
1493.677574526042
 20
762.011150866979
 10
1494.392921688746
 20
761.1756559992273
 10
1495.558895415363
 20
759.8138366687165
 10
1496.979060667693
 20
758.6732812872267
 10
1498.232545202597
 20
757.381697495181
 10
1499.387368124061
 20
756.19177497198
 10
1500.602313344705
 20
755.022547245018
 10
1501.545061032763
 20
753.6726094567101
 10
1503.301268434871
 20
751.157836438184
 10
1505.819460979814
 20
750.0975571644622
 10
1508.65329963267
 20
749.5640666339458
 10
1510.116945758098
 20
749.2885222449257
 10
1511.638009244452
 20
749.2881225600198
 10
1513.080468032646
 20
748.9431823745591
 10
1513.742362385711
 20
748.7849031145992
 10
1514.639812451099
 20
748.202424941171
 10
1514.807655888252
 20
747.6297774015395
 10
1515.559031213585
 20
745.0661782289525
 10
1517.345897274031
 20
743.7951883026142
 10
1519.696819667242
 20
742.8792396893584
 10
1522.442501556408
 20
741.809472945648
 10
1525.090514988567
 20
740.4906661705668
 10
1527.795735846146
 20
739.3140261053499
 10
1528.317958492093
 20
739.0868839621571
 10
1528.908571666384
 20
739.0170319597128
 10
1529.800087016503
 20
738.7899382631754
 10
1529.519467840344
 20
739.6851274846516
 10
1529.357106949678
 20
740.203078750493
 10
1529.122140671661
 20
740.952613102926
 10
1529.54097815528
 20
740.7172673261091
 10
1529.863406794929
 20
740.6198007301658
 10
1530.068400742225
 20
740.4084602710308
 10
1533.620800185917
 20
736.7461030687807
 10
1538.251234602484
 20
735.0350721727037
 10
1542.843977521258
 20
733.19624707449
 10
1548.150226629835
 20
731.0717401246427
 10
1553.377539988107
 20
728.7507981365958
 10
1558.658935962535
 20
726.5629633338793
 10
1559.557476077667
 20
726.1907476815067
 10
1560.555509473821
 20
726.0587386203621
 10
1561.507566994131
 20
725.8157624953415
 10
1561.628118421306
 20
725.9804811232299
 10
1561.748653699597
 20
726.1451916766758
 10
1561.869205126772
 20
726.3099103045644
 10
1561.067186897806
 20
727.2284346649915
 10
1560.236762779971
 20
728.1240033852673
 10
1559.4709180536
 20
729.0717653021446
 10
1558.661794315196
 20
730.0730849964133
 10
1557.914197828973
 20
731.1241351823078
 10
1557.293499281765
 20
732.357288270887
 10
1558.013723407765
 20
731.9093908685535
 10
1558.754085193469
 20
731.4905695338193
 10
1559.450651202816
 20
731.0085010906415
 10
1562.349795946964
 20
729.0021555329766
 10
1565.213009421794
 20
726.9430838655023
 10
1568.135376262697
 20
724.9714987829874
 10
1569.77379369698
 20
723.8661479709875
 10
1571.838493250907
 20
723.5231375772947
 10
1573.34986740621
 20
722.1561829013262
 10
1573.64096720879
 20
721.8929076277511
 10
1574.087419285908
 20
721.7555290623151
 10
1574.289474136118
 20
721.4469642405132
 10
1575.929684096645
 20
718.9420137813413
 10
1578.464994459781
 20
718.4419877779466
 10
1581.173178637774
 20
718.2444626900036
 10
1581.526435499055
 20
718.2186971438472
 10
1581.925635938408
 20
717.9484455519143
 10
1582.1873770679
 20
717.6787026498619
 10
1584.595272727698
 20
715.1974103073425
 10
1587.909831391827
 20
714.7079618236799
 10
1590.970497284617
 20
713.6774368707312
 10
1591.310463613471
 20
713.5629816476762
 10
1591.946665090363
 20
713.7140625421086
 10
1592.146216863384
 20
713.9727999789743
 10
1592.339066849094
 20
714.2228250923355
 10
1592.297451172225
 20
714.8770810227546
 10
1592.094088262323
 20
715.1699006815967
 10
1591.294007899567
 20
716.3218975481706
 10
1590.431592840375
 20
717.4380277409662
 10
1589.510040563994
 20
718.4958120119419
 10
1588.817705562539
 20
719.290490572636
 10
1587.942985052911
 20
719.9272895582759
 10
1587.259257407208
 20
720.7281208441882
 10
1586.861526516398
 20
721.1939515834109
 10
1586.700134558837
 20
721.855619852085
 10
1586.393951697586
 20
722.4078552009663
 10
1586.226293972611
 20
722.710251148665
 10
1586.002793403006
 20
722.9913386424912
 10
1585.762901715037
 20
723.2423003911874
 10
1584.880655824958
 20
724.1653383649964
 10
1584.006645866273
 20
725.0986631786058
 10
1583.082945788176
 20
725.9792457335208
 10
1580.570098524196
 20
728.374779421785
 10
1578.037581918181
 20
730.7497636537759
 10
1575.498944884717
 20
733.1179815029153
 10
1575.281806975836
 20
733.320553117448
 10
1574.961332351282
 20
733.4123676036107
 10
1574.688868362092
 20
733.555632437661
 10
1574.815911641072
 20
733.7217479441096
 10
1574.942954920053
 20
733.8878634505581
 10
1575.070014347918
 20
734.0539870314492
 10
1575.766515761725
 20
733.6724453979386
 10
1576.6091322878
 20
733.4319077545662
 10
1577.135666686066
 20
732.8863418952258
 10
1580.39459244107
 20
729.5096584701666
 10
1584.592624310544
 20
727.4504576116116
 10
1588.328668875447
 20
724.7474491512888
 10
1589.107093583301
 20
724.1842648583184
 10
1589.736108806329
 20
723.4192437250869
 10
1590.474678065787
 20
722.795444591942
 10
1593.159607849255
 20
720.5276970313721
 10
1595.883924763451
 20
718.3059334210877
 10
1598.539415129404
 20
716.0045315839963
 10
1599.089849877598
 20
715.5275096674081
 10
1599.390558266806
 20
714.7698847235464
 10
1599.838786721283
 20
714.165625741357
 10
1600.53141240267
 20
713.2318729822928
 10
1601.09132654641
 20
712.094644271131
 10
1601.99605168453
 20
711.4464118748493
 10
1603.592159039884
 20
710.3028205029632
 10
1605.405743430707
 20
709.4627958729444
 10
1607.115296703799
 20
708.5029788133496
 10
1608.22598472232
 20
709.8749719414653
 10
1608.169285986779
 20
710.1420906496911
 10
1606.78563336363
 20
710.9899394145345
 10
1606.539605099328
 20
711.1406892568227
 10
1606.208052339605
 20
711.6227819233281
 10
1606.278251543078
 20
711.7467569141419
 10
1607.092026160388
 20
713.1839269424692
 10
1606.036018266772
 20
714.1586009763441
 10
1605.482805910343
 20
715.2568624277907
 10
1605.371540092093
 20
715.4777953246675
 10
1605.251860704712
 20
715.6945052880939
 10
1605.314146954493
 20
716.0949814893692
 10
1605.66586967169
 20
715.821233663815
 10
1606.081832653764
 20
715.6003169158233
 10
1606.358059333179
 20
715.2644766271093
 10
1607.475772116713
 20
713.9055640959142
 10
1608.380707190339
 20
712.3177088208391
 10
1609.681855159578
 20
711.1765801539287
 10
1611.511814519879
 20
709.5716797306443
 10
1611.807145330352
 20
707.2300429463583
 10
1613.021735275523
 20
705.3695298954725
 10
1613.823672760064
 20
704.1411326535514
 10
1614.952980443091
 20
703.1261752258266
 10
1615.937820200128
 20
702.0175219668265
 10
1617.481411381179
 20
700.2798050381431
 10
1619.053876768766
 20
698.5667474569876
 10
1620.56090687398
 20
696.7979197011839
 10
1621.418041247749
 20
695.7919006813548
 10
1621.300041344417
 20
694.7416256419446
 10
1620.555496997476
 20
693.653570285873
 10
1619.190028018936
 20
691.6581090767568
 10
1619.415789432453
 20
690.9943495274639
 10
1621.674259458541
 20
690.0075799786587
 10
1622.728830101384
 20
689.5468119149108
 10
1623.866648246852
 20
689.1775838062791
 10
1623.846284502757
 20
687.7113942314503
 10
1623.767041923635
 20
687.6494228849285
 10
1623.706661242294
 20
687.5642132927665
 10
1623.632973879641
 20
687.5504625171147
 10
1622.903028124819
 20
687.4144000858133
 10
1621.965666089938
 20
688.3672004548379
 10
1621.445139076925
 20
687.1421298832447
 10
1620.886855970579
 20
685.8283373369829
 10
1620.740175647332
 20
684.4638130682201
 10
1621.456717827532
 20
683.2039255003791
 10
1621.60730618097
 20
682.9391483804909
 10
1622.461485308767
 20
683.0154437880849
 10
1622.987018476157
 20
683.0381329716323
 10
1623.627564003137
 20
683.0657960117866
 10
1624.263394055672
 20
683.2028677484059
 10
1624.901258867728
 20
683.2926151772775
 10
1624.941340400514
 20
683.1466857771878
 10
1624.981438082185
 20
683.0007563770982
 10
1625.021519614971
 20
682.8548269770085
 10
1624.796662539018
 20
682.7212756973382
 10
1624.569641512464
 20
682.5912448746168
 10
1624.34735210924
 20
682.4535514059215
 10
1623.537356331041
 20
681.9517732484949
 10
1623.234677777853
 20
680.6618891266047
 10
1623.929968025278
 20
680.0818050253906
 10
1624.911303474252
 20
679.2631372958997
 10
1625.19189035264
 20
678.263884658922
 10
1625.279433458698
 20
677.0678336338304
 10
1625.359887204202
 20
675.968950450308
 10
1625.62187056697
 20
674.8833739480973
 10
1625.803884650787
 20
673.7919354006
 10
1625.697851071305
 20
673.7608164990371
 10
1625.591833640708
 20
673.7296975974742
 10
1625.485800061226
 20
673.6985948447965
 10
1625.116071337156
 20
674.2432159943593
 10
1624.746358761972
 20
674.7878532928071
 10
1624.16380388134
 20
675.646005046336
 10
1624.16380388134
 20
673.9276021842168
 10
1624.16380388134
 20
672.5846124537176
 10
1624.16380388134
 20
671.2416227232184
 10
1624.069768923478
 20
671.2077423623056
 10
1623.975733965615
 20
671.1738781502779
 10
1623.881699007753
 20
671.1399977893652
 10
1623.409344118955
 20
672.0031556972712
 10
1622.936973081272
 20
672.866297456292
 10
1622.298252378307
 20
674.0334419770777
 10
1621.971883410696
 20
672.3513902552895
 10
1621.716585686354
 20
671.0356436939322
 10
1621.461271813127
 20
669.7198809836899
 10
1621.285814176656
 20
669.733252260542
 10
1621.110356540184
 20
669.7466073885091
 10
1620.934898903713
 20
669.7599625164761
 10
1620.900808607294
 20
670.2029102855304
 10
1620.878636188069
 20
670.6471822631619
 10
1620.830334872774
 20
671.0885797392478
 10
1620.691761289841
 20
672.3547815211579
 10
1620.614989490137
 20
673.6065784975701
 10
1619.516590773167
 20
674.5642881276611
 10
1619.171133823384
 20
674.8655132811909
 10
1619.220872389452
 20
675.6097507993154
 10
1619.068572254196
 20
676.1452155310338
 10
1618.842940031758
 20
676.9386264042486
 10
1618.598429762655
 20
677.7266677731718
 10
1618.159664554838
 20
678.4830411784393
 10
1617.361538207178
 20
675.2501474261957
 10
1617.798284804358
 20
671.7743259955868
 10
1615.479046523688
 20
669.0197299218532
 10
1615.336128890667
 20
672.1494322983901
 10
1616.294694411668
 20
675.3651920835563
 10
1614.584414438748
 20
678.6219135157459
 10
1613.6079236553
 20
675.9990681209955
 10
1612.622195709583
 20
673.6993376935105
 10
1609.994061554967
 20
672.5994532791126
 10
1610.122848913536
 20
673.032953950391
 10
1610.317491425491
 20
673.4602050031406
 10
1610.359526973373
 20
673.9019577546984
 10
1610.392971314389
 20
674.2536643230106
 10
1610.240122117039
 20
674.6230862182633
 10
1610.169987509106
 20
674.9846436064786
 10
1609.853873083526
 20
674.8979240935607
 10
1609.504459656896
 20
674.8700511179004
 10
1609.227893850894
 20
674.7134715280959
 10
1608.394191509387
 20
674.2414719147698
 10
1607.588814312323
 20
673.7194430554439
 10
1606.772391277859
 20
673.2169059004182
 10
1606.705841722415
 20
673.3197904473082
 10
1606.639276018086
 20
673.4226749941981
 10
1606.572726462642
 20
673.5255756899732
 97
        0
 92
        1
 93
        1
 72
     4
 94
        3
 73
     0
 74
     1
 95
       29
 96
       25
 40
0.0
 40
0.0
 40
0.0
 40
0.0
 40
1.0
 40
1.0
 40
1.0
 40
2.0
 40
2.0
 40
2.0
 40
3.0
 40
3.0
 40
3.0
 40
4.0
 40
4.0
 40
4.0
 40
5.0
 40
5.0
 40
5.0
 40
6.0
 40
6.0
 40
6.0
 40
7.0
 40
7.0
 40
7.0
 40
8.0
 40
8.0
 40
8.0
 40
8.0
 10
1610.87438572772
 20
694.954161118576
 10
1610.87438572772
 20
693.4025358671939
 10
1610.826714218943
 20
691.9715750851826
 10
1610.910316997039
 20
690.5483092469154
 10
1610.929501872523
 20
690.2219241304199
 10
1611.362065908466
 20
689.7095603788187
 10
1611.671268611229
 20
689.653814427498
 10
1612.333566686421
 20
689.534425720049
 10
1612.499561076232
 20
689.1739260838069
 10
1612.801674418441
 20
688.6365557836483
 10
1613.783155207381
 20
686.8908693801743
 10
1615.091021112815
 20
685.741391739674
 10
1616.915328363336
 20
687.6754548876889
 10
1617.116737258142
 20
687.8889835207533
 10
1617.404025923842
 20
688.0944054135039
 10
1617.682222767238
 20
688.1501029181693
 10
1618.949248142287
 20
688.4037938284453
 10
1618.880631529552
 20
689.1951214954837
 10
1618.584590168135
 20
690.1489634675963
 10
1618.345344435569
 20
690.9198143483444
 10
1618.171533985377
 20
691.7109724520894
 10
1617.941735350587
 20
692.597045627934
 10
1615.337663034751
 20
692.0233887829846
 10
1613.681885548999
 20
694.4390116842973
 10
1610.87438572772
 20
694.954161118576
 97
        0
 92
        1
 93
        1
 72
     4
 94
        3
 73
     0
 74
     1
 95
       41
 96
       37
 40
0.0
 40
0.0
 40
0.0
 40
0.0
 40
1.0
 40
1.0
 40
1.0
 40
2.0
 40
2.0
 40
2.0
 40
3.0
 40
3.0
 40
3.0
 40
4.0
 40
4.0
 40
4.0
 40
5.0
 40
5.0
 40
5.0
 40
6.0
 40
6.0
 40
6.0
 40
7.0
 40
7.0
 40
7.0
 40
8.0
 40
8.0
 40
8.0
 40
9.0
 40
9.0
 40
9.0
 40
10.0
 40
10.0
 40
10.0
 40
11.0
 40
11.0
 40
11.0
 40
12.0
 40
12.0
 40
12.0
 40
12.0
 10
1606.532095867763
 20
695.0472352177756
 10
1603.230262525082
 20
691.5635331312442
 10
1600.031669004764
 20
688.1887633490678
 10
1596.83309163333
 20
684.8139935668916
 10
1596.870589344503
 20
684.7277342971987
 10
1596.908087055675
 20
684.6414669530634
 10
1596.945600915732
 20
684.5552076833706
 10
1598.418782957804
 20
684.934222016365
 10
1599.891964999875
 20
685.3132363493595
 10
1601.614970294244
 20
685.7565232450006
 10
1601.029718549802
 20
686.2977046820398
 10
1600.765700427513
 20
686.5418273779015
 10
1600.501698454109
 20
686.785958148206
 10
1600.537452085692
 20
686.911273496482
 10
1600.573205717275
 20
687.0365969192004
 10
1600.608959348858
 20
687.1619122674764
 10
1603.214646553203
 20
686.8043678772052
 10
1605.820349906433
 20
686.4468234869341
 10
1608.694964494134
 20
686.0523788942389
 10
1608.232137447538
 20
686.7286538294744
 10
1607.746588919624
 20
687.1459410201253
 10
1607.650099331228
 20
687.6393136828641
 10
1607.442247031272
 20
688.7021041082169
 10
1606.954534552756
 20
689.4331641361102
 10
1606.13118364659
 20
690.1696098171802
 10
1605.033996096002
 20
691.1510421594642
 10
1605.564906842126
 20
692.8018215652811
 10
1607.002399848154
 20
693.4059998030451
 10
1607.297779105283
 20
693.0618589873962
 10
1607.596468883854
 20
692.7138424393265
 10
1607.895158662425
 20
692.3658258912568
 10
1608.012286525962
 20
692.4455206391617
 10
1608.129414389499
 20
692.5252234615091
 10
1608.246542253036
 20
692.604918209414
 10
1607.699288835204
 20
693.3845137114367
 10
1607.152035417372
 20
694.1641092134594
 10
1606.532095867763
 20
695.0472352177756
 97
        0
 75
     2
 76
     1
 98
        0
  0
SPLINE
  5
45
330
1F
100
AcDbEntity
  8
_U+0421_U+043B_U+043E_U+0439 1
370
     0
100
AcDbSpline
210
0.0
220
0.0
230
1.0
 70
    11
 71
     3
 72
   119
 73
   115
 74
     0
 42
0.0000000001
 43
0.0000000001
 12
1.0
 22
0.0
 32
0.0
 13
1.0
 23
0.0
 33
0.0
 40
0.0
 40
0.0
 40
0.0
 40
0.0
 40
1.0
 40
1.0
 40
1.0
 40
2.0
 40
2.0
 40
2.0
 40
3.0
 40
3.0
 40
3.0
 40
4.0
 40
4.0
 40
4.0
 40
5.0
 40
5.0
 40
5.0
 40
6.0
 40
6.0
 40
6.0
 40
7.0
 40
7.0
 40
7.0
 40
8.0
 40
8.0
 40
8.0
 40
9.0
 40
9.0
 40
9.0
 40
10.0
 40
10.0
 40
10.0
 40
11.0
 40
11.0
 40
11.0
 40
12.0
 40
12.0
 40
12.0
 40
13.0
 40
13.0
 40
13.0
 40
14.0
 40
14.0
 40
14.0
 40
15.0
 40
15.0
 40
15.0
 40
16.0
 40
16.0
 40
16.0
 40
17.0
 40
17.0
 40
17.0
 40
18.0
 40
18.0
 40
18.0
 40
19.0
 40
19.0
 40
19.0
 40
20.0
 40
20.0
 40
20.0
 40
21.0
 40
21.0
 40
21.0
 40
22.0
 40
22.0
 40
22.0
 40
23.0
 40
23.0
 40
23.0
 40
24.0
 40
24.0
 40
24.0
 40
25.0
 40
25.0
 40
25.0
 40
26.0
 40
26.0
 40
26.0
 40
27.0
 40
27.0
 40
27.0
 40
28.0
 40
28.0
 40
28.0
 40
29.0
 40
29.0
 40
29.0
 40
30.0
 40
30.0
 40
30.0
 40
31.0
 40
31.0
 40
31.0
 40
32.0
 40
32.0
 40
32.0
 40
33.0
 40
33.0
 40
33.0
 40
34.0
 40
34.0
 40
34.0
 40
35.0
 40
35.0
 40
35.0
 40
36.0
 40
36.0
 40
36.0
 40
37.0
 40
37.0
 40
37.0
 40
38.0
 40
38.0
 40
38.0
 40
38.0
 10
1480.177558762002
 20
734.5100638440794
 30
0.0
 10
1482.1396321512
 20
734.1149652215381
 30
0.0
 10
1484.122666793242
 20
733.7997793568504
 30
0.0
 10
1486.055349211582
 20
733.2926962906727
 30
0.0
 10
1487.099067803647
 20
733.0188677206932
 30
0.0
 10
1488.023187752757
 20
732.7608246858863
 30
0.0
 10
1489.116475347597
 20
733.1664120092915
 30
0.0
 10
1489.80817246809
 20
733.4230016444405
 30
0.0
 10
1490.649166031214
 20
733.2771449143338
 30
0.0
 10
1491.598680102123
 20
733.3196487798831
 30
0.0
 10
1491.005103607419
 20
734.6945325584294
 30
0.0
 10
1490.457882487357
 20
735.9620504744739
 30
0.0
 10
1489.779669685912
 20
737.5329655690927
 30
0.0
 10
1490.560024185533
 20
737.3585495357092
 30
0.0
 10
1491.055657692184
 20
737.286008743898
 30
0.0
 10
1491.526922531239
 20
737.136583110187
 30
0.0
 10
1496.851863974305
 20
735.4481202810192
 30
0.0
 10
1502.16477449798
 20
733.7211585098039
 30
0.0
 10
1507.50007545083
 20
732.0663015105024
 30
0.0
 10
1509.208506376408
 20
731.536391995254
 30
0.0
 10
1510.937389864948
 20
730.9758399705529
 30
0.0
 10
1512.78919059233
 20
731.6806903579499
 30
0.0
 10
1513.155762209364
 20
731.8202167251025
 30
0.0
 10
1513.849986630374
 20
731.5168518442987
 30
0.0
 10
1514.204486955806
 20
731.2040075679486
 30
0.0
 10
1517.005519148608
 20
728.7320735043372
 30
0.0
 10
1520.490157870474
 20
727.7959226358375
 30
0.0
 10
1523.916458744964
 20
726.6530418148952
 30
0.0
 10
1528.0448485475
 20
725.2759617879772
 30
0.0
 10
1532.075723307438
 20
723.6067726531609
 30
0.0
 10
1536.203281442392
 20
722.2268827202377
 30
0.0
 10
1543.708136660039
 20
719.7178950397939
 30
0.0
 10
1551.245499583367
 20
717.3049609278484
 30
0.0
 10
1558.785220243916
 20
714.901909933576
 30
0.0
 10
1561.885854627297
 20
713.913686985113
 30
0.0
 10
1565.022872448778
 20
713.0375695969246
 30
0.0
 10
1568.155643113481
 20
712.154080242694
 30
0.0
 10
1568.680934047595
 20
712.0059384453474
 30
0.0
 10
1569.271304988609
 20
712.1024118848578
 30
0.0
 10
1569.827730973171
 20
712.0470292834516
 30
0.0
 10
1570.481340948186
 20
711.9819977232058
 30
0.0
 10
1571.336941177872
 20
712.1090329277436
 30
0.0
 10
1571.74825328104
 20
711.7472494551371
 30
0.0
 10
1574.295336181405
 20
709.506833882577
 30
0.0
 10
1577.482124866724
 20
708.7509610927473
 30
0.0
 10
1580.555855207549
 20
707.706895299653
 30
0.0
 10
1585.679250490286
 20
705.9666026237982
 30
0.0
 10
1590.803194835114
 20
704.2267701911684
 30
0.0
 10
1595.904724527443
 20
702.4239651811414
 30
0.0
 10
1596.968645374752
 20
702.0479868385432
 30
0.0
 10
1598.008891956523
 20
701.5017346515867
 30
0.0
 10
1598.929071577671
 20
700.849222800757
 30
0.0
 10
1600.005297875417
 20
700.086066863753
 30
0.0
 10
1600.127916359883
 20
698.9688627700992
 30
0.0
 10
1599.500451429823
 20
697.7994331820737
 30
0.0
 10
1598.463951389392
 20
695.8676712501835
 30
0.0
 10
1596.848400776393
 20
694.9691715072645
 30
0.0
 10
1594.758040644062
 20
695.4952133645345
 30
0.0
 10
1588.704566473619
 20
697.0185942158993
 30
0.0
 10
1582.677996345731
 20
698.6487999421153
 30
0.0
 10
1576.641074782503
 20
700.2378906068994
 30
0.0
 10
1576.087700937223
 20
700.3835454759426
 30
0.0
 10
1575.542805256614
 20
700.5730041957846
 30
0.0
 10
1574.981825286457
 20
700.6757837749215
 30
0.0
 10
1573.864580820591
 20
700.8804628189581
 30
0.0
 10
1572.963747563777
 20
701.1190625961201
 30
0.0
 10
1572.750372345121
 20
702.5783081503614
 30
0.0
 10
1572.670742192756
 20
703.1229050765965
 30
0.0
 10
1571.616962845282
 20
703.7383390872662
 30
0.0
 10
1570.899645518598
 20
703.9419361560019
 30
0.0
 10
1566.119801617205
 20
705.298620141055
 30
0.0
 10
1561.322662259884
 20
706.5990817826773
 30
0.0
 10
1556.507839873392
 20
707.8264616448379
 30
0.0
 10
1551.90522998583
 20
708.9997346675142
 30
0.0
 10
1547.2760551823
 20
710.0692268801781
 30
0.0
 10
1542.653452975
 20
711.1627405594091
 30
0.0
 10
1542.190028419655
 20
711.2723753402655
 30
0.0
 10
1541.688750877667
 20
711.27784981231
 30
0.0
 10
1541.209274330545
 20
711.2522861272172
 30
0.0
 10
1540.214987475732
 20
711.1992531885911
 30
0.0
 10
1539.453373757254
 20
711.6034840056491
 30
0.0
 10
1538.557821185863
 20
712.0401983050597
 30
0.0
 10
1536.727005934652
 20
712.9329894171005
 30
0.0
 10
1534.687724725852
 20
713.4250297968197
 30
0.0
 10
1532.704254063913
 20
713.9734782321481
 30
0.0
 10
1522.657620854653
 20
716.7515144125855
 30
0.0
 10
1512.605149823434
 20
719.5086458612777
 30
0.0
 10
1502.545839739381
 20
722.2403589648428
 30
0.0
 10
1500.025677030457
 20
722.924740640392
 30
0.0
 10
1498.059865174361
 20
724.3261570371363
 30
0.0
 10
1496.336771061124
 20
726.2679151288954
 30
0.0
 10
1495.469180284261
 20
727.2456090042816
 30
0.0
 10
1494.233847096195
 20
727.9127517450003
 30
0.0
 10
1493.118338635476
 20
728.6500210192097
 30
0.0
 10
1492.100975023873
 20
729.3224363709093
 30
0.0
 10
1491.030764185823
 20
729.917773094088
 30
0.0
 10
1489.963040276076
 20
730.5095409136626
 30
0.0
 10
1489.59065506041
 20
730.715939813961
 30
0.0
 10
1489.158680458772
 20
730.817815055533
 30
0.0
 10
1488.749419264009
 20
730.953901710162
 30
0.0
 10
1488.212129708276
 20
731.1325649003232
 30
0.0
 10
1487.594765905838
 20
731.185355605673
 30
0.0
 10
1487.143824438666
 20
731.4885751465112
 30
0.0
 10
1485.311216661211
 20
732.7208400464106
 30
0.0
 10
1483.344879966349
 20
733.5046423329985
 30
0.0
 10
1481.123358589341
 20
733.6146646870969
 30
0.0
 10
1480.868173907195
 20
733.6273011896776
 30
0.0
 10
1480.614305359183
 20
733.7511389149681
 30
0.0
 10
1480.369423665722
 20
733.8477738433294
 30
0.0
 10
1480.26243730202
 20
733.8899870289471
 30
0.0
 10
1480.179666191506
 20
733.9935821267809
 30
0.0
 10
1480.085897690248
 20
734.0693123233968
 30
0.0
 10
1480.116451380832
 20
734.2162268054768
 30
0.0
 10
1480.147005071417
 20
734.3631493619994
 30
0.0
 10
1480.177558762002
 20
734.5100638440794
 30
0.0
  0
HATCH
  5
46
330
1F
100
AcDbEntity
  8
_U+0421_U+043B_U+043E_U+0439 1
 62
     7
100
AcDbHatch
 10
0.0
 20
0.0
 30
0.0
210
0.0
220
0.0
230
1.0
  2
SOLID
 70
     1
 71
     0
 91
        1
 92
        1
 93
        1
 72
     4
 94
        3
 73
     0
 74
     1
 95
      119
 96
      115
 40
0.0
 40
0.0
 40
0.0
 40
0.0
 40
1.0
 40
1.0
 40
1.0
 40
2.0
 40
2.0
 40
2.0
 40
3.0
 40
3.0
 40
3.0
 40
4.0
 40
4.0
 40
4.0
 40
5.0
 40
5.0
 40
5.0
 40
6.0
 40
6.0
 40
6.0
 40
7.0
 40
7.0
 40
7.0
 40
8.0
 40
8.0
 40
8.0
 40
9.0
 40
9.0
 40
9.0
 40
10.0
 40
10.0
 40
10.0
 40
11.0
 40
11.0
 40
11.0
 40
12.0
 40
12.0
 40
12.0
 40
13.0
 40
13.0
 40
13.0
 40
14.0
 40
14.0
 40
14.0
 40
15.0
 40
15.0
 40
15.0
 40
16.0
 40
16.0
 40
16.0
 40
17.0
 40
17.0
 40
17.0
 40
18.0
 40
18.0
 40
18.0
 40
19.0
 40
19.0
 40
19.0
 40
20.0
 40
20.0
 40
20.0
 40
21.0
 40
21.0
 40
21.0
 40
22.0
 40
22.0
 40
22.0
 40
23.0
 40
23.0
 40
23.0
 40
24.0
 40
24.0
 40
24.0
 40
25.0
 40
25.0
 40
25.0
 40
26.0
 40
26.0
 40
26.0
 40
27.0
 40
27.0
 40
27.0
 40
28.0
 40
28.0
 40
28.0
 40
29.0
 40
29.0
 40
29.0
 40
30.0
 40
30.0
 40
30.0
 40
31.0
 40
31.0
 40
31.0
 40
32.0
 40
32.0
 40
32.0
 40
33.0
 40
33.0
 40
33.0
 40
34.0
 40
34.0
 40
34.0
 40
35.0
 40
35.0
 40
35.0
 40
36.0
 40
36.0
 40
36.0
 40
37.0
 40
37.0
 40
37.0
 40
38.0
 40
38.0
 40
38.0
 40
38.0
 10
1480.177558762002
 20
734.5100638440794
 10
1482.1396321512
 20
734.1149652215381
 10
1484.122666793242
 20
733.7997793568504
 10
1486.055349211582
 20
733.2926962906727
 10
1487.099067803647
 20
733.0188677206932
 10
1488.023187752757
 20
732.7608246858863
 10
1489.116475347597
 20
733.1664120092915
 10
1489.80817246809
 20
733.4230016444405
 10
1490.649166031214
 20
733.2771449143338
 10
1491.598680102123
 20
733.3196487798831
 10
1491.005103607419
 20
734.6945325584294
 10
1490.457882487357
 20
735.9620504744739
 10
1489.779669685912
 20
737.5329655690927
 10
1490.560024185533
 20
737.3585495357092
 10
1491.055657692184
 20
737.286008743898
 10
1491.526922531239
 20
737.136583110187
 10
1496.851863974305
 20
735.4481202810192
 10
1502.16477449798
 20
733.7211585098039
 10
1507.50007545083
 20
732.0663015105024
 10
1509.208506376408
 20
731.536391995254
 10
1510.937389864948
 20
730.9758399705529
 10
1512.78919059233
 20
731.6806903579499
 10
1513.155762209364
 20
731.8202167251025
 10
1513.849986630374
 20
731.5168518442987
 10
1514.204486955806
 20
731.2040075679486
 10
1517.005519148608
 20
728.7320735043372
 10
1520.490157870474
 20
727.7959226358375
 10
1523.916458744964
 20
726.6530418148952
 10
1528.0448485475
 20
725.2759617879772
 10
1532.075723307438
 20
723.6067726531609
 10
1536.203281442392
 20
722.2268827202377
 10
1543.708136660039
 20
719.7178950397939
 10
1551.245499583367
 20
717.3049609278484
 10
1558.785220243916
 20
714.901909933576
 10
1561.885854627297
 20
713.913686985113
 10
1565.022872448778
 20
713.0375695969246
 10
1568.155643113481
 20
712.154080242694
 10
1568.680934047595
 20
712.0059384453474
 10
1569.271304988609
 20
712.1024118848578
 10
1569.827730973171
 20
712.0470292834516
 10
1570.481340948186
 20
711.9819977232058
 10
1571.336941177872
 20
712.1090329277436
 10
1571.74825328104
 20
711.7472494551371
 10
1574.295336181405
 20
709.506833882577
 10
1577.482124866724
 20
708.7509610927473
 10
1580.555855207549
 20
707.706895299653
 10
1585.679250490286
 20
705.9666026237982
 10
1590.803194835114
 20
704.2267701911684
 10
1595.904724527443
 20
702.4239651811414
 10
1596.968645374752
 20
702.0479868385432
 10
1598.008891956523
 20
701.5017346515867
 10
1598.929071577671
 20
700.849222800757
 10
1600.005297875417
 20
700.086066863753
 10
1600.127916359883
 20
698.9688627700992
 10
1599.500451429823
 20
697.7994331820737
 10
1598.463951389392
 20
695.8676712501835
 10
1596.848400776393
 20
694.9691715072645
 10
1594.758040644062
 20
695.4952133645345
 10
1588.704566473619
 20
697.0185942158993
 10
1582.677996345731
 20
698.6487999421153
 10
1576.641074782503
 20
700.2378906068994
 10
1576.087700937223
 20
700.3835454759426
 10
1575.542805256614
 20
700.5730041957846
 10
1574.981825286457
 20
700.6757837749215
 10
1573.864580820591
 20
700.8804628189581
 10
1572.963747563777
 20
701.1190625961201
 10
1572.750372345121
 20
702.5783081503614
 10
1572.670742192756
 20
703.1229050765965
 10
1571.616962845282
 20
703.7383390872662
 10
1570.899645518598
 20
703.9419361560019
 10
1566.119801617205
 20
705.298620141055
 10
1561.322662259884
 20
706.5990817826773
 10
1556.507839873392
 20
707.8264616448379
 10
1551.90522998583
 20
708.9997346675142
 10
1547.2760551823
 20
710.0692268801781
 10
1542.653452975
 20
711.1627405594091
 10
1542.190028419655
 20
711.2723753402655
 10
1541.688750877667
 20
711.27784981231
 10
1541.209274330545
 20
711.2522861272172
 10
1540.214987475732
 20
711.1992531885911
 10
1539.453373757254
 20
711.6034840056491
 10
1538.557821185863
 20
712.0401983050597
 10
1536.727005934652
 20
712.9329894171005
 10
1534.687724725852
 20
713.4250297968197
 10
1532.704254063913
 20
713.9734782321481
 10
1522.657620854653
 20
716.7515144125855
 10
1512.605149823434
 20
719.5086458612777
 10
1502.545839739381
 20
722.2403589648428
 10
1500.025677030457
 20
722.924740640392
 10
1498.059865174361
 20
724.3261570371363
 10
1496.336771061124
 20
726.2679151288954
 10
1495.469180284261
 20
727.2456090042816
 10
1494.233847096195
 20
727.9127517450003
 10
1493.118338635476
 20
728.6500210192097
 10
1492.100975023873
 20
729.3224363709093
 10
1491.030764185823
 20
729.917773094088
 10
1489.963040276076
 20
730.5095409136626
 10
1489.59065506041
 20
730.715939813961
 10
1489.158680458772
 20
730.817815055533
 10
1488.749419264009
 20
730.953901710162
 10
1488.212129708276
 20
731.1325649003232
 10
1487.594765905838
 20
731.185355605673
 10
1487.143824438666
 20
731.4885751465112
 10
1485.311216661211
 20
732.7208400464106
 10
1483.344879966349
 20
733.5046423329985
 10
1481.123358589341
 20
733.6146646870969
 10
1480.868173907195
 20
733.6273011896776
 10
1480.614305359183
 20
733.7511389149681
 10
1480.369423665722
 20
733.8477738433294
 10
1480.26243730202
 20
733.8899870289471
 10
1480.179666191506
 20
733.9935821267809
 10
1480.085897690248
 20
734.0693123233968
 10
1480.116451380832
 20
734.2162268054768
 10
1480.147005071417
 20
734.3631493619994
 10
1480.177558762002
 20
734.5100638440794
 97
        0
 75
     2
 76
     1
 98
        0
  0
SPLINE
  5
47
330
1F
100
AcDbEntity
  8
_U+0421_U+043B_U+043E_U+0439 1
370
     0
100
AcDbSpline
210
0.0
220
0.0
230
1.0
 70
    11
 71
     3
 72
   110
 73
   106
 74
     0
 42
0.0000000001
 43
0.0000000001
 12
1.0
 22
0.0
 32
0.0
 13
1.0
 23
0.0
 33
0.0
 40
0.0
 40
0.0
 40
0.0
 40
0.0
 40
1.0
 40
1.0
 40
1.0
 40
2.0
 40
2.0
 40
2.0
 40
3.0
 40
3.0
 40
3.0
 40
4.0
 40
4.0
 40
4.0
 40
5.0
 40
5.0
 40
5.0
 40
6.0
 40
6.0
 40
6.0
 40
7.0
 40
7.0
 40
7.0
 40
8.0
 40
8.0
 40
8.0
 40
9.0
 40
9.0
 40
9.0
 40
10.0
 40
10.0
 40
10.0
 40
11.0
 40
11.0
 40
11.0
 40
12.0
 40
12.0
 40
12.0
 40
13.0
 40
13.0
 40
13.0
 40
14.0
 40
14.0
 40
14.0
 40
15.0
 40
15.0
 40
15.0
 40
16.0
 40
16.0
 40
16.0
 40
17.0
 40
17.0
 40
17.0
 40
18.0
 40
18.0
 40
18.0
 40
19.0
 40
19.0
 40
19.0
 40
20.0
 40
20.0
 40
20.0
 40
21.0
 40
21.0
 40
21.0
 40
22.0
 40
22.0
 40
22.0
 40
23.0
 40
23.0
 40
23.0
 40
24.0
 40
24.0
 40
24.0
 40
25.0
 40
25.0
 40
25.0
 40
26.0
 40
26.0
 40
26.0
 40
27.0
 40
27.0
 40
27.0
 40
28.0
 40
28.0
 40
28.0
 40
29.0
 40
29.0
 40
29.0
 40
30.0
 40
30.0
 40
30.0
 40
31.0
 40
31.0
 40
31.0
 40
32.0
 40
32.0
 40
32.0
 40
33.0
 40
33.0
 40
33.0
 40
34.0
 40
34.0
 40
34.0
 40
35.0
 40
35.0
 40
35.0
 40
35.0
 10
1463.432214604201
 20
728.3772986478585
 30
0.0
 10
1466.853493175428
 20
727.4441433975426
 30
0.0
 10
1470.273068039279
 20
726.5046335609447
 30
0.0
 10
1473.697108069856
 20
725.5817086293314
 30
0.0
 10
1474.716264207703
 20
725.306991870672
 30
0.0
 10
1475.744843219999
 20
725.0649766043141
 30
0.0
 10
1476.774641473119
 20
724.8325134034852
 30
0.0
 10
1478.250560751212
 20
724.4993215319254
 30
0.0
 10
1479.613316717058
 20
724.0627122002678
 30
0.0
 10
1480.593449074093
 20
722.7311155081975
 30
0.0
 10
1480.999617757361
 20
722.179308104771
 30
0.0
 10
1481.79983538564
 20
721.8569036884495
 30
0.0
 10
1482.48155249515
 20
721.5791347905086
 30
0.0
 10
1485.333421378205
 20
720.4171013918531
 30
0.0
 10
1488.217224681521
 20
719.3335919469334
 30
0.0
 10
1491.072113406088
 20
718.1787609510267
 30
0.0
 10
1493.617532971288
 20
717.1491161123153
 30
0.0
 10
1496.212505390378
 20
716.8246446387025
 30
0.0
 10
1498.958058088463
 20
717.1191518560361
 30
0.0
 10
1500.412806178208
 20
717.2752066070753
 30
0.0
 10
1501.91897231807
 20
716.9810385163286
 30
0.0
 10
1503.39884807301
 20
716.8542616939523
 30
0.0
 10
1503.786784665015
 20
716.8210353628855
 30
0.0
 10
1504.164951181542
 20
716.5568799750731
 30
0.0
 10
1504.544724512136
 20
716.5635171668439
 30
0.0
 10
1508.131900579863
 20
716.6262232876371
 30
0.0
 10
1511.140857742603
 20
714.623826132376
 30
0.0
 10
1514.482611129219
 20
713.8149607761329
 30
0.0
 10
1526.794036653078
 20
710.8349585643535
 30
0.0
 10
1539.100552915871
 20
707.8345764595942
 30
0.0
 10
1551.407214518629
 20
704.8349452779914
 30
0.0
 10
1552.603540074767
 20
704.5433610088586
 30
0.0
 10
1553.781197519744
 20
703.9675482877501
 30
0.0
 10
1554.979670877599
 20
703.9318996239203
 30
0.0
 10
1558.376911833374
 20
703.8308641243729
 30
0.0
 10
1561.310098427286
 20
702.2071421755193
 30
0.0
 10
1564.472066276227
 20
701.3556922093015
 30
0.0
 10
1571.137728531437
 20
699.560784004082
 30
0.0
 10
1577.868050922536
 20
698.0063246233672
 30
0.0
 10
1584.570387295779
 20
696.347252765058
 30
0.0
 10
1587.884929811023
 20
695.5267763604372
 30
0.0
 10
1591.196177953709
 20
694.6930901678153
 30
0.0
 10
1594.884680200915
 20
693.7714813703366
 30
0.0
 10
1593.838506978317
 20
692.7465439316279
 30
0.0
 10
1592.923010533844
 20
692.0066100913791
 30
0.0
 10
1592.200331777311
 20
691.1110978922012
 30
0.0
 10
1590.313269959342
 20
688.7727312571453
 30
0.0
 10
1588.106621705499
 20
688.6003822810532
 30
0.0
 10
1585.27877428901
 20
689.2877030536881
 30
0.0
 10
1578.702350772791
 20
690.8861358484952
 30
0.0
 10
1572.039013957034
 20
692.1275329429114
 30
0.0
 10
1565.409024588981
 20
693.5046129698295
 30
0.0
 10
1564.333993308732
 20
693.727903603929
 30
0.0
 10
1563.229845588671
 20
693.8371750348709
 30
0.0
 10
1562.179602847031
 20
694.139651726995
 30
0.0
 10
1561.804351204262
 20
694.2477119915553
 30
0.0
 10
1561.295435239627
 20
694.7639676244626
 30
0.0
 10
1561.285132250941
 20
695.1070345392532
 30
0.0
 10
1561.251316485569
 20
696.2350018648175
 30
0.0
 10
1560.64810718091
 20
696.6420910345358
 30
0.0
 10
1559.67106733537
 20
696.8120499756352
 30
0.0
 10
1555.81694212271
 20
697.4824870889115
 30
0.0
 10
1551.96544917832
 20
698.1682737174632
 30
0.0
 10
1548.112696620893
 20
698.846575337777
 30
0.0
 10
1542.307398516469
 20
699.8686382749402
 30
0.0
 10
1536.503214685115
 20
700.8970880961552
 30
0.0
 10
1530.694363825972
 20
701.8984320137516
 30
0.0
 10
1530.09895443281
 20
702.0010662529227
 30
0.0
 10
1529.474590088687
 20
701.9293490542508
 30
0.0
 10
1528.864291423475
 20
701.9537177218473
 30
0.0
 10
1528.254574118126
 20
701.9780621661162
 30
0.0
 10
1527.565614233655
 20
701.8473369413359
 30
0.0
 10
1527.049205186339
 20
702.0845479143806
 30
0.0
 10
1523.464612940226
 20
703.7311124611897
 30
0.0
 10
1519.560587672648
 20
703.9683234342343
 30
0.0
 10
1515.779390825041
 20
704.7401028758749
 30
0.0
 10
1512.072147796692
 20
705.4968073332866
 30
0.0
 10
1508.764831907524
 20
706.9129838110006
 30
0.0
 10
1506.151046037308
 20
709.8255644275413
 30
0.0
 10
1505.39454344096
 20
710.6685523779735
 30
0.0
 10
1504.071998198981
 20
711.0088739822992
 30
0.0
 10
1502.999623410329
 20
711.5615453510778
 30
0.0
 10
1502.011061335279
 20
712.071026526691
 30
0.0
 10
1501.047077863331
 20
712.6633111105883
 30
0.0
 10
1500.004796522039
 20
713.0243436600383
 30
0.0
 10
1498.774081915108
 20
713.4506177052401
 30
0.0
 10
1497.485110205226
 20
713.7703010344245
 30
0.0
 10
1496.195460242169
 20
713.9489157779306
 30
0.0
 10
1494.671990571936
 20
714.1599332593638
 30
0.0
 10
1493.090489883143
 20
714.0167007230837
 30
0.0
 10
1491.590210011895
 20
714.3119507891313
 30
0.0
 10
1490.115235443579
 20
714.6022269985721
 30
0.0
 10
1488.523552882738
 20
714.9705830674089
 30
0.0
 10
1487.306233775987
 20
715.7866750497286
 30
0.0
 10
1480.880132156602
 20
720.094705049974
 30
0.0
 10
1474.264870571748
 20
723.9856658695172
 30
0.0
 10
1466.830715173013
 20
726.3263740929107
 30
0.0
 10
1465.875145270196
 20
726.627235896526
 30
0.0
 10
1464.994328556447
 20
727.1692812989174
 30
0.0
 10
1464.08602644028
 20
727.6141830830672
 30
0.0
 10
1463.818390967731
 20
727.7452797322044
 30
0.0
 10
1463.575293726073
 20
727.9264782973244
 30
0.0
 10
1463.320956860393
 20
728.0847212222928
 30
0.0
 10
1463.358042774996
 20
728.1822443393339
 30
0.0
 10
1463.395128689598
 20
728.2797755308176
 30
0.0
 10
1463.432214604201
 20
728.3772986478585
 30
0.0
  0
HATCH
  5
48
330
1F
100
AcDbEntity
  8
_U+0421_U+043B_U+043E_U+0439 1
 62
     7
100
AcDbHatch
 10
0.0
 20
0.0
 30
0.0
210
0.0
220
0.0
230
1.0
  2
SOLID
 70
     1
 71
     0
 91
        1
 92
        1
 93
        1
 72
     4
 94
        3
 73
     0
 74
     1
 95
      110
 96
      106
 40
0.0
 40
0.0
 40
0.0
 40
0.0
 40
1.0
 40
1.0
 40
1.0
 40
2.0
 40
2.0
 40
2.0
 40
3.0
 40
3.0
 40
3.0
 40
4.0
 40
4.0
 40
4.0
 40
5.0
 40
5.0
 40
5.0
 40
6.0
 40
6.0
 40
6.0
 40
7.0
 40
7.0
 40
7.0
 40
8.0
 40
8.0
 40
8.0
 40
9.0
 40
9.0
 40
9.0
 40
10.0
 40
10.0
 40
10.0
 40
11.0
 40
11.0
 40
11.0
 40
12.0
 40
12.0
 40
12.0
 40
13.0
 40
13.0
 40
13.0
 40
14.0
 40
14.0
 40
14.0
 40
15.0
 40
15.0
 40
15.0
 40
16.0
 40
16.0
 40
16.0
 40
17.0
 40
17.0
 40
17.0
 40
18.0
 40
18.0
 40
18.0
 40
19.0
 40
19.0
 40
19.0
 40
20.0
 40
20.0
 40
20.0
 40
21.0
 40
21.0
 40
21.0
 40
22.0
 40
22.0
 40
22.0
 40
23.0
 40
23.0
 40
23.0
 40
24.0
 40
24.0
 40
24.0
 40
25.0
 40
25.0
 40
25.0
 40
26.0
 40
26.0
 40
26.0
 40
27.0
 40
27.0
 40
27.0
 40
28.0
 40
28.0
 40
28.0
 40
29.0
 40
29.0
 40
29.0
 40
30.0
 40
30.0
 40
30.0
 40
31.0
 40
31.0
 40
31.0
 40
32.0
 40
32.0
 40
32.0
 40
33.0
 40
33.0
 40
33.0
 40
34.0
 40
34.0
 40
34.0
 40
35.0
 40
35.0
 40
35.0
 40
35.0
 10
1463.432214604201
 20
728.3772986478585
 10
1466.853493175428
 20
727.4441433975426
 10
1470.273068039279
 20
726.5046335609447
 10
1473.697108069856
 20
725.5817086293314
 10
1474.716264207703
 20
725.306991870672
 10
1475.744843219999
 20
725.0649766043141
 10
1476.774641473119
 20
724.8325134034852
 10
1478.250560751212
 20
724.4993215319254
 10
1479.613316717058
 20
724.0627122002678
 10
1480.593449074093
 20
722.7311155081975
 10
1480.999617757361
 20
722.179308104771
 10
1481.79983538564
 20
721.8569036884495
 10
1482.48155249515
 20
721.5791347905086
 10
1485.333421378205
 20
720.4171013918531
 10
1488.217224681521
 20
719.3335919469334
 10
1491.072113406088
 20
718.1787609510267
 10
1493.617532971288
 20
717.1491161123153
 10
1496.212505390378
 20
716.8246446387025
 10
1498.958058088463
 20
717.1191518560361
 10
1500.412806178208
 20
717.2752066070753
 10
1501.91897231807
 20
716.9810385163286
 10
1503.39884807301
 20
716.8542616939523
 10
1503.786784665015
 20
716.8210353628855
 10
1504.164951181542
 20
716.5568799750731
 10
1504.544724512136
 20
716.5635171668439
 10
1508.131900579863
 20
716.6262232876371
 10
1511.140857742603
 20
714.623826132376
 10
1514.482611129219
 20
713.8149607761329
 10
1526.794036653078
 20
710.8349585643535
 10
1539.100552915871
 20
707.8345764595942
 10
1551.407214518629
 20
704.8349452779914
 10
1552.603540074767
 20
704.5433610088586
 10
1553.781197519744
 20
703.9675482877501
 10
1554.979670877599
 20
703.9318996239203
 10
1558.376911833374
 20
703.8308641243729
 10
1561.310098427286
 20
702.2071421755193
 10
1564.472066276227
 20
701.3556922093015
 10
1571.137728531437
 20
699.560784004082
 10
1577.868050922536
 20
698.0063246233672
 10
1584.570387295779
 20
696.347252765058
 10
1587.884929811023
 20
695.5267763604372
 10
1591.196177953709
 20
694.6930901678153
 10
1594.884680200915
 20
693.7714813703366
 10
1593.838506978317
 20
692.7465439316279
 10
1592.923010533844
 20
692.0066100913791
 10
1592.200331777311
 20
691.1110978922012
 10
1590.313269959342
 20
688.7727312571453
 10
1588.106621705499
 20
688.6003822810532
 10
1585.27877428901
 20
689.2877030536881
 10
1578.702350772791
 20
690.8861358484952
 10
1572.039013957034
 20
692.1275329429114
 10
1565.409024588981
 20
693.5046129698295
 10
1564.333993308732
 20
693.727903603929
 10
1563.229845588671
 20
693.8371750348709
 10
1562.179602847031
 20
694.139651726995
 10
1561.804351204262
 20
694.2477119915553
 10
1561.295435239627
 20
694.7639676244626
 10
1561.285132250941
 20
695.1070345392532
 10
1561.251316485569
 20
696.2350018648175
 10
1560.64810718091
 20
696.6420910345358
 10
1559.67106733537
 20
696.8120499756352
 10
1555.81694212271
 20
697.4824870889115
 10
1551.96544917832
 20
698.1682737174632
 10
1548.112696620893
 20
698.846575337777
 10
1542.307398516469
 20
699.8686382749402
 10
1536.503214685115
 20
700.8970880961552
 10
1530.694363825972
 20
701.8984320137516
 10
1530.09895443281
 20
702.0010662529227
 10
1529.474590088687
 20
701.9293490542508
 10
1528.864291423475
 20
701.9537177218473
 10
1528.254574118126
 20
701.9780621661162
 10
1527.565614233655
 20
701.8473369413359
 10
1527.049205186339
 20
702.0845479143806
 10
1523.464612940226
 20
703.7311124611897
 10
1519.560587672648
 20
703.9683234342343
 10
1515.779390825041
 20
704.7401028758749
 10
1512.072147796692
 20
705.4968073332866
 10
1508.764831907524
 20
706.9129838110006
 10
1506.151046037308
 20
709.8255644275413
 10
1505.39454344096
 20
710.6685523779735
 10
1504.071998198981
 20
711.0088739822992
 10
1502.999623410329
 20
711.5615453510778
 10
1502.011061335279
 20
712.071026526691
 10
1501.047077863331
 20
712.6633111105883
 10
1500.004796522039
 20
713.0243436600383
 10
1498.774081915108
 20
713.4506177052401
 10
1497.485110205226
 20
713.7703010344245
 10
1496.195460242169
 20
713.9489157779306
 10
1494.671990571936
 20
714.1599332593638
 10
1493.090489883143
 20
714.0167007230837
 10
1491.590210011895
 20
714.3119507891313
 10
1490.115235443579
 20
714.6022269985721
 10
1488.523552882738
 20
714.9705830674089
 10
1487.306233775987
 20
715.7866750497286
 10
1480.880132156602
 20
720.094705049974
 10
1474.264870571748
 20
723.9856658695172
 10
1466.830715173013
 20
726.3263740929107
 10
1465.875145270196
 20
726.627235896526
 10
1464.994328556447
 20
727.1692812989174
 10
1464.08602644028
 20
727.6141830830672
 10
1463.818390967731
 20
727.7452797322044
 10
1463.575293726073
 20
727.9264782973244
 10
1463.320956860393
 20
728.0847212222928
 10
1463.358042774996
 20
728.1822443393339
 10
1463.395128689598
 20
728.2797755308176
 10
1463.432214604201
 20
728.3772986478585
 97
        0
 75
     2
 76
     1
 98
        0
  0
SPLINE
  5
49
330
1F
100
AcDbEntity
  8
_U+0421_U+043B_U+043E_U+0439 1
370
     0
100
AcDbSpline
210
0.0
220
0.0
230
1.0
 70
    11
 71
     3
 72
    86
 73
    82
 74
     0
 42
0.0000000001
 43
0.0000000001
 12
1.0
 22
0.0
 32
0.0
 13
1.0
 23
0.0
 33
0.0
 40
0.0
 40
0.0
 40
0.0
 40
0.0
 40
1.0
 40
1.0
 40
1.0
 40
2.0
 40
2.0
 40
2.0
 40
3.0
 40
3.0
 40
3.0
 40
4.0
 40
4.0
 40
4.0
 40
5.0
 40
5.0
 40
5.0
 40
6.0
 40
6.0
 40
6.0
 40
7.0
 40
7.0
 40
7.0
 40
8.0
 40
8.0
 40
8.0
 40
9.0
 40
9.0
 40
9.0
 40
10.0
 40
10.0
 40
10.0
 40
11.0
 40
11.0
 40
11.0
 40
12.0
 40
12.0
 40
12.0
 40
13.0
 40
13.0
 40
13.0
 40
14.0
 40
14.0
 40
14.0
 40
15.0
 40
15.0
 40
15.0
 40
16.0
 40
16.0
 40
16.0
 40
17.0
 40
17.0
 40
17.0
 40
18.0
 40
18.0
 40
18.0
 40
19.0
 40
19.0
 40
19.0
 40
20.0
 40
20.0
 40
20.0
 40
21.0
 40
21.0
 40
21.0
 40
22.0
 40
22.0
 40
22.0
 40
23.0
 40
23.0
 40
23.0
 40
24.0
 40
24.0
 40
24.0
 40
25.0
 40
25.0
 40
25.0
 40
26.0
 40
26.0
 40
26.0
 40
27.0
 40
27.0
 40
27.0
 40
27.0
 10
1512.544672248783
 20
695.2916889657816
 30
0.0
 10
1514.018330682965
 20
695.5336880832546
 30
0.0
 10
1515.421991774736
 20
695.7641972689879
 30
0.0
 10
1516.985954774325
 20
696.0210291374133
 30
0.0
 10
1515.888468469362
 20
697.6366362715105
 30
0.0
 10
1514.65565450737
 20
698.5516240261036
 30
0.0
 10
1512.910517165989
 20
698.9681037725001
 30
0.0
 10
1511.592760068438
 20
699.2825871606865
 30
0.0
 10
1510.382893672155
 20
700.0431592760766
 30
0.0
 10
1509.118088768805
 20
700.5891611553143
 30
0.0
 10
1508.727414940777
 20
700.757820111164
 30
0.0
 10
1508.214881625883
 20
701.098828043106
 30
0.0
 10
1507.929086732054
 20
700.9729151860818
 30
0.0
 10
1506.964392709163
 20
700.5478926794741
 30
0.0
 10
1506.42116843816
 20
701.1642471765938
 30
0.0
 10
1505.683212836334
 20
701.536172149035
 30
0.0
 10
1504.200284942113
 20
702.2835425508664
 30
0.0
 10
1502.633172909932
 20
702.8703849604893
 30
0.0
 10
1501.079876248943
 20
703.4691936939619
 30
0.0
 10
1500.148933395884
 20
703.8280945905803
 30
0.0
 10
1499.178385402149
 20
704.0842805036023
 30
0.0
 10
1498.301735100753
 20
704.688321475843
 30
0.0
 10
1500.399935516793
 20
704.2658989397344
 30
0.0
 10
1502.491498741063
 20
703.8046221861063
 30
0.0
 10
1504.60026052795
 20
703.4439852843409
 30
0.0
 10
1505.260031302627
 20
703.3311449497947
 30
0.0
 10
1505.966036335307
 20
703.4935300637882
 30
0.0
 10
1506.651185082898
 20
703.5223316003411
 30
0.0
 10
1507.024563454997
 20
703.5380363910882
 30
0.0
 10
1507.457167863153
 20
703.6658305932251
 30
0.0
 10
1507.763568734353
 20
703.5256259728989
 30
0.0
 10
1512.541886566106
 20
701.3392041976275
 30
0.0
 10
1517.698056011126
 20
700.5800451096826
 30
0.0
 10
1522.776105224537
 20
699.5503921965285
 30
0.0
 10
1528.034254878883
 20
698.4842105053075
 30
0.0
 10
1533.288972895147
 20
697.341030929991
 30
0.0
 10
1538.597224465476
 20
696.6084367580144
 30
0.0
 10
1541.096345177131
 20
696.2635207958813
 30
0.0
 10
1543.491063346698
 20
695.7430664528514
 30
0.0
 10
1545.93855607273
 20
695.1760790974431
 30
0.0
 10
1552.87191839603
 20
693.5699029122367
 30
0.0
 10
1559.905274615788
 20
692.3893548168287
 30
0.0
 10
1566.90956284239
 20
691.0971129577157
 30
0.0
 10
1573.393614735911
 20
689.900851997118
 30
0.0
 10
1579.8913447351
 20
688.7786659724148
 30
0.0
 10
1586.381856182655
 20
687.6172058591798
 30
0.0
 10
1586.841130474533
 20
687.5350161085289
 30
0.0
 10
1587.290602393162
 20
687.3980897118754
 30
0.0
 10
1588.081251807027
 20
687.2039881875709
 30
0.0
 10
1587.107845460631
 20
686.1919779313745
 30
0.0
 10
1586.213439460082
 20
685.4663197055427
 30
0.0
 10
1585.575623094682
 20
684.5600684977818
 30
0.0
 10
1583.776572700437
 20
682.0038130306881
 30
0.0
 10
1581.493443326822
 20
681.7400209927902
 30
0.0
 10
1578.504494632704
 20
682.1153372310997
 30
0.0
 10
1568.855487346501
 20
683.3270042280706
 30
0.0
 10
1559.161263182055
 20
684.1797622539804
 30
0.0
 10
1549.482881073879
 20
685.1550983921439
 30
0.0
 10
1548.456587128823
 20
685.2585239266843
 30
0.0
 10
1547.754223669729
 20
685.5741054390567
 30
0.0
 10
1547.615940766728
 20
686.7536280802616
 30
0.0
 10
1547.575213278539
 20
687.1009340773875
 30
0.0
 10
1547.093314398654
 20
687.6072339226386
 30
0.0
 10
1546.742932038919
 20
687.6749461978087
 30
0.0
 10
1543.214416796271
 20
688.3568086472843
 30
0.0
 10
1539.688323886386
 20
689.2230429177994
 30
0.0
 10
1536.054921635097
 20
688.3708985495227
 30
0.0
 10
1535.811105768052
 20
688.3137314963144
 30
0.0
 10
1535.482443658759
 20
688.2965410081392
 30
0.0
 10
1535.284490625361
 20
688.4142260082115
 30
0.0
 10
1532.643405064905
 20
689.9844870729842
 30
0.0
 10
1529.5419309395
 20
689.6119161451395
 30
0.0
 10
1526.745783784438
 20
690.4704877696806
 30
0.0
 10
1524.78574515476
 20
691.0723244191071
 30
0.0
 10
1522.781442431059
 20
691.7276784737121
 30
0.0
 10
1521.028965421406
 20
692.7550059474136
 30
0.0
 10
1519.08912097253
 20
693.8921781374776
 30
0.0
 10
1517.195325069479
 20
694.6558346899193
 30
0.0
 10
1514.928804824176
 20
694.4014655264697
 30
0.0
 10
1514.026421274393
 20
694.3001958680885
 30
0.0
 10
1513.099103846036
 20
694.3445084087675
 30
0.0
 10
1512.544672248783
 20
695.2916889657816
 30
0.0
  0
HATCH
  5
4A
330
1F
100
AcDbEntity
  8
_U+0421_U+043B_U+043E_U+0439 1
 62
     7
100
AcDbHatch
 10
0.0
 20
0.0
 30
0.0
210
0.0
220
0.0
230
1.0
  2
SOLID
 70
     1
 71
     0
 91
        1
 92
        1
 93
        1
 72
     4
 94
        3
 73
     0
 74
     1
 95
       86
 96
       82
 40
0.0
 40
0.0
 40
0.0
 40
0.0
 40
1.0
 40
1.0
 40
1.0
 40
2.0
 40
2.0
 40
2.0
 40
3.0
 40
3.0
 40
3.0
 40
4.0
 40
4.0
 40
4.0
 40
5.0
 40
5.0
 40
5.0
 40
6.0
 40
6.0
 40
6.0
 40
7.0
 40
7.0
 40
7.0
 40
8.0
 40
8.0
 40
8.0
 40
9.0
 40
9.0
 40
9.0
 40
10.0
 40
10.0
 40
10.0
 40
11.0
 40
11.0
 40
11.0
 40
12.0
 40
12.0
 40
12.0
 40
13.0
 40
13.0
 40
13.0
 40
14.0
 40
14.0
 40
14.0
 40
15.0
 40
15.0
 40
15.0
 40
16.0
 40
16.0
 40
16.0
 40
17.0
 40
17.0
 40
17.0
 40
18.0
 40
18.0
 40
18.0
 40
19.0
 40
19.0
 40
19.0
 40
20.0
 40
20.0
 40
20.0
 40
21.0
 40
21.0
 40
21.0
 40
22.0
 40
22.0
 40
22.0
 40
23.0
 40
23.0
 40
23.0
 40
24.0
 40
24.0
 40
24.0
 40
25.0
 40
25.0
 40
25.0
 40
26.0
 40
26.0
 40
26.0
 40
27.0
 40
27.0
 40
27.0
 40
27.0
 10
1512.544672248783
 20
695.2916889657816
 10
1514.018330682965
 20
695.5336880832546
 10
1515.421991774736
 20
695.7641972689879
 10
1516.985954774325
 20
696.0210291374133
 10
1515.888468469362
 20
697.6366362715105
 10
1514.65565450737
 20
698.5516240261036
 10
1512.910517165989
 20
698.9681037725001
 10
1511.592760068438
 20
699.2825871606865
 10
1510.382893672155
 20
700.0431592760766
 10
1509.118088768805
 20
700.5891611553143
 10
1508.727414940777
 20
700.757820111164
 10
1508.214881625883
 20
701.098828043106
 10
1507.929086732054
 20
700.9729151860818
 10
1506.964392709163
 20
700.5478926794741
 10
1506.42116843816
 20
701.1642471765938
 10
1505.683212836334
 20
701.536172149035
 10
1504.200284942113
 20
702.2835425508664
 10
1502.633172909932
 20
702.8703849604893
 10
1501.079876248943
 20
703.4691936939619
 10
1500.148933395884
 20
703.8280945905803
 10
1499.178385402149
 20
704.0842805036023
 10
1498.301735100753
 20
704.688321475843
 10
1500.399935516793
 20
704.2658989397344
 10
1502.491498741063
 20
703.8046221861063
 10
1504.60026052795
 20
703.4439852843409
 10
1505.260031302627
 20
703.3311449497947
 10
1505.966036335307
 20
703.4935300637882
 10
1506.651185082898
 20
703.5223316003411
 10
1507.024563454997
 20
703.5380363910882
 10
1507.457167863153
 20
703.6658305932251
 10
1507.763568734353
 20
703.5256259728989
 10
1512.541886566106
 20
701.3392041976275
 10
1517.698056011126
 20
700.5800451096826
 10
1522.776105224537
 20
699.5503921965285
 10
1528.034254878883
 20
698.4842105053075
 10
1533.288972895147
 20
697.341030929991
 10
1538.597224465476
 20
696.6084367580144
 10
1541.096345177131
 20
696.2635207958813
 10
1543.491063346698
 20
695.7430664528514
 10
1545.93855607273
 20
695.1760790974431
 10
1552.87191839603
 20
693.5699029122367
 10
1559.905274615788
 20
692.3893548168287
 10
1566.90956284239
 20
691.0971129577157
 10
1573.393614735911
 20
689.900851997118
 10
1579.8913447351
 20
688.7786659724148
 10
1586.381856182655
 20
687.6172058591798
 10
1586.841130474533
 20
687.5350161085289
 10
1587.290602393162
 20
687.3980897118754
 10
1588.081251807027
 20
687.2039881875709
 10
1587.107845460631
 20
686.1919779313745
 10
1586.213439460082
 20
685.4663197055427
 10
1585.575623094682
 20
684.5600684977818
 10
1583.776572700437
 20
682.0038130306881
 10
1581.493443326822
 20
681.7400209927902
 10
1578.504494632704
 20
682.1153372310997
 10
1568.855487346501
 20
683.3270042280706
 10
1559.161263182055
 20
684.1797622539804
 10
1549.482881073879
 20
685.1550983921439
 10
1548.456587128823
 20
685.2585239266843
 10
1547.754223669729
 20
685.5741054390567
 10
1547.615940766728
 20
686.7536280802616
 10
1547.575213278539
 20
687.1009340773875
 10
1547.093314398654
 20
687.6072339226386
 10
1546.742932038919
 20
687.6749461978087
 10
1543.214416796271
 20
688.3568086472843
 10
1539.688323886386
 20
689.2230429177994
 10
1536.054921635097
 20
688.3708985495227
 10
1535.811105768052
 20
688.3137314963144
 10
1535.482443658759
 20
688.2965410081392
 10
1535.284490625361
 20
688.4142260082115
 10
1532.643405064905
 20
689.9844870729842
 10
1529.5419309395
 20
689.6119161451395
 10
1526.745783784438
 20
690.4704877696806
 10
1524.78574515476
 20
691.0723244191071
 10
1522.781442431059
 20
691.7276784737121
 10
1521.028965421406
 20
692.7550059474136
 10
1519.08912097253
 20
693.8921781374776
 10
1517.195325069479
 20
694.6558346899193
 10
1514.928804824176
 20
694.4014655264697
 10
1514.026421274393
 20
694.3001958680885
 10
1513.099103846036
 20
694.3445084087675
 10
1512.544672248783
 20
695.2916889657816
 97
        0
 75
     2
 76
     1
 98
        0
  0
SPLINE
  5
4B
330
1F
100
AcDbEntity
  8
_U+0421_U+043B_U+043E_U+0439 1
370
     0
100
AcDbSpline
210
0.0
220
0.0
230
1.0
 70
    11
 71
     3
 72
    98
 73
    94
 74
     0
 42
0.0000000001
 43
0.0000000001
 12
1.0
 22
0.0
 32
0.0
 13
1.0
 23
0.0
 33
0.0
 40
0.0
 40
0.0
 40
0.0
 40
0.0
 40
1.0
 40
1.0
 40
1.0
 40
2.0
 40
2.0
 40
2.0
 40
3.0
 40
3.0
 40
3.0
 40
4.0
 40
4.0
 40
4.0
 40
5.0
 40
5.0
 40
5.0
 40
6.0
 40
6.0
 40
6.0
 40
7.0
 40
7.0
 40
7.0
 40
8.0
 40
8.0
 40
8.0
 40
9.0
 40
9.0
 40
9.0
 40
10.0
 40
10.0
 40
10.0
 40
11.0
 40
11.0
 40
11.0
 40
12.0
 40
12.0
 40
12.0
 40
13.0
 40
13.0
 40
13.0
 40
14.0
 40
14.0
 40
14.0
 40
15.0
 40
15.0
 40
15.0
 40
16.0
 40
16.0
 40
16.0
 40
17.0
 40
17.0
 40
17.0
 40
18.0
 40
18.0
 40
18.0
 40
19.0
 40
19.0
 40
19.0
 40
20.0
 40
20.0
 40
20.0
 40
21.0
 40
21.0
 40
21.0
 40
22.0
 40
22.0
 40
22.0
 40
23.0
 40
23.0
 40
23.0
 40
24.0
 40
24.0
 40
24.0
 40
25.0
 40
25.0
 40
25.0
 40
26.0
 40
26.0
 40
26.0
 40
27.0
 40
27.0
 40
27.0
 40
28.0
 40
28.0
 40
28.0
 40
29.0
 40
29.0
 40
29.0
 40
30.0
 40
30.0
 40
30.0
 40
31.0
 40
31.0
 40
31.0
 40
31.0
 10
1546.523597881666
 20
672.2420138565946
 30
0.0
 10
1545.983433824387
 20
673.4802134717635
 30
0.0
 10
1544.858421744794
 20
673.5536101544844
 30
0.0
 10
1543.594464657911
 20
673.5629280611797
 30
0.0
 10
1538.571580035957
 20
673.5999574546844
 30
0.0
 10
1533.548905349509
 20
673.700355073271
 30
0.0
 10
1528.527199596167
 20
673.8208257560208
 30
0.0
 10
1527.564887533826
 20
673.8439348105804
 30
0.0
 10
1526.607726965828
 20
674.160129980586
 30
0.0
 10
1525.64739314191
 20
674.1644417329043
 30
0.0
 10
1524.757759136904
 20
674.1684305075208
 30
0.0
 10
1523.865969255739
 20
673.9428628806241
 30
0.0
 10
1522.977514119344
 20
673.8032234712758
 30
0.0
 10
1522.72192571507
 20
673.7630611940642
 30
0.0
 10
1522.46923603567
 20
673.5952904268943
 30
0.0
 10
1522.224273597783
 20
673.6127796694436
 30
0.0
 10
1517.574290955818
 20
673.9450429801109
 30
0.0
 10
1512.925672894643
 20
674.2962973796406
 30
0.0
 10
1508.276764153537
 20
674.6436276000941
 30
0.0
 10
1508.266186633805
 20
674.7551033538504
 30
0.0
 10
1508.25560103963
 20
674.8665952564918
 30
0.0
 10
1508.245023519898
 20
674.9780871591332
 30
0.0
 10
1508.754520844396
 20
675.0370305897011
 30
0.0
 10
1509.265358526357
 20
675.1562416594141
 30
0.0
 10
1509.773281334559
 20
675.1448566954277
 30
0.0
 10
1512.459519177719
 20
675.0846213540528
 30
0.0
 10
1515.148356991378
 20
674.8698088846241
 30
0.0
 10
1517.829830913437
 20
674.9435285450468
 30
0.0
 10
1520.592630620795
 20
675.0195090493817
 30
0.0
 10
1523.345983230376
 20
675.3961494962682
 30
0.0
 10
1526.107547548025
 20
675.579633128628
 30
0.0
 10
1527.375977876077
 20
675.6638980110125
 30
0.0
 10
1528.687461131771
 20
675.422988943283
 30
0.0
 10
1529.918878215204
 20
675.6532720446252
 30
0.0
 10
1531.229085708976
 20
675.898315226937
 30
0.0
 10
1532.541327962269
 20
676.3941021479964
 30
0.0
 10
1533.706534616845
 20
677.0428513086007
 30
0.0
 10
1534.293175165404
 20
677.3694625094874
 30
0.0
 10
1534.837715570541
 20
678.2672355525776
 30
0.0
 10
1534.861341389424
 20
678.9260939152466
 30
0.0
 10
1534.875826939347
 20
679.3296061069182
 30
0.0
 10
1533.869493016259
 20
679.7733613202269
 30
0.0
 10
1533.315602406656
 20
680.1910926052176
 30
0.0
 10
1533.181340576042
 20
680.2923299658287
 30
0.0
 10
1533.02343677766
 20
680.3621658193879
 30
0.0
 10
1532.922635436946
 20
680.7442565149914
 30
0.0
 10
1533.638289428467
 20
680.650915959188
 30
0.0
 10
1534.356866368188
 20
680.5754360702908
 30
0.0
 10
1535.068886860563
 20
680.459777755297
 30
0.0
 10
1535.979167215153
 20
680.3119185634393
 30
0.0
 10
1536.879548303185
 20
680.0352477896845
 30
0.0
 10
1537.792687010436
 20
679.9915085344261
 30
0.0
 10
1538.78056275787
 20
679.9442165244485
 30
0.0
 10
1539.639570402308
 20
680.2465640254918
 30
0.0
 10
1540.240809542986
 20
681.2189772154546
 30
0.0
 10
1540.584893837537
 20
681.775492018884
 30
0.0
 10
1541.251051496266
 20
682.1660851024859
 30
0.0
 10
1541.832992719265
 20
682.5356361888194
 30
0.0
 10
1543.153228670676
 20
683.3740701536569
 30
0.0
 10
1543.190710232963
 20
683.5777964134734
 30
0.0
 10
1542.03884255747
 20
684.6338527537448
 30
0.0
 10
1541.914027824632
 20
684.748283753472
 30
0.0
 10
1541.809560687003
 20
684.8848952468664
 30
0.0
 10
1541.528796170879
 20
685.1962699746736
 30
0.0
 10
1542.020707359517
 20
685.1044716373958
 30
0.0
 10
1542.306720263295
 20
685.0997803862781
 30
0.0
 10
1542.552538592091
 20
684.997993963574
 30
0.0
 10
1547.039796993476
 20
683.1401535531702
 30
0.0
 10
1551.85612122628
 20
683.1965373854517
 30
0.0
 10
1556.556544910815
 20
682.6145638646826
 30
0.0
 10
1564.158729458882
 20
681.6733180229379
 30
0.0
 10
1571.772589650867
 20
680.8264462656423
 30
0.0
 10
1579.380862328611
 20
679.934107322384
 30
0.0
 10
1579.495713199351
 20
679.9206391522213
 30
0.0
 10
1579.602102054305
 20
679.834937019064
 30
0.0
 10
1579.904699863067
 20
679.6923423637448
 30
0.0
 10
1578.747390013299
 20
678.621485570291
 30
0.0
 10
1577.697825524833
 20
677.5852600609065
 30
0.0
 10
1576.580548761196
 20
676.6280348973681
 30
0.0
 10
1572.236062652867
 20
672.9059268202958
 30
0.0
 10
1574.099434056413
 20
673.5241707369706
 30
0.0
 10
1568.413347021702
 20
673.5466015383566
 30
0.0
 10
1566.812152767545
 20
673.5528996035406
 30
0.0
 10
1565.219452826943
 20
673.6545729840491
 30
0.0
 10
1563.821120867251
 20
672.3157496659023
 30
0.0
 10
1563.030842877743
 20
673.8223114534488
 30
0.0
 10
1561.68539851671
 20
673.5354749565316
 30
0.0
 10
1560.435329471002
 20
673.505341136959
 30
0.0
 10
1557.174465849788
 20
673.4267122154699
 30
0.0
 10
1553.909371220681
 20
673.3959162916088
 30
0.0
 10
1550.656275213193
 20
673.1861907209825
 30
0.0
 10
1549.333455440168
 20
673.1009084588375
 30
0.0
 10
1548.037345923076
 20
672.6017141230249
 30
0.0
 10
1546.523597881666
 20
672.2420138565946
 30
0.0
  0
HATCH
  5
4C
330
1F
100
AcDbEntity
  8
_U+0421_U+043B_U+043E_U+0439 1
 62
     7
100
AcDbHatch
 10
0.0
 20
0.0
 30
0.0
210
0.0
220
0.0
230
1.0
  2
SOLID
 70
     1
 71
     0
 91
        1
 92
        1
 93
        1
 72
     4
 94
        3
 73
     0
 74
     1
 95
       98
 96
       94
 40
0.0
 40
0.0
 40
0.0
 40
0.0
 40
1.0
 40
1.0
 40
1.0
 40
2.0
 40
2.0
 40
2.0
 40
3.0
 40
3.0
 40
3.0
 40
4.0
 40
4.0
 40
4.0
 40
5.0
 40
5.0
 40
5.0
 40
6.0
 40
6.0
 40
6.0
 40
7.0
 40
7.0
 40
7.0
 40
8.0
 40
8.0
 40
8.0
 40
9.0
 40
9.0
 40
9.0
 40
10.0
 40
10.0
 40
10.0
 40
11.0
 40
11.0
 40
11.0
 40
12.0
 40
12.0
 40
12.0
 40
13.0
 40
13.0
 40
13.0
 40
14.0
 40
14.0
 40
14.0
 40
15.0
 40
15.0
 40
15.0
 40
16.0
 40
16.0
 40
16.0
 40
17.0
 40
17.0
 40
17.0
 40
18.0
 40
18.0
 40
18.0
 40
19.0
 40
19.0
 40
19.0
 40
20.0
 40
20.0
 40
20.0
 40
21.0
 40
21.0
 40
21.0
 40
22.0
 40
22.0
 40
22.0
 40
23.0
 40
23.0
 40
23.0
 40
24.0
 40
24.0
 40
24.0
 40
25.0
 40
25.0
 40
25.0
 40
26.0
 40
26.0
 40
26.0
 40
27.0
 40
27.0
 40
27.0
 40
28.0
 40
28.0
 40
28.0
 40
29.0
 40
29.0
 40
29.0
 40
30.0
 40
30.0
 40
30.0
 40
31.0
 40
31.0
 40
31.0
 40
31.0
 10
1546.523597881666
 20
672.2420138565946
 10
1545.983433824387
 20
673.4802134717635
 10
1544.858421744794
 20
673.5536101544844
 10
1543.594464657911
 20
673.5629280611797
 10
1538.571580035957
 20
673.5999574546844
 10
1533.548905349509
 20
673.700355073271
 10
1528.527199596167
 20
673.8208257560208
 10
1527.564887533826
 20
673.8439348105804
 10
1526.607726965828
 20
674.160129980586
 10
1525.64739314191
 20
674.1644417329043
 10
1524.757759136904
 20
674.1684305075208
 10
1523.865969255739
 20
673.9428628806241
 10
1522.977514119344
 20
673.8032234712758
 10
1522.72192571507
 20
673.7630611940642
 10
1522.46923603567
 20
673.5952904268943
 10
1522.224273597783
 20
673.6127796694436
 10
1517.574290955818
 20
673.9450429801109
 10
1512.925672894643
 20
674.2962973796406
 10
1508.276764153537
 20
674.6436276000941
 10
1508.266186633805
 20
674.7551033538504
 10
1508.25560103963
 20
674.8665952564918
 10
1508.245023519898
 20
674.9780871591332
 10
1508.754520844396
 20
675.0370305897011
 10
1509.265358526357
 20
675.1562416594141
 10
1509.773281334559
 20
675.1448566954277
 10
1512.459519177719
 20
675.0846213540528
 10
1515.148356991378
 20
674.8698088846241
 10
1517.829830913437
 20
674.9435285450468
 10
1520.592630620795
 20
675.0195090493817
 10
1523.345983230376
 20
675.3961494962682
 10
1526.107547548025
 20
675.579633128628
 10
1527.375977876077
 20
675.6638980110125
 10
1528.687461131771
 20
675.422988943283
 10
1529.918878215204
 20
675.6532720446252
 10
1531.229085708976
 20
675.898315226937
 10
1532.541327962269
 20
676.3941021479964
 10
1533.706534616845
 20
677.0428513086007
 10
1534.293175165404
 20
677.3694625094874
 10
1534.837715570541
 20
678.2672355525776
 10
1534.861341389424
 20
678.9260939152466
 10
1534.875826939347
 20
679.3296061069182
 10
1533.869493016259
 20
679.7733613202269
 10
1533.315602406656
 20
680.1910926052176
 10
1533.181340576042
 20
680.2923299658287
 10
1533.02343677766
 20
680.3621658193879
 10
1532.922635436946
 20
680.7442565149914
 10
1533.638289428467
 20
680.650915959188
 10
1534.356866368188
 20
680.5754360702908
 10
1535.068886860563
 20
680.459777755297
 10
1535.979167215153
 20
680.3119185634393
 10
1536.879548303185
 20
680.0352477896845
 10
1537.792687010436
 20
679.9915085344261
 10
1538.78056275787
 20
679.9442165244485
 10
1539.639570402308
 20
680.2465640254918
 10
1540.240809542986
 20
681.2189772154546
 10
1540.584893837537
 20
681.775492018884
 10
1541.251051496266
 20
682.1660851024859
 10
1541.832992719265
 20
682.5356361888194
 10
1543.153228670676
 20
683.3740701536569
 10
1543.190710232963
 20
683.5777964134734
 10
1542.03884255747
 20
684.6338527537448
 10
1541.914027824632
 20
684.748283753472
 10
1541.809560687003
 20
684.8848952468664
 10
1541.528796170879
 20
685.1962699746736
 10
1542.020707359517
 20
685.1044716373958
 10
1542.306720263295
 20
685.0997803862781
 10
1542.552538592091
 20
684.997993963574
 10
1547.039796993476
 20
683.1401535531702
 10
1551.85612122628
 20
683.1965373854517
 10
1556.556544910815
 20
682.6145638646826
 10
1564.158729458882
 20
681.6733180229379
 10
1571.772589650867
 20
680.8264462656423
 10
1579.380862328611
 20
679.934107322384
 10
1579.495713199351
 20
679.9206391522213
 10
1579.602102054305
 20
679.834937019064
 10
1579.904699863067
 20
679.6923423637448
 10
1578.747390013299
 20
678.621485570291
 10
1577.697825524833
 20
677.5852600609065
 10
1576.580548761196
 20
676.6280348973681
 10
1572.236062652867
 20
672.9059268202958
 10
1574.099434056413
 20
673.5241707369706
 10
1568.413347021702
 20
673.5466015383566
 10
1566.812152767545
 20
673.5528996035406
 10
1565.219452826943
 20
673.6545729840491
 10
1563.821120867251
 20
672.3157496659023
 10
1563.030842877743
 20
673.8223114534488
 10
1561.68539851671
 20
673.5354749565316
 10
1560.435329471002
 20
673.505341136959
 10
1557.174465849788
 20
673.4267122154699
 10
1553.909371220681
 20
673.3959162916088
 10
1550.656275213193
 20
673.1861907209825
 10
1549.333455440168
 20
673.1009084588375
 10
1548.037345923076
 20
672.6017141230249
 10
1546.523597881666
 20
672.2420138565946
 97
        0
 75
     2
 76
     1
 98
        0
  0
SPLINE
  5
4D
330
1F
100
AcDbEntity
  8
_U+0421_U+043B_U+043E_U+0439 1
370
     0
100
AcDbSpline
210
0.0
220
0.0
230
1.0
 70
    11
 71
     3
 72
   131
 73
   127
 74
     0
 42
0.0000000001
 43
0.0000000001
 12
1.0
 22
0.0
 32
0.0
 13
1.0
 23
0.0
 33
0.0
 40
0.0
 40
0.0
 40
0.0
 40
0.0
 40
1.0
 40
1.0
 40
1.0
 40
2.0
 40
2.0
 40
2.0
 40
3.0
 40
3.0
 40
3.0
 40
4.0
 40
4.0
 40
4.0
 40
5.0
 40
5.0
 40
5.0
 40
6.0
 40
6.0
 40
6.0
 40
7.0
 40
7.0
 40
7.0
 40
8.0
 40
8.0
 40
8.0
 40
9.0
 40
9.0
 40
9.0
 40
10.0
 40
10.0
 40
10.0
 40
11.0
 40
11.0
 40
11.0
 40
12.0
 40
12.0
 40
12.0
 40
13.0
 40
13.0
 40
13.0
 40
14.0
 40
14.0
 40
14.0
 40
15.0
 40
15.0
 40
15.0
 40
16.0
 40
16.0
 40
16.0
 40
17.0
 40
17.0
 40
17.0
 40
18.0
 40
18.0
 40
18.0
 40
19.0
 40
19.0
 40
19.0
 40
20.0
 40
20.0
 40
20.0
 40
21.0
 40
21.0
 40
21.0
 40
22.0
 40
22.0
 40
22.0
 40
23.0
 40
23.0
 40
23.0
 40
24.0
 40
24.0
 40
24.0
 40
25.0
 40
25.0
 40
25.0
 40
26.0
 40
26.0
 40
26.0
 40
27.0
 40
27.0
 40
27.0
 40
28.0
 40
28.0
 40
28.0
 40
29.0
 40
29.0
 40
29.0
 40
30.0
 40
30.0
 40
30.0
 40
31.0
 40
31.0
 40
31.0
 40
32.0
 40
32.0
 40
32.0
 40
33.0
 40
33.0
 40
33.0
 40
34.0
 40
34.0
 40
34.0
 40
35.0
 40
35.0
 40
35.0
 40
36.0
 40
36.0
 40
36.0
 40
37.0
 40
37.0
 40
37.0
 40
38.0
 40
38.0
 40
38.0
 40
39.0
 40
39.0
 40
39.0
 40
40.0
 40
40.0
 40
40.0
 40
41.0
 40
41.0
 40
41.0
 40
42.0
 40
42.0
 40
42.0
 40
42.0
 10
1505.134239562241
 20
662.293993814119
 30
0.0
 10
1506.163682539888
 20
662.248195576012
 30
0.0
 10
1506.986314820668
 20
662.2115860535195
 30
0.0
 10
1507.88114069223
 20
662.1717790517797
 30
0.0
 10
1507.88114069223
 20
661.1760226484236
 30
0.0
 10
1507.88114069223
 20
660.275496220426
 30
0.0
 10
1507.88114069223
 20
659.4214947303644
 30
0.0
 10
1507.726054874296
 20
659.3295429786784
 30
0.0
 10
1507.657623973739
 20
659.268096470922
 30
0.0
 10
1507.5780745658
 20
659.245116607443
 30
0.0
 10
1506.939894850485
 20
659.0606640419782
 30
0.0
 10
1506.299615780109
 20
658.8834623259172
 30
0.0
 10
1505.659982665136
 20
658.7040482125994
 30
0.0
 10
1506.00359864202
 20
658.169843093918
 30
0.0
 10
1506.324363946505
 20
657.6190369213668
 30
0.0
 10
1506.697160958741
 20
657.1060352888046
 30
0.0
 10
1507.080454746284
 20
656.5786127018597
 30
0.0
 10
1507.514544851868
 20
656.0881064662238
 30
0.0
 10
1508.112457322218
 20
655.3525893460464
 30
0.0
 10
1507.151857041696
 20
655.7668889929562
 30
0.0
 10
1506.123536411562
 20
655.8996812750274
 30
0.0
 10
1505.612254635261
 20
656.484496999572
 30
0.0
 10
1503.361406882935
 20
659.059162195665
 30
0.0
 10
1500.507430570376
 20
659.5314201911524
 30
0.0
 10
1497.349096220579
 20
659.2283863624929
 30
0.0
 10
1497.138684322337
 20
659.208200256134
 30
0.0
 10
1496.920432140384
 20
659.2697436572009
 30
0.0
 10
1496.590825321314
 20
659.3058525642557
 30
0.0
 10
1496.590825321314
 20
660.2280507960401
 30
0.0
 10
1496.590825321314
 20
661.1236518140861
 30
0.0
 10
1496.590825321314
 20
662.0480139964722
 30
0.0
 10
1497.186646511045
 20
662.7402036579609
 30
0.0
 10
1499.118020869694
 20
661.4459997093098
 30
0.0
 10
1498.923935494274
 20
663.5873741696306
 30
0.0
 10
1497.213913903515
 20
663.5873741696306
 30
0.0
 10
1495.568084130977
 20
663.5873741696306
 30
0.0
 10
1493.755759353191
 20
663.5873741696306
 30
0.0
 10
1493.715306396048
 20
663.2152231127982
 30
0.0
 10
1493.671938565147
 20
662.8162003111809
 30
0.0
 10
1493.617258440242
 20
662.3131463918323
 30
0.0
 10
1494.443734155672
 20
662.267122069334
 30
0.0
 10
1495.136908899151
 20
662.2285262339758
 30
0.0
 10
1496.059971096288
 20
662.1771243327436
 30
0.0
 10
1496.059971096288
 20
661.3974238629678
 30
0.0
 10
1496.15311786547
 20
660.6118129012501
 30
0.0
 10
1496.010466689054
 20
659.8716771999378
 30
0.0
 10
1495.959153606689
 20
659.6054143826216
 30
0.0
 10
1495.343469288301
 20
659.2751696825902
 30
0.0
 10
1494.980305086019
 20
659.2689523618317
 30
0.0
 10
1491.914188944513
 20
659.2164684852985
 30
0.0
 10
1488.840773506947
 20
659.1114038389218
 30
0.0
 10
1485.781883991517
 20
659.2659486692054
 30
0.0
 10
1483.335449017458
 20
659.3895845334323
 30
0.0
 10
1481.06561017627
 20
659.0285116117697
 30
0.0
 10
1478.884509458635
 20
657.9422730052704
 30
0.0
 10
1478.308478727577
 20
657.655420359468
 30
0.0
 10
1477.675595846571
 20
657.4826918845764
 30
0.0
 10
1476.878995568552
 20
657.5095313315911
 30
0.0
 10
1477.176902126196
 20
657.7493422751347
 30
0.0
 10
1477.465337362737
 20
658.0022176667137
 30
0.0
 10
1477.774588512155
 20
658.2263641917228
 30
0.0
 10
1478.533941386721
 20
658.7767181954915
 30
0.0
 10
1479.30314508119
 20
659.3134909869019
 30
0.0
 10
1480.067068090236
 20
659.8575630743717
 30
0.0
 10
1480.101626704322
 20
659.8821901241295
 30
0.0
 10
1480.124638865571
 20
659.9558290401267
 30
0.0
 10
1480.150832357183
 20
659.9547147670557
 30
0.0
 10
1482.554400115778
 20
659.8525084733394
 30
0.0
 10
1483.917535580423
 20
662.5900190266508
 30
0.0
 10
1486.414363150396
 20
662.2445782257524
 30
0.0
 10
1487.233055103215
 20
662.1312937968663
 30
0.0
 10
1487.523848076979
 20
662.5767446431091
 30
0.0
 10
1487.472260463568
 20
663.3430899849179
 30
0.0
 10
1487.448642719128
 20
663.6939406623204
 30
0.0
 10
1487.467310830288
 20
664.0477142879238
 30
0.0
 10
1487.468408954474
 20
664.4001637049498
 30
0.0
 10
1487.477226245732
 20
667.2187255125135
 30
0.0
 10
1487.477339287928
 20
667.2187255125135
 30
0.0
 10
1484.689888307484
 20
667.7180005927517
 30
0.0
 10
1484.502641984899
 20
668.6526980615935
 30
0.0
 10
1484.310615592329
 20
669.611263582594
 30
0.0
 10
1484.123409641956
 20
670.5457672648148
 30
0.0
 10
1488.030099475574
 20
670.5457672648148
 30
0.0
 10
1491.955053698226
 20
670.5457672648148
 30
0.0
 10
1496.027124264021
 20
670.5457672648148
 30
0.0
 10
1496.027124264021
 20
669.832228777241
 30
0.0
 10
1496.007971686308
 20
669.3182743604586
 30
0.0
 10
1496.031419867454
 20
668.8062578098868
 30
0.0
 10
1496.070710104871
 20
667.948315991864
 30
0.0
 10
1495.749153505016
 20
667.5099060595192
 30
0.0
 10
1494.821262791239
 20
667.5060464759833
 30
0.0
 10
1494.328196957317
 20
667.5039955675772
 30
0.0
 10
1493.472225303275
 20
667.7297408322099
 30
0.0
 10
1493.614666544185
 20
666.8095127644061
 30
0.0
 10
1493.653876037177
 20
666.5561529062745
 30
0.0
 10
1494.467900962205
 20
666.2972701294431
 30
0.0
 10
1494.942783151519
 20
666.2620978577233
 30
0.0
 10
1496.038258920288
 20
666.1809335612755
 30
0.0
 10
1497.145474928516
 20
666.2027022583729
 30
0.0
 10
1498.243938241026
 20
666.2596916738454
 30
0.0
 10
1498.493995652158
 20
666.2726753774554
 30
0.0
 10
1498.727839582661
 20
666.5980108164202
 30
0.0
 10
1498.969152372518
 20
666.7795888803397
 30
0.0
 10
1498.743915797766
 20
667.0327711007354
 30
0.0
 10
1498.557565738303
 20
667.4369776944658
 30
0.0
 10
1498.285198642424
 20
667.507112302399
 30
0.0
 10
1497.747505364563
 20
667.6455566942508
 30
0.0
 10
1497.162164801253
 20
667.5989671607745
 30
0.0
 10
1496.509370344935
 20
667.6335257748609
 30
0.0
 10
1496.509370344935
 20
668.5772343215814
 30
0.0
 10
1496.509370344935
 20
669.4362419660199
 30
0.0
 10
1496.509370344935
 20
670.6583895894123
 30
0.0
 10
1500.98894995146
 20
670.6583895894123
 30
0.0
 10
1505.47251025816
 20
670.6583895894123
 30
0.0
 10
1509.685778600714
 20
670.6583895894123
 30
0.0
 10
1509.220908720155
 20
669.9515851869197
 30
0.0
 10
1508.607961637788
 20
668.833920850041
 30
0.0
 10
1507.795834206757
 20
667.8870794196137
 30
0.0
 10
1507.517354757873
 20
667.5624060849373
 30
0.0
 10
1506.740294630809
 20
667.589600807424
 30
0.0
 10
1506.19130520783
 20
667.5907312293801
 30
0.0
 10
1505.395375108542
 20
667.5923622667739
 30
0.0
 10
1505.094489081599
 20
667.2903458178748
 30
0.0
 10
1505.121627282987
 20
666.4892642242437
 30
0.0
 10
1505.167562786618
 20
665.132854770237
 30
0.0
 10
1505.134239562241
 20
663.773764601306
 30
0.0
 10
1505.134239562241
 20
662.293993814119
 30
0.0
  0
HATCH
  5
4E
330
1F
100
AcDbEntity
  8
_U+0421_U+043B_U+043E_U+0439 1
 62
     7
100
AcDbHatch
 10
0.0
 20
0.0
 30
0.0
210
0.0
220
0.0
230
1.0
  2
SOLID
 70
     1
 71
     0
 91
        1
 92
        1
 93
        1
 72
     4
 94
        3
 73
     0
 74
     1
 95
      131
 96
      127
 40
0.0
 40
0.0
 40
0.0
 40
0.0
 40
1.0
 40
1.0
 40
1.0
 40
2.0
 40
2.0
 40
2.0
 40
3.0
 40
3.0
 40
3.0
 40
4.0
 40
4.0
 40
4.0
 40
5.0
 40
5.0
 40
5.0
 40
6.0
 40
6.0
 40
6.0
 40
7.0
 40
7.0
 40
7.0
 40
8.0
 40
8.0
 40
8.0
 40
9.0
 40
9.0
 40
9.0
 40
10.0
 40
10.0
 40
10.0
 40
11.0
 40
11.0
 40
11.0
 40
12.0
 40
12.0
 40
12.0
 40
13.0
 40
13.0
 40
13.0
 40
14.0
 40
14.0
 40
14.0
 40
15.0
 40
15.0
 40
15.0
 40
16.0
 40
16.0
 40
16.0
 40
17.0
 40
17.0
 40
17.0
 40
18.0
 40
18.0
 40
18.0
 40
19.0
 40
19.0
 40
19.0
 40
20.0
 40
20.0
 40
20.0
 40
21.0
 40
21.0
 40
21.0
 40
22.0
 40
22.0
 40
22.0
 40
23.0
 40
23.0
 40
23.0
 40
24.0
 40
24.0
 40
24.0
 40
25.0
 40
25.0
 40
25.0
 40
26.0
 40
26.0
 40
26.0
 40
27.0
 40
27.0
 40
27.0
 40
28.0
 40
28.0
 40
28.0
 40
29.0
 40
29.0
 40
29.0
 40
30.0
 40
30.0
 40
30.0
 40
31.0
 40
31.0
 40
31.0
 40
32.0
 40
32.0
 40
32.0
 40
33.0
 40
33.0
 40
33.0
 40
34.0
 40
34.0
 40
34.0
 40
35.0
 40
35.0
 40
35.0
 40
36.0
 40
36.0
 40
36.0
 40
37.0
 40
37.0
 40
37.0
 40
38.0
 40
38.0
 40
38.0
 40
39.0
 40
39.0
 40
39.0
 40
40.0
 40
40.0
 40
40.0
 40
41.0
 40
41.0
 40
41.0
 40
42.0
 40
42.0
 40
42.0
 40
42.0
 10
1505.134239562241
 20
662.293993814119
 10
1506.163682539888
 20
662.248195576012
 10
1506.986314820668
 20
662.2115860535195
 10
1507.88114069223
 20
662.1717790517797
 10
1507.88114069223
 20
661.1760226484236
 10
1507.88114069223
 20
660.275496220426
 10
1507.88114069223
 20
659.4214947303644
 10
1507.726054874296
 20
659.3295429786784
 10
1507.657623973739
 20
659.268096470922
 10
1507.5780745658
 20
659.245116607443
 10
1506.939894850485
 20
659.0606640419782
 10
1506.299615780109
 20
658.8834623259172
 10
1505.659982665136
 20
658.7040482125994
 10
1506.00359864202
 20
658.169843093918
 10
1506.324363946505
 20
657.6190369213668
 10
1506.697160958741
 20
657.1060352888046
 10
1507.080454746284
 20
656.5786127018597
 10
1507.514544851868
 20
656.0881064662238
 10
1508.112457322218
 20
655.3525893460464
 10
1507.151857041696
 20
655.7668889929562
 10
1506.123536411562
 20
655.8996812750274
 10
1505.612254635261
 20
656.484496999572
 10
1503.361406882935
 20
659.059162195665
 10
1500.507430570376
 20
659.5314201911524
 10
1497.349096220579
 20
659.2283863624929
 10
1497.138684322337
 20
659.208200256134
 10
1496.920432140384
 20
659.2697436572009
 10
1496.590825321314
 20
659.3058525642557
 10
1496.590825321314
 20
660.2280507960401
 10
1496.590825321314
 20
661.1236518140861
 10
1496.590825321314
 20
662.0480139964722
 10
1497.186646511045
 20
662.7402036579609
 10
1499.118020869694
 20
661.4459997093098
 10
1498.923935494274
 20
663.5873741696306
 10
1497.213913903515
 20
663.5873741696306
 10
1495.568084130977
 20
663.5873741696306
 10
1493.755759353191
 20
663.5873741696306
 10
1493.715306396048
 20
663.2152231127982
 10
1493.671938565147
 20
662.8162003111809
 10
1493.617258440242
 20
662.3131463918323
 10
1494.443734155672
 20
662.267122069334
 10
1495.136908899151
 20
662.2285262339758
 10
1496.059971096288
 20
662.1771243327436
 10
1496.059971096288
 20
661.3974238629678
 10
1496.15311786547
 20
660.6118129012501
 10
1496.010466689054
 20
659.8716771999378
 10
1495.959153606689
 20
659.6054143826216
 10
1495.343469288301
 20
659.2751696825902
 10
1494.980305086019
 20
659.2689523618317
 10
1491.914188944513
 20
659.2164684852985
 10
1488.840773506947
 20
659.1114038389218
 10
1485.781883991517
 20
659.2659486692054
 10
1483.335449017458
 20
659.3895845334323
 10
1481.06561017627
 20
659.0285116117697
 10
1478.884509458635
 20
657.9422730052704
 10
1478.308478727577
 20
657.655420359468
 10
1477.675595846571
 20
657.4826918845764
 10
1476.878995568552
 20
657.5095313315911
 10
1477.176902126196
 20
657.7493422751347
 10
1477.465337362737
 20
658.0022176667137
 10
1477.774588512155
 20
658.2263641917228
 10
1478.533941386721
 20
658.7767181954915
 10
1479.30314508119
 20
659.3134909869019
 10
1480.067068090236
 20
659.8575630743717
 10
1480.101626704322
 20
659.8821901241295
 10
1480.124638865571
 20
659.9558290401267
 10
1480.150832357183
 20
659.9547147670557
 10
1482.554400115778
 20
659.8525084733394
 10
1483.917535580423
 20
662.5900190266508
 10
1486.414363150396
 20
662.2445782257524
 10
1487.233055103215
 20
662.1312937968663
 10
1487.523848076979
 20
662.5767446431091
 10
1487.472260463568
 20
663.3430899849179
 10
1487.448642719128
 20
663.6939406623204
 10
1487.467310830288
 20
664.0477142879238
 10
1487.468408954474
 20
664.4001637049498
 10
1487.477226245732
 20
667.2187255125135
 10
1487.477339287928
 20
667.2187255125135
 10
1484.689888307484
 20
667.7180005927517
 10
1484.502641984899
 20
668.6526980615935
 10
1484.310615592329
 20
669.611263582594
 10
1484.123409641956
 20
670.5457672648148
 10
1488.030099475574
 20
670.5457672648148
 10
1491.955053698226
 20
670.5457672648148
 10
1496.027124264021
 20
670.5457672648148
 10
1496.027124264021
 20
669.832228777241
 10
1496.007971686308
 20
669.3182743604586
 10
1496.031419867454
 20
668.8062578098868
 10
1496.070710104871
 20
667.948315991864
 10
1495.749153505016
 20
667.5099060595192
 10
1494.821262791239
 20
667.5060464759833
 10
1494.328196957317
 20
667.5039955675772
 10
1493.472225303275
 20
667.7297408322099
 10
1493.614666544185
 20
666.8095127644061
 10
1493.653876037177
 20
666.5561529062745
 10
1494.467900962205
 20
666.2972701294431
 10
1494.942783151519
 20
666.2620978577233
 10
1496.038258920288
 20
666.1809335612755
 10
1497.145474928516
 20
666.2027022583729
 10
1498.243938241026
 20
666.2596916738454
 10
1498.493995652158
 20
666.2726753774554
 10
1498.727839582661
 20
666.5980108164202
 10
1498.969152372518
 20
666.7795888803397
 10
1498.743915797766
 20
667.0327711007354
 10
1498.557565738303
 20
667.4369776944658
 10
1498.285198642424
 20
667.507112302399
 10
1497.747505364563
 20
667.6455566942508
 10
1497.162164801253
 20
667.5989671607745
 10
1496.509370344935
 20
667.6335257748609
 10
1496.509370344935
 20
668.5772343215814
 10
1496.509370344935
 20
669.4362419660199
 10
1496.509370344935
 20
670.6583895894123
 10
1500.98894995146
 20
670.6583895894123
 10
1505.47251025816
 20
670.6583895894123
 10
1509.685778600714
 20
670.6583895894123
 10
1509.220908720155
 20
669.9515851869197
 10
1508.607961637788
 20
668.833920850041
 10
1507.795834206757
 20
667.8870794196137
 10
1507.517354757873
 20
667.5624060849373
 10
1506.740294630809
 20
667.589600807424
 10
1506.19130520783
 20
667.5907312293801
 10
1505.395375108542
 20
667.5923622667739
 10
1505.094489081599
 20
667.2903458178748
 10
1505.121627282987
 20
666.4892642242437
 10
1505.167562786618
 20
665.132854770237
 10
1505.134239562241
 20
663.773764601306
 10
1505.134239562241
 20
662.293993814119
 97
        0
 75
     2
 76
     1
 98
        0
  0
SPLINE
  5
4F
330
1F
100
AcDbEntity
  8
_U+0421_U+043B_U+043E_U+0439 1
370
     0
100
AcDbSpline
210
0.0
220
0.0
230
1.0
 70
    11
 71
     3
 72
    89
 73
    85
 74
     0
 42
0.0000000001
 43
0.0000000001
 12
1.0
 22
0.0
 32
0.0
 13
1.0
 23
0.0
 33
0.0
 40
0.0
 40
0.0
 40
0.0
 40
0.0
 40
1.0
 40
1.0
 40
1.0
 40
2.0
 40
2.0
 40
2.0
 40
3.0
 40
3.0
 40
3.0
 40
4.0
 40
4.0
 40
4.0
 40
5.0
 40
5.0
 40
5.0
 40
6.0
 40
6.0
 40
6.0
 40
7.0
 40
7.0
 40
7.0
 40
8.0
 40
8.0
 40
8.0
 40
9.0
 40
9.0
 40
9.0
 40
10.0
 40
10.0
 40
10.0
 40
11.0
 40
11.0
 40
11.0
 40
12.0
 40
12.0
 40
12.0
 40
13.0
 40
13.0
 40
13.0
 40
14.0
 40
14.0
 40
14.0
 40
15.0
 40
15.0
 40
15.0
 40
16.0
 40
16.0
 40
16.0
 40
17.0
 40
17.0
 40
17.0
 40
18.0
 40
18.0
 40
18.0
 40
19.0
 40
19.0
 40
19.0
 40
20.0
 40
20.0
 40
20.0
 40
21.0
 40
21.0
 40
21.0
 40
22.0
 40
22.0
 40
22.0
 40
23.0
 40
23.0
 40
23.0
 40
24.0
 40
24.0
 40
24.0
 40
25.0
 40
25.0
 40
25.0
 40
26.0
 40
26.0
 40
26.0
 40
27.0
 40
27.0
 40
27.0
 40
28.0
 40
28.0
 40
28.0
 40
28.0
 10
1529.370187546599
 20
670.3771406067352
 30
0.0
 10
1532.64434170024
 20
670.5201712819518
 30
0.0
 10
1535.852737593807
 20
669.9279270702672
 30
0.0
 10
1538.821322543829
 20
672.2689178991496
 30
0.0
 10
1538.609465320372
 20
671.4628624489118
 30
0.0
 10
1538.516270104534
 20
671.1082975279392
 30
0.0
 10
1538.396849099315
 20
670.6539486460134
 30
0.0
 10
1541.25284402251
 20
670.4275089793219
 30
0.0
 10
1542.459601758414
 20
668.0355361202194
 30
0.0
 10
1544.243003883009
 20
666.4243941528488
 30
0.0
 10
1544.922823498521
 20
665.810252052986
 30
0.0
 10
1545.515213050172
 20
665.0993296847962
 30
0.0
 10
1546.475248119715
 20
664.517162377406
 30
0.0
 10
1546.475248119715
 20
665.2825710838797
 30
0.0
 10
1546.538487153716
 20
666.056248019518
 30
0.0
 10
1546.440221187961
 20
666.8088345112325
 30
0.0
 10
1546.406792995831
 20
667.0649881264842
 30
0.0
 10
1545.992541795577
 20
667.4237356086943
 30
0.0
 10
1545.708434460239
 20
667.4708096087232
 30
0.0
 10
1543.397512855389
 20
667.8538127163342
 30
0.0
 10
1543.364859809743
 20
667.8776646196078
 30
0.0
 10
1543.721265703615
 20
670.0777564261053
 30
0.0
 10
1546.146876690354
 20
670.8912726612535
 30
0.0
 10
1548.455052984739
 20
671.6654017656742
 30
0.0
 10
1550.879662740603
 20
672.4785950231206
 30
0.0
 10
1550.829617345718
 20
672.0580780554524
 30
0.0
 10
1550.770948446197
 20
671.5651494870535
 30
0.0
 10
1550.692690949065
 20
670.9076153329617
 30
0.0
 10
1551.251555415274
 20
670.7286533884263
 30
0.0
 10
1551.85326287362
 20
670.535964891567
 30
0.0
 10
1552.457521855809
 20
670.3424528015681
 30
0.0
 10
1552.457521855809
 20
669.4743694837106
 30
0.0
 10
1552.457521855809
 20
668.6474496739402
 30
0.0
 10
1552.457521855809
 20
667.679889223946
 30
0.0
 10
1551.604117874496
 20
667.565878095231
 30
0.0
 10
1550.797384171084
 20
667.4580842872746
 30
0.0
 10
1549.992782120504
 20
667.3505811592497
 30
0.0
 10
1549.461516098909
 20
665.0714567091359
 30
0.0
 10
1549.807182984198
 20
658.7919465941286
 30
0.0
 10
1550.620360092759
 20
656.9318372653701
 30
0.0
 10
1550.009996832007
 20
657.3141136731521
 30
0.0
 10
1549.495315715396
 20
657.607764999576
 30
0.0
 10
1549.010897609438
 20
657.9449052735396
 30
0.0
 10
1547.122576178432
 20
659.2590530952732
 30
0.0
 10
1544.919206148262
 20
659.1138746183401
 30
0.0
 10
1542.791945813507
 20
659.2697759549711
 30
0.0
 10
1541.979963722442
 20
659.3293007454022
 30
0.0
 10
1541.525453351666
 20
659.601603245741
 30
0.0
 10
1541.011240552722
 20
660.296796599856
 30
0.0
 10
1539.706830508696
 20
662.0602871491384
 30
0.0
 10
1538.205565555458
 20
663.6800364722604
 30
0.0
 10
1536.75058330688
 20
665.3285954063779
 30
0.0
 10
1536.480121779441
 20
665.6350366497909
 30
0.0
 10
1536.057618498907
 20
665.80728065813
 30
0.0
 10
1535.524123931169
 20
666.1618778768727
 30
0.0
 10
1535.524123931169
 20
664.7437312351781
 30
0.0
 10
1535.524123931169
 20
663.5551732927669
 30
0.0
 10
1535.524123931169
 20
662.28767960005
 30
0.0
 10
1535.948355142407
 20
662.2675419403463
 30
0.0
 10
1536.290679208484
 20
662.2421074463341
 30
0.0
 10
1536.633326252262
 20
662.2365845276344
 30
0.0
 10
1538.373190982662
 20
662.2085016164679
 30
0.0
 10
1538.497424355637
 20
662.0844297323436
 30
0.0
 10
1538.390664076326
 20
660.4541513361447
 30
0.0
 10
1538.312778003551
 20
659.2649312894449
 30
0.0
 10
1537.935959918929
 20
659.0267352344101
 30
0.0
 10
1536.356518212984
 20
659.2155479988486
 30
0.0
 10
1533.623933069624
 20
659.5421914975055
 30
0.0
 10
1530.982201553764
 20
659.3994515022206
 30
0.0
 10
1528.671247651144
 20
657.6857641145467
 30
0.0
 10
1528.954918966584
 20
659.1809086403367
 30
0.0
 10
1529.223426478927
 20
660.5961484827156
 30
0.0
 10
1529.518046738457
 20
662.1489929749218
 30
0.0
 10
1530.322018982518
 20
662.1882670634537
 30
0.0
 10
1531.182883748742
 20
662.2303349091056
 30
0.0
 10
1532.140512634408
 20
662.277118229203
 30
0.0
 10
1532.140512634408
 20
663.978613208636
 30
0.0
 10
1532.140512634408
 20
665.6314192995313
 30
0.0
 10
1532.140512634408
 20
667.3300882240742
 30
0.0
 10
1531.232315485993
 20
667.5378597796049
 30
0.0
 10
1530.198689947108
 20
667.5215009590116
 30
0.0
 10
1529.560227626304
 20
668.0156891404473
 30
0.0
 10
1529.180018275813
 20
668.3099864222748
 30
0.0
 10
1529.420814301347
 20
669.4066087618851
 30
0.0
 10
1529.370187546599
 20
670.3771406067352
 30
0.0
  0
HATCH
  5
50
330
1F
100
AcDbEntity
  8
_U+0421_U+043B_U+043E_U+0439 1
 62
     7
100
AcDbHatch
 10
0.0
 20
0.0
 30
0.0
210
0.0
220
0.0
230
1.0
  2
SOLID
 70
     1
 71
     0
 91
        1
 92
        1
 93
        1
 72
     4
 94
        3
 73
     0
 74
     1
 95
       89
 96
       85
 40
0.0
 40
0.0
 40
0.0
 40
0.0
 40
1.0
 40
1.0
 40
1.0
 40
2.0
 40
2.0
 40
2.0
 40
3.0
 40
3.0
 40
3.0
 40
4.0
 40
4.0
 40
4.0
 40
5.0
 40
5.0
 40
5.0
 40
6.0
 40
6.0
 40
6.0
 40
7.0
 40
7.0
 40
7.0
 40
8.0
 40
8.0
 40
8.0
 40
9.0
 40
9.0
 40
9.0
 40
10.0
 40
10.0
 40
10.0
 40
11.0
 40
11.0
 40
11.0
 40
12.0
 40
12.0
 40
12.0
 40
13.0
 40
13.0
 40
13.0
 40
14.0
 40
14.0
 40
14.0
 40
15.0
 40
15.0
 40
15.0
 40
16.0
 40
16.0
 40
16.0
 40
17.0
 40
17.0
 40
17.0
 40
18.0
 40
18.0
 40
18.0
 40
19.0
 40
19.0
 40
19.0
 40
20.0
 40
20.0
 40
20.0
 40
21.0
 40
21.0
 40
21.0
 40
22.0
 40
22.0
 40
22.0
 40
23.0
 40
23.0
 40
23.0
 40
24.0
 40
24.0
 40
24.0
 40
25.0
 40
25.0
 40
25.0
 40
26.0
 40
26.0
 40
26.0
 40
27.0
 40
27.0
 40
27.0
 40
28.0
 40
28.0
 40
28.0
 40
28.0
 10
1529.370187546599
 20
670.3771406067352
 10
1532.64434170024
 20
670.5201712819518
 10
1535.852737593807
 20
669.9279270702672
 10
1538.821322543829
 20
672.2689178991496
 10
1538.609465320372
 20
671.4628624489118
 10
1538.516270104534
 20
671.1082975279392
 10
1538.396849099315
 20
670.6539486460134
 10
1541.25284402251
 20
670.4275089793219
 10
1542.459601758414
 20
668.0355361202194
 10
1544.243003883009
 20
666.4243941528488
 10
1544.922823498521
 20
665.810252052986
 10
1545.515213050172
 20
665.0993296847962
 10
1546.475248119715
 20
664.517162377406
 10
1546.475248119715
 20
665.2825710838797
 10
1546.538487153716
 20
666.056248019518
 10
1546.440221187961
 20
666.8088345112325
 10
1546.406792995831
 20
667.0649881264842
 10
1545.992541795577
 20
667.4237356086943
 10
1545.708434460239
 20
667.4708096087232
 10
1543.397512855389
 20
667.8538127163342
 10
1543.364859809743
 20
667.8776646196078
 10
1543.721265703615
 20
670.0777564261053
 10
1546.146876690354
 20
670.8912726612535
 10
1548.455052984739
 20
671.6654017656742
 10
1550.879662740603
 20
672.4785950231206
 10
1550.829617345718
 20
672.0580780554524
 10
1550.770948446197
 20
671.5651494870535
 10
1550.692690949065
 20
670.9076153329617
 10
1551.251555415274
 20
670.7286533884263
 10
1551.85326287362
 20
670.535964891567
 10
1552.457521855809
 20
670.3424528015681
 10
1552.457521855809
 20
669.4743694837106
 10
1552.457521855809
 20
668.6474496739402
 10
1552.457521855809
 20
667.679889223946
 10
1551.604117874496
 20
667.565878095231
 10
1550.797384171084
 20
667.4580842872746
 10
1549.992782120504
 20
667.3505811592497
 10
1549.461516098909
 20
665.0714567091359
 10
1549.807182984198
 20
658.7919465941286
 10
1550.620360092759
 20
656.9318372653701
 10
1550.009996832007
 20
657.3141136731521
 10
1549.495315715396
 20
657.607764999576
 10
1549.010897609438
 20
657.9449052735396
 10
1547.122576178432
 20
659.2590530952732
 10
1544.919206148262
 20
659.1138746183401
 10
1542.791945813507
 20
659.2697759549711
 10
1541.979963722442
 20
659.3293007454022
 10
1541.525453351666
 20
659.601603245741
 10
1541.011240552722
 20
660.296796599856
 10
1539.706830508696
 20
662.0602871491384
 10
1538.205565555458
 20
663.6800364722604
 10
1536.75058330688
 20
665.3285954063779
 10
1536.480121779441
 20
665.6350366497909
 10
1536.057618498907
 20
665.80728065813
 10
1535.524123931169
 20
666.1618778768727
 10
1535.524123931169
 20
664.7437312351781
 10
1535.524123931169
 20
663.5551732927669
 10
1535.524123931169
 20
662.28767960005
 10
1535.948355142407
 20
662.2675419403463
 10
1536.290679208484
 20
662.2421074463341
 10
1536.633326252262
 20
662.2365845276344
 10
1538.373190982662
 20
662.2085016164679
 10
1538.497424355637
 20
662.0844297323436
 10
1538.390664076326
 20
660.4541513361447
 10
1538.312778003551
 20
659.2649312894449
 10
1537.935959918929
 20
659.0267352344101
 10
1536.356518212984
 20
659.2155479988486
 10
1533.623933069624
 20
659.5421914975055
 10
1530.982201553764
 20
659.3994515022206
 10
1528.671247651144
 20
657.6857641145467
 10
1528.954918966584
 20
659.1809086403367
 10
1529.223426478927
 20
660.5961484827156
 10
1529.518046738457
 20
662.1489929749218
 10
1530.322018982518
 20
662.1882670634537
 10
1531.182883748742
 20
662.2303349091056
 10
1532.140512634408
 20
662.277118229203
 10
1532.140512634408
 20
663.978613208636
 10
1532.140512634408
 20
665.6314192995313
 10
1532.140512634408
 20
667.3300882240742
 10
1531.232315485993
 20
667.5378597796049
 10
1530.198689947108
 20
667.5215009590116
 10
1529.560227626304
 20
668.0156891404473
 10
1529.180018275813
 20
668.3099864222748
 10
1529.420814301347
 20
669.4066087618851
 10
1529.370187546599
 20
670.3771406067352
 97
        0
 75
     2
 76
     1
 98
        0
  0
SPLINE
  5
51
330
1F
100
AcDbEntity
  8
_U+0421_U+043B_U+043E_U+0439 1
370
     0
100
AcDbSpline
210
0.0
220
0.0
230
1.0
 70
    11
 71
     3
 72
    50
 73
    46
 74
     0
 42
0.0000000001
 43
0.0000000001
 12
1.0
 22
0.0
 32
0.0
 13
1.0
 23
0.0
 33
0.0
 40
0.0
 40
0.0
 40
0.0
 40
0.0
 40
1.0
 40
1.0
 40
1.0
 40
2.0
 40
2.0
 40
2.0
 40
3.0
 40
3.0
 40
3.0
 40
4.0
 40
4.0
 40
4.0
 40
5.0
 40
5.0
 40
5.0
 40
6.0
 40
6.0
 40
6.0
 40
7.0
 40
7.0
 40
7.0
 40
8.0
 40
8.0
 40
8.0
 40
9.0
 40
9.0
 40
9.0
 40
10.0
 40
10.0
 40
10.0
 40
11.0
 40
11.0
 40
11.0
 40
12.0
 40
12.0
 40
12.0
 40
13.0
 40
13.0
 40
13.0
 40
14.0
 40
14.0
 40
14.0
 40
15.0
 40
15.0
 40
15.0
 40
15.0
 10
1555.731353031749
 20
662.249875060061
 30
0.0
 10
1555.731353031749
 20
664.1215954371972
 30
0.0
 10
1555.731353031749
 20
665.8259649181758
 30
0.0
 10
1555.731353031749
 20
667.525635073594
 30
0.0
 10
1554.796784753988
 20
667.6863972246362
 30
0.0
 10
1553.731636591412
 20
667.5968839545983
 30
0.0
 10
1553.107821309382
 20
668.0787182389423
 30
0.0
 10
1552.730760991483
 20
668.3699633814883
 30
0.0
 10
1553.038413401278
 20
669.5476369753509
 30
0.0
 10
1553.038413401278
 20
670.2061077647777
 30
0.0
 10
1553.690731465486
 20
670.5221091481623
 30
0.0
 10
1554.247868000992
 20
670.7920054646231
 30
0.0
 10
1554.760207529265
 20
671.0401976795268
 30
0.0
 10
1555.804313694572
 20
670.9000576547409
 30
0.0
 10
1556.906313612916
 20
670.6431450418901
 30
0.0
 10
1558.011882434865
 20
670.6266731791012
 30
0.0
 10
1560.255220955626
 20
670.593261135856
 30
0.0
 10
1562.51777664964
 20
670.8816640746267
 30
0.0
 10
1564.740234661983
 20
670.6810141774193
 30
0.0
 10
1567.136293189013
 20
670.4646837127925
 30
0.0
 10
1569.680905309959
 20
670.2349335246581
 30
0.0
 10
1571.797830358258
 20
669.2393870568081
 30
0.0
 10
1572.973323852633
 20
668.6865622736211
 30
0.0
 10
1573.739152430119
 20
666.6353308898566
 30
0.0
 10
1574.089437896544
 20
665.1206462131112
 30
0.0
 10
1574.488799824748
 20
663.3936844418959
 30
0.0
 10
1573.568377970323
 20
661.6709698274583
 30
0.0
 10
1571.928248754221
 20
660.9563493645836
 30
0.0
 10
1570.070561758226
 20
660.1469349462476
 30
0.0
 10
1568.032346375841
 20
659.6309942165996
 30
0.0
 10
1566.021261120403
 20
659.3252958219006
 30
0.0
 10
1563.518054740821
 20
658.9447796425931
 30
0.0
 10
1560.964060117639
 20
658.8057538908781
 30
0.0
 10
1558.428636712308
 20
658.76347610972
 30
0.0
 10
1556.82442261664
 20
658.7367012582456
 30
0.0
 10
1555.19864975938
 20
658.9999442340505
 30
0.0
 10
1553.619450286712
 20
659.3169145505403
 30
0.0
 10
1553.301381846036
 20
659.3807510932896
 30
0.0
 10
1552.980471201585
 20
660.2704254705087
 30
0.0
 10
1552.973834009814
 20
660.7833948053006
 30
0.0
 10
1552.968440282195
 20
661.2030720309444
 30
0.0
 10
1553.336053502318
 20
661.8409368430001
 30
0.0
 10
1553.704700251087
 20
662.0026194804923
 30
0.0
 10
1554.273754663786
 20
662.2521843506285
 30
0.0
 10
1554.984935414137
 20
662.1776895437216
 30
0.0
 10
1555.731353031749
 20
662.249875060061
 30
0.0
  0
SPLINE
  5
52
330
1F
100
AcDbEntity
  8
_U+0421_U+043B_U+043E_U+0439 1
370
     0
100
AcDbSpline
210
0.0
220
0.0
230
1.0
 70
    11
 71
     3
 72
    17
 73
    13
 74
     0
 42
0.0000000001
 43
0.0000000001
 12
1.0
 22
0.0
 32
0.0
 13
1.0
 23
0.0
 33
0.0
 40
0.0
 40
0.0
 40
0.0
 40
0.0
 40
1.0
 40
1.0
 40
1.0
 40
2.0
 40
2.0
 40
2.0
 40
3.0
 40
3.0
 40
3.0
 40
4.0
 40
4.0
 40
4.0
 40
4.0
 10
1562.053124779029
 20
662.1253187093841
 30
0.0
 10
1563.775613309075
 20
662.0183646434522
 30
0.0
 10
1565.496648439464
 20
661.7700755352379
 30
0.0
 10
1566.628766028495
 20
663.4224294573509
 30
0.0
 10
1567.243392594911
 20
664.3194838750546
 30
0.0
 10
1567.526547146028
 20
665.3636384870169
 30
0.0
 10
1566.800460974742
 20
666.3754630310348
 30
0.0
 10
1565.885497443476
 20
667.6504659553173
 30
0.0
 10
1563.979638323266
 20
668.0824486313975
 30
0.0
 10
1562.053124779029
 20
667.5138786852506
 30
0.0
 10
1562.053124779029
 20
665.770768028948
 30
0.0
 10
1562.053124779029
 20
664.0385901678495
 30
0.0
 10
1562.053124779029
 20
662.1253187093841
 30
0.0
  0
HATCH
  5
53
330
1F
100
AcDbEntity
  8
_U+0421_U+043B_U+043E_U+0439 1
 62
     7
100
AcDbHatch
 10
0.0
 20
0.0
 30
0.0
210
0.0
220
0.0
230
1.0
  2
SOLID
 70
     1
 71
     0
 91
        2
 92
        1
 93
        1
 72
     4
 94
        3
 73
     0
 74
     1
 95
       50
 96
       46
 40
0.0
 40
0.0
 40
0.0
 40
0.0
 40
1.0
 40
1.0
 40
1.0
 40
2.0
 40
2.0
 40
2.0
 40
3.0
 40
3.0
 40
3.0
 40
4.0
 40
4.0
 40
4.0
 40
5.0
 40
5.0
 40
5.0
 40
6.0
 40
6.0
 40
6.0
 40
7.0
 40
7.0
 40
7.0
 40
8.0
 40
8.0
 40
8.0
 40
9.0
 40
9.0
 40
9.0
 40
10.0
 40
10.0
 40
10.0
 40
11.0
 40
11.0
 40
11.0
 40
12.0
 40
12.0
 40
12.0
 40
13.0
 40
13.0
 40
13.0
 40
14.0
 40
14.0
 40
14.0
 40
15.0
 40
15.0
 40
15.0
 40
15.0
 10
1555.731353031749
 20
662.249875060061
 10
1555.731353031749
 20
664.1215954371972
 10
1555.731353031749
 20
665.8259649181758
 10
1555.731353031749
 20
667.525635073594
 10
1554.796784753988
 20
667.6863972246362
 10
1553.731636591412
 20
667.5968839545983
 10
1553.107821309382
 20
668.0787182389423
 10
1552.730760991483
 20
668.3699633814883
 10
1553.038413401278
 20
669.5476369753509
 10
1553.038413401278
 20
670.2061077647777
 10
1553.690731465486
 20
670.5221091481623
 10
1554.247868000992
 20
670.7920054646231
 10
1554.760207529265
 20
671.0401976795268
 10
1555.804313694572
 20
670.9000576547409
 10
1556.906313612916
 20
670.6431450418901
 10
1558.011882434865
 20
670.6266731791012
 10
1560.255220955626
 20
670.593261135856
 10
1562.51777664964
 20
670.8816640746267
 10
1564.740234661983
 20
670.6810141774193
 10
1567.136293189013
 20
670.4646837127925
 10
1569.680905309959
 20
670.2349335246581
 10
1571.797830358258
 20
669.2393870568081
 10
1572.973323852633
 20
668.6865622736211
 10
1573.739152430119
 20
666.6353308898566
 10
1574.089437896544
 20
665.1206462131112
 10
1574.488799824748
 20
663.3936844418959
 10
1573.568377970323
 20
661.6709698274583
 10
1571.928248754221
 20
660.9563493645836
 10
1570.070561758226
 20
660.1469349462476
 10
1568.032346375841
 20
659.6309942165996
 10
1566.021261120403
 20
659.3252958219006
 10
1563.518054740821
 20
658.9447796425931
 10
1560.964060117639
 20
658.8057538908781
 10
1558.428636712308
 20
658.76347610972
 10
1556.82442261664
 20
658.7367012582456
 10
1555.19864975938
 20
658.9999442340505
 10
1553.619450286712
 20
659.3169145505403
 10
1553.301381846036
 20
659.3807510932896
 10
1552.980471201585
 20
660.2704254705087
 10
1552.973834009814
 20
660.7833948053006
 10
1552.968440282195
 20
661.2030720309444
 10
1553.336053502318
 20
661.8409368430001
 10
1553.704700251087
 20
662.0026194804923
 10
1554.273754663786
 20
662.2521843506285
 10
1554.984935414137
 20
662.1776895437216
 10
1555.731353031749
 20
662.249875060061
 97
        0
 92
        1
 93
        1
 72
     4
 94
        3
 73
     0
 74
     1
 95
       17
 96
       13
 40
0.0
 40
0.0
 40
0.0
 40
0.0
 40
1.0
 40
1.0
 40
1.0
 40
2.0
 40
2.0
 40
2.0
 40
3.0
 40
3.0
 40
3.0
 40
4.0
 40
4.0
 40
4.0
 40
4.0
 10
1562.053124779029
 20
662.1253187093841
 10
1563.775613309075
 20
662.0183646434522
 10
1565.496648439464
 20
661.7700755352379
 10
1566.628766028495
 20
663.4224294573509
 10
1567.243392594911
 20
664.3194838750546
 10
1567.526547146028
 20
665.3636384870169
 10
1566.800460974742
 20
666.3754630310348
 10
1565.885497443476
 20
667.6504659553173
 10
1563.979638323266
 20
668.0824486313975
 10
1562.053124779029
 20
667.5138786852506
 10
1562.053124779029
 20
665.770768028948
 10
1562.053124779029
 20
664.0385901678495
 10
1562.053124779029
 20
662.1253187093841
 97
        0
 75
     2
 76
     1
 98
        0
  0
SPLINE
  5
54
330
1F
100
AcDbEntity
  8
_U+0421_U+043B_U+043E_U+0439 1
370
     0
100
AcDbSpline
210
0.0
220
0.0
230
1.0
 70
    11
 71
     3
 72
    53
 73
    49
 74
     0
 42
0.0000000001
 43
0.0000000001
 12
1.0
 22
0.0
 32
0.0
 13
1.0
 23
0.0
 33
0.0
 40
0.0
 40
0.0
 40
0.0
 40
0.0
 40
1.0
 40
1.0
 40
1.0
 40
2.0
 40
2.0
 40
2.0
 40
3.0
 40
3.0
 40
3.0
 40
4.0
 40
4.0
 40
4.0
 40
5.0
 40
5.0
 40
5.0
 40
6.0
 40
6.0
 40
6.0
 40
7.0
 40
7.0
 40
7.0
 40
8.0
 40
8.0
 40
8.0
 40
9.0
 40
9.0
 40
9.0
 40
10.0
 40
10.0
 40
10.0
 40
11.0
 40
11.0
 40
11.0
 40
12.0
 40
12.0
 40
12.0
 40
13.0
 40
13.0
 40
13.0
 40
14.0
 40
14.0
 40
14.0
 40
15.0
 40
15.0
 40
15.0
 40
16.0
 40
16.0
 40
16.0
 40
16.0
 10
1509.956296649251
 20
658.4201831105383
 30
0.0
 10
1510.595170766625
 20
658.9064583382813
 30
0.0
 10
1511.234052958441
 20
659.3927174171392
 30
0.0
 10
1512.04026989753
 20
660.0063589015642
 30
0.0
 10
1511.379199137604
 20
660.6330163873695
 30
0.0
 10
1510.830314682378
 20
661.1775406436217
 30
0.0
 10
1510.255858467617
 20
661.6936105643505
 30
0.0
 10
1507.97649985867
 20
663.741305342281
 30
0.0
 10
1508.055597097826
 20
666.7276056192443
 30
0.0
 10
1510.510219556624
 20
668.5789945500559
 30
0.0
 10
1511.200043406448
 20
669.0993116275625
 30
0.0
 10
1512.016862088596
 20
669.4984151736053
 30
0.0
 10
1512.833188229749
 20
669.7931646242153
 30
0.0
 10
1514.163783690944
 20
670.2736262533269
 30
0.0
 10
1514.255654698205
 20
670.3849243693472
 30
0.0
 10
1513.600623621302
 20
671.5824287940967
 30
0.0
 10
1513.520767384546
 20
671.7284308641692
 30
0.0
 10
1513.466361790687
 20
671.8883855709571
 30
0.0
 10
1513.395153281896
 20
672.0534756232025
 30
0.0
 10
1516.731973184117
 20
671.3879800687628
 30
0.0
 10
1520.068752714126
 20
670.8767871113304
 30
0.0
 10
1523.309502898965
 20
670.0075895204019
 30
0.0
 10
1524.81079207553
 20
669.6049332196399
 30
0.0
 10
1526.202276907946
 20
668.6130041020493
 30
0.0
 10
1527.499339209257
 20
667.686364926866
 30
0.0
 10
1528.517994731667
 20
666.9585992715303
 30
0.0
 10
1528.81697519017
 20
665.7508241558654
 30
0.0
 10
1528.641824382515
 20
664.4796646662337
 30
0.0
 10
1528.516832011941
 20
663.5725656420058
 30
0.0
 10
1528.402627096605
 20
662.6639809203498
 30
0.0
 10
1528.307752396718
 20
661.9401717418605
 30
0.0
 10
1527.533590994527
 20
661.5357713615091
 30
0.0
 10
1526.889476563943
 20
661.1143016096206
 30
0.0
 10
1526.18635410725
 20
660.8493952986516
 30
0.0
 10
1524.640930027741
 20
660.2671633957211
 30
0.0
 10
1523.099187894033
 20
659.5034180244114
 30
0.0
 10
1521.493819153081
 20
659.2970998685385
 30
0.0
 10
1519.642139542337
 20
659.0591137490097
 30
0.0
 10
1517.717321631035
 20
659.4590570370771
 30
0.0
 10
1515.836154156123
 20
659.3588209073414
 30
0.0
 10
1514.464798908968
 20
659.2857472023222
 30
0.0
 10
1513.110456512253
 20
658.8617420754751
 30
0.0
 10
1511.753134646239
 20
658.5725801391053
 30
0.0
 10
1511.190531713131
 20
658.4527069651037
 30
0.0
 10
1510.639967773856
 20
658.2763934377227
 30
0.0
 10
1510.083921288095
 20
658.1257566376302
 30
0.0
 10
1510.041385124775
 20
658.2238934123045
 30
0.0
 10
1509.998840887013
 20
658.3220463358639
 30
0.0
 10
1509.956296649251
 20
658.4201831105383
 30
0.0
  0
SPLINE
  5
55
330
1F
100
AcDbEntity
  8
_U+0421_U+043B_U+043E_U+0439 1
370
     0
100
AcDbSpline
210
0.0
220
0.0
230
1.0
 70
    11
 71
     3
 72
    17
 73
    13
 74
     0
 42
0.0000000001
 43
0.0000000001
 12
1.0
 22
0.0
 32
0.0
 13
1.0
 23
0.0
 33
0.0
 40
0.0
 40
0.0
 40
0.0
 40
0.0
 40
1.0
 40
1.0
 40
1.0
 40
2.0
 40
2.0
 40
2.0
 40
3.0
 40
3.0
 40
3.0
 40
4.0
 40
4.0
 40
4.0
 40
4.0
 10
1521.664101071882
 20
664.8084559666072
 30
0.0
 10
1521.681146220091
 20
666.3487689239859
 30
0.0
 10
1520.336081357858
 20
667.6511765062611
 30
0.0
 10
1518.682419376053
 20
667.6955697913656
 30
0.0
 10
1517.145949853325
 20
667.7368140438781
 30
0.0
 10
1515.838237362299
 20
666.5318003875631
 30
0.0
 10
1515.81436931014
 20
665.0527401513199
 30
0.0
 10
1515.788022404121
 20
663.4195549558053
 30
0.0
 10
1517.16666079845
 20
661.9928171072444
 30
0.0
 10
1518.776793460502
 20
661.986987359728
 30
0.0
 10
1520.298422157835
 20
661.9814805899133
 30
0.0
 10
1521.647403124702
 20
663.2996979306888
 30
0.0
 10
1521.664101071882
 20
664.8084559666072
 30
0.0
  0
HATCH
  5
56
330
1F
100
AcDbEntity
  8
_U+0421_U+043B_U+043E_U+0439 1
 62
     7
100
AcDbHatch
 10
0.0
 20
0.0
 30
0.0
210
0.0
220
0.0
230
1.0
  2
SOLID
 70
     1
 71
     0
 91
        2
 92
        1
 93
        1
 72
     4
 94
        3
 73
     0
 74
     1
 95
       53
 96
       49
 40
0.0
 40
0.0
 40
0.0
 40
0.0
 40
1.0
 40
1.0
 40
1.0
 40
2.0
 40
2.0
 40
2.0
 40
3.0
 40
3.0
 40
3.0
 40
4.0
 40
4.0
 40
4.0
 40
5.0
 40
5.0
 40
5.0
 40
6.0
 40
6.0
 40
6.0
 40
7.0
 40
7.0
 40
7.0
 40
8.0
 40
8.0
 40
8.0
 40
9.0
 40
9.0
 40
9.0
 40
10.0
 40
10.0
 40
10.0
 40
11.0
 40
11.0
 40
11.0
 40
12.0
 40
12.0
 40
12.0
 40
13.0
 40
13.0
 40
13.0
 40
14.0
 40
14.0
 40
14.0
 40
15.0
 40
15.0
 40
15.0
 40
16.0
 40
16.0
 40
16.0
 40
16.0
 10
1509.956296649251
 20
658.4201831105383
 10
1510.595170766625
 20
658.9064583382813
 10
1511.234052958441
 20
659.3927174171392
 10
1512.04026989753
 20
660.0063589015642
 10
1511.379199137604
 20
660.6330163873695
 10
1510.830314682378
 20
661.1775406436217
 10
1510.255858467617
 20
661.6936105643505
 10
1507.97649985867
 20
663.741305342281
 10
1508.055597097826
 20
666.7276056192443
 10
1510.510219556624
 20
668.5789945500559
 10
1511.200043406448
 20
669.0993116275625
 10
1512.016862088596
 20
669.4984151736053
 10
1512.833188229749
 20
669.7931646242153
 10
1514.163783690944
 20
670.2736262533269
 10
1514.255654698205
 20
670.3849243693472
 10
1513.600623621302
 20
671.5824287940967
 10
1513.520767384546
 20
671.7284308641692
 10
1513.466361790687
 20
671.8883855709571
 10
1513.395153281896
 20
672.0534756232025
 10
1516.731973184117
 20
671.3879800687628
 10
1520.068752714126
 20
670.8767871113304
 10
1523.309502898965
 20
670.0075895204019
 10
1524.81079207553
 20
669.6049332196399
 10
1526.202276907946
 20
668.6130041020493
 10
1527.499339209257
 20
667.686364926866
 10
1528.517994731667
 20
666.9585992715303
 10
1528.81697519017
 20
665.7508241558654
 10
1528.641824382515
 20
664.4796646662337
 10
1528.516832011941
 20
663.5725656420058
 10
1528.402627096605
 20
662.6639809203498
 10
1528.307752396718
 20
661.9401717418605
 10
1527.533590994527
 20
661.5357713615091
 10
1526.889476563943
 20
661.1143016096206
 10
1526.18635410725
 20
660.8493952986516
 10
1524.640930027741
 20
660.2671633957211
 10
1523.099187894033
 20
659.5034180244114
 10
1521.493819153081
 20
659.2970998685385
 10
1519.642139542337
 20
659.0591137490097
 10
1517.717321631035
 20
659.4590570370771
 10
1515.836154156123
 20
659.3588209073414
 10
1514.464798908968
 20
659.2857472023222
 10
1513.110456512253
 20
658.8617420754751
 10
1511.753134646239
 20
658.5725801391053
 10
1511.190531713131
 20
658.4527069651037
 10
1510.639967773856
 20
658.2763934377227
 10
1510.083921288095
 20
658.1257566376302
 10
1510.041385124775
 20
658.2238934123045
 10
1509.998840887013
 20
658.3220463358639
 10
1509.956296649251
 20
658.4201831105383
 97
        0
 92
        1
 93
        1
 72
     4
 94
        3
 73
     0
 74
     1
 95
       17
 96
       13
 40
0.0
 40
0.0
 40
0.0
 40
0.0
 40
1.0
 40
1.0
 40
1.0
 40
2.0
 40
2.0
 40
2.0
 40
3.0
 40
3.0
 40
3.0
 40
4.0
 40
4.0
 40
4.0
 40
4.0
 10
1521.664101071882
 20
664.8084559666072
 10
1521.681146220091
 20
666.3487689239859
 10
1520.336081357858
 20
667.6511765062611
 10
1518.682419376053
 20
667.6955697913656
 10
1517.145949853325
 20
667.7368140438781
 10
1515.838237362299
 20
666.5318003875631
 10
1515.81436931014
 20
665.0527401513199
 10
1515.788022404121
 20
663.4195549558053
 10
1517.16666079845
 20
661.9928171072444
 10
1518.776793460502
 20
661.986987359728
 10
1520.298422157835
 20
661.9814805899133
 10
1521.647403124702
 20
663.2996979306888
 10
1521.664101071882
 20
664.8084559666072
 97
        0
 75
     2
 76
     1
 98
        0
  0
SPLINE
  5
57
330
1F
100
AcDbEntity
  8
_U+0421_U+043B_U+043E_U+0439 1
370
     0
100
AcDbSpline
210
0.0
220
0.0
230
1.0
 70
    11
 71
     3
 72
    71
 73
    67
 74
     0
 42
0.0000000001
 43
0.0000000001
 12
1.0
 22
0.0
 32
0.0
 13
1.0
 23
0.0
 33
0.0
 40
0.0
 40
0.0
 40
0.0
 40
0.0
 40
1.0
 40
1.0
 40
1.0
 40
2.0
 40
2.0
 40
2.0
 40
3.0
 40
3.0
 40
3.0
 40
4.0
 40
4.0
 40
4.0
 40
5.0
 40
5.0
 40
5.0
 40
6.0
 40
6.0
 40
6.0
 40
7.0
 40
7.0
 40
7.0
 40
8.0
 40
8.0
 40
8.0
 40
9.0
 40
9.0
 40
9.0
 40
10.0
 40
10.0
 40
10.0
 40
11.0
 40
11.0
 40
11.0
 40
12.0
 40
12.0
 40
12.0
 40
13.0
 40
13.0
 40
13.0
 40
14.0
 40
14.0
 40
14.0
 40
15.0
 40
15.0
 40
15.0
 40
16.0
 40
16.0
 40
16.0
 40
17.0
 40
17.0
 40
17.0
 40
18.0
 40
18.0
 40
18.0
 40
19.0
 40
19.0
 40
19.0
 40
20.0
 40
20.0
 40
20.0
 40
21.0
 40
21.0
 40
21.0
 40
22.0
 40
22.0
 40
22.0
 40
22.0
 10
1595.708822402451
 20
660.0506391444732
 30
0.0
 10
1591.535030009492
 20
658.6746087950856
 30
0.0
 10
1587.362900951697
 20
659.0838376920781
 30
0.0
 10
1583.081621579599
 20
659.4545353492526
 30
0.0
 10
1583.028701683168
 20
660.3107330876861
 30
0.0
 10
1582.98086868554
 20
661.0848460432218
 30
0.0
 10
1582.927884193569
 20
661.9419804169902
 30
0.0
 10
1583.57128807321
 20
662.0437506908091
 30
0.0
 10
1584.123789878695
 20
662.1311323080155
 30
0.0
 10
1584.676275535295
 20
662.218530074107
 30
0.0
 10
1584.722978110967
 20
662.321430769882
 30
0.0
 10
1584.769664537754
 20
662.4243476145422
 30
0.0
 10
1584.816367113426
 20
662.5272483103172
 30
0.0
 10
1584.420832470988
 20
662.7209864847073
 30
0.0
 10
1584.010779980856
 20
663.1016318550954
 30
0.0
 10
1583.632540794345
 20
663.0722893308922
 30
0.0
 10
1582.626206871257
 20
662.994193322611
 30
0.0
 10
1581.397276716128
 20
663.6880947659189
 30
0.0
 10
1580.436902519998
 20
662.3097066793088
 30
0.0
 10
1581.251113157205
 20
662.2107301626098
 30
0.0
 10
1581.835315224116
 20
662.1397235148819
 30
0.0
 10
1582.513891375476
 20
662.0572350098569
 30
0.0
 10
1582.513891375476
 20
661.1713556206333
 30
0.0
 10
1582.513891375476
 20
660.3164497930069
 30
0.0
 10
1582.513891375476
 20
659.462932769498
 30
0.0
 10
1580.554547147857
 20
658.5472425384037
 30
0.0
 10
1578.082798796424
 20
660.256569727104
 30
0.0
 10
1576.368174773416
 20
658.42050608824
 30
0.0
 10
1575.763350580248
 20
658.683006215331
 30
0.0
 10
1575.120479613815
 20
659.0012361448576
 30
0.0
 10
1574.450333180471
 20
659.2442445676484
 30
0.0
 10
1573.243623891221
 20
659.6818632046239
 30
0.0
 10
1573.977154698533
 20
660.6748097019749
 30
0.0
 10
1573.863192016473
 20
661.3982313072222
 30
0.0
 10
1573.831411010622
 20
661.5999793286154
 30
0.0
 10
1574.486910405193
 20
662.1609431498863
 30
0.0
 10
1574.757194294896
 20
662.1178902222441
 30
0.0
 10
1576.306130756911
 20
661.8712483003087
 30
0.0
 10
1576.926813155234
 20
662.7776206247078
 30
0.0
 10
1577.534318063326
 20
663.9622705369278
 30
0.0
 10
1578.506593987765
 20
665.8582465394649
 30
0.0
 10
1579.545306425453
 20
667.7293532589679
 30
0.0
 10
1580.704812523593
 20
669.5142410809907
 30
0.0
 10
1581.035089521394
 20
670.0226725790732
 30
0.0
 10
1581.85097964265
 20
670.2947489950208
 30
0.0
 10
1582.499906440991
 20
670.4908287577485
 30
0.0
 10
1582.977428973016
 20
670.6351190460018
 30
0.0
 10
1583.545530601496
 20
670.4743245971895
 30
0.0
 10
1584.073518399419
 20
670.457917329941
 30
0.0
 10
1586.965008572036
 20
670.3680972310865
 30
0.0
 10
1586.965040869806
 20
670.3690177175364
 30
0.0
 10
1589.289204560428
 20
672.2088601955107
 30
0.0
 10
1589.014382834016
 20
671.4518812070525
 30
0.0
 10
1588.939500453866
 20
670.8498992176603
 30
0.0
 10
1588.618073045093
 20
670.4423659536021
 30
0.0
 10
1587.941257122207
 20
669.5842787956135
 30
0.0
 10
1588.146557898319
 20
668.8851451135373
 30
0.0
 10
1588.659898657468
 20
668.0532030005047
 30
0.0
 10
1589.969492493608
 20
665.930948820127
 30
0.0
 10
1591.220175196949
 20
663.7719236284061
 30
0.0
 10
1592.471083984681
 20
661.6140934541816
 30
0.0
 10
1592.921266454254
 20
660.8375097192276
 30
0.0
 10
1593.459815623024
 20
660.3112014053536
 30
0.0
 10
1594.445382079891
 20
660.3469550369365
 30
0.0
 10
1594.862394739495
 20
660.362070393378
 30
0.0
 10
1595.287433394988
 20
660.156107512977
 30
0.0
 10
1595.708822402451
 20
660.0506391444732
 30
0.0
  0
SPLINE
  5
58
330
1F
100
AcDbEntity
  8
_U+0421_U+043B_U+043E_U+0439 1
370
     0
100
AcDbSpline
210
0.0
220
0.0
230
1.0
 70
    11
 71
     3
 72
    14
 73
    10
 74
     0
 42
0.0000000001
 43
0.0000000001
 12
1.0
 22
0.0
 32
0.0
 13
1.0
 23
0.0
 33
0.0
 40
0.0
 40
0.0
 40
0.0
 40
0.0
 40
1.0
 40
1.0
 40
1.0
 40
2.0
 40
2.0
 40
2.0
 40
3.0
 40
3.0
 40
3.0
 40
3.0
 10
1582.808543932776
 20
667.0863692503395
 30
0.0
 10
1582.368874387394
 20
666.1813211345176
 30
0.0
 10
1582.061464210876
 20
665.5485270723792
 30
0.0
 10
1581.712357613063
 20
664.8299016860029
 30
0.0
 10
1582.477346448524
 20
664.8299016860029
 30
0.0
 10
1583.036033276998
 20
664.8299016860029
 30
0.0
 10
1583.732954561817
 20
664.8299016860029
 30
0.0
 10
1583.414498547899
 20
665.6072282696709
 30
0.0
 10
1583.162075325102
 20
666.2233889801695
 30
0.0
 10
1582.808543932776
 20
667.0863692503395
 30
0.0
  0
HATCH
  5
59
330
1F
100
AcDbEntity
  8
_U+0421_U+043B_U+043E_U+0439 1
 62
     7
100
AcDbHatch
 10
0.0
 20
0.0
 30
0.0
210
0.0
220
0.0
230
1.0
  2
SOLID
 70
     1
 71
     0
 91
        2
 92
        1
 93
        1
 72
     4
 94
        3
 73
     0
 74
     1
 95
       71
 96
       67
 40
0.0
 40
0.0
 40
0.0
 40
0.0
 40
1.0
 40
1.0
 40
1.0
 40
2.0
 40
2.0
 40
2.0
 40
3.0
 40
3.0
 40
3.0
 40
4.0
 40
4.0
 40
4.0
 40
5.0
 40
5.0
 40
5.0
 40
6.0
 40
6.0
 40
6.0
 40
7.0
 40
7.0
 40
7.0
 40
8.0
 40
8.0
 40
8.0
 40
9.0
 40
9.0
 40
9.0
 40
10.0
 40
10.0
 40
10.0
 40
11.0
 40
11.0
 40
11.0
 40
12.0
 40
12.0
 40
12.0
 40
13.0
 40
13.0
 40
13.0
 40
14.0
 40
14.0
 40
14.0
 40
15.0
 40
15.0
 40
15.0
 40
16.0
 40
16.0
 40
16.0
 40
17.0
 40
17.0
 40
17.0
 40
18.0
 40
18.0
 40
18.0
 40
19.0
 40
19.0
 40
19.0
 40
20.0
 40
20.0
 40
20.0
 40
21.0
 40
21.0
 40
21.0
 40
22.0
 40
22.0
 40
22.0
 40
22.0
 10
1595.708822402451
 20
660.0506391444732
 10
1591.535030009492
 20
658.6746087950856
 10
1587.362900951697
 20
659.0838376920781
 10
1583.081621579599
 20
659.4545353492526
 10
1583.028701683168
 20
660.3107330876861
 10
1582.98086868554
 20
661.0848460432218
 10
1582.927884193569
 20
661.9419804169902
 10
1583.57128807321
 20
662.0437506908091
 10
1584.123789878695
 20
662.1311323080155
 10
1584.676275535295
 20
662.218530074107
 10
1584.722978110967
 20
662.321430769882
 10
1584.769664537754
 20
662.4243476145422
 10
1584.816367113426
 20
662.5272483103172
 10
1584.420832470988
 20
662.7209864847073
 10
1584.010779980856
 20
663.1016318550954
 10
1583.632540794345
 20
663.0722893308922
 10
1582.626206871257
 20
662.994193322611
 10
1581.397276716128
 20
663.6880947659189
 10
1580.436902519998
 20
662.3097066793088
 10
1581.251113157205
 20
662.2107301626098
 10
1581.835315224116
 20
662.1397235148819
 10
1582.513891375476
 20
662.0572350098569
 10
1582.513891375476
 20
661.1713556206333
 10
1582.513891375476
 20
660.3164497930069
 10
1582.513891375476
 20
659.462932769498
 10
1580.554547147857
 20
658.5472425384037
 10
1578.082798796424
 20
660.256569727104
 10
1576.368174773416
 20
658.42050608824
 10
1575.763350580248
 20
658.683006215331
 10
1575.120479613815
 20
659.0012361448576
 10
1574.450333180471
 20
659.2442445676484
 10
1573.243623891221
 20
659.6818632046239
 10
1573.977154698533
 20
660.6748097019749
 10
1573.863192016473
 20
661.3982313072222
 10
1573.831411010622
 20
661.5999793286154
 10
1574.486910405193
 20
662.1609431498863
 10
1574.757194294896
 20
662.1178902222441
 10
1576.306130756911
 20
661.8712483003087
 10
1576.926813155234
 20
662.7776206247078
 10
1577.534318063326
 20
663.9622705369278
 10
1578.506593987765
 20
665.8582465394649
 10
1579.545306425453
 20
667.7293532589679
 10
1580.704812523593
 20
669.5142410809907
 10
1581.035089521394
 20
670.0226725790732
 10
1581.85097964265
 20
670.2947489950208
 10
1582.499906440991
 20
670.4908287577485
 10
1582.977428973016
 20
670.6351190460018
 10
1583.545530601496
 20
670.4743245971895
 10
1584.073518399419
 20
670.457917329941
 10
1586.965008572036
 20
670.3680972310865
 10
1586.965040869806
 20
670.3690177175364
 10
1589.289204560428
 20
672.2088601955107
 10
1589.014382834016
 20
671.4518812070525
 10
1588.939500453866
 20
670.8498992176603
 10
1588.618073045093
 20
670.4423659536021
 10
1587.941257122207
 20
669.5842787956135
 10
1588.146557898319
 20
668.8851451135373
 10
1588.659898657468
 20
668.0532030005047
 10
1589.969492493608
 20
665.930948820127
 10
1591.220175196949
 20
663.7719236284061
 10
1592.471083984681
 20
661.6140934541816
 10
1592.921266454254
 20
660.8375097192276
 10
1593.459815623024
 20
660.3112014053536
 10
1594.445382079891
 20
660.3469550369365
 10
1594.862394739495
 20
660.362070393378
 10
1595.287433394988
 20
660.156107512977
 10
1595.708822402451
 20
660.0506391444732
 97
        0
 92
        1
 93
        1
 72
     4
 94
        3
 73
     0
 74
     1
 95
       14
 96
       10
 40
0.0
 40
0.0
 40
0.0
 40
0.0
 40
1.0
 40
1.0
 40
1.0
 40
2.0
 40
2.0
 40
2.0
 40
3.0
 40
3.0
 40
3.0
 40
3.0
 10
1582.808543932776
 20
667.0863692503395
 10
1582.368874387394
 20
666.1813211345176
 10
1582.061464210876
 20
665.5485270723792
 10
1581.712357613063
 20
664.8299016860029
 10
1582.477346448524
 20
664.8299016860029
 10
1583.036033276998
 20
664.8299016860029
 10
1583.732954561817
 20
664.8299016860029
 10
1583.414498547899
 20
665.6072282696709
 10
1583.162075325102
 20
666.2233889801695
 10
1582.808543932776
 20
667.0863692503395
 97
        0
 75
     2
 76
     1
 98
        0
  0
ENDSEC
  0
SECTION
  2
OBJECTS
  0
DICTIONARY
  5
C
330
0
100
AcDbDictionary
281
     1
  3
ACAD_GROUP
350
D
  3
ACAD_LAYOUT
350
1A
  3
ACAD_MATERIAL
350
3B
  3
ACAD_MLEADERSTYLE
350
7B
  3
ACAD_MLINESTYLE
350
17
  3
ACAD_PLOTSETTINGS
350
19
  3
ACAD_PLOTSTYLENAME
350
E
  3
ACAD_TABLESTYLE
350
7A
  3
ACAD_VISUALSTYLE
350
2A
  0
SUN
  5
3F
330
29
100
AcDbSun
 90
        1
290
     0
 63
     7
421
 16777215
 40
1.0
291
     1
 91
  2455826
 92
 54000000
292
     0
 70
     2
 71
   256
280
     1
  0
DICTIONARY
  5
D
102
{ACAD_REACTORS
330
C
102
}
330
C
100
AcDbDictionary
281
     1
  0
DICTIONARY
  5
1A
102
{ACAD_REACTORS
330
C
102
}
330
C
100
AcDbDictionary
281
     1
  3
Layout1
350
1E
  3
Layout2
350
26
  3
Model
350
22
  0
DICTIONARY
  5
3B
102
{ACAD_REACTORS
330
C
102
}
330
C
100
AcDbDictionary
281
     1
  3
ByBlock
350
3D
  3
ByLayer
350
3C
  3
Global
350
3E
  0
DICTIONARY
  5
7B
102
{ACAD_REACTORS
330
C
102
}
330
C
100
AcDbDictionary
281
     1
  0
DICTIONARY
  5
17
102
{ACAD_REACTORS
330
C
102
}
330
C
100
AcDbDictionary
281
     1
  3
Standard
350
18
  0
DICTIONARY
  5
19
102
{ACAD_REACTORS
330
C
102
}
330
C
100
AcDbDictionary
281
     1
  0
ACDBDICTIONARYWDFLT
  5
E
102
{ACAD_REACTORS
330
C
102
}
330
C
100
AcDbDictionary
281
     1
  3
Normal
350
F
100
AcDbDictionaryWithDefault
340
F
  0
DICTIONARY
  5
7A
102
{ACAD_REACTORS
330
C
102
}
330
C
100
AcDbDictionary
281
     1
  0
DICTIONARY
  5
2A
102
{ACAD_REACTORS
330
C
102
}
330
C
100
AcDbDictionary
281
     1
  3
2dWireframe
350
2F
  3
3D Hidden
350
31
  3
3dWireframe
350
30
  3
Basic
350
32
  3
Brighten
350
36
  3
ColorChange
350
3A
  3
Conceptual
350
34
  3
Dim
350
35
  3
Facepattern
350
39
  3
Flat
350
2B
  3
FlatWithEdges
350
2C
  3
Gouraud
350
2D
  3
GouraudWithEdges
350
2E
  3
Linepattern
350
38
  3
Realistic
350
33
  3
Thicken
350
37
  0
LAYOUT
  5
1E
102
{ACAD_REACTORS
330
1A
102
}
330
1A
100
AcDbPlotSettings
  1

  2
none_device
  4

  6

 40
0.0
 41
0.0
 42
0.0
 43
0.0
 44
0.0
 45
0.0
 46
0.0
 47
0.0
 48
0.0
 49
0.0
140
0.0
141
0.0
142
1.0
143
1.0
 70
   688
 72
     0
 73
     0
 74
     5
  7

 75
    16
 76
     0
 77
     2
 78
   300
147
1.0
148
0.0
149
0.0
100
AcDbLayout
  1
Layout1
 70
     1
 71
     1
 10
0.0
 20
0.0
 11
12.0
 21
9.0
 12
0.0
 22
0.0
 32
0.0
 14
1.000000000000000E+20
 24
1.000000000000000E+20
 34
1.000000000000000E+20
 15
-1.000000000000000E+20
 25
-1.000000000000000E+20
 35
-1.000000000000000E+20
146
0.0
 13
0.0
 23
0.0
 33
0.0
 16
1.0
 26
0.0
 36
0.0
 17
0.0
 27
1.0
 37
0.0
 76
     0
330
1B
  0
LAYOUT
  5
26
102
{ACAD_REACTORS
330
1A
102
}
330
1A
100
AcDbPlotSettings
  1

  2
none_device
  4

  6

 40
0.0
 41
0.0
 42
0.0
 43
0.0
 44
0.0
 45
0.0
 46
0.0
 47
0.0
 48
0.0
 49
0.0
140
0.0
141
0.0
142
1.0
143
1.0
 70
   688
 72
     0
 73
     0
 74
     5
  7

 75
    16
 76
     0
 77
     2
 78
   300
147
1.0
148
0.0
149
0.0
100
AcDbLayout
  1
Layout2
 70
     1
 71
     2
 10
0.0
 20
0.0
 11
0.0
 21
0.0
 12
0.0
 22
0.0
 32
0.0
 14
0.0
 24
0.0
 34
0.0
 15
0.0
 25
0.0
 35
0.0
146
0.0
 13
0.0
 23
0.0
 33
0.0
 16
1.0
 26
0.0
 36
0.0
 17
0.0
 27
1.0
 37
0.0
 76
     0
330
23
  0
LAYOUT
  5
22
102
{ACAD_REACTORS
330
1A
102
}
330
1A
100
AcDbPlotSettings
  1

  2
none_device
  4

  6

 40
0.0
 41
0.0
 42
0.0
 43
0.0
 44
0.0
 45
0.0
 46
0.0
 47
0.0
 48
0.0
 49
0.0
140
0.0
141
0.0
142
1.0
143
1.0
 70
  1712
 72
     0
 73
     0
 74
     0
  7

 75
     0
 76
     0
 77
     2
 78
   300
147
1.0
148
0.0
149
0.0
100
AcDbLayout
  1
Model
 70
     1
 71
     0
 10
0.0
 20
0.0
 11
12.0
 21
9.0
 12
0.0
 22
0.0
 32
0.0
 14
1.000000000000000E+20
 24
1.000000000000000E+20
 34
1.000000000000000E+20
 15
-1.000000000000000E+20
 25
-1.000000000000000E+20
 35
-1.000000000000000E+20
146
0.0
 13
0.0
 23
0.0
 33
0.0
 16
1.0
 26
0.0
 36
0.0
 17
0.0
 27
1.0
 37
0.0
 76
     0
330
1F
331
29
  0
MATERIAL
  5
3D
102
{ACAD_REACTORS
330
3B
102
}
330
3B
100
AcDbMaterial
  1
ByBlock
 72
     1
 94
      127
  0
MATERIAL
  5
3C
102
{ACAD_REACTORS
330
3B
102
}
330
3B
100
AcDbMaterial
  1
ByLayer
 72
     1
 94
      127
  0
MATERIAL
  5
3E
102
{ACAD_REACTORS
330
3B
102
}
330
3B
100
AcDbMaterial
  1
Global
 72
     1
 94
      127
  0
MLINESTYLE
  5
18
102
{ACAD_REACTORS
330
17
102
}
330
17
100
AcDbMlineStyle
  2
Standard
 70
     0
  3

 62
   256
 51
90.0
 52
90.0
 71
     2
 49
0.5
 62
   256
  6
BYLAYER
 49
-0.5
 62
   256
  6
BYLAYER
  0
ACDBPLACEHOLDER
  5
F
102
{ACAD_REACTORS
330
E
102
}
330
E
  0
VISUALSTYLE
  5
2F
102
{ACAD_REACTORS
330
2A
102
}
102
{ACAD_XDICTIONARY
360
62
102
}
330
2A
100
AcDbVisualStyle
  2
2dWireframe
 70
     4
 71
     0
 72
     2
 73
     0
 90
        0
 40
-0.6
 41
-30.0
 62
     5
 63
     7
421
 16777215
 74
     1
 91
        4
 64
     7
 65
   257
 75
     1
175
     1
 42
1.0
 92
        0
 66
   257
 43
1.0
 76
     1
 77
     6
 78
     2
 67
     7
 79
     5
170
     0
171
     0
290
     0
174
     0
 93
        1
 44
0.0
173
     0
291
     0
 45
0.0
  0
VISUALSTYLE
  5
31
102
{ACAD_REACTORS
330
2A
102
}
102
{ACAD_XDICTIONARY
360
66
102
}
330
2A
100
AcDbVisualStyle
  2
3D Hidden
 70
     6
 71
     1
 72
     2
 73
     2
 90
        0
 40
-0.6
 41
-30.0
 62
     5
 63
     7
421
 16777215
 74
     2
 91
        2
 64
     7
 65
   257
 75
     2
175
     1
 42
40.0
 92
        0
 66
   257
 43
1.0
 76
     1
 77
     6
 78
     2
 67
     7
 79
     3
170
     0
171
     0
290
     0
174
     0
 93
        1
 44
0.0
173
     0
291
     0
 45
0.0
  0
VISUALSTYLE
  5
30
102
{ACAD_REACTORS
330
2A
102
}
102
{ACAD_XDICTIONARY
360
64
102
}
330
2A
100
AcDbVisualStyle
  2
3dWireframe
 70
     5
 71
     0
 72
     2
 73
     0
 90
        0
 40
-0.6
 41
-30.0
 62
     5
 63
     7
421
 16777215
 74
     1
 91
        4
 64
     7
 65
   257
 75
     1
175
     1
 42
1.0
 92
        0
 66
   257
 43
1.0
 76
     1
 77
     6
 78
     2
 67
     7
 79
     5
170
     0
171
     0
290
     0
174
     0
 93
        1
 44
0.0
173
     0
291
     0
 45
0.0
  0
VISUALSTYLE
  5
32
102
{ACAD_REACTORS
330
2A
102
}
102
{ACAD_XDICTIONARY
360
68
102
}
330
2A
100
AcDbVisualStyle
  2
Basic
 70
     7
 71
     1
 72
     0
 73
     1
 90
        0
 40
-0.6
 41
-30.0
 62
     5
 63
     7
421
 16777215
 74
     0
 91
        4
 64
     7
 65
   257
 75
     1
175
     1
 42
1.0
 92
        8
 66
     7
 43
1.0
 76
     1
 77
     6
 78
     2
 67
     7
 79
     5
170
     0
171
     0
290
     0
174
     0
 93
        1
 44
0.0
173
     0
291
     1
 45
0.0
  0
VISUALSTYLE
  5
36
102
{ACAD_REACTORS
330
2A
102
}
102
{ACAD_XDICTIONARY
360
70
102
}
330
2A
100
AcDbVisualStyle
  2
Brighten
 70
    12
 71
     2
 72
     2
 73
     0
 90
        0
 40
-0.6
 41
-30.0
 62
     5
 63
     7
421
 16777215
 74
     1
 91
        4
 64
     7
 65
   257
 75
     1
175
     1
 42
1.0
 92
        8
 66
     7
 43
1.0
 76
     1
 77
     6
 78
     2
 67
     7
 79
     5
170
     0
171
     0
290
     0
174
     0
 93
        1
 44
50.0
173
     0
291
     1
 45
0.0
  0
VISUALSTYLE
  5
3A
102
{ACAD_REACTORS
330
2A
102
}
102
{ACAD_XDICTIONARY
360
78
102
}
330
2A
100
AcDbVisualStyle
  2
ColorChange
 70
    16
 71
     2
 72
     2
 73
     3
 90
        0
 40
-0.6
 41
-30.0
 62
     5
 63
     8
421
  8421504
 74
     1
 91
        4
 64
     7
 65
   257
 75
     1
175
     1
 42
1.0
 92
        8
 66
     8
424
  8421504
 43
1.0
 76
     1
 77
     6
 78
     2
 67
     7
 79
     5
170
     0
171
     0
290
     0
174
     0
 93
        1
 44
0.0
173
     0
291
     1
 45
0.0
  0
VISUALSTYLE
  5
34
102
{ACAD_REACTORS
330
2A
102
}
102
{ACAD_XDICTIONARY
360
6C
102
}
330
2A
100
AcDbVisualStyle
  2
Conceptual
 70
     9
 71
     3
 72
     2
 73
     0
 90
        0
 40
-0.6
 41
-30.0
 62
     5
 63
     7
421
 16777215
 74
     2
 91
        2
 64
     7
 65
   257
 75
     1
175
     1
 42
40.0
 92
        8
 66
     7
 43
1.0
 76
     1
 77
     6
 78
     2
 67
     7
 79
     3
170
     0
171
     0
290
     0
174
     0
 93
        1
 44
0.0
173
     0
291
     0
 45
0.0
  0
VISUALSTYLE
  5
35
102
{ACAD_REACTORS
330
2A
102
}
102
{ACAD_XDICTIONARY
360
6E
102
}
330
2A
100
AcDbVisualStyle
  2
Dim
 70
    11
 71
     2
 72
     2
 73
     0
 90
        0
 40
-0.6
 41
-30.0
 62
     5
 63
     7
421
 16777215
 74
     1
 91
        4
 64
     7
 65
   257
 75
     1
175
     1
 42
1.0
 92
        8
 66
     7
 43
1.0
 76
     1
 77
     6
 78
     2
 67
     7
 79
     5
170
     0
171
     0
290
     0
174
     0
 93
        1
 44
-50.0
173
     0
291
     1
 45
0.0
  0
VISUALSTYLE
  5
39
102
{ACAD_REACTORS
330
2A
102
}
102
{ACAD_XDICTIONARY
360
76
102
}
330
2A
100
AcDbVisualStyle
  2
Facepattern
 70
    15
 71
     2
 72
     2
 73
     0
 90
        0
 40
-0.6
 41
-30.0
 62
     5
 63
     7
421
 16777215
 74
     1
 91
        4
 64
     7
 65
   257
 75
     1
175
     1
 42
1.0
 92
        8
 66
     7
 43
1.0
 76
     1
 77
     6
 78
     2
 67
     7
 79
     5
170
     0
171
     0
290
     0
174
     0
 93
        1
 44
0.0
173
     0
291
     1
 45
0.0
  0
VISUALSTYLE
  5
2B
102
{ACAD_REACTORS
330
2A
102
}
102
{ACAD_XDICTIONARY
360
5A
102
}
330
2A
100
AcDbVisualStyle
  2
Flat
 70
     0
 71
     2
 72
     1
 73
     1
 90
        2
 40
-0.6
 41
30.0
 62
     5
 63
     7
421
 16777215
 74
     0
 91
        4
 64
     7
 65
   257
 75
     1
175
     1
 42
1.0
 92
        8
 66
     7
 43
1.0
 76
     1
 77
     6
 78
     2
 67
     7
 79
     5
170
     0
171
     0
290
     0
174
     0
 93
       13
 44
0.0
173
     0
291
     1
 45
0.0
  0
VISUALSTYLE
  5
2C
102
{ACAD_REACTORS
330
2A
102
}
102
{ACAD_XDICTIONARY
360
5C
102
}
330
2A
100
AcDbVisualStyle
  2
FlatWithEdges
 70
     1
 71
     2
 72
     1
 73
     1
 90
        2
 40
-0.6
 41
30.0
 62
     5
 63
     7
421
 16777215
 74
     1
 91
        4
 64
     7
 65
   257
 75
     1
175
     1
 42
1.0
 92
        0
 66
   257
 43
1.0
 76
     1
 77
     6
 78
     2
 67
     7
 79
     5
170
     0
171
     0
290
     0
174
     0
 93
       13
 44
0.0
173
     0
291
     1
 45
0.0
  0
VISUALSTYLE
  5
2D
102
{ACAD_REACTORS
330
2A
102
}
102
{ACAD_XDICTIONARY
360
5E
102
}
330
2A
100
AcDbVisualStyle
  2
Gouraud
 70
     2
 71
     2
 72
     2
 73
     1
 90
        2
 40
-0.6
 41
30.0
 62
     5
 63
     7
421
 16777215
 74
     0
 91
        4
 64
     7
 65
   257
 75
     1
175
     1
 42
1.0
 92
        0
 66
     7
 43
1.0
 76
     1
 77
     6
 78
     2
 67
     7
 79
     5
170
     0
171
     0
290
     0
174
     0
 93
       13
 44
0.0
173
     0
291
     1
 45
0.0
  0
VISUALSTYLE
  5
2E
102
{ACAD_REACTORS
330
2A
102
}
102
{ACAD_XDICTIONARY
360
60
102
}
330
2A
100
AcDbVisualStyle
  2
GouraudWithEdges
 70
     3
 71
     2
 72
     2
 73
     1
 90
        2
 40
-0.6
 41
30.0
 62
     5
 63
     7
421
 16777215
 74
     1
 91
        4
 64
     7
 65
   257
 75
     1
175
     1
 42
1.0
 92
        0
 66
   257
 43
1.0
 76
     1
 77
     6
 78
     2
 67
     7
 79
     5
170
     0
171
     0
290
     0
174
     0
 93
       13
 44
0.0
173
     0
291
     1
 45
0.0
  0
VISUALSTYLE
  5
38
102
{ACAD_REACTORS
330
2A
102
}
102
{ACAD_XDICTIONARY
360
74
102
}
330
2A
100
AcDbVisualStyle
  2
Linepattern
 70
    14
 71
     2
 72
     2
 73
     0
 90
        0
 40
-0.6
 41
-30.0
 62
     5
 63
     7
421
 16777215
 74
     1
 91
        4
 64
     7
 65
   257
 75
     7
175
     7
 42
1.0
 92
        8
 66
     7
 43
1.0
 76
     1
 77
     6
 78
     2
 67
     7
 79
     5
170
     0
171
     0
290
     0
174
     0
 93
        1
 44
0.0
173
     0
291
     1
 45
0.0
  0
VISUALSTYLE
  5
33
102
{ACAD_REACTORS
330
2A
102
}
102
{ACAD_XDICTIONARY
360
6A
102
}
330
2A
100
AcDbVisualStyle
  2
Realistic
 70
     8
 71
     2
 72
     2
 73
     0
 90
        0
 40
-0.6
 41
-30.0
 62
     5
 63
     7
421
 16777215
 74
     1
 91
        0
 64
     7
 65
   257
 75
     1
175
     1
 42
1.0
 92
        8
 66
     8
424
  7895160
 43
1.0
 76
     1
 77
     6
 78
     2
 67
     7
 79
     5
170
     0
171
     0
290
     0
174
     0
 93
       13
 44
0.0
173
     0
291
     0
 45
0.0
  0
VISUALSTYLE
  5
37
102
{ACAD_REACTORS
330
2A
102
}
102
{ACAD_XDICTIONARY
360
72
102
}
330
2A
100
AcDbVisualStyle
  2
Thicken
 70
    13
 71
     2
 72
     2
 73
     0
 90
        0
 40
-0.6
 41
-30.0
 62
     5
 63
     7
421
 16777215
 74
     1
 91
        4
 64
     7
 65
   257
 75
     1
175
     1
 42
1.0
 92
       12
 66
     7
 43
1.0
 76
     1
 77
     6
 78
     2
 67
     7
 79
     5
170
     0
171
     0
290
     0
174
     0
 93
        1
 44
0.0
173
     0
291
     1
 45
0.0
  0
DICTIONARY
  5
62
330
2F
100
AcDbDictionary
280
     1
281
     1
  3
ACAD_XREC_ROUNDTRIP
360
63
  0
DICTIONARY
  5
66
330
31
100
AcDbDictionary
280
     1
281
     1
  3
ACAD_XREC_ROUNDTRIP
360
67
  0
DICTIONARY
  5
64
330
30
100
AcDbDictionary
280
     1
281
     1
  3
ACAD_XREC_ROUNDTRIP
360
65
  0
DICTIONARY
  5
68
330
32
100
AcDbDictionary
280
     1
281
     1
  3
ACAD_XREC_ROUNDTRIP
360
69
  0
DICTIONARY
  5
70
330
36
100
AcDbDictionary
280
     1
281
     1
  3
ACAD_XREC_ROUNDTRIP
360
71
  0
DICTIONARY
  5
78
330
3A
100
AcDbDictionary
280
     1
281
     1
  3
ACAD_XREC_ROUNDTRIP
360
79
  0
DICTIONARY
  5
6C
330
34
100
AcDbDictionary
280
     1
281
     1
  3
ACAD_XREC_ROUNDTRIP
360
6D
  0
DICTIONARY
  5
6E
330
35
100
AcDbDictionary
280
     1
281
     1
  3
ACAD_XREC_ROUNDTRIP
360
6F
  0
DICTIONARY
  5
76
330
39
100
AcDbDictionary
280
     1
281
     1
  3
ACAD_XREC_ROUNDTRIP
360
77
  0
DICTIONARY
  5
5A
330
2B
100
AcDbDictionary
280
     1
281
     1
  3
ACAD_XREC_ROUNDTRIP
360
5B
  0
DICTIONARY
  5
5C
330
2C
100
AcDbDictionary
280
     1
281
     1
  3
ACAD_XREC_ROUNDTRIP
360
5D
  0
DICTIONARY
  5
5E
330
2D
100
AcDbDictionary
280
     1
281
     1
  3
ACAD_XREC_ROUNDTRIP
360
5F
  0
DICTIONARY
  5
60
330
2E
100
AcDbDictionary
280
     1
281
     1
  3
ACAD_XREC_ROUNDTRIP
360
61
  0
DICTIONARY
  5
74
330
38
100
AcDbDictionary
280
     1
281
     1
  3
ACAD_XREC_ROUNDTRIP
360
75
  0
DICTIONARY
  5
6A
330
33
100
AcDbDictionary
280
     1
281
     1
  3
ACAD_XREC_ROUNDTRIP
360
6B
  0
DICTIONARY
  5
72
330
37
100
AcDbDictionary
280
     1
281
     1
  3
ACAD_XREC_ROUNDTRIP
360
73
  0
XRECORD
  5
63
102
{ACAD_REACTORS
330
62
102
}
330
62
100
AcDbXrecord
280
     1
102
RTVSPropertyOp0
 70
     1
102
RTVSPropertyOp1
 70
     1
102
RTVSPropertyOp2
 70
     1
102
RTVSPropertyOp3
 70
     1
102
RTVSPropertyOp4
 70
     1
102
RTVSPropertyOp5
 70
     1
102
RTVSPropertyOp6
 70
     1
102
RTVSPropertyOp7
 70
     1
102
RTVSPropertyOp8
 70
     1
102
RTVSPropertyOp9
 70
     1
102
RTVSPropertyOp10
 70
     1
102
RTVSPropertyOp11
 70
     1
102
RTVSPropertyOp12
 70
     1
102
RTVSPropertyOp13
 70
     1
102
RTVSPropertyOp14
 70
     1
102
RTVSPropertyOp15
 70
     1
102
RTVSPropertyOp16
 70
     1
102
RTVSPropertyOp17
 70
     1
102
RTVSPropertyOp18
 70
     1
102
RTVSPropertyOp19
 70
     1
102
RTVSPropertyOp20
 70
     1
102
RTVSPropertyOp21
 70
     1
102
RTVSPropertyOp22
 70
     1
102
RTVSPropertyOp23
 70
     1
102
RTVSPropertyOp24
 70
     1
102
RTVSPropertyOp25
 70
     1
102
RTVSPropertyOp26
 70
     1
102
RTVSPropertyOp27
 70
     1
102
RTVSPropertyOp28
 70
     1
102
RTVSPropertyOp29
 70
     1
102
RTVSPropertyOp30
 70
     1
102
RTVSPropertyOp31
 70
     1
102
RTVSPropertyOp32
 70
     1
  0
XRECORD
  5
67
102
{ACAD_REACTORS
330
66
102
}
330
66
100
AcDbXrecord
280
     1
102
RTVSPropertyOp0
 70
     1
102
RTVSPropertyOp1
 70
     1
102
RTVSPropertyOp2
 70
     1
102
RTVSPropertyOp3
 70
     1
102
RTVSPropertyOp4
 70
     1
102
RTVSPropertyOp5
 70
     1
102
RTVSPropertyOp6
 70
     1
102
RTVSPropertyOp7
 70
     1
102
RTVSPropertyOp8
 70
     1
102
RTVSPropertyOp9
 70
     1
102
RTVSPropertyOp10
 70
     1
102
RTVSPropertyOp11
 70
     1
102
RTVSPropertyOp12
 70
     1
102
RTVSPropertyOp13
 70
     1
102
RTVSPropertyOp14
 70
     1
102
RTVSPropertyOp15
 70
     1
102
RTVSPropertyOp16
 70
     1
102
RTVSPropertyOp17
 70
     1
102
RTVSPropertyOp18
 70
     1
102
RTVSPropertyOp19
 70
     1
102
RTVSPropertyOp20
 70
     1
102
RTVSPropertyOp21
 70
     1
102
RTVSPropertyOp22
 70
     1
102
RTVSPropertyOp23
 70
     1
102
RTVSPropertyOp24
 70
     1
102
RTVSPropertyOp25
 70
     1
102
RTVSPropertyOp26
 70
     1
102
RTVSPropertyOp27
 70
     1
102
RTVSPropertyOp28
 70
     1
102
RTVSPropertyOp29
 70
     1
102
RTVSPropertyOp30
 70
     1
102
RTVSPropertyOp31
 70
     1
102
RTVSPropertyOp32
 70
     1
  0
XRECORD
  5
65
102
{ACAD_REACTORS
330
64
102
}
330
64
100
AcDbXrecord
280
     1
102
RTVSPropertyOp0
 70
     1
102
RTVSPropertyOp1
 70
     1
102
RTVSPropertyOp2
 70
     1
102
RTVSPropertyOp3
 70
     1
102
RTVSPropertyOp4
 70
     1
102
RTVSPropertyOp5
 70
     1
102
RTVSPropertyOp6
 70
     1
102
RTVSPropertyOp7
 70
     1
102
RTVSPropertyOp8
 70
     1
102
RTVSPropertyOp9
 70
     1
102
RTVSPropertyOp10
 70
     1
102
RTVSPropertyOp11
 70
     1
102
RTVSPropertyOp12
 70
     1
102
RTVSPropertyOp13
 70
     1
102
RTVSPropertyOp14
 70
     1
102
RTVSPropertyOp15
 70
     1
102
RTVSPropertyOp16
 70
     1
102
RTVSPropertyOp17
 70
     1
102
RTVSPropertyOp18
 70
     1
102
RTVSPropertyOp19
 70
     1
102
RTVSPropertyOp20
 70
     1
102
RTVSPropertyOp21
 70
     1
102
RTVSPropertyOp22
 70
     1
102
RTVSPropertyOp23
 70
     1
102
RTVSPropertyOp24
 70
     1
102
RTVSPropertyOp25
 70
     1
102
RTVSPropertyOp26
 70
     1
102
RTVSPropertyOp27
 70
     1
102
RTVSPropertyOp28
 70
     1
102
RTVSPropertyOp29
 70
     1
102
RTVSPropertyOp30
 70
     1
102
RTVSPropertyOp31
 70
     1
102
RTVSPropertyOp32
 70
     1
  0
XRECORD
  5
69
102
{ACAD_REACTORS
330
68
102
}
330
68
100
AcDbXrecord
280
     1
102
RTVSPropertyOp0
 70
     1
102
RTVSPropertyOp1
 70
     1
102
RTVSPropertyOp2
 70
     1
102
RTVSPropertyOp3
 70
     1
102
RTVSPropertyOp4
 70
     1
102
RTVSPropertyOp5
 70
     1
102
RTVSPropertyOp6
 70
     1
102
RTVSPropertyOp7
 70
     1
102
RTVSPropertyOp8
 70
     1
102
RTVSPropertyOp9
 70
     1
102
RTVSPropertyOp10
 70
     1
102
RTVSPropertyOp11
 70
     1
102
RTVSPropertyOp12
 70
     1
102
RTVSPropertyOp13
 70
     1
102
RTVSPropertyOp14
 70
     1
102
RTVSPropertyOp15
 70
     1
102
RTVSPropertyOp16
 70
     1
102
RTVSPropertyOp17
 70
     1
102
RTVSPropertyOp18
 70
     1
102
RTVSPropertyOp19
 70
     1
102
RTVSPropertyOp20
 70
     1
102
RTVSPropertyOp21
 70
     1
102
RTVSPropertyOp22
 70
     1
102
RTVSPropertyOp23
 70
     1
102
RTVSPropertyOp24
 70
     1
102
RTVSPropertyOp25
 70
     1
102
RTVSPropertyOp26
 70
     1
102
RTVSPropertyOp27
 70
     1
102
RTVSPropertyOp28
 70
     1
102
RTVSPropertyOp29
 70
     1
102
RTVSPropertyOp30
 70
     1
102
RTVSPropertyOp31
 70
     1
102
RTVSPropertyOp32
 70
     1
  0
XRECORD
  5
71
102
{ACAD_REACTORS
330
70
102
}
330
70
100
AcDbXrecord
280
     1
102
RTVSPropertyOp0
 70
     1
102
RTVSPropertyOp1
 70
     1
102
RTVSPropertyOp2
 70
     1
102
RTVSPropertyOp3
 70
     1
102
RTVSPropertyOp4
 70
     1
102
RTVSPropertyOp5
 70
     1
102
RTVSPropertyOp6
 70
     1
102
RTVSPropertyOp7
 70
     1
102
RTVSPropertyOp8
 70
     1
102
RTVSPropertyOp9
 70
     1
102
RTVSPropertyOp10
 70
     1
102
RTVSPropertyOp11
 70
     1
102
RTVSPropertyOp12
 70
     1
102
RTVSPropertyOp13
 70
     1
102
RTVSPropertyOp14
 70
     1
102
RTVSPropertyOp15
 70
     1
102
RTVSPropertyOp16
 70
     1
102
RTVSPropertyOp17
 70
     1
102
RTVSPropertyOp18
 70
     1
102
RTVSPropertyOp19
 70
     1
102
RTVSPropertyOp20
 70
     1
102
RTVSPropertyOp21
 70
     1
102
RTVSPropertyOp22
 70
     1
102
RTVSPropertyOp23
 70
     1
102
RTVSPropertyOp24
 70
     1
102
RTVSPropertyOp25
 70
     1
102
RTVSPropertyOp26
 70
     1
102
RTVSPropertyOp27
 70
     1
102
RTVSPropertyOp28
 70
     1
102
RTVSPropertyOp29
 70
     1
102
RTVSPropertyOp30
 70
     1
102
RTVSPropertyOp31
 70
     1
102
RTVSPropertyOp32
 70
     1
  0
XRECORD
  5
79
102
{ACAD_REACTORS
330
78
102
}
330
78
100
AcDbXrecord
280
     1
102
RTVSPropertyOp0
 70
     1
102
RTVSPropertyOp1
 70
     1
102
RTVSPropertyOp2
 70
     1
102
RTVSPropertyOp3
 70
     1
102
RTVSPropertyOp4
 70
     1
102
RTVSPropertyOp5
 70
     1
102
RTVSPropertyOp6
 70
     1
102
RTVSPropertyOp7
 70
     1
102
RTVSPropertyOp8
 70
     1
102
RTVSPropertyOp9
 70
     1
102
RTVSPropertyOp10
 70
     1
102
RTVSPropertyOp11
 70
     1
102
RTVSPropertyOp12
 70
     1
102
RTVSPropertyOp13
 70
     1
102
RTVSPropertyOp14
 70
     1
102
RTVSPropertyOp15
 70
     1
102
RTVSPropertyOp16
 70
     1
102
RTVSPropertyOp17
 70
     1
102
RTVSPropertyOp18
 70
     1
102
RTVSPropertyOp19
 70
     1
102
RTVSPropertyOp20
 70
     1
102
RTVSPropertyOp21
 70
     1
102
RTVSPropertyOp22
 70
     1
102
RTVSPropertyOp23
 70
     1
102
RTVSPropertyOp24
 70
     1
102
RTVSPropertyOp25
 70
     1
102
RTVSPropertyOp26
 70
     1
102
RTVSPropertyOp27
 70
     1
102
RTVSPropertyOp28
 70
     1
102
RTVSPropertyOp29
 70
     1
102
RTVSPropertyOp30
 70
     1
102
RTVSPropertyOp31
 70
     1
102
RTVSPropertyOp32
 70
     1
  0
XRECORD
  5
6D
102
{ACAD_REACTORS
330
6C
102
}
330
6C
100
AcDbXrecord
280
     1
102
RTVSPropertyOp0
 70
     1
102
RTVSPropertyOp1
 70
     1
102
RTVSPropertyOp2
 70
     1
102
RTVSPropertyOp3
 70
     1
102
RTVSPropertyOp4
 70
     1
102
RTVSPropertyOp5
 70
     1
102
RTVSPropertyOp6
 70
     1
102
RTVSPropertyOp7
 70
     1
102
RTVSPropertyOp8
 70
     1
102
RTVSPropertyOp9
 70
     1
102
RTVSPropertyOp10
 70
     1
102
RTVSPropertyOp11
 70
     1
102
RTVSPropertyOp12
 70
     1
102
RTVSPropertyOp13
 70
     1
102
RTVSPropertyOp14
 70
     1
102
RTVSPropertyOp15
 70
     1
102
RTVSPropertyOp16
 70
     1
102
RTVSPropertyOp17
 70
     1
102
RTVSPropertyOp18
 70
     1
102
RTVSPropertyOp19
 70
     1
102
RTVSPropertyOp20
 70
     1
102
RTVSPropertyOp21
 70
     1
102
RTVSPropertyOp22
 70
     1
102
RTVSPropertyOp23
 70
     1
102
RTVSPropertyOp24
 70
     1
102
RTVSPropertyOp25
 70
     1
102
RTVSPropertyOp26
 70
     1
102
RTVSPropertyOp27
 70
     1
102
RTVSPropertyOp28
 70
     1
102
RTVSPropertyOp29
 70
     1
102
RTVSPropertyOp30
 70
     1
102
RTVSPropertyOp31
 70
     1
102
RTVSPropertyOp32
 70
     1
  0
XRECORD
  5
6F
102
{ACAD_REACTORS
330
6E
102
}
330
6E
100
AcDbXrecord
280
     1
102
RTVSPropertyOp0
 70
     1
102
RTVSPropertyOp1
 70
     1
102
RTVSPropertyOp2
 70
     1
102
RTVSPropertyOp3
 70
     1
102
RTVSPropertyOp4
 70
     1
102
RTVSPropertyOp5
 70
     1
102
RTVSPropertyOp6
 70
     1
102
RTVSPropertyOp7
 70
     1
102
RTVSPropertyOp8
 70
     1
102
RTVSPropertyOp9
 70
     1
102
RTVSPropertyOp10
 70
     1
102
RTVSPropertyOp11
 70
     1
102
RTVSPropertyOp12
 70
     1
102
RTVSPropertyOp13
 70
     1
102
RTVSPropertyOp14
 70
     1
102
RTVSPropertyOp15
 70
     1
102
RTVSPropertyOp16
 70
     1
102
RTVSPropertyOp17
 70
     1
102
RTVSPropertyOp18
 70
     1
102
RTVSPropertyOp19
 70
     1
102
RTVSPropertyOp20
 70
     1
102
RTVSPropertyOp21
 70
     1
102
RTVSPropertyOp22
 70
     1
102
RTVSPropertyOp23
 70
     1
102
RTVSPropertyOp24
 70
     1
102
RTVSPropertyOp25
 70
     1
102
RTVSPropertyOp26
 70
     1
102
RTVSPropertyOp27
 70
     1
102
RTVSPropertyOp28
 70
     1
102
RTVSPropertyOp29
 70
     1
102
RTVSPropertyOp30
 70
     1
102
RTVSPropertyOp31
 70
     1
102
RTVSPropertyOp32
 70
     1
  0
XRECORD
  5
77
102
{ACAD_REACTORS
330
76
102
}
330
76
100
AcDbXrecord
280
     1
102
RTVSPropertyOp0
 70
     1
102
RTVSPropertyOp1
 70
     1
102
RTVSPropertyOp2
 70
     1
102
RTVSPropertyOp3
 70
     1
102
RTVSPropertyOp4
 70
     1
102
RTVSPropertyOp5
 70
     1
102
RTVSPropertyOp6
 70
     1
102
RTVSPropertyOp7
 70
     1
102
RTVSPropertyOp8
 70
     1
102
RTVSPropertyOp9
 70
     1
102
RTVSPropertyOp10
 70
     1
102
RTVSPropertyOp11
 70
     1
102
RTVSPropertyOp12
 70
     1
102
RTVSPropertyOp13
 70
     1
102
RTVSPropertyOp14
 70
     1
102
RTVSPropertyOp15
 70
     1
102
RTVSPropertyOp16
 70
     1
102
RTVSPropertyOp17
 70
     1
102
RTVSPropertyOp18
 70
     1
102
RTVSPropertyOp19
 70
     1
102
RTVSPropertyOp20
 70
     1
102
RTVSPropertyOp21
 70
     1
102
RTVSPropertyOp22
 70
     1
102
RTVSPropertyOp23
 70
     1
102
RTVSPropertyOp24
 70
     1
102
RTVSPropertyOp25
 70
     1
102
RTVSPropertyOp26
 70
     1
102
RTVSPropertyOp27
 70
     1
102
RTVSPropertyOp28
 70
     1
102
RTVSPropertyOp29
 70
     1
102
RTVSPropertyOp30
 70
     1
102
RTVSPropertyOp31
 70
     1
102
RTVSPropertyOp32
 70
     1
  0
XRECORD
  5
5B
102
{ACAD_REACTORS
330
5A
102
}
330
5A
100
AcDbXrecord
280
     1
102
RTVSPropertyOp0
 70
     1
102
RTVSPropertyOp1
 70
     1
102
RTVSPropertyOp2
 70
     1
102
RTVSPropertyOp3
 70
     1
102
RTVSPropertyOp4
 70
     1
102
RTVSPropertyOp5
 70
     1
102
RTVSPropertyOp6
 70
     1
102
RTVSPropertyOp7
 70
     1
102
RTVSPropertyOp8
 70
     1
102
RTVSPropertyOp9
 70
     1
102
RTVSPropertyOp10
 70
     1
102
RTVSPropertyOp11
 70
     1
102
RTVSPropertyOp12
 70
     1
102
RTVSPropertyOp13
 70
     1
102
RTVSPropertyOp14
 70
     1
102
RTVSPropertyOp15
 70
     1
102
RTVSPropertyOp16
 70
     1
102
RTVSPropertyOp17
 70
     1
102
RTVSPropertyOp18
 70
     1
102
RTVSPropertyOp19
 70
     1
102
RTVSPropertyOp20
 70
     1
102
RTVSPropertyOp21
 70
     1
102
RTVSPropertyOp22
 70
     1
102
RTVSPropertyOp23
 70
     1
102
RTVSPropertyOp24
 70
     1
102
RTVSPropertyOp25
 70
     1
102
RTVSPropertyOp26
 70
     1
102
RTVSPropertyOp27
 70
     1
102
RTVSPropertyOp28
 70
     1
102
RTVSPropertyOp29
 70
     1
102
RTVSPropertyOp30
 70
     1
102
RTVSPropertyOp31
 70
     1
102
RTVSPropertyOp32
 70
     1
  0
XRECORD
  5
5D
102
{ACAD_REACTORS
330
5C
102
}
330
5C
100
AcDbXrecord
280
     1
102
RTVSPropertyOp0
 70
     1
102
RTVSPropertyOp1
 70
     1
102
RTVSPropertyOp2
 70
     1
102
RTVSPropertyOp3
 70
     1
102
RTVSPropertyOp4
 70
     1
102
RTVSPropertyOp5
 70
     1
102
RTVSPropertyOp6
 70
     1
102
RTVSPropertyOp7
 70
     1
102
RTVSPropertyOp8
 70
     1
102
RTVSPropertyOp9
 70
     1
102
RTVSPropertyOp10
 70
     1
102
RTVSPropertyOp11
 70
     1
102
RTVSPropertyOp12
 70
     1
102
RTVSPropertyOp13
 70
     1
102
RTVSPropertyOp14
 70
     1
102
RTVSPropertyOp15
 70
     1
102
RTVSPropertyOp16
 70
     1
102
RTVSPropertyOp17
 70
     1
102
RTVSPropertyOp18
 70
     1
102
RTVSPropertyOp19
 70
     1
102
RTVSPropertyOp20
 70
     1
102
RTVSPropertyOp21
 70
     1
102
RTVSPropertyOp22
 70
     1
102
RTVSPropertyOp23
 70
     1
102
RTVSPropertyOp24
 70
     1
102
RTVSPropertyOp25
 70
     1
102
RTVSPropertyOp26
 70
     1
102
RTVSPropertyOp27
 70
     1
102
RTVSPropertyOp28
 70
     1
102
RTVSPropertyOp29
 70
     1
102
RTVSPropertyOp30
 70
     1
102
RTVSPropertyOp31
 70
     1
102
RTVSPropertyOp32
 70
     1
  0
XRECORD
  5
5F
102
{ACAD_REACTORS
330
5E
102
}
330
5E
100
AcDbXrecord
280
     1
102
RTVSPropertyOp0
 70
     1
102
RTVSPropertyOp1
 70
     1
102
RTVSPropertyOp2
 70
     1
102
RTVSPropertyOp3
 70
     1
102
RTVSPropertyOp4
 70
     1
102
RTVSPropertyOp5
 70
     1
102
RTVSPropertyOp6
 70
     1
102
RTVSPropertyOp7
 70
     1
102
RTVSPropertyOp8
 70
     1
102
RTVSPropertyOp9
 70
     1
102
RTVSPropertyOp10
 70
     1
102
RTVSPropertyOp11
 70
     1
102
RTVSPropertyOp12
 70
     1
102
RTVSPropertyOp13
 70
     1
102
RTVSPropertyOp14
 70
     1
102
RTVSPropertyOp15
 70
     1
102
RTVSPropertyOp16
 70
     1
102
RTVSPropertyOp17
 70
     1
102
RTVSPropertyOp18
 70
     1
102
RTVSPropertyOp19
 70
     1
102
RTVSPropertyOp20
 70
     1
102
RTVSPropertyOp21
 70
     1
102
RTVSPropertyOp22
 70
     1
102
RTVSPropertyOp23
 70
     1
102
RTVSPropertyOp24
 70
     1
102
RTVSPropertyOp25
 70
     1
102
RTVSPropertyOp26
 70
     1
102
RTVSPropertyOp27
 70
     1
102
RTVSPropertyOp28
 70
     1
102
RTVSPropertyOp29
 70
     1
102
RTVSPropertyOp30
 70
     1
102
RTVSPropertyOp31
 70
     1
102
RTVSPropertyOp32
 70
     1
  0
XRECORD
  5
61
102
{ACAD_REACTORS
330
60
102
}
330
60
100
AcDbXrecord
280
     1
102
RTVSPropertyOp0
 70
     1
102
RTVSPropertyOp1
 70
     1
102
RTVSPropertyOp2
 70
     1
102
RTVSPropertyOp3
 70
     1
102
RTVSPropertyOp4
 70
     1
102
RTVSPropertyOp5
 70
     1
102
RTVSPropertyOp6
 70
     1
102
RTVSPropertyOp7
 70
     1
102
RTVSPropertyOp8
 70
     1
102
RTVSPropertyOp9
 70
     1
102
RTVSPropertyOp10
 70
     1
102
RTVSPropertyOp11
 70
     1
102
RTVSPropertyOp12
 70
     1
102
RTVSPropertyOp13
 70
     1
102
RTVSPropertyOp14
 70
     1
102
RTVSPropertyOp15
 70
     1
102
RTVSPropertyOp16
 70
     1
102
RTVSPropertyOp17
 70
     1
102
RTVSPropertyOp18
 70
     1
102
RTVSPropertyOp19
 70
     1
102
RTVSPropertyOp20
 70
     1
102
RTVSPropertyOp21
 70
     1
102
RTVSPropertyOp22
 70
     1
102
RTVSPropertyOp23
 70
     1
102
RTVSPropertyOp24
 70
     1
102
RTVSPropertyOp25
 70
     1
102
RTVSPropertyOp26
 70
     1
102
RTVSPropertyOp27
 70
     1
102
RTVSPropertyOp28
 70
     1
102
RTVSPropertyOp29
 70
     1
102
RTVSPropertyOp30
 70
     1
102
RTVSPropertyOp31
 70
     1
102
RTVSPropertyOp32
 70
     1
  0
XRECORD
  5
75
102
{ACAD_REACTORS
330
74
102
}
330
74
100
AcDbXrecord
280
     1
102
RTVSPropertyOp0
 70
     1
102
RTVSPropertyOp1
 70
     1
102
RTVSPropertyOp2
 70
     1
102
RTVSPropertyOp3
 70
     1
102
RTVSPropertyOp4
 70
     1
102
RTVSPropertyOp5
 70
     1
102
RTVSPropertyOp6
 70
     1
102
RTVSPropertyOp7
 70
     1
102
RTVSPropertyOp8
 70
     1
102
RTVSPropertyOp9
 70
     1
102
RTVSPropertyOp10
 70
     1
102
RTVSPropertyOp11
 70
     1
102
RTVSPropertyOp12
 70
     1
102
RTVSPropertyOp13
 70
     1
102
RTVSPropertyOp14
 70
     1
102
RTVSPropertyOp15
 70
     1
102
RTVSPropertyOp16
 70
     1
102
RTVSPropertyOp17
 70
     1
102
RTVSPropertyOp18
 70
     1
102
RTVSPropertyOp19
 70
     1
102
RTVSPropertyOp20
 70
     1
102
RTVSPropertyOp21
 70
     1
102
RTVSPropertyOp22
 70
     1
102
RTVSPropertyOp23
 70
     1
102
RTVSPropertyOp24
 70
     1
102
RTVSPropertyOp25
 70
     1
102
RTVSPropertyOp26
 70
     1
102
RTVSPropertyOp27
 70
     1
102
RTVSPropertyOp28
 70
     1
102
RTVSPropertyOp29
 70
     1
102
RTVSPropertyOp30
 70
     1
102
RTVSPropertyOp31
 70
     1
102
RTVSPropertyOp32
 70
     1
  0
XRECORD
  5
6B
102
{ACAD_REACTORS
330
6A
102
}
330
6A
100
AcDbXrecord
280
     1
102
RTVSPropertyOp0
 70
     1
102
RTVSPropertyOp1
 70
     1
102
RTVSPropertyOp2
 70
     1
102
RTVSPropertyOp3
 70
     1
102
RTVSPropertyOp4
 70
     1
102
RTVSPropertyOp5
 70
     1
102
RTVSPropertyOp6
 70
     1
102
RTVSPropertyOp7
 70
     1
102
RTVSPropertyOp8
 70
     1
102
RTVSPropertyOp9
 70
     1
102
RTVSPropertyOp10
 70
     1
102
RTVSPropertyOp11
 70
     1
102
RTVSPropertyOp12
 70
     1
102
RTVSPropertyOp13
 70
     1
102
RTVSPropertyOp14
 70
     1
102
RTVSPropertyOp15
 70
     1
102
RTVSPropertyOp16
 70
     1
102
RTVSPropertyOp17
 70
     1
102
RTVSPropertyOp18
 70
     1
102
RTVSPropertyOp19
 70
     1
102
RTVSPropertyOp20
 70
     1
102
RTVSPropertyOp21
 70
     1
102
RTVSPropertyOp22
 70
     1
102
RTVSPropertyOp23
 70
     1
102
RTVSPropertyOp24
 70
     1
102
RTVSPropertyOp25
 70
     1
102
RTVSPropertyOp26
 70
     1
102
RTVSPropertyOp27
 70
     1
102
RTVSPropertyOp28
 70
     1
102
RTVSPropertyOp29
 70
     1
102
RTVSPropertyOp30
 70
     1
102
RTVSPropertyOp31
 70
     1
102
RTVSPropertyOp32
 70
     1
  0
XRECORD
  5
73
102
{ACAD_REACTORS
330
72
102
}
330
72
100
AcDbXrecord
280
     1
102
RTVSPropertyOp0
 70
     1
102
RTVSPropertyOp1
 70
     1
102
RTVSPropertyOp2
 70
     1
102
RTVSPropertyOp3
 70
     1
102
RTVSPropertyOp4
 70
     1
102
RTVSPropertyOp5
 70
     1
102
RTVSPropertyOp6
 70
     1
102
RTVSPropertyOp7
 70
     1
102
RTVSPropertyOp8
 70
     1
102
RTVSPropertyOp9
 70
     1
102
RTVSPropertyOp10
 70
     1
102
RTVSPropertyOp11
 70
     1
102
RTVSPropertyOp12
 70
     1
102
RTVSPropertyOp13
 70
     1
102
RTVSPropertyOp14
 70
     1
102
RTVSPropertyOp15
 70
     1
102
RTVSPropertyOp16
 70
     1
102
RTVSPropertyOp17
 70
     1
102
RTVSPropertyOp18
 70
     1
102
RTVSPropertyOp19
 70
     1
102
RTVSPropertyOp20
 70
     1
102
RTVSPropertyOp21
 70
     1
102
RTVSPropertyOp22
 70
     1
102
RTVSPropertyOp23
 70
     1
102
RTVSPropertyOp24
 70
     1
102
RTVSPropertyOp25
 70
     1
102
RTVSPropertyOp26
 70
     1
102
RTVSPropertyOp27
 70
     1
102
RTVSPropertyOp28
 70
     1
102
RTVSPropertyOp29
 70
     1
102
RTVSPropertyOp30
 70
     1
102
RTVSPropertyOp31
 70
     1
102
RTVSPropertyOp32
 70
     1
  0
ENDSEC
  0
EOF
