  0
SECTION
  2
HEADER
  9
$ACADVER
  1
AC1021
  9
$ACADMAINTVER
 70
    25
  9
$DWGCODEPAGE
  3
ANSI_1252
  9
$INSBASE
 10
0.0
 20
0.0
 30
0.0
  9
$EXTMIN
 10
-652.341
 20
-150.1
 30
0.0
  9
$EXTMAX
 10
309.5806
 20
150.1
 30
0.0
  9
$LIMMIN
 10
0.0
 20
0.0
  9
$LIMMAX
 10
12.0
 20
9.0
  9
$ORTHOMODE
 70
     0
  9
$REGENMODE
 70
     1
  9
$FILLMODE
 70
     1
  9
$QTEXTMODE
 70
     0
  9
$MIRRTEXT
 70
     1
  9
$LTSCALE
 40
1.0
  9
$ATTMODE
 70
     1
  9
$TEXTSIZE
 40
0.2
  9
$TRACEWID
 40
0.05
  9
$TEXTSTYLE
  7
Standard
  9
$CLAYER
  8
0
  9
$CELTYPE
  6
ByLayer
  9
$CECOLOR
 62
   256
  9
$CELTSCALE
 40
1.0
  9
$DISPSILH
 70
     0
  9
$DIMSCALE
 40
1.0
  9
$DIMASZ
 40
0.18
  9
$DIMEXO
 40
0.0625
  9
$DIMDLI
 40
0.38
  9
$DIMRND
 40
0.0
  9
$DIMDLE
 40
0.0
  9
$DIMEXE
 40
0.18
  9
$DIMTP
 40
0.0
  9
$DIMTM
 40
0.0
  9
$DIMTXT
 40
0.18
  9
$DIMCEN
 40
0.09
  9
$DIMTSZ
 40
0.0
  9
$DIMTOL
 70
     0
  9
$DIMLIM
 70
     0
  9
$DIMTIH
 70
     1
  9
$DIMTOH
 70
     1
  9
$DIMSE1
 70
     0
  9
$DIMSE2
 70
     0
  9
$DIMTAD
 70
     0
  9
$DIMZIN
 70
     0
  9
$DIMBLK
  1

  9
$DIMASO
 70
     1
  9
$DIMSHO
 70
     1
  9
$DIMPOST
  1

  9
$DIMAPOST
  1

  9
$DIMALT
 70
     0
  9
$DIMALTD
 70
     2
  9
$DIMALTF
 40
25.4
  9
$DIMLFAC
 40
1.0
  9
$DIMTOFL
 70
     0
  9
$DIMTVP
 40
0.0
  9
$DIMTIX
 70
     0
  9
$DIMSOXD
 70
     0
  9
$DIMSAH
 70
     0
  9
$DIMBLK1
  1

  9
$DIMBLK2
  1

  9
$DIMSTYLE
  2
Standard
  9
$DIMCLRD
 70
     0
  9
$DIMCLRE
 70
     0
  9
$DIMCLRT
 70
     0
  9
$DIMTFAC
 40
1.0
  9
$DIMGAP
 40
0.09
  9
$DIMJUST
 70
     0
  9
$DIMSD1
 70
     0
  9
$DIMSD2
 70
     0
  9
$DIMTOLJ
 70
     1
  9
$DIMTZIN
 70
     0
  9
$DIMALTZ
 70
     0
  9
$DIMALTTZ
 70
     0
  9
$DIMUPT
 70
     0
  9
$DIMDEC
 70
     4
  9
$DIMTDEC
 70
     4
  9
$DIMALTU
 70
     2
  9
$DIMALTTD
 70
     2
  9
$DIMTXSTY
  7
Standard
  9
$DIMAUNIT
 70
     0
  9
$DIMADEC
 70
     0
  9
$DIMALTRND
 40
0.0
  9
$DIMAZIN
 70
     0
  9
$DIMDSEP
 70
    46
  9
$DIMATFIT
 70
     3
  9
$DIMFRAC
 70
     0
  9
$DIMLDRBLK
  1

  9
$DIMLUNIT
 70
     2
  9
$DIMLWD
 70
    -2
  9
$DIMLWE
 70
    -2
  9
$DIMTMOVE
 70
     0
  9
$DIMFXL
 40
1.0
  9
$DIMFXLON
 70
     0
  9
$DIMJOGANG
 40
0.7853981633974483
  9
$DIMTFILL
 70
     0
  9
$DIMTFILLCLR
 70
     0
  9
$DIMARCSYM
 70
     0
  9
$DIMLTYPE
  6

  9
$DIMLTEX1
  6

  9
$DIMLTEX2
  6

  9
$LUNITS
 70
     2
  9
$LUPREC
 70
     4
  9
$SKETCHINC
 40
0.1
  9
$FILLETRAD
 40
0.5
  9
$AUNITS
 70
     0
  9
$AUPREC
 70
     0
  9
$MENU
  1
.
  9
$ELEVATION
 40
0.0
  9
$PELEVATION
 40
0.0
  9
$THICKNESS
 40
0.0
  9
$LIMCHECK
 70
     0
  9
$CHAMFERA
 40
0.0
  9
$CHAMFERB
 40
0.0
  9
$CHAMFERC
 40
0.0
  9
$CHAMFERD
 40
0.0
  9
$SKPOLY
 70
     0
  9
$TDCREATE
 40
2458533.711428287
  9
$TDUCREATE
 40
2458533.836428287
  9
$TDUPDATE
 40
2458533.71143272
  9
$TDUUPDATE
 40
2458533.83643272
  9
$TDINDWG
 40
0.0000000116
  9
$TDUSRTIMER
 40
0.0000000116
  9
$USRTIMER
 70
     1
  9
$ANGBASE
 50
0.0
  9
$ANGDIR
 70
     0
  9
$PDMODE
 70
     0
  9
$PDSIZE
 40
0.0
  9
$PLINEWID
 40
0.0
  9
$SPLFRAME
 70
     0
  9
$SPLINETYPE
 70
     6
  9
$SPLINESEGS
 70
     8
  9
$HANDSEED
  5
D3
  9
$SURFTAB1
 70
     6
  9
$SURFTAB2
 70
     6
  9
$SURFTYPE
 70
     6
  9
$SURFU
 70
     6
  9
$SURFV
 70
     6
  9
$UCSBASE
  2

  9
$UCSNAME
  2

  9
$UCSORG
 10
0.0
 20
0.0
 30
0.0
  9
$UCSXDIR
 10
1.0
 20
0.0
 30
0.0
  9
$UCSYDIR
 10
0.0
 20
1.0
 30
0.0
  9
$UCSORTHOREF
  2

  9
$UCSORTHOVIEW
 70
     0
  9
$UCSORGTOP
 10
0.0
 20
0.0
 30
0.0
  9
$UCSORGBOTTOM
 10
0.0
 20
0.0
 30
0.0
  9
$UCSORGLEFT
 10
0.0
 20
0.0
 30
0.0
  9
$UCSORGRIGHT
 10
0.0
 20
0.0
 30
0.0
  9
$UCSORGFRONT
 10
0.0
 20
0.0
 30
0.0
  9
$UCSORGBACK
 10
0.0
 20
0.0
 30
0.0
  9
$PUCSBASE
  2

  9
$PUCSNAME
  2

  9
$PUCSORG
 10
0.0
 20
0.0
 30
0.0
  9
$PUCSXDIR
 10
1.0
 20
0.0
 30
0.0
  9
$PUCSYDIR
 10
0.0
 20
1.0
 30
0.0
  9
$PUCSORTHOREF
  2

  9
$PUCSORTHOVIEW
 70
     0
  9
$PUCSORGTOP
 10
0.0
 20
0.0
 30
0.0
  9
$PUCSORGBOTTOM
 10
0.0
 20
0.0
 30
0.0
  9
$PUCSORGLEFT
 10
0.0
 20
0.0
 30
0.0
  9
$PUCSORGRIGHT
 10
0.0
 20
0.0
 30
0.0
  9
$PUCSORGFRONT
 10
0.0
 20
0.0
 30
0.0
  9
$PUCSORGBACK
 10
0.0
 20
0.0
 30
0.0
  9
$USERI1
 70
     0
  9
$USERI2
 70
     0
  9
$USERI3
 70
     0
  9
$USERI4
 70
     0
  9
$USERI5
 70
     0
  9
$USERR1
 40
0.0
  9
$USERR2
 40
0.0
  9
$USERR3
 40
0.0
  9
$USERR4
 40
0.0
  9
$USERR5
 40
0.0
  9
$WORLDVIEW
 70
     1
  9
$SHADEDGE
 70
     3
  9
$SHADEDIF
 70
    70
  9
$TILEMODE
 70
     1
  9
$MAXACTVP
 70
    64
  9
$PINSBASE
 10
0.0
 20
0.0
 30
0.0
  9
$PLIMCHECK
 70
     0
  9
$PEXTMIN
 10
1.000000000000000E+20
 20
1.000000000000000E+20
 30
1.000000000000000E+20
  9
$PEXTMAX
 10
-1.000000000000000E+20
 20
-1.000000000000000E+20
 30
-1.000000000000000E+20
  9
$PLIMMIN
 10
0.0
 20
0.0
  9
$PLIMMAX
 10
12.0
 20
9.0
  9
$UNITMODE
 70
     0
  9
$VISRETAIN
 70
     1
  9
$PLINEGEN
 70
     0
  9
$PSLTSCALE
 70
     1
  9
$TREEDEPTH
 70
  3020
  9
$CMLSTYLE
  2
Standard
  9
$CMLJUST
 70
     0
  9
$CMLSCALE
 40
1.0
  9
$PROXYGRAPHICS
 70
     1
  9
$MEASUREMENT
 70
     0
  9
$CELWEIGHT
370
    -1
  9
$ENDCAPS
280
     0
  9
$JOINSTYLE
280
     0
  9
$LWDISPLAY
290
     0
  9
$INSUNITS
 70
     4
  9
$HYPERLINKBASE
  1

  9
$STYLESHEET
  1

  9
$XEDIT
290
     1
  9
$CEPSNTYPE
380
     0
  9
$PSTYLEMODE
290
     1
  9
$FINGERPRINTGUID
  2
{BC364403-38CC-4385-BAE0-EFC2894C4B05}
  9
$VERSIONGUID
  2
{FAEB1C32-E019-11D5-929B-00C0DF256EC4}
  9
$EXTNAMES
290
     1
  9
$PSVPSCALE
 40
0.0
  9
$OLESTARTUP
290
     0
  9
$SORTENTS
280
   127
  9
$INDEXCTL
280
     0
  9
$HIDETEXT
280
     1
  9
$XCLIPFRAME
290
     0
  9
$HALOGAP
280
     0
  9
$OBSCOLOR
 70
   257
  9
$OBSLTYPE
280
     0
  9
$INTERSECTIONDISPLAY
280
     0
  9
$INTERSECTIONCOLOR
 70
   257
  9
$DIMASSOC
280
     2
  9
$PROJECTNAME
  1

  9
$CAMERADISPLAY
290
     0
  9
$LENSLENGTH
 40
50.0
  9
$CAMERAHEIGHT
 40
0.0
  9
$STEPSPERSEC
 40
2.0
  9
$STEPSIZE
 40
6.0
  9
$3DDWFPREC
 40
2.0
  9
$PSOLWIDTH
 40
0.25
  9
$PSOLHEIGHT
 40
4.0
  9
$LOFTANG1
 40
1.570796326794897
  9
$LOFTANG2
 40
1.570796326794897
  9
$LOFTMAG1
 40
0.0
  9
$LOFTMAG2
 40
0.0
  9
$LOFTPARAM
 70
     7
  9
$LOFTNORMALS
280
     1
  9
$LATITUDE
 40
37.795
  9
$LONGITUDE
 40
-122.394
  9
$NORTHDIRECTION
 40
0.0
  9
$TIMEZONE
 70
 -8000
  9
$LIGHTGLYPHDISPLAY
280
     1
  9
$TILEMODELIGHTSYNCH
280
     1
  9
$CMATERIAL
347
44
  9
$SOLIDHIST
280
     0
  9
$SHOWHIST
280
     1
  9
$DWFFRAME
280
     2
  9
$DGNFRAME
280
     2
  9
$REALWORLDSCALE
290
     1
  9
$INTERFERECOLOR
 62
   256
  9
$CSHADOW
280
     0
  9
$SHADOWPLANELOCATION
 40
0.0
  0
ENDSEC
  0
SECTION
  2
CLASSES
  0
CLASS
  1
ACDBDICTIONARYWDFLT
  2
AcDbDictionaryWithDefault
  3
ObjectDBX Classes
 90
        0
 91
        4
280
     0
281
     0
  0
CLASS
  1
VISUALSTYLE
  2
AcDbVisualStyle
  3
ObjectDBX Classes
 90
     4095
 91
        4
280
     0
281
     0
  0
CLASS
  1
MATERIAL
  2
AcDbMaterial
  3
ObjectDBX Classes
 90
     1153
 91
        4
280
     0
281
     0
  0
CLASS
  1
SCALE
  2
AcDbScale
  3
ObjectDBX Classes
 90
     1153
 91
        4
280
     0
281
     0
  0
CLASS
  1
TABLESTYLE
  2
AcDbTableStyle
  3
ObjectDBX Classes
 90
     4095
 91
        4
280
     0
281
     0
  0
CLASS
  1
MLEADERSTYLE
  2
AcDbMLeaderStyle
  3
ACDB_MLEADERSTYLE_CLASS
 90
     4095
 91
        4
280
     0
281
     0
  0
CLASS
  1
SUN
  2
AcDbSun
  3
SCENEOE
 90
     1153
 91
        4
280
     0
281
     0
  0
CLASS
  1
IMAGEDEF
  2
AcDbRasterImageDef
  3
ISM
 90
        0
 91
        4
280
     0
281
     0
  0
CLASS
  1
IMAGE
  2
AcDbRasterImage
  3
ISM
 90
      127
 91
        5
280
     0
281
     1
  0
CLASS
  1
IMAGEDEF_REACTOR
  2
AcDbRasterImageDefReactor
  3
ISM
 90
        1
 91
        4
280
     0
281
     0
  0
CLASS
  1
DICTIONARYVAR
  2
AcDbDictionaryVar
  3
ObjectDBX Classes
 90
        0
 91
        4
280
     0
281
     0
  0
CLASS
  1
CELLSTYLEMAP
  2
AcDbCellStyleMap
  3
ObjectDBX Classes
 90
     1152
 91
        4
280
     0
281
     0
  0
ENDSEC
  0
SECTION
  2
TABLES
  0
TABLE
  2
VPORT
  5
8
330
0
100
AcDbSymbolTable
 70
     1
  0
VPORT
  5
29
330
8
100
AcDbSymbolTableRecord
100
AcDbViewportTableRecord
  2
*Active
 70
     0
 10
0.0
 20
0.0
 11
1.0
 21
1.0
 12
10.42990654205607
 22
4.5
 13
0.0
 23
0.0
 14
0.5
 24
0.5
 15
0.5
 25
0.5
 16
0.0
 26
0.0
 36
1.0
 17
0.0
 27
0.0
 37
0.0
 40
9.0
 41
1.972972972850329
 42
50.0
 43
0.0
 44
0.0
 50
0.0
 51
0.0
 71
     0
 72
   100
 73
     1
 74
     3
 75
     0
 76
     0
 77
     0
 78
     0
281
     0
 65
     1
110
0.0
120
0.0
130
0.0
111
1.0
121
0.0
131
0.0
112
0.0
122
1.0
132
0.0
 79
     0
146
0.0
348
2F
 60
     3
 61
     5
292
     1
282
     1
141
0.0
142
0.0
 63
   250
361
6D
  0
ENDTAB
  0
TABLE
  2
LTYPE
  5
5
330
0
100
AcDbSymbolTable
 70
     1
  0
LTYPE
  5
14
330
5
100
AcDbSymbolTableRecord
100
AcDbLinetypeTableRecord
  2
ByBlock
 70
     0
  3

 72
    65
 73
     0
 40
0.0
  0
LTYPE
  5
15
330
5
100
AcDbSymbolTableRecord
100
AcDbLinetypeTableRecord
  2
ByLayer
 70
     0
  3

 72
    65
 73
     0
 40
0.0
  0
LTYPE
  5
16
330
5
100
AcDbSymbolTableRecord
100
AcDbLinetypeTableRecord
  2
Continuous
 70
     0
  3
Solid line
 72
    65
 73
     0
 40
0.0
  0
ENDTAB
  0
TABLE
  2
LAYER
  5
2
330
0
100
AcDbSymbolTable
 70
     3
  0
LAYER
  5
10
330
2
100
AcDbSymbolTableRecord
100
AcDbLayerTableRecord
  2
0
 70
     0
 62
     7
  6
Continuous
370
    -3
390
F
347
46
  0
LAYER
  5
6F
330
2
100
AcDbSymbolTableRecord
100
AcDbLayerTableRecord
  2
Camada 1
 70
     0
 62
     7
  6
Continuous
370
    -3
390
F
347
46
  0
LAYER
  5
74
330
2
100
AcDbSymbolTableRecord
100
AcDbLayerTableRecord
  2
Layer 1
 70
     0
 62
     7
  6
Continuous
370
    -3
390
F
347
46
  0
ENDTAB
  0
TABLE
  2
STYLE
  5
3
330
0
100
AcDbSymbolTable
 70
     1
  0
STYLE
  5
11
330
3
100
AcDbSymbolTableRecord
100
AcDbTextStyleTableRecord
  2
Standard
 70
     0
 40
0.0
 41
1.0
 50
0.0
 71
     0
 42
0.2
  3
txt
  4

  0
ENDTAB
  0
TABLE
  2
VIEW
  5
6
330
0
100
AcDbSymbolTable
 70
     0
  0
ENDTAB
  0
TABLE
  2
UCS
  5
7
330
0
100
AcDbSymbolTable
 70
     0
  0
ENDTAB
  0
TABLE
  2
APPID
  5
9
330
0
100
AcDbSymbolTable
 70
     3
  0
APPID
  5
12
330
9
100
AcDbSymbolTableRecord
100
AcDbRegAppTableRecord
  2
ACAD
 70
     0
  0
APPID
  5
6E
330
9
100
AcDbSymbolTableRecord
100
AcDbRegAppTableRecord
  2
ODA
 70
     0
  0
APPID
  5
CB
330
9
100
AcDbSymbolTableRecord
100
AcDbRegAppTableRecord
  2
ACAD_MLEADERVER
 70
     0
  0
ENDTAB
  0
TABLE
  2
DIMSTYLE
  5
A
330
0
100
AcDbSymbolTable
 70
     1
100
AcDbDimStyleTable
  0
DIMSTYLE
105
27
330
A
100
AcDbSymbolTableRecord
100
AcDbDimStyleTableRecord
  2
Standard
 70
     0
178
     0
340
11
  0
ENDTAB
  0
TABLE
  2
BLOCK_RECORD
  5
1
330
0
100
AcDbSymbolTable
 70
     1
  0
BLOCK_RECORD
  5
1F
330
1
100
AcDbSymbolTableRecord
100
AcDbBlockTableRecord
  2
*Model_Space
340
22
 70
     0
280
     1
281
     0
  0
BLOCK_RECORD
  5
1B
330
1
100
AcDbSymbolTableRecord
100
AcDbBlockTableRecord
  2
*Paper_Space
340
1E
 70
     0
280
     1
281
     0
  0
BLOCK_RECORD
  5
23
330
1
100
AcDbSymbolTableRecord
100
AcDbBlockTableRecord
  2
*Paper_Space0
340
26
 70
     0
280
     1
281
     0
  0
ENDTAB
  0
ENDSEC
  0
SECTION
  2
BLOCKS
  0
BLOCK
  5
20
330
1F
100
AcDbEntity
  8
0
100
AcDbBlockBegin
  2
*Model_Space
 70
     0
 10
0.0
 20
0.0
 30
0.0
  3
*Model_Space
  1

  0
ENDBLK
  5
21
330
1F
100
AcDbEntity
  8
0
100
AcDbBlockEnd
  0
BLOCK
  5
1C
330
1B
100
AcDbEntity
 67
     1
  8
0
100
AcDbBlockBegin
  2
*Paper_Space
 70
     0
 10
0.0
 20
0.0
 30
0.0
  3
*Paper_Space
  1

  0
ENDBLK
  5
1D
330
1B
100
AcDbEntity
 67
     1
  8
0
100
AcDbBlockEnd
  0
BLOCK
  5
24
330
23
100
AcDbEntity
  8
0
100
AcDbBlockBegin
  2
*Paper_Space0
 70
     0
 10
0.0
 20
0.0
 30
0.0
  3
*Paper_Space0
  1

  0
ENDBLK
  5
25
330
23
100
AcDbEntity
  8
0
100
AcDbBlockEnd
  0
ENDSEC
  0
SECTION
  2
ENTITIES
  0
IMAGE
  5
72
330
1F
100
AcDbEntity
  8
Camada 1
 62
     0
 92
      140
310
8C000000010000008400000006000000050000007D3F355EBA6284C07FFB3A70CEAA61C000000000000000006C9B3150A26577C07FFB3A70CEAA61C000000000000000006C9B3150A26577C0732599D21643544000000000000000007D3F355EBA6284C0732599D21643544000000000000000007D3F355EBA6284C07FFB3A
310
70CEAA61C00000000000000000
100
AcDbRasterImage
 90
        0
 10
-652.341
 20
-141.3377
 30
0.0
 11
0.008550346725516848
 21
0.0
 31
0.0
 12
0.0
 22
0.008550346725516848
 32
0.0
 13
32512.0
 23
26009.0
340
71
 70
     3
280
     1
281
    50
282
    50
283
     0
360
73
 71
     1
 91
        2
 14
-652.341
 24
-141.3377
 14
-200.7854
 24
219.9067
  0
SPLINE
  5
75
330
1F
100
AcDbEntity
  8
Layer 1
 62
   250
370
     9
100
AcDbSpline
210
0.0
220
0.0
230
1.0
 70
    11
 71
     3
 72
  1084
 73
  1080
 74
     0
 42
0.000000001
 43
0.0000000001
 40
0.0
 40
0.0
 40
0.0
 40
0.0
 40
0.003690036900369
 40
0.003690036900369
 40
0.003690036900369
 40
0.003690036900369
 40
0.007380073800738
 40
0.007380073800738
 40
0.007380073800738
 40
0.007380073800738
 40
0.011070110701107
 40
0.011070110701107
 40
0.011070110701107
 40
0.011070110701107
 40
0.014760147601476
 40
0.014760147601476
 40
0.014760147601476
 40
0.014760147601476
 40
0.018450184501845
 40
0.018450184501845
 40
0.018450184501845
 40
0.018450184501845
 40
0.022140221402214
 40
0.022140221402214
 40
0.022140221402214
 40
0.022140221402214
 40
0.025830258302583
 40
0.025830258302583
 40
0.025830258302583
 40
0.025830258302583
 40
0.029520295202952
 40
0.029520295202952
 40
0.029520295202952
 40
0.029520295202952
 40
0.033210332103321
 40
0.033210332103321
 40
0.033210332103321
 40
0.033210332103321
 40
0.03690036900369
 40
0.03690036900369
 40
0.03690036900369
 40
0.03690036900369
 40
0.040590405904059
 40
0.040590405904059
 40
0.040590405904059
 40
0.040590405904059
 40
0.044280442804428
 40
0.044280442804428
 40
0.044280442804428
 40
0.044280442804428
 40
0.0479704797047971
 40
0.0479704797047971
 40
0.0479704797047971
 40
0.0479704797047971
 40
0.0516605166051661
 40
0.0516605166051661
 40
0.0516605166051661
 40
0.0516605166051661
 40
0.0553505535055351
 40
0.0553505535055351
 40
0.0553505535055351
 40
0.0553505535055351
 40
0.0590405904059041
 40
0.0590405904059041
 40
0.0590405904059041
 40
0.0590405904059041
 40
0.0627306273062731
 40
0.0627306273062731
 40
0.0627306273062731
 40
0.0627306273062731
 40
0.0664206642066421
 40
0.0664206642066421
 40
0.0664206642066421
 40
0.0664206642066421
 40
0.0701107011070111
 40
0.0701107011070111
 40
0.0701107011070111
 40
0.0701107011070111
 40
0.0738007380073801
 40
0.0738007380073801
 40
0.0738007380073801
 40
0.0738007380073801
 40
0.0774907749077491
 40
0.0774907749077491
 40
0.0774907749077491
 40
0.0774907749077491
 40
0.0811808118081181
 40
0.0811808118081181
 40
0.0811808118081181
 40
0.0811808118081181
 40
0.0848708487084871
 40
0.0848708487084871
 40
0.0848708487084871
 40
0.0848708487084871
 40
0.0885608856088561
 40
0.0885608856088561
 40
0.0885608856088561
 40
0.0885608856088561
 40
0.0922509225092251
 40
0.0922509225092251
 40
0.0922509225092251
 40
0.0922509225092251
 40
0.0959409594095941
 40
0.0959409594095941
 40
0.0959409594095941
 40
0.0959409594095941
 40
0.0996309963099631
 40
0.0996309963099631
 40
0.0996309963099631
 40
0.0996309963099631
 40
0.1033210332103321
 40
0.1033210332103321
 40
0.1033210332103321
 40
0.1033210332103321
 40
0.1070110701107011
 40
0.1070110701107011
 40
0.1070110701107011
 40
0.1070110701107011
 40
0.1107011070110701
 40
0.1107011070110701
 40
0.1107011070110701
 40
0.1107011070110701
 40
0.1143911439114391
 40
0.1143911439114391
 40
0.1143911439114391
 40
0.1143911439114391
 40
0.1180811808118081
 40
0.1180811808118081
 40
0.1180811808118081
 40
0.1180811808118081
 40
0.1217712177121771
 40
0.1217712177121771
 40
0.1217712177121771
 40
0.1217712177121771
 40
0.1254612546125461
 40
0.1254612546125461
 40
0.1254612546125461
 40
0.1254612546125461
 40
0.1291512915129151
 40
0.1291512915129151
 40
0.1291512915129151
 40
0.1291512915129151
 40
0.1328413284132841
 40
0.1328413284132841
 40
0.1328413284132841
 40
0.1328413284132841
 40
0.1365313653136531
 40
0.1365313653136531
 40
0.1365313653136531
 40
0.1365313653136531
 40
0.1402214022140221
 40
0.1402214022140221
 40
0.1402214022140221
 40
0.1402214022140221
 40
0.1439114391143911
 40
0.1439114391143911
 40
0.1439114391143911
 40
0.1439114391143911
 40
0.1476014760147601
 40
0.1476014760147601
 40
0.1476014760147601
 40
0.1476014760147601
 40
0.1512915129151292
 40
0.1512915129151292
 40
0.1512915129151292
 40
0.1512915129151292
 40
0.1549815498154982
 40
0.1549815498154982
 40
0.1549815498154982
 40
0.1549815498154982
 40
0.1586715867158671
 40
0.1586715867158671
 40
0.1586715867158671
 40
0.1586715867158671
 40
0.1623616236162362
 40
0.1623616236162362
 40
0.1623616236162362
 40
0.1623616236162362
 40
0.1660516605166052
 40
0.1660516605166052
 40
0.1660516605166052
 40
0.1660516605166052
 40
0.1697416974169742
 40
0.1697416974169742
 40
0.1697416974169742
 40
0.1697416974169742
 40
0.1734317343173432
 40
0.1734317343173432
 40
0.1734317343173432
 40
0.1734317343173432
 40
0.1771217712177122
 40
0.1771217712177122
 40
0.1771217712177122
 40
0.1771217712177122
 40
0.1808118081180812
 40
0.1808118081180812
 40
0.1808118081180812
 40
0.1808118081180812
 40
0.1845018450184502
 40
0.1845018450184502
 40
0.1845018450184502
 40
0.1845018450184502
 40
0.1881918819188192
 40
0.1881918819188192
 40
0.1881918819188192
 40
0.1881918819188192
 40
0.1918819188191882
 40
0.1918819188191882
 40
0.1918819188191882
 40
0.1918819188191882
 40
0.1955719557195572
 40
0.1955719557195572
 40
0.1955719557195572
 40
0.1955719557195572
 40
0.1992619926199262
 40
0.1992619926199262
 40
0.1992619926199262
 40
0.1992619926199262
 40
0.2029520295202952
 40
0.2029520295202952
 40
0.2029520295202952
 40
0.2029520295202952
 40
0.2066420664206642
 40
0.2066420664206642
 40
0.2066420664206642
 40
0.2066420664206642
 40
0.2103321033210332
 40
0.2103321033210332
 40
0.2103321033210332
 40
0.2103321033210332
 40
0.2140221402214022
 40
0.2140221402214022
 40
0.2140221402214022
 40
0.2140221402214022
 40
0.2177121771217712
 40
0.2177121771217712
 40
0.2177121771217712
 40
0.2177121771217712
 40
0.2214022140221402
 40
0.2214022140221402
 40
0.2214022140221402
 40
0.2214022140221402
 40
0.2250922509225092
 40
0.2250922509225092
 40
0.2250922509225092
 40
0.2250922509225092
 40
0.2287822878228782
 40
0.2287822878228782
 40
0.2287822878228782
 40
0.2287822878228782
 40
0.2324723247232472
 40
0.2324723247232472
 40
0.2324723247232472
 40
0.2324723247232472
 40
0.2361623616236162
 40
0.2361623616236162
 40
0.2361623616236162
 40
0.2361623616236162
 40
0.2398523985239852
 40
0.2398523985239852
 40
0.2398523985239852
 40
0.2398523985239852
 40
0.2435424354243542
 40
0.2435424354243542
 40
0.2435424354243542
 40
0.2435424354243542
 40
0.2472324723247233
 40
0.2472324723247233
 40
0.2472324723247233
 40
0.2472324723247233
 40
0.2509225092250922
 40
0.2509225092250922
 40
0.2509225092250922
 40
0.2509225092250922
 40
0.2546125461254612
 40
0.2546125461254612
 40
0.2546125461254612
 40
0.2546125461254612
 40
0.2583025830258303
 40
0.2583025830258303
 40
0.2583025830258303
 40
0.2583025830258303
 40
0.2619926199261993
 40
0.2619926199261993
 40
0.2619926199261993
 40
0.2619926199261993
 40
0.2656826568265683
 40
0.2656826568265683
 40
0.2656826568265683
 40
0.2656826568265683
 40
0.2693726937269373
 40
0.2693726937269373
 40
0.2693726937269373
 40
0.2693726937269373
 40
0.2730627306273063
 40
0.2730627306273063
 40
0.2730627306273063
 40
0.2730627306273063
 40
0.2767527675276753
 40
0.2767527675276753
 40
0.2767527675276753
 40
0.2767527675276753
 40
0.2804428044280443
 40
0.2804428044280443
 40
0.2804428044280443
 40
0.2804428044280443
 40
0.2841328413284133
 40
0.2841328413284133
 40
0.2841328413284133
 40
0.2841328413284133
 40
0.2878228782287823
 40
0.2878228782287823
 40
0.2878228782287823
 40
0.2878228782287823
 40
0.2915129151291513
 40
0.2915129151291513
 40
0.2915129151291513
 40
0.2915129151291513
 40
0.2952029520295203
 40
0.2952029520295203
 40
0.2952029520295203
 40
0.2952029520295203
 40
0.2988929889298893
 40
0.2988929889298893
 40
0.2988929889298893
 40
0.2988929889298893
 40
0.3025830258302583
 40
0.3025830258302583
 40
0.3025830258302583
 40
0.3025830258302583
 40
0.3062730627306273
 40
0.3062730627306273
 40
0.3062730627306273
 40
0.3062730627306273
 40
0.3099630996309963
 40
0.3099630996309963
 40
0.3099630996309963
 40
0.3099630996309963
 40
0.3136531365313653
 40
0.3136531365313653
 40
0.3136531365313653
 40
0.3136531365313653
 40
0.3173431734317343
 40
0.3173431734317343
 40
0.3173431734317343
 40
0.3173431734317343
 40
0.3210332103321033
 40
0.3210332103321033
 40
0.3210332103321033
 40
0.3210332103321033
 40
0.3247232472324723
 40
0.3247232472324723
 40
0.3247232472324723
 40
0.3247232472324723
 40
0.3284132841328413
 40
0.3284132841328413
 40
0.3284132841328413
 40
0.3284132841328413
 40
0.3321033210332103
 40
0.3321033210332103
 40
0.3321033210332103
 40
0.3321033210332103
 40
0.3357933579335793
 40
0.3357933579335793
 40
0.3357933579335793
 40
0.3357933579335793
 40
0.3394833948339483
 40
0.3394833948339483
 40
0.3394833948339483
 40
0.3394833948339483
 40
0.3431734317343174
 40
0.3431734317343174
 40
0.3431734317343174
 40
0.3431734317343174
 40
0.3468634686346864
 40
0.3468634686346864
 40
0.3468634686346864
 40
0.3468634686346864
 40
0.3505535055350554
 40
0.3505535055350554
 40
0.3505535055350554
 40
0.3505535055350554
 40
0.3542435424354243
 40
0.3542435424354243
 40
0.3542435424354243
 40
0.3542435424354243
 40
0.3579335793357933
 40
0.3579335793357933
 40
0.3579335793357933
 40
0.3579335793357933
 40
0.3616236162361623
 40
0.3616236162361623
 40
0.3616236162361623
 40
0.3616236162361623
 40
0.3653136531365314
 40
0.3653136531365314
 40
0.3653136531365314
 40
0.3653136531365314
 40
0.3690036900369004
 40
0.3690036900369004
 40
0.3690036900369004
 40
0.3690036900369004
 40
0.3726937269372694
 40
0.3726937269372694
 40
0.3726937269372694
 40
0.3726937269372694
 40
0.3763837638376384
 40
0.3763837638376384
 40
0.3763837638376384
 40
0.3763837638376384
 40
0.3800738007380074
 40
0.3800738007380074
 40
0.3800738007380074
 40
0.3800738007380074
 40
0.3837638376383764
 40
0.3837638376383764
 40
0.3837638376383764
 40
0.3837638376383764
 40
0.3874538745387454
 40
0.3874538745387454
 40
0.3874538745387454
 40
0.3874538745387454
 40
0.3911439114391144
 40
0.3911439114391144
 40
0.3911439114391144
 40
0.3911439114391144
 40
0.3948339483394834
 40
0.3948339483394834
 40
0.3948339483394834
 40
0.3948339483394834
 40
0.3985239852398524
 40
0.3985239852398524
 40
0.3985239852398524
 40
0.3985239852398524
 40
0.4022140221402214
 40
0.4022140221402214
 40
0.4022140221402214
 40
0.4022140221402214
 40
0.4059040590405904
 40
0.4059040590405904
 40
0.4059040590405904
 40
0.4059040590405904
 40
0.4095940959409594
 40
0.4095940959409594
 40
0.4095940959409594
 40
0.4095940959409594
 40
0.4132841328413284
 40
0.4132841328413284
 40
0.4132841328413284
 40
0.4132841328413284
 40
0.4169741697416974
 40
0.4169741697416974
 40
0.4169741697416974
 40
0.4169741697416974
 40
0.4206642066420664
 40
0.4206642066420664
 40
0.4206642066420664
 40
0.4206642066420664
 40
0.4243542435424354
 40
0.4243542435424354
 40
0.4243542435424354
 40
0.4243542435424354
 40
0.4280442804428044
 40
0.4280442804428044
 40
0.4280442804428044
 40
0.4280442804428044
 40
0.4317343173431734
 40
0.4317343173431734
 40
0.4317343173431734
 40
0.4317343173431734
 40
0.4354243542435424
 40
0.4354243542435424
 40
0.4354243542435424
 40
0.4354243542435424
 40
0.4391143911439114
 40
0.4391143911439114
 40
0.4391143911439114
 40
0.4391143911439114
 40
0.4428044280442804
 40
0.4428044280442804
 40
0.4428044280442804
 40
0.4428044280442804
 40
0.4464944649446494
 40
0.4464944649446494
 40
0.4464944649446494
 40
0.4464944649446494
 40
0.4501845018450185
 40
0.4501845018450185
 40
0.4501845018450185
 40
0.4501845018450185
 40
0.4538745387453875
 40
0.4538745387453875
 40
0.4538745387453875
 40
0.4538745387453875
 40
0.4575645756457565
 40
0.4575645756457565
 40
0.4575645756457565
 40
0.4575645756457565
 40
0.4612546125461255
 40
0.4612546125461255
 40
0.4612546125461255
 40
0.4612546125461255
 40
0.4649446494464944
 40
0.4649446494464944
 40
0.4649446494464944
 40
0.4649446494464944
 40
0.4686346863468634
 40
0.4686346863468634
 40
0.4686346863468634
 40
0.4686346863468634
 40
0.4723247232472325
 40
0.4723247232472325
 40
0.4723247232472325
 40
0.4723247232472325
 40
0.4760147601476015
 40
0.4760147601476015
 40
0.4760147601476015
 40
0.4760147601476015
 40
0.4797047970479705
 40
0.4797047970479705
 40
0.4797047970479705
 40
0.4797047970479705
 40
0.4833948339483395
 40
0.4833948339483395
 40
0.4833948339483395
 40
0.4833948339483395
 40
0.4870848708487085
 40
0.4870848708487085
 40
0.4870848708487085
 40
0.4870848708487085
 40
0.4907749077490775
 40
0.4907749077490775
 40
0.4907749077490775
 40
0.4907749077490775
 40
0.4944649446494465
 40
0.4944649446494465
 40
0.4944649446494465
 40
0.4944649446494465
 40
0.4981549815498155
 40
0.4981549815498155
 40
0.4981549815498155
 40
0.4981549815498155
 40
0.5018450184501845
 40
0.5018450184501845
 40
0.5018450184501845
 40
0.5018450184501845
 40
0.5055350553505535
 40
0.5055350553505535
 40
0.5055350553505535
 40
0.5055350553505535
 40
0.5092250922509225
 40
0.5092250922509225
 40
0.5092250922509225
 40
0.5092250922509225
 40
0.5129151291512916
 40
0.5129151291512916
 40
0.5129151291512916
 40
0.5129151291512916
 40
0.5166051660516605
 40
0.5166051660516605
 40
0.5166051660516605
 40
0.5166051660516605
 40
0.5202952029520295
 40
0.5202952029520295
 40
0.5202952029520295
 40
0.5202952029520295
 40
0.5239852398523985
 40
0.5239852398523985
 40
0.5239852398523985
 40
0.5239852398523985
 40
0.5276752767527675
 40
0.5276752767527675
 40
0.5276752767527675
 40
0.5276752767527675
 40
0.5313653136531366
 40
0.5313653136531366
 40
0.5313653136531366
 40
0.5313653136531366
 40
0.5350553505535055
 40
0.5350553505535055
 40
0.5350553505535055
 40
0.5350553505535055
 40
0.5387453874538746
 40
0.5387453874538746
 40
0.5387453874538746
 40
0.5387453874538746
 40
0.5424354243542435
 40
0.5424354243542435
 40
0.5424354243542435
 40
0.5424354243542435
 40
0.5461254612546126
 40
0.5461254612546126
 40
0.5461254612546126
 40
0.5461254612546126
 40
0.5498154981549815
 40
0.5498154981549815
 40
0.5498154981549815
 40
0.5498154981549815
 40
0.5535055350553506
 40
0.5535055350553506
 40
0.5535055350553506
 40
0.5535055350553506
 40
0.5571955719557196
 40
0.5571955719557196
 40
0.5571955719557196
 40
0.5571955719557196
 40
0.5608856088560885
 40
0.5608856088560885
 40
0.5608856088560885
 40
0.5608856088560885
 40
0.5645756457564576
 40
0.5645756457564576
 40
0.5645756457564576
 40
0.5645756457564576
 40
0.5682656826568265
 40
0.5682656826568265
 40
0.5682656826568265
 40
0.5682656826568265
 40
0.5719557195571956
 40
0.5719557195571956
 40
0.5719557195571956
 40
0.5719557195571956
 40
0.5756457564575646
 40
0.5756457564575646
 40
0.5756457564575646
 40
0.5756457564575646
 40
0.5793357933579336
 40
0.5793357933579336
 40
0.5793357933579336
 40
0.5793357933579336
 40
0.5830258302583026
 40
0.5830258302583026
 40
0.5830258302583026
 40
0.5830258302583026
 40
0.5867158671586716
 40
0.5867158671586716
 40
0.5867158671586716
 40
0.5867158671586716
 40
0.5904059040590406
 40
0.5904059040590406
 40
0.5904059040590406
 40
0.5904059040590406
 40
0.5940959409594095
 40
0.5940959409594095
 40
0.5940959409594095
 40
0.5940959409594095
 40
0.5977859778597786
 40
0.5977859778597786
 40
0.5977859778597786
 40
0.5977859778597786
 40
0.6014760147601476
 40
0.6014760147601476
 40
0.6014760147601476
 40
0.6014760147601476
 40
0.6051660516605166
 40
0.6051660516605166
 40
0.6051660516605166
 40
0.6051660516605166
 40
0.6088560885608856
 40
0.6088560885608856
 40
0.6088560885608856
 40
0.6088560885608856
 40
0.6125461254612546
 40
0.6125461254612546
 40
0.6125461254612546
 40
0.6125461254612546
 40
0.6162361623616236
 40
0.6162361623616236
 40
0.6162361623616236
 40
0.6162361623616236
 40
0.6199261992619927
 40
0.6199261992619927
 40
0.6199261992619927
 40
0.6199261992619927
 40
0.6236162361623616
 40
0.6236162361623616
 40
0.6236162361623616
 40
0.6236162361623616
 40
0.6273062730627307
 40
0.6273062730627307
 40
0.6273062730627307
 40
0.6273062730627307
 40
0.6309963099630996
 40
0.6309963099630996
 40
0.6309963099630996
 40
0.6309963099630996
 40
0.6346863468634686
 40
0.6346863468634686
 40
0.6346863468634686
 40
0.6346863468634686
 40
0.6383763837638377
 40
0.6383763837638377
 40
0.6383763837638377
 40
0.6383763837638377
 40
0.6420664206642066
 40
0.6420664206642066
 40
0.6420664206642066
 40
0.6420664206642066
 40
0.6457564575645757
 40
0.6457564575645757
 40
0.6457564575645757
 40
0.6457564575645757
 40
0.6494464944649446
 40
0.6494464944649446
 40
0.6494464944649446
 40
0.6494464944649446
 40
0.6531365313653137
 40
0.6531365313653137
 40
0.6531365313653137
 40
0.6531365313653137
 40
0.6568265682656826
 40
0.6568265682656826
 40
0.6568265682656826
 40
0.6568265682656826
 40
0.6605166051660517
 40
0.6605166051660517
 40
0.6605166051660517
 40
0.6605166051660517
 40
0.6642066420664207
 40
0.6642066420664207
 40
0.6642066420664207
 40
0.6642066420664207
 40
0.6678966789667896
 40
0.6678966789667896
 40
0.6678966789667896
 40
0.6678966789667896
 40
0.6715867158671587
 40
0.6715867158671587
 40
0.6715867158671587
 40
0.6715867158671587
 40
0.6752767527675276
 40
0.6752767527675276
 40
0.6752767527675276
 40
0.6752767527675276
 40
0.6789667896678967
 40
0.6789667896678967
 40
0.6789667896678967
 40
0.6789667896678967
 40
0.6826568265682657
 40
0.6826568265682657
 40
0.6826568265682657
 40
0.6826568265682657
 40
0.6863468634686347
 40
0.6863468634686347
 40
0.6863468634686347
 40
0.6863468634686347
 40
0.6900369003690037
 40
0.6900369003690037
 40
0.6900369003690037
 40
0.6900369003690037
 40
0.6937269372693727
 40
0.6937269372693727
 40
0.6937269372693727
 40
0.6937269372693727
 40
0.6974169741697417
 40
0.6974169741697417
 40
0.6974169741697417
 40
0.6974169741697417
 40
0.7011070110701108
 40
0.7011070110701108
 40
0.7011070110701108
 40
0.7011070110701108
 40
0.7047970479704797
 40
0.7047970479704797
 40
0.7047970479704797
 40
0.7047970479704797
 40
0.7084870848708487
 40
0.7084870848708487
 40
0.7084870848708487
 40
0.7084870848708487
 40
0.7121771217712177
 40
0.7121771217712177
 40
0.7121771217712177
 40
0.7121771217712177
 40
0.7158671586715867
 40
0.7158671586715867
 40
0.7158671586715867
 40
0.7158671586715867
 40
0.7195571955719557
 40
0.7195571955719557
 40
0.7195571955719557
 40
0.7195571955719557
 40
0.7232472324723247
 40
0.7232472324723247
 40
0.7232472324723247
 40
0.7232472324723247
 40
0.7269372693726938
 40
0.7269372693726938
 40
0.7269372693726938
 40
0.7269372693726938
 40
0.7306273062730627
 40
0.7306273062730627
 40
0.7306273062730627
 40
0.7306273062730627
 40
0.7343173431734318
 40
0.7343173431734318
 40
0.7343173431734318
 40
0.7343173431734318
 40
0.7380073800738007
 40
0.7380073800738007
 40
0.7380073800738007
 40
0.7380073800738007
 40
0.7416974169741697
 40
0.7416974169741697
 40
0.7416974169741697
 40
0.7416974169741697
 40
0.7453874538745388
 40
0.7453874538745388
 40
0.7453874538745388
 40
0.7453874538745388
 40
0.7490774907749077
 40
0.7490774907749077
 40
0.7490774907749077
 40
0.7490774907749077
 40
0.7527675276752768
 40
0.7527675276752768
 40
0.7527675276752768
 40
0.7527675276752768
 40
0.7564575645756457
 40
0.7564575645756457
 40
0.7564575645756457
 40
0.7564575645756457
 40
0.7601476014760148
 40
0.7601476014760148
 40
0.7601476014760148
 40
0.7601476014760148
 40
0.7638376383763837
 40
0.7638376383763837
 40
0.7638376383763837
 40
0.7638376383763837
 40
0.7675276752767528
 40
0.7675276752767528
 40
0.7675276752767528
 40
0.7675276752767528
 40
0.7712177121771218
 40
0.7712177121771218
 40
0.7712177121771218
 40
0.7712177121771218
 40
0.7749077490774908
 40
0.7749077490774908
 40
0.7749077490774908
 40
0.7749077490774908
 40
0.7785977859778598
 40
0.7785977859778598
 40
0.7785977859778598
 40
0.7785977859778598
 40
0.7822878228782287
 40
0.7822878228782287
 40
0.7822878228782287
 40
0.7822878228782287
 40
0.7859778597785978
 40
0.7859778597785978
 40
0.7859778597785978
 40
0.7859778597785978
 40
0.7896678966789668
 40
0.7896678966789668
 40
0.7896678966789668
 40
0.7896678966789668
 40
0.7933579335793358
 40
0.7933579335793358
 40
0.7933579335793358
 40
0.7933579335793358
 40
0.7970479704797048
 40
0.7970479704797048
 40
0.7970479704797048
 40
0.7970479704797048
 40
0.8007380073800738
 40
0.8007380073800738
 40
0.8007380073800738
 40
0.8007380073800738
 40
0.8044280442804428
 40
0.8044280442804428
 40
0.8044280442804428
 40
0.8044280442804428
 40
0.8081180811808119
 40
0.8081180811808119
 40
0.8081180811808119
 40
0.8081180811808119
 40
0.8118081180811808
 40
0.8118081180811808
 40
0.8118081180811808
 40
0.8118081180811808
 40
0.8154981549815498
 40
0.8154981549815498
 40
0.8154981549815498
 40
0.8154981549815498
 40
0.8191881918819188
 40
0.8191881918819188
 40
0.8191881918819188
 40
0.8191881918819188
 40
0.8228782287822878
 40
0.8228782287822878
 40
0.8228782287822878
 40
0.8228782287822878
 40
0.8265682656826568
 40
0.8265682656826568
 40
0.8265682656826568
 40
0.8265682656826568
 40
0.8302583025830258
 40
0.8302583025830258
 40
0.8302583025830258
 40
0.8302583025830258
 40
0.8339483394833949
 40
0.8339483394833949
 40
0.8339483394833949
 40
0.8339483394833949
 40
0.8376383763837638
 40
0.8376383763837638
 40
0.8376383763837638
 40
0.8376383763837638
 40
0.8413284132841329
 40
0.8413284132841329
 40
0.8413284132841329
 40
0.8413284132841329
 40
0.8450184501845018
 40
0.8450184501845018
 40
0.8450184501845018
 40
0.8450184501845018
 40
0.8487084870848709
 40
0.8487084870848709
 40
0.8487084870848709
 40
0.8487084870848709
 40
0.8523985239852399
 40
0.8523985239852399
 40
0.8523985239852399
 40
0.8523985239852399
 40
0.8560885608856088
 40
0.8560885608856088
 40
0.8560885608856088
 40
0.8560885608856088
 40
0.8597785977859779
 40
0.8597785977859779
 40
0.8597785977859779
 40
0.8597785977859779
 40
0.8634686346863468
 40
0.8634686346863468
 40
0.8634686346863468
 40
0.8634686346863468
 40
0.8671586715867159
 40
0.8671586715867159
 40
0.8671586715867159
 40
0.8671586715867159
 40
0.8708487084870848
 40
0.8708487084870848
 40
0.8708487084870848
 40
0.8708487084870848
 40
0.8745387453874539
 40
0.8745387453874539
 40
0.8745387453874539
 40
0.8745387453874539
 40
0.8782287822878229
 40
0.8782287822878229
 40
0.8782287822878229
 40
0.8782287822878229
 40
0.8819188191881919
 40
0.8819188191881919
 40
0.8819188191881919
 40
0.8819188191881919
 40
0.8856088560885609
 40
0.8856088560885609
 40
0.8856088560885609
 40
0.8856088560885609
 40
0.8892988929889298
 40
0.8892988929889298
 40
0.8892988929889298
 40
0.8892988929889298
 40
0.8929889298892989
 40
0.8929889298892989
 40
0.8929889298892989
 40
0.8929889298892989
 40
0.8966789667896679
 40
0.8966789667896679
 40
0.8966789667896679
 40
0.8966789667896679
 40
0.9003690036900369
 40
0.9003690036900369
 40
0.9003690036900369
 40
0.9003690036900369
 40
0.9040590405904059
 40
0.9040590405904059
 40
0.9040590405904059
 40
0.9040590405904059
 40
0.9077490774907749
 40
0.9077490774907749
 40
0.9077490774907749
 40
0.9077490774907749
 40
0.9114391143911439
 40
0.9114391143911439
 40
0.9114391143911439
 40
0.9114391143911439
 40
0.915129151291513
 40
0.915129151291513
 40
0.915129151291513
 40
0.915129151291513
 40
0.9188191881918819
 40
0.9188191881918819
 40
0.9188191881918819
 40
0.9188191881918819
 40
0.922509225092251
 40
0.922509225092251
 40
0.922509225092251
 40
0.922509225092251
 40
0.9261992619926199
 40
0.9261992619926199
 40
0.9261992619926199
 40
0.9261992619926199
 40
0.9298892988929889
 40
0.9298892988929889
 40
0.9298892988929889
 40
0.9298892988929889
 40
0.933579335793358
 40
0.933579335793358
 40
0.933579335793358
 40
0.933579335793358
 40
0.9372693726937269
 40
0.9372693726937269
 40
0.9372693726937269
 40
0.9372693726937269
 40
0.940959409594096
 40
0.940959409594096
 40
0.940959409594096
 40
0.940959409594096
 40
0.9446494464944649
 40
0.9446494464944649
 40
0.9446494464944649
 40
0.9446494464944649
 40
0.948339483394834
 40
0.948339483394834
 40
0.948339483394834
 40
0.948339483394834
 40
0.9520295202952029
 40
0.9520295202952029
 40
0.9520295202952029
 40
0.9520295202952029
 40
0.955719557195572
 40
0.955719557195572
 40
0.955719557195572
 40
0.955719557195572
 40
0.959409594095941
 40
0.959409594095941
 40
0.959409594095941
 40
0.959409594095941
 40
0.9630996309963099
 40
0.9630996309963099
 40
0.9630996309963099
 40
0.9630996309963099
 40
0.966789667896679
 40
0.966789667896679
 40
0.966789667896679
 40
0.966789667896679
 40
0.9704797047970479
 40
0.9704797047970479
 40
0.9704797047970479
 40
0.9704797047970479
 40
0.974169741697417
 40
0.974169741697417
 40
0.974169741697417
 40
0.974169741697417
 40
0.977859778597786
 40
0.977859778597786
 40
0.977859778597786
 40
0.977859778597786
 40
0.981549815498155
 40
0.981549815498155
 40
0.981549815498155
 40
0.981549815498155
 40
0.985239852398524
 40
0.985239852398524
 40
0.985239852398524
 40
0.985239852398524
 40
0.988929889298893
 40
0.988929889298893
 40
0.988929889298893
 40
0.988929889298893
 40
0.992619926199262
 40
0.992619926199262
 40
0.992619926199262
 40
0.992619926199262
 40
1.0
 40
1.0
 40
1.0
 40
1.0
 10
174.6761
 20
-129.7202
 30
0.0
 10
174.6761
 20
-129.7202
 30
0.0
 10
175.7153
 20
-128.2017
 30
0.0
 10
175.7153
 20
-128.2017
 30
0.0
 10
175.7153
 20
-128.2017
 30
0.0
 10
176.3816
 20
-127.1859
 30
0.0
 10
177.1237
 20
-126.3007
 30
0.0
 10
177.5409
 20
-125.2407
 30
0.0
 10
177.5409
 20
-125.2407
 30
0.0
 10
177.5409
 20
-125.2407
 30
0.0
 10
180.2252
 20
-117.0872
 30
0.0
 10
180.2252
 20
-117.0872
 30
0.0
 10
180.2252
 20
-117.0872
 30
0.0
 10
180.2252
 20
-117.0872
 30
0.0
 10
181.5279
 20
-114.3987
 30
0.0
 10
181.5279
 20
-114.3987
 30
0.0
 10
181.5279
 20
-114.3987
 30
0.0
 10
182.5945
 20
-111.7786
 30
0.0
 10
184.1307
 20
-109.3386
 30
0.0
 10
185.3174
 20
-106.6256
 30
0.0
 10
185.3174
 20
-106.6256
 30
0.0
 10
185.3174
 20
-106.6256
 30
0.0
 10
186.9632
 20
-103.5809
 30
0.0
 10
186.9632
 20
-103.5809
 30
0.0
 10
186.9632
 20
-103.5809
 30
0.0
 10
186.9632
 20
-103.5809
 30
0.0
 10
191.0179
 20
-95.6385
 30
0.0
 10
191.0179
 20
-95.6385
 30
0.0
 10
191.0179
 20
-95.6385
 30
0.0
 10
192.3915
 20
-94.4036
 30
0.0
 10
193.766
 20
-93.1741
 30
0.0
 10
195.1392
 20
-91.9422
 30
0.0
 10
195.1392
 20
-91.9422
 30
0.0
 10
195.1392
 20
-91.9422
 30
0.0
 10
198.9249
 20
-87.7553
 30
0.0
 10
198.9249
 20
-87.7553
 30
0.0
 10
198.9249
 20
-87.7553
 30
0.0
 10
199.5999
 20
-87.0157
 30
0.0
 10
200.281
 20
-86.2785
 30
0.0
 10
200.9565
 20
-85.5382
 30
0.0
 10
200.9565
 20
-85.5382
 30
0.0
 10
201.0051
 20
-85.5854
 30
0.0
 10
201.0547
 20
-85.6291
 30
0.0
 10
201.0976
 20
-85.6728
 30
0.0
 10
201.0976
 20
-85.6728
 30
0.0
 10
201.0976
 20
-85.6728
 30
0.0
 10
207.4089
 20
-80.1716
 30
0.0
 10
207.4089
 20
-80.1716
 30
0.0
 10
207.4089
 20
-80.1716
 30
0.0
 10
209.1549
 20
-77.6787
 30
0.0
 10
210.9062
 20
-75.1887
 30
0.0
 10
212.6587
 20
-72.6978
 30
0.0
 10
212.6587
 20
-72.6978
 30
0.0
 10
212.7937
 20
-72.9418
 30
0.0
 10
212.9226
 20
-73.1909
 30
0.0
 10
213.0108
 20
-73.4435
 30
0.0
 10
213.0108
 20
-73.4435
 30
0.0
 10
213.0108
 20
-73.4435
 30
0.0
 10
213.3874
 20
-74.4702
 30
0.0
 10
213.3874
 20
-74.4702
 30
0.0
 10
213.3874
 20
-74.4702
 30
0.0
 10
213.3874
 20
-74.4702
 30
0.0
 10
214.0252
 20
-75.1519
 30
0.0
 10
214.0252
 20
-75.1519
 30
0.0
 10
214.0252
 20
-75.1519
 30
0.0
 10
214.0394
 20
-75.4478
 30
0.0
 10
214.0539
 20
-75.7445
 30
0.0
 10
214.0636
 20
-76.0363
 30
0.0
 10
214.0636
 20
-76.0363
 30
0.0
 10
214.0636
 20
-76.0363
 30
0.0
 10
214.4848
 20
-76.9077
 30
0.0
 10
214.4848
 20
-76.9077
 30
0.0
 10
214.4848
 20
-76.9077
 30
0.0
 10
214.489
 20
-77.3943
 30
0.0
 10
213.115
 20
-79.2769
 30
0.0
 10
212.758
 20
-79.7499
 30
0.0
 10
212.758
 20
-79.7499
 30
0.0
 10
212.6864
 20
-81.0046
 30
0.0
 10
215.1011
 20
-81.9158
 30
0.0
 10
215.3248
 20
-83.3135
 30
0.0
 10
215.3248
 20
-83.3135
 30
0.0
 10
215.7085
 20
-85.6815
 30
0.0
 10
213.5072
 20
-88.0676
 30
0.0
 10
214.1557
 20
-90.6461
 30
0.0
 10
214.1557
 20
-90.6461
 30
0.0
 10
214.922
 20
-90.578
 30
0.0
 10
215.41
 20
-91.0373
 30
0.0
 10
216.2906
 20
-90.7547
 30
0.0
 10
216.2906
 20
-90.7547
 30
0.0
 10
216.2906
 20
-90.7547
 30
0.0
 10
216.9691
 20
-91.7375
 30
0.0
 10
216.9691
 20
-91.7375
 30
0.0
 10
216.9691
 20
-91.7375
 30
0.0
 10
216.9691
 20
-91.7375
 30
0.0
 10
218.6308
 20
-91.462
 30
0.0
 10
218.6308
 20
-91.462
 30
0.0
 10
218.6308
 20
-91.462
 30
0.0
 10
218.642
 20
-92.5799
 30
0.0
 10
219.3115
 20
-93.3132
 30
0.0
 10
219.3394
 20
-94.2485
 30
0.0
 10
219.3394
 20
-94.2485
 30
0.0
 10
219.9277
 20
-94.277
 30
0.0
 10
220.5001
 20
-94.1459
 30
0.0
 10
221.2419
 20
-93.7064
 30
0.0
 10
221.2419
 20
-93.7064
 30
0.0
 10
221.2419
 20
-93.7064
 30
0.0
 10
222.2902
 20
-94.4202
 30
0.0
 10
222.2902
 20
-94.4202
 30
0.0
 10
222.2902
 20
-94.4202
 30
0.0
 10
223.2271
 20
-94.3722
 30
0.0
 10
223.5924
 20
-93.7519
 30
0.0
 10
223.933
 20
-93.1796
 30
0.0
 10
223.933
 20
-93.1796
 30
0.0
 10
224.7173
 20
-93.1711
 30
0.0
 10
225.2392
 20
-93.5468
 30
0.0
 10
225.9573
 20
-93.6736
 30
0.0
 10
225.9573
 20
-93.6736
 30
0.0
 10
225.9573
 20
-93.6736
 30
0.0
 10
226.9607
 20
-90.4606
 30
0.0
 10
226.9607
 20
-90.4606
 30
0.0
 10
226.9607
 20
-90.4606
 30
0.0
 10
226.9607
 20
-90.4606
 30
0.0
 10
228.3867
 20
-86.6146
 30
0.0
 10
228.3867
 20
-86.6146
 30
0.0
 10
228.3867
 20
-86.6146
 30
0.0
 10
228.3867
 20
-86.6146
 30
0.0
 10
228.3903
 20
-79.8688
 30
0.0
 10
228.3903
 20
-79.8688
 30
0.0
 10
228.3903
 20
-79.8688
 30
0.0
 10
228.3903
 20
-79.8688
 30
0.0
 10
229.1695
 20
-72.296
 30
0.0
 10
229.1695
 20
-72.296
 30
0.0
 10
229.1695
 20
-72.296
 30
0.0
 10
229.1883
 20
-71.4081
 30
0.0
 10
228.7441
 20
-70.5219
 30
0.0
 10
228.695
 20
-69.5789
 30
0.0
 10
228.695
 20
-69.5789
 30
0.0
 10
228.7389
 20
-68.839
 30
0.0
 10
228.7806
 20
-68.1045
 30
0.0
 10
228.8266
 20
-67.3666
 30
0.0
 10
228.8266
 20
-67.3666
 30
0.0
 10
228.8266
 20
-67.3666
 30
0.0
 10
228.7608
 20
-65.9191
 30
0.0
 10
228.7608
 20
-65.9191
 30
0.0
 10
228.7608
 20
-65.9191
 30
0.0
 10
228.7608
 20
-65.9191
 30
0.0
 10
232.1084
 20
-65.2602
 30
0.0
 10
232.1084
 20
-65.2602
 30
0.0
 10
232.1084
 20
-65.2602
 30
0.0
 10
233.5972
 20
-65.113
 30
0.0
 10
235.2514
 20
-64.8143
 30
0.0
 10
236.6696
 20
-64.3568
 30
0.0
 10
236.6696
 20
-64.3568
 30
0.0
 10
236.6696
 20
-64.3568
 30
0.0
 10
242.1436
 20
-63.1276
 30
0.0
 10
242.1436
 20
-63.1276
 30
0.0
 10
242.1436
 20
-63.1276
 30
0.0
 10
242.1436
 20
-63.1276
 30
0.0
 10
247.7872
 20
-61.0455
 30
0.0
 10
247.7872
 20
-61.0455
 30
0.0
 10
247.7872
 20
-61.0455
 30
0.0
 10
247.7872
 20
-61.0455
 30
0.0
 10
251.0191
 20
-60.2339
 30
0.0
 10
251.0191
 20
-60.2339
 30
0.0
 10
251.0191
 20
-60.2339
 30
0.0
 10
251.0191
 20
-60.2339
 30
0.0
 10
253.1115
 20
-58.8703
 30
0.0
 10
253.1115
 20
-58.8703
 30
0.0
 10
253.1115
 20
-58.8703
 30
0.0
 10
253.1115
 20
-58.8703
 30
0.0
 10
253.9814
 20
-57.8962
 30
0.0
 10
253.9814
 20
-57.8962
 30
0.0
 10
253.9814
 20
-57.8962
 30
0.0
 10
254.9218
 20
-56.9635
 30
0.0
 10
255.822
 20
-55.877
 30
0.0
 10
256.4396
 20
-54.4984
 30
0.0
 10
256.4396
 20
-54.4984
 30
0.0
 10
256.7438
 20
-53.9763
 30
0.0
 10
257.0454
 20
-53.4557
 30
0.0
 10
257.3519
 20
-52.9376
 30
0.0
 10
257.3519
 20
-52.9376
 30
0.0
 10
257.8155
 20
-51.7913
 30
0.0
 10
258.3962
 20
-49.5513
 30
0.0
 10
259.6338
 20
-48.6897
 30
0.0
 10
259.6338
 20
-48.6897
 30
0.0
 10
261.1357
 20
-47.6433
 30
0.0
 10
262.7957
 20
-46.7348
 30
0.0
 10
264.3495
 20
-45.847
 30
0.0
 10
264.3495
 20
-45.847
 30
0.0
 10
264.3495
 20
-45.847
 30
0.0
 10
267.2539
 20
-44.1254
 30
0.0
 10
267.2539
 20
-44.1254
 30
0.0
 10
267.2539
 20
-44.1254
 30
0.0
 10
267.2539
 20
-44.1254
 30
0.0
 10
269.5049
 20
-42.8666
 30
0.0
 10
269.5049
 20
-42.8666
 30
0.0
 10
269.5049
 20
-42.8666
 30
0.0
 10
272.6576
 20
-40.4101
 30
0.0
 10
275.8129
 20
-37.956
 30
0.0
 10
278.9634
 20
-35.4984
 30
0.0
 10
278.9634
 20
-35.4984
 30
0.0
 10
282.0324
 20
-33.3136
 30
0.0
 10
285.0802
 20
-31.1763
 30
0.0
 10
288.1156
 20
-28.6611
 30
0.0
 10
288.1156
 20
-28.6611
 30
0.0
 10
289.77
 20
-27.1379
 30
0.0
 10
291.4274
 20
-25.6125
 30
0.0
 10
293.0776
 20
-24.0886
 30
0.0
 10
293.0776
 20
-24.0886
 30
0.0
 10
293.0776
 20
-24.0886
 30
0.0
 10
296.0496
 20
-22.263
 30
0.0
 10
296.0496
 20
-22.263
 30
0.0
 10
296.0496
 20
-22.263
 30
0.0
 10
296.0496
 20
-22.263
 30
0.0
 10
296.089
 20
-22.2852
 30
0.0
 10
296.089
 20
-22.2852
 30
0.0
 10
296.089
 20
-22.2852
 30
0.0
 10
296.0964
 20
-22.2664
 30
0.0
 10
296.1079
 20
-22.2488
 30
0.0
 10
296.1161
 20
-22.2333
 30
0.0
 10
296.1161
 20
-22.2333
 30
0.0
 10
297.1246
 20
-21.8674
 30
0.0
 10
298.1625
 20
-21.5911
 30
0.0
 10
298.9726
 20
-21.915
 30
0.0
 10
298.9726
 20
-21.915
 30
0.0
 10
298.9726
 20
-21.915
 30
0.0
 10
300.1841
 20
-22.8827
 30
0.0
 10
300.1841
 20
-22.8827
 30
0.0
 10
300.1841
 20
-22.8827
 30
0.0
 10
300.8328
 20
-23.0462
 30
0.0
 10
301.482
 20
-23.2097
 30
0.0
 10
302.1347
 20
-23.3698
 30
0.0
 10
302.1347
 20
-23.3698
 30
0.0
 10
303.1019
 20
-23.7272
 30
0.0
 10
303.7428
 20
-24.4834
 30
0.0
 10
304.5435
 20
-24.7761
 30
0.0
 10
304.5435
 20
-24.7761
 30
0.0
 10
304.5435
 20
-24.7761
 30
0.0
 10
305.0071
 20
-24.4693
 30
0.0
 10
305.0071
 20
-24.4693
 30
0.0
 10
305.0071
 20
-24.4693
 30
0.0
 10
304.9426
 20
-23.5234
 30
0.0
 10
303.6778
 20
-23.0214
 30
0.0
 10
302.6192
 20
-22.3744
 30
0.0
 10
302.6192
 20
-22.3744
 30
0.0
 10
302.6192
 20
-22.3744
 30
0.0
 10
302.8174
 20
-22.0721
 30
0.0
 10
302.8174
 20
-22.0721
 30
0.0
 10
302.8174
 20
-22.0721
 30
0.0
 10
303.4402
 20
-22.0981
 30
0.0
 10
304.0601
 20
-22.1256
 30
0.0
 10
304.6873
 20
-22.1577
 30
0.0
 10
304.6873
 20
-22.1577
 30
0.0
 10
305.9306
 20
-22.2263
 30
0.0
 10
306.8522
 20
-24.8603
 30
0.0
 10
308.345
 20
-24.991
 30
0.0
 10
308.345
 20
-24.991
 30
0.0
 10
308.345
 20
-24.991
 30
0.0
 10
308.7059
 20
-24.9682
 30
0.0
 10
308.7059
 20
-24.9682
 30
0.0
 10
308.7059
 20
-24.9682
 30
0.0
 10
308.7336
 20
-24.8418
 30
0.0
 10
308.758
 20
-24.7091
 30
0.0
 10
308.7876
 20
-24.5837
 30
0.0
 10
308.7876
 20
-24.5837
 30
0.0
 10
308.0069
 20
-24.0937
 30
0.0
 10
307.4235
 20
-23.6025
 30
0.0
 10
307.1887
 20
-23.0117
 30
0.0
 10
307.1887
 20
-23.0117
 30
0.0
 10
307.1642
 20
-22.9642
 30
0.0
 10
307.138
 20
-22.9112
 30
0.0
 10
307.1096
 20
-22.8699
 30
0.0
 10
307.1096
 20
-22.8699
 30
0.0
 10
307.9175
 20
-22.9922
 30
0.0
 10
308.5712
 20
-23.2498
 30
0.0
 10
309.2612
 20
-23.3209
 30
0.0
 10
309.2612
 20
-23.3209
 30
0.0
 10
309.2612
 20
-23.3209
 30
0.0
 10
309.543
 20
-22.8912
 30
0.0
 10
309.543
 20
-22.8912
 30
0.0
 10
309.543
 20
-22.8912
 30
0.0
 10
308.8381
 20
-22.6305
 30
0.0
 10
308.1331
 20
-22.372
 30
0.0
 10
307.4283
 20
-22.1187
 30
0.0
 10
307.4283
 20
-22.1187
 30
0.0
 10
307.4283
 20
-22.1187
 30
0.0
 10
307.4697
 20
-22.0556
 30
0.0
 10
307.4697
 20
-22.0556
 30
0.0
 10
307.4697
 20
-22.0556
 30
0.0
 10
307.7284
 20
-21.9633
 30
0.0
 10
307.9959
 20
-21.8765
 30
0.0
 10
308.2567
 20
-21.7865
 30
0.0
 10
308.2567
 20
-21.7865
 30
0.0
 10
308.2567
 20
-21.7865
 30
0.0
 10
308.3003
 20
-21.7201
 30
0.0
 10
308.3003
 20
-21.7201
 30
0.0
 10
308.3003
 20
-21.7201
 30
0.0
 10
308.2874
 20
-21.5988
 30
0.0
 10
308.2815
 20
-21.4777
 30
0.0
 10
308.2755
 20
-21.3547
 30
0.0
 10
308.2755
 20
-21.3547
 30
0.0
 10
307.2213
 20
-21.568
 30
0.0
 10
305.3153
 20
-21.2535
 30
0.0
 10
304.3822
 20
-19.9432
 30
0.0
 10
304.3822
 20
-19.9432
 30
0.0
 10
303.6387
 20
-19.8713
 30
0.0
 10
302.7774
 20
-20.0497
 30
0.0
 10
302.0077
 20
-19.9592
 30
0.0
 10
302.0077
 20
-19.9592
 30
0.0
 10
300.7146
 20
-19.7519
 30
0.0
 10
299.421
 20
-19.5509
 30
0.0
 10
298.1235
 20
-19.3395
 30
0.0
 10
298.1235
 20
-19.3395
 30
0.0
 10
297.0338
 20
-19.456
 30
0.0
 10
295.9507
 20
-19.5435
 30
0.0
 10
294.8682
 20
-19.6272
 30
0.0
 10
294.8682
 20
-19.6272
 30
0.0
 10
294.8682
 20
-19.6272
 30
0.0
 10
293.0269
 20
-19.742
 30
0.0
 10
292.4673
 20
-20.0704
 30
0.0
 10
292.4673
 20
-20.0704
 30
0.0
 10
291.85
 20
-20.4869
 30
0.0
 10
291.2485
 20
-20.927
 30
0.0
 10
290.6558
 20
-21.2661
 30
0.0
 10
290.6558
 20
-21.2661
 30
0.0
 10
290.6558
 20
-21.2661
 30
0.0
 10
285.23
 20
-24.4174
 30
0.0
 10
285.23
 20
-24.4174
 30
0.0
 10
285.23
 20
-24.4174
 30
0.0
 10
285.23
 20
-24.4174
 30
0.0
 10
282.4716
 20
-26.1551
 30
0.0
 10
282.4716
 20
-26.1551
 30
0.0
 10
282.4716
 20
-26.1551
 30
0.0
 10
282.4716
 20
-26.1551
 30
0.0
 10
279.6115
 20
-27.2854
 30
0.0
 10
279.6115
 20
-27.2854
 30
0.0
 10
279.6115
 20
-27.2854
 30
0.0
 10
279.6115
 20
-27.2854
 30
0.0
 10
276.2933
 20
-29.8155
 30
0.0
 10
276.2933
 20
-29.8155
 30
0.0
 10
276.2933
 20
-29.8155
 30
0.0
 10
276.2933
 20
-29.8155
 30
0.0
 10
272.7436
 20
-33.2296
 30
0.0
 10
272.7436
 20
-33.2296
 30
0.0
 10
272.7436
 20
-33.2296
 30
0.0
 10
272.7436
 20
-33.2296
 30
0.0
 10
269.3504
 20
-35.8004
 30
0.0
 10
269.3504
 20
-35.8004
 30
0.0
 10
269.3504
 20
-35.8004
 30
0.0
 10
268.8734
 20
-36.0421
 30
0.0
 10
264.2525
 20
-38.4045
 30
0.0
 10
262.7902
 20
-39.0057
 30
0.0
 10
262.7902
 20
-39.0057
 30
0.0
 10
262.7902
 20
-39.0057
 30
0.0
 10
262.8061
 20
-39.0216
 30
0.0
 10
262.8061
 20
-39.0216
 30
0.0
 10
262.8061
 20
-39.0216
 30
0.0
 10
261.3982
 20
-39.7025
 30
0.0
 10
259.1018
 20
-40.808
 30
0.0
 10
258.3708
 20
-40.6156
 30
0.0
 10
258.3708
 20
-40.6156
 30
0.0
 10
258.3392
 20
-40.5681
 30
0.0
 10
258.3095
 20
-40.518
 30
0.0
 10
258.2771
 20
-40.4723
 30
0.0
 10
258.2771
 20
-40.4723
 30
0.0
 10
258.4126
 20
-38.89
 30
0.0
 10
259.3543
 20
-37.2765
 30
0.0
 10
260.0357
 20
-35.6121
 30
0.0
 10
260.0357
 20
-35.6121
 30
0.0
 10
260.2248
 20
-35.1969
 30
0.0
 10
260.4086
 20
-34.7814
 30
0.0
 10
260.5972
 20
-34.3636
 30
0.0
 10
260.5972
 20
-34.3636
 30
0.0
 10
261.4185
 20
-33.1698
 30
0.0
 10
263.8044
 20
-32.5512
 30
0.0
 10
264.4793
 20
-32.4025
 30
0.0
 10
264.4793
 20
-32.4025
 30
0.0
 10
264.5025
 20
-32.4115
 30
0.0
 10
264.5307
 20
-32.4085
 30
0.0
 10
264.5555
 20
-32.4207
 30
0.0
 10
264.5555
 20
-32.4207
 30
0.0
 10
265.004
 20
-32.3677
 30
0.0
 10
265.5539
 20
-32.3034
 30
0.0
 10
265.7518
 20
-32.2935
 30
0.0
 10
265.7518
 20
-32.2935
 30
0.0
 10
265.7821
 20
-32.2923
 30
0.0
 10
265.8019
 20
-32.2784
 30
0.0
 10
265.8214
 20
-32.264
 30
0.0
 10
265.8214
 20
-32.264
 30
0.0
 10
266.2852
 20
-32.2245
 30
0.0
 10
266.7539
 20
-32.157
 30
0.0
 10
267.225
 20
-32.1143
 30
0.0
 10
267.225
 20
-32.1143
 30
0.0
 10
267.6476
 20
-32.072
 30
0.0
 10
268.0203
 20
-31.9194
 30
0.0
 10
268.237
 20
-31.7033
 30
0.0
 10
268.237
 20
-31.7033
 30
0.0
 10
268.4145
 20
-31.5548
 30
0.0
 10
268.4952
 20
-31.3948
 30
0.0
 10
268.5199
 20
-31.2718
 30
0.0
 10
268.5199
 20
-31.2718
 30
0.0
 10
268.5199
 20
-31.2718
 30
0.0
 10
268.5264
 20
-31.2649
 30
0.0
 10
268.5264
 20
-31.2649
 30
0.0
 10
268.5264
 20
-31.2649
 30
0.0
 10
268.5264
 20
-31.2649
 30
0.0
 10
268.5352
 20
-31.1724
 30
0.0
 10
268.5352
 20
-31.1724
 30
0.0
 10
268.5352
 20
-31.1724
 30
0.0
 10
268.5327
 20
-31.162
 30
0.0
 10
268.5318
 20
-31.159
 30
0.0
 10
268.5355
 20
-31.1482
 30
0.0
 10
268.5355
 20
-31.1482
 30
0.0
 10
268.5362
 20
-30.9746
 30
0.0
 10
268.4985
 20
-30.6743
 30
0.0
 10
268.456
 20
-30.5824
 30
0.0
 10
268.456
 20
-30.5824
 30
0.0
 10
268.3591
 20
-30.3962
 30
0.0
 10
268.1217
 20
-30.1648
 30
0.0
 10
268.1405
 20
-29.9051
 30
0.0
 10
268.1405
 20
-29.9051
 30
0.0
 10
268.1631
 20
-29.4254
 30
0.0
 10
268.6181
 20
-29.458
 30
0.0
 10
268.7288
 20
-29.1037
 30
0.0
 10
268.7288
 20
-29.1037
 30
0.0
 10
268.7599
 20
-28.9979
 30
0.0
 10
268.7462
 20
-28.7533
 30
0.0
 10
268.6276
 20
-28.6826
 30
0.0
 10
268.6276
 20
-28.6826
 30
0.0
 10
268.5585
 20
-28.6373
 30
0.0
 10
268.4923
 20
-28.6079
 30
0.0
 10
268.4023
 20
-28.5752
 30
0.0
 10
268.4023
 20
-28.5752
 30
0.0
 10
268.3117
 20
-28.5389
 30
0.0
 10
268.1992
 20
-28.5116
 30
0.0
 10
268.0824
 20
-28.5123
 30
0.0
 10
268.0824
 20
-28.5123
 30
0.0
 10
268.0794
 20
-28.5091
 30
0.0
 10
268.0731
 20
-28.505
 30
0.0
 10
268.0716
 20
-28.4994
 30
0.0
 10
268.0716
 20
-28.4994
 30
0.0
 10
268.0716
 20
-28.4994
 30
0.0
 10
268.0645
 20
-28.4756
 30
0.0
 10
268.0645
 20
-28.4756
 30
0.0
 10
268.0645
 20
-28.4756
 30
0.0
 10
268.4853
 20
-28.3087
 30
0.0
 10
268.8474
 20
-28.1515
 30
0.0
 10
268.8927
 20
-27.7699
 30
0.0
 10
268.8927
 20
-27.7699
 30
0.0
 10
268.9016
 20
-27.6926
 30
0.0
 10
268.8919
 20
-27.5218
 30
0.0
 10
268.8274
 20
-27.435
 30
0.0
 10
268.8274
 20
-27.435
 30
0.0
 10
268.7064
 20
-27.2856
 30
0.0
 10
268.3514
 20
-27.3227
 30
0.0
 10
268.3472
 20
-27.0246
 30
0.0
 10
268.3472
 20
-27.0246
 30
0.0
 10
268.3401
 20
-26.5791
 30
0.0
 10
268.6311
 20
-26.6946
 30
0.0
 10
268.8544
 20
-26.4203
 30
0.0
 10
268.8544
 20
-26.4203
 30
0.0
 10
268.9574
 20
-26.2956
 30
0.0
 10
269.0347
 20
-26.1116
 30
0.0
 10
269.0466
 20
-25.9363
 30
0.0
 10
269.0466
 20
-25.9363
 30
0.0
 10
269.065
 20
-25.702
 30
0.0
 10
268.6304
 20
-25.4661
 30
0.0
 10
268.5094
 20
-25.3725
 30
0.0
 10
268.5094
 20
-25.3725
 30
0.0
 10
268.2969
 20
-25.2008
 30
0.0
 10
268.0691
 20
-25.0363
 30
0.0
 10
267.8485
 20
-24.8689
 30
0.0
 10
267.8485
 20
-24.8689
 30
0.0
 10
267.7108
 20
-24.7635
 30
0.0
 10
267.6117
 20
-24.6236
 30
0.0
 10
267.4706
 20
-24.5095
 30
0.0
 10
267.4706
 20
-24.5095
 30
0.0
 10
267.3149
 20
-24.3762
 30
0.0
 10
267.1183
 20
-24.2542
 30
0.0
 10
266.9915
 20
-24.0843
 30
0.0
 10
266.9915
 20
-24.0843
 30
0.0
 10
266.9915
 20
-24.0843
 30
0.0
 10
267.0105
 20
-24.0503
 30
0.0
 10
267.0105
 20
-24.0503
 30
0.0
 10
267.0105
 20
-24.0503
 30
0.0
 10
267.1437
 20
-24.0301
 30
0.0
 10
267.2848
 20
-24.0026
 30
0.0
 10
267.4047
 20
-23.9369
 30
0.0
 10
267.4047
 20
-23.9369
 30
0.0
 10
267.5249
 20
-23.8675
 30
0.0
 10
267.7822
 20
-23.5335
 30
0.0
 10
267.735
 20
-23.4017
 30
0.0
 10
267.735
 20
-23.4017
 30
0.0
 10
267.6353
 20
-23.3867
 30
0.0
 10
267.5488
 20
-23.5293
 30
0.0
 10
267.4765
 20
-23.5782
 30
0.0
 10
267.4765
 20
-23.5782
 30
0.0
 10
267.337
 20
-23.6664
 30
0.0
 10
267.0521
 20
-23.6669
 30
0.0
 10
266.9215
 20
-23.6533
 30
0.0
 10
266.9215
 20
-23.6533
 30
0.0
 10
266.9215
 20
-23.6533
 30
0.0
 10
266.8783
 20
-23.637
 30
0.0
 10
266.8783
 20
-23.637
 30
0.0
 10
266.8783
 20
-23.637
 30
0.0
 10
266.8116
 20
-23.4708
 30
0.0
 10
266.8246
 20
-22.9849
 30
0.0
 10
266.8064
 20
-22.7709
 30
0.0
 10
266.8064
 20
-22.7709
 30
0.0
 10
266.7899
 20
-22.6218
 30
0.0
 10
266.6939
 20
-22.4232
 30
0.0
 10
266.7366
 20
-22.3126
 30
0.0
 10
266.7366
 20
-22.3126
 30
0.0
 10
266.7782
 20
-22.2101
 30
0.0
 10
266.9062
 20
-22.1209
 30
0.0
 10
266.9681
 20
-22.0313
 30
0.0
 10
266.9681
 20
-22.0313
 30
0.0
 10
267.1072
 20
-21.83
 30
0.0
 10
267.2341
 20
-21.573
 30
0.0
 10
267.3093
 20
-21.3363
 30
0.0
 10
267.3093
 20
-21.3363
 30
0.0
 10
267.4379
 20
-20.9573
 30
0.0
 10
267.4956
 20
-20.5329
 30
0.0
 10
267.4867
 20
-20.0906
 30
0.0
 10
267.4867
 20
-20.0906
 30
0.0
 10
267.4881
 20
-19.9161
 30
0.0
 10
267.4503
 20
-19.7382
 30
0.0
 10
267.398
 20
-19.5612
 30
0.0
 10
267.398
 20
-19.5612
 30
0.0
 10
267.4128
 20
-18.7167
 30
0.0
 10
266.7219
 20
-17.88
 30
0.0
 10
266.0139
 20
-17.2445
 30
0.0
 10
266.0139
 20
-17.2445
 30
0.0
 10
265.1595
 20
-16.4323
 30
0.0
 10
263.44
 20
-15.1341
 30
0.0
 10
261.009
 20
-14.7666
 30
0.0
 10
261.009
 20
-14.7666
 30
0.0
 10
261.009
 20
-14.7666
 30
0.0
 10
260.6448
 20
-14.5772
 30
0.0
 10
260.6448
 20
-14.5772
 30
0.0
 10
260.6448
 20
-14.5772
 30
0.0
 10
260.6448
 20
-14.5772
 30
0.0
 10
259.4578
 20
-14.4541
 30
0.0
 10
259.4578
 20
-14.4541
 30
0.0
 10
259.4578
 20
-14.4541
 30
0.0
 10
257.2886
 20
-14.2127
 30
0.0
 10
255.5327
 20
-14.5309
 30
0.0
 10
253.5793
 20
-15.301
 30
0.0
 10
253.5793
 20
-15.301
 30
0.0
 10
253.5793
 20
-15.301
 30
0.0
 10
252.5446
 20
-15.7025
 30
0.0
 10
252.5446
 20
-15.7025
 30
0.0
 10
252.5446
 20
-15.7025
 30
0.0
 10
251.9876
 20
-16.1191
 30
0.0
 10
251.433
 20
-16.541
 30
0.0
 10
250.8721
 20
-16.9582
 30
0.0
 10
250.8721
 20
-16.9582
 30
0.0
 10
250.3837
 20
-17.3591
 30
0.0
 10
250.1348
 20
-17.833
 30
0.0
 10
249.6297
 20
-18.0311
 30
0.0
 10
249.6297
 20
-18.0311
 30
0.0
 10
249.6297
 20
-18.0311
 30
0.0
 10
248.1025
 20
-18.303
 30
0.0
 10
248.1025
 20
-18.303
 30
0.0
 10
248.1025
 20
-18.303
 30
0.0
 10
248.1025
 20
-18.303
 30
0.0
 10
247.23
 20
-19.5777
 30
0.0
 10
247.23
 20
-19.5777
 30
0.0
 10
247.23
 20
-19.5777
 30
0.0
 10
246.7732
 20
-20.968
 30
0.0
 10
246.5189
 20
-23.6008
 30
0.0
 10
246.8738
 20
-24.82
 30
0.0
 10
246.8738
 20
-24.82
 30
0.0
 10
246.9926
 20
-25.2537
 30
0.0
 10
248.4895
 20
-25.8797
 30
0.0
 10
248.817
 20
-26.3258
 30
0.0
 10
248.817
 20
-26.3258
 30
0.0
 10
249.3058
 20
-26.9904
 30
0.0
 10
249.4812
 20
-27.8234
 30
0.0
 10
249.8061
 20
-28.5181
 30
0.0
 10
249.8061
 20
-28.5181
 30
0.0
 10
250.2074
 20
-29.202
 30
0.0
 10
250.6019
 20
-29.8891
 30
0.0
 10
251.004
 20
-30.5749
 30
0.0
 10
251.004
 20
-30.5749
 30
0.0
 10
251.2718
 20
-30.8948
 30
0.0
 10
251.5384
 20
-31.2069
 30
0.0
 10
251.8051
 20
-31.5267
 30
0.0
 10
251.8051
 20
-31.5267
 30
0.0
 10
251.8051
 20
-31.5267
 30
0.0
 10
251.7861
 20
-32.6712
 30
0.0
 10
251.7861
 20
-32.6712
 30
0.0
 10
251.7861
 20
-32.6712
 30
0.0
 10
251.1626
 20
-32.9757
 30
0.0
 10
250.1617
 20
-33.2901
 30
0.0
 10
249.4758
 20
-33.1961
 30
0.0
 10
249.4758
 20
-33.1961
 30
0.0
 10
249.387
 20
-33.2175
 30
0.0
 10
249.2987
 20
-33.2354
 30
0.0
 10
249.2066
 20
-33.2542
 30
0.0
 10
249.2066
 20
-33.2542
 30
0.0
 10
249.07
 20
-32.7628
 30
0.0
 10
248.9255
 20
-32.2719
 30
0.0
 10
248.7843
 20
-31.7801
 30
0.0
 10
248.7843
 20
-31.7801
 30
0.0
 10
248.7843
 20
-31.7801
 30
0.0
 10
248.169
 20
-29.4868
 30
0.0
 10
248.169
 20
-29.4868
 30
0.0
 10
248.169
 20
-29.4868
 30
0.0
 10
248.169
 20
-29.4868
 30
0.0
 10
246.611
 20
-26.6914
 30
0.0
 10
246.611
 20
-26.6914
 30
0.0
 10
246.611
 20
-26.6914
 30
0.0
 10
245.8613
 20
-25.1919
 30
0.0
 10
244.947
 20
-23.6093
 30
0.0
 10
244.0183
 20
-22.1761
 30
0.0
 10
244.0183
 20
-22.1761
 30
0.0
 10
243.5972
 20
-21.5038
 30
0.0
 10
243.1831
 20
-20.831
 30
0.0
 10
242.7612
 20
-20.1571
 30
0.0
 10
242.7612
 20
-20.1571
 30
0.0
 10
242.7612
 20
-20.1571
 30
0.0
 10
241.538
 20
-16.848
 30
0.0
 10
241.538
 20
-16.848
 30
0.0
 10
241.538
 20
-16.848
 30
0.0
 10
240.3568
 20
-13.796
 30
0.0
 10
239.5202
 20
-10.5945
 30
0.0
 10
238.5441
 20
-7.4812
 30
0.0
 10
238.5441
 20
-7.4812
 30
0.0
 10
238.5441
 20
-7.4812
 30
0.0
 10
237.928
 20
-2.953
 30
0.0
 10
237.928
 20
-2.953
 30
0.0
 10
237.928
 20
-2.953
 30
0.0
 10
237.928
 20
-2.953
 30
0.0
 10
236.3563
 20
0.1186
 30
0.0
 10
236.3563
 20
0.1186
 30
0.0
 10
236.3563
 20
0.1186
 30
0.0
 10
236.3563
 20
0.1186
 30
0.0
 10
232.5888
 20
7.9505
 30
0.0
 10
232.5888
 20
7.9505
 30
0.0
 10
232.5888
 20
7.9505
 30
0.0
 10
232.0387
 20
9.4011
 30
0.0
 10
231.4822
 20
10.8563
 30
0.0
 10
230.928
 20
12.3062
 30
0.0
 10
230.928
 20
12.3062
 30
0.0
 10
230.928
 20
12.3062
 30
0.0
 10
230.9758
 20
12.3269
 30
0.0
 10
230.9758
 20
12.3269
 30
0.0
 10
230.9758
 20
12.3269
 30
0.0
 10
230.8706
 20
12.5451
 30
0.0
 10
230.775
 20
12.7601
 30
0.0
 10
230.6736
 20
12.9786
 30
0.0
 10
230.6736
 20
12.9786
 30
0.0
 10
230.6624
 20
13.0045
 30
0.0
 10
230.6555
 20
13.031
 30
0.0
 10
230.6415
 20
13.0598
 30
0.0
 10
230.6415
 20
13.0598
 30
0.0
 10
230.6415
 20
13.0598
 30
0.0
 10
230.6337
 20
13.0639
 30
0.0
 10
230.6337
 20
13.0639
 30
0.0
 10
230.6337
 20
13.0639
 30
0.0
 10
229.9824
 20
14.475
 30
0.0
 10
229.3599
 20
15.895
 30
0.0
 10
228.4474
 20
17.1127
 30
0.0
 10
228.4474
 20
17.1127
 30
0.0
 10
227.5252
 20
18.3514
 30
0.0
 10
226.0157
 20
19.1274
 30
0.0
 10
224.8434
 20
20.1356
 30
0.0
 10
224.8434
 20
20.1356
 30
0.0
 10
222.3412
 20
22.2818
 30
0.0
 10
219.7682
 20
24.3569
 30
0.0
 10
217.1469
 20
26.3935
 30
0.0
 10
217.1469
 20
26.3935
 30
0.0
 10
216.7847
 20
26.2275
 30
0.0
 10
216.6395
 20
25.5981
 30
0.0
 10
216.8484
 20
25.1558
 30
0.0
 10
216.8484
 20
25.1558
 30
0.0
 10
216.8484
 20
25.1558
 30
0.0
 10
218.2024
 20
23.5498
 30
0.0
 10
218.2024
 20
23.5498
 30
0.0
 10
218.2024
 20
23.5498
 30
0.0
 10
218.2024
 20
23.5498
 30
0.0
 10
218.2017
 20
23.4826
 30
0.0
 10
218.2017
 20
23.4826
 30
0.0
 10
218.2017
 20
23.4826
 30
0.0
 10
216.9452
 20
23.6415
 30
0.0
 10
216.159
 20
24.4443
 30
0.0
 10
215.1185
 20
24.7665
 30
0.0
 10
215.1185
 20
24.7665
 30
0.0
 10
215.0483
 20
24.702
 30
0.0
 10
214.9804
 20
24.632
 30
0.0
 10
214.9107
 20
24.5657
 30
0.0
 10
214.9107
 20
24.5657
 30
0.0
 10
214.9956
 20
23.3488
 30
0.0
 10
218.9217
 20
21.6645
 30
0.0
 10
220.3799
 20
21.5155
 30
0.0
 10
220.3799
 20
21.5155
 30
0.0
 10
220.6425
 20
20.7573
 30
0.0
 10
221.0866
 20
19.8283
 30
0.0
 10
221.3717
 20
18.948
 30
0.0
 10
221.3717
 20
18.948
 30
0.0
 10
220.2595
 20
19.0472
 30
0.0
 10
218.1463
 20
19.8645
 30
0.0
 10
217.5098
 20
18.7985
 30
0.0
 10
217.5098
 20
18.7985
 30
0.0
 10
217.375
 20
18.6405
 30
0.0
 10
217.3341
 20
18.4828
 30
0.0
 10
217.4314
 20
18.2498
 30
0.0
 10
217.4314
 20
18.2498
 30
0.0
 10
217.5269
 20
18.1197
 30
0.0
 10
217.4377
 20
18.2094
 30
0.0
 10
217.5661
 20
18.1084
 30
0.0
 10
217.5661
 20
18.1084
 30
0.0
 10
218.357
 20
17.5853
 30
0.0
 10
219.834
 20
17.9422
 30
0.0
 10
220.8661
 20
17.6425
 30
0.0
 10
220.8661
 20
17.6425
 30
0.0
 10
222.5624
 20
16.8837
 30
0.0
 10
224.2504
 20
16.1206
 30
0.0
 10
225.9384
 20
15.3598
 30
0.0
 10
225.9384
 20
15.3598
 30
0.0
 10
226.479
 20
13.8804
 30
0.0
 10
226.9991
 20
12.4101
 30
0.0
 10
227.5289
 20
10.9492
 30
0.0
 10
227.5289
 20
10.9492
 30
0.0
 10
227.7676
 20
10.0677
 30
0.0
 10
227.9533
 20
9.1894
 30
0.0
 10
228.1421
 20
8.2844
 30
0.0
 10
228.1421
 20
8.2844
 30
0.0
 10
228.551
 20
6.3265
 30
0.0
 10
229.0032
 20
4.3278
 30
0.0
 10
229.6176
 20
2.4176
 30
0.0
 10
229.6176
 20
2.4176
 30
0.0
 10
229.8979
 20
1.3002
 30
0.0
 10
230.175
 20
0.1773
 30
0.0
 10
230.4542
 20
-0.9419
 30
0.0
 10
230.4542
 20
-0.9419
 30
0.0
 10
230.4542
 20
-0.9419
 30
0.0
 10
232.893
 20
-6.2827
 30
0.0
 10
232.893
 20
-6.2827
 30
0.0
 10
232.893
 20
-6.2827
 30
0.0
 10
232.893
 20
-6.2827
 30
0.0
 10
233.5583
 20
-9.3797
 30
0.0
 10
233.5583
 20
-9.3797
 30
0.0
 10
233.5583
 20
-9.3797
 30
0.0
 10
234.0177
 20
-11.4675
 30
0.0
 10
234.4713
 20
-13.5508
 30
0.0
 10
234.9273
 20
-15.6383
 30
0.0
 10
234.9273
 20
-15.6383
 30
0.0
 10
234.9273
 20
-15.6383
 30
0.0
 10
235.6185
 20
-19.0561
 30
0.0
 10
235.6185
 20
-19.0561
 30
0.0
 10
235.6185
 20
-19.0561
 30
0.0
 10
235.6185
 20
-19.0561
 30
0.0
 10
237.8793
 20
-27.2502
 30
0.0
 10
237.8793
 20
-27.2502
 30
0.0
 10
237.8793
 20
-27.2502
 30
0.0
 10
238.0101
 20
-27.8508
 30
0.0
 10
238.1455
 20
-28.4531
 30
0.0
 10
238.2755
 20
-29.0556
 30
0.0
 10
238.2755
 20
-29.0556
 30
0.0
 10
238.2755
 20
-29.0556
 30
0.0
 10
239.2831
 20
-33.2225
 30
0.0
 10
239.2831
 20
-33.2225
 30
0.0
 10
239.2831
 20
-33.2225
 30
0.0
 10
239.1918
 20
-33.5612
 30
0.0
 10
239.0941
 20
-33.8933
 30
0.0
 10
239.0041
 20
-34.2314
 30
0.0
 10
239.0041
 20
-34.2314
 30
0.0
 10
238.7601
 20
-35.3693
 30
0.0
 10
238.3947
 20
-36.4566
 30
0.0
 10
237.9748
 20
-37.6824
 30
0.0
 10
237.9748
 20
-37.6824
 30
0.0
 10
237.9748
 20
-37.6824
 30
0.0
 10
236.6733
 20
-41.7241
 30
0.0
 10
236.6733
 20
-41.7241
 30
0.0
 10
236.6733
 20
-41.7241
 30
0.0
 10
236.2004
 20
-42.999
 30
0.0
 10
234.644
 20
-44.9185
 30
0.0
 10
233.8332
 20
-46.1093
 30
0.0
 10
233.8332
 20
-46.1093
 30
0.0
 10
233.8332
 20
-46.1093
 30
0.0
 10
231.6914
 20
-46.3223
 30
0.0
 10
231.6914
 20
-46.3223
 30
0.0
 10
231.6914
 20
-46.3223
 30
0.0
 10
231.6914
 20
-46.3223
 30
0.0
 10
226.477
 20
-42.8664
 30
0.0
 10
226.477
 20
-42.8664
 30
0.0
 10
226.477
 20
-42.8664
 30
0.0
 10
225.8105
 20
-42.2581
 30
0.0
 10
224.4366
 20
-41.4292
 30
0.0
 10
223.5864
 20
-41.0453
 30
0.0
 10
223.5864
 20
-41.0453
 30
0.0
 10
223.5864
 20
-41.0453
 30
0.0
 10
222.25
 20
-40.249
 30
0.0
 10
222.25
 20
-40.249
 30
0.0
 10
222.25
 20
-40.249
 30
0.0
 10
222.2279
 20
-40.2143
 30
0.0
 10
222.2004
 20
-40.182
 30
0.0
 10
222.175
 20
-40.1466
 30
0.0
 10
222.175
 20
-40.1466
 30
0.0
 10
221.7124
 20
-39.9589
 30
0.0
 10
221.283
 20
-39.6172
 30
0.0
 10
220.9697
 20
-39.0499
 30
0.0
 10
220.9697
 20
-39.0499
 30
0.0
 10
220.9697
 20
-39.0499
 30
0.0
 10
216.725
 20
-31.4287
 30
0.0
 10
216.725
 20
-31.4287
 30
0.0
 10
216.725
 20
-31.4287
 30
0.0
 10
216.4549
 20
-31.2288
 30
0.0
 10
216.167
 20
-30.9472
 30
0.0
 10
215.8257
 20
-30.4993
 30
0.0
 10
215.8257
 20
-30.4993
 30
0.0
 10
215.8257
 20
-30.4993
 30
0.0
 10
214.1585
 20
-25.5249
 30
0.0
 10
214.1585
 20
-25.5249
 30
0.0
 10
214.1585
 20
-25.5249
 30
0.0
 10
213.1642
 20
-22.824
 30
0.0
 10
211.5672
 20
-19.958
 30
0.0
 10
209.7946
 20
-18.0323
 30
0.0
 10
209.7946
 20
-18.0323
 30
0.0
 10
209.7946
 20
-18.0323
 30
0.0
 10
208.5882
 20
-17.1472
 30
0.0
 10
208.5882
 20
-17.1472
 30
0.0
 10
208.5882
 20
-17.1472
 30
0.0
 10
207.5313
 20
-15.9707
 30
0.0
 10
206.7747
 20
-13.9166
 30
0.0
 10
205.4643
 20
-13.6324
 30
0.0
 10
205.4643
 20
-13.6324
 30
0.0
 10
205.0364
 20
-13.922
 30
0.0
 10
204.9724
 20
-14.0455
 30
0.0
 10
204.479
 20
-14.3102
 30
0.0
 10
204.479
 20
-14.3102
 30
0.0
 10
204.479
 20
-14.3102
 30
0.0
 10
204.0139
 20
-13.596
 30
0.0
 10
204.0139
 20
-13.596
 30
0.0
 10
204.0139
 20
-13.596
 30
0.0
 10
204.0139
 20
-13.596
 30
0.0
 10
203.6849
 20
-13.5836
 30
0.0
 10
203.6849
 20
-13.5836
 30
0.0
 10
203.6849
 20
-13.5836
 30
0.0
 10
203.2999
 20
-13.5985
 30
0.0
 10
203.3316
 20
-14.0032
 30
0.0
 10
203.0792
 20
-14.2448
 30
0.0
 10
203.0792
 20
-14.2448
 30
0.0
 10
203.0792
 20
-14.2448
 30
0.0
 10
201.0226
 20
-15.3261
 30
0.0
 10
201.0226
 20
-15.3261
 30
0.0
 10
201.0226
 20
-15.3261
 30
0.0
 10
200.8447
 20
-15.9023
 30
0.0
 10
201.1125
 20
-16.6678
 30
0.0
 10
201.5604
 20
-17.3583
 30
0.0
 10
201.5604
 20
-17.3583
 30
0.0
 10
200.5874
 20
-16.2629
 30
0.0
 10
199.571
 20
-15.1729
 30
0.0
 10
198.5575
 20
-14.0677
 30
0.0
 10
198.5575
 20
-14.0677
 30
0.0
 10
197.8462
 20
-13.3419
 30
0.0
 10
197.1274
 20
-12.6114
 30
0.0
 10
196.407
 20
-11.8866
 30
0.0
 10
196.407
 20
-11.8866
 30
0.0
 10
195.2326
 20
-10.2655
 30
0.0
 10
194.06
 20
-8.6472
 30
0.0
 10
192.8837
 20
-7.0299
 30
0.0
 10
192.8837
 20
-7.0299
 30
0.0
 10
192.8837
 20
-7.0299
 30
0.0
 10
187.541
 20
-1.5971
 30
0.0
 10
187.541
 20
-1.5971
 30
0.0
 10
187.541
 20
-1.5971
 30
0.0
 10
187.541
 20
-1.5971
 30
0.0
 10
184.6521
 20
0.8739
 30
0.0
 10
184.6521
 20
0.8739
 30
0.0
 10
184.6521
 20
0.8739
 30
0.0
 10
184.6521
 20
0.8739
 30
0.0
 10
179.7638
 20
5.0035
 30
0.0
 10
179.7638
 20
5.0035
 30
0.0
 10
179.7638
 20
5.0035
 30
0.0
 10
177.4002
 20
7.348
 30
0.0
 10
175.1227
 20
9.9977
 30
0.0
 10
173.2641
 20
12.5496
 30
0.0
 10
173.2641
 20
12.5496
 30
0.0
 10
171.9551
 20
14.3391
 30
0.0
 10
171.6664
 20
16.3718
 30
0.0
 10
171.4648
 20
18.3939
 30
0.0
 10
171.4648
 20
18.3939
 30
0.0
 10
171.4648
 20
18.3939
 30
0.0
 10
171.0269
 20
20.4915
 30
0.0
 10
171.0269
 20
20.4915
 30
0.0
 10
171.0269
 20
20.4915
 30
0.0
 10
170.7765
 20
23.0668
 30
0.0
 10
169.1343
 20
27.7433
 30
0.0
 10
166.8295
 20
29.8377
 30
0.0
 10
166.8295
 20
29.8377
 30
0.0
 10
165.5318
 20
29.9906
 30
0.0
 10
164.6763
 20
29.664
 30
0.0
 10
163.5333
 20
29.1083
 30
0.0
 10
163.5333
 20
29.1083
 30
0.0
 10
162.6703
 20
27.5041
 30
0.0
 10
162.9936
 20
25.7629
 30
0.0
 10
163.042
 20
24.302
 30
0.0
 10
163.042
 20
24.302
 30
0.0
 10
163.0474
 20
23.8354
 30
0.0
 10
163.0486
 20
23.3733
 30
0.0
 10
163.0548
 20
22.9056
 30
0.0
 10
163.0548
 20
22.9056
 30
0.0
 10
163.3451
 20
22.2146
 30
0.0
 10
163.6331
 20
21.5217
 30
0.0
 10
163.9281
 20
20.8311
 30
0.0
 10
163.9281
 20
20.8311
 30
0.0
 10
164.3659
 20
19.4208
 30
0.0
 10
164.8076
 20
18.0159
 30
0.0
 10
165.243
 20
16.6105
 30
0.0
 10
165.243
 20
16.6105
 30
0.0
 10
165.6025
 20
15.5361
 30
0.0
 10
165.8166
 20
14.3945
 30
0.0
 10
166.478
 20
13.3724
 30
0.0
 10
166.478
 20
13.3724
 30
0.0
 10
168.2437
 20
10.6446
 30
0.0
 10
171.3762
 20
8.2271
 30
0.0
 10
173.1615
 20
5.5185
 30
0.0
 10
173.1615
 20
5.5185
 30
0.0
 10
173.1615
 20
5.5185
 30
0.0
 10
175.2986
 20
0.8409
 30
0.0
 10
175.2986
 20
0.8409
 30
0.0
 10
175.2986
 20
0.8409
 30
0.0
 10
176.5326
 20
-1.8209
 30
0.0
 10
177.9718
 20
-4.3386
 30
0.0
 10
179.4546
 20
-6.9342
 30
0.0
 10
179.4546
 20
-6.9342
 30
0.0
 10
179.4546
 20
-6.9342
 30
0.0
 10
181.0391
 20
-9.7499
 30
0.0
 10
181.0391
 20
-9.7499
 30
0.0
 10
181.0391
 20
-9.7499
 30
0.0
 10
181.7765
 20
-10.8306
 30
0.0
 10
182.7921
 20
-11.7211
 30
0.0
 10
183.7374
 20
-12.7526
 30
0.0
 10
183.7374
 20
-12.7526
 30
0.0
 10
185.0574
 20
-14.1937
 30
0.0
 10
186.355
 20
-15.6664
 30
0.0
 10
187.3998
 20
-17.1554
 30
0.0
 10
187.3998
 20
-17.1554
 30
0.0
 10
187.3998
 20
-17.1554
 30
0.0
 10
189.7925
 20
-21.8488
 30
0.0
 10
189.7925
 20
-21.8488
 30
0.0
 10
189.7925
 20
-21.8488
 30
0.0
 10
191.6648
 20
-24.3667
 30
0.0
 10
193.54
 20
-26.8778
 30
0.0
 10
195.4136
 20
-29.3912
 30
0.0
 10
195.4136
 20
-29.3912
 30
0.0
 10
195.9337
 20
-30.4
 30
0.0
 10
196.4515
 20
-31.4108
 30
0.0
 10
196.9725
 20
-32.4182
 30
0.0
 10
196.9725
 20
-32.4182
 30
0.0
 10
197.4656
 20
-33.2361
 30
0.0
 10
197.9584
 20
-34.0533
 30
0.0
 10
198.4464
 20
-34.8703
 30
0.0
 10
198.4464
 20
-34.8703
 30
0.0
 10
197.8063
 20
-35.6031
 30
0.0
 10
197.0436
 20
-36.3044
 30
0.0
 10
196.6602
 20
-37.0826
 30
0.0
 10
196.6602
 20
-37.0826
 30
0.0
 10
196.1175
 20
-38.1725
 30
0.0
 10
196.2025
 20
-39.6387
 30
0.0
 10
195.3932
 20
-40.6414
 30
0.0
 10
195.3932
 20
-40.6414
 30
0.0
 10
195.6192
 20
-41.2457
 30
0.0
 10
196.0845
 20
-41.2996
 30
0.0
 10
196.2003
 20
-41.6193
 30
0.0
 10
196.2003
 20
-41.6193
 30
0.0
 10
196.2003
 20
-41.6193
 30
0.0
 10
196.1392
 20
-42.5601
 30
0.0
 10
196.1392
 20
-42.5601
 30
0.0
 10
196.1392
 20
-42.5601
 30
0.0
 10
196.1392
 20
-42.5601
 30
0.0
 10
198.1064
 20
-43.409
 30
0.0
 10
198.1064
 20
-43.409
 30
0.0
 10
198.1064
 20
-43.409
 30
0.0
 10
198.1898
 20
-43.8811
 30
0.0
 10
198.085
 20
-44.5979
 30
0.0
 10
198.4341
 20
-45.0459
 30
0.0
 10
198.4341
 20
-45.0459
 30
0.0
 10
198.4341
 20
-45.0459
 30
0.0
 10
199.0406
 20
-45.5531
 30
0.0
 10
199.0406
 20
-45.5531
 30
0.0
 10
199.0406
 20
-45.5531
 30
0.0
 10
199.0406
 20
-45.5531
 30
0.0
 10
199.7178
 20
-47.7013
 30
0.0
 10
199.7178
 20
-47.7013
 30
0.0
 10
199.7178
 20
-47.7013
 30
0.0
 10
199.59
 20
-47.84
 30
0.0
 10
199.457
 20
-47.9744
 30
0.0
 10
199.3288
 20
-48.1108
 30
0.0
 10
199.3288
 20
-48.1108
 30
0.0
 10
201.3645
 20
-51.0183
 30
0.0
 10
203.0149
 20
-54.1106
 30
0.0
 10
204.5465
 20
-57.2699
 30
0.0
 10
204.5465
 20
-57.2699
 30
0.0
 10
204.5465
 20
-57.2699
 30
0.0
 10
204.1212
 20
-57.9664
 30
0.0
 10
204.1212
 20
-57.9664
 30
0.0
 10
204.1212
 20
-57.9664
 30
0.0
 10
203.335
 20
-59.7028
 30
0.0
 10
202.5404
 20
-61.3227
 30
0.0
 10
201.8152
 20
-63.0086
 30
0.0
 10
201.8152
 20
-63.0086
 30
0.0
 10
200.0597
 20
-65.765
 30
0.0
 10
198.3056
 20
-68.5217
 30
0.0
 10
196.5488
 20
-71.274
 30
0.0
 10
196.5488
 20
-71.274
 30
0.0
 10
194.0799
 20
-75.6852
 30
0.0
 10
191.6089
 20
-80.0936
 30
0.0
 10
189.146
 20
-84.5033
 30
0.0
 10
189.146
 20
-84.5033
 30
0.0
 10
189.146
 20
-84.5033
 30
0.0
 10
186.4899
 20
-87.0767
 30
0.0
 10
186.4899
 20
-87.0767
 30
0.0
 10
186.4899
 20
-87.0767
 30
0.0
 10
185.5394
 20
-88.3327
 30
0.0
 10
184.5891
 20
-89.5832
 30
0.0
 10
183.6433
 20
-90.839
 30
0.0
 10
183.6433
 20
-90.839
 30
0.0
 10
183.6433
 20
-90.839
 30
0.0
 10
182.1752
 20
-93.0773
 30
0.0
 10
182.1752
 20
-93.0773
 30
0.0
 10
182.1752
 20
-93.0773
 30
0.0
 10
181.3531
 20
-94.2861
 30
0.0
 10
180.5312
 20
-95.4938
 30
0.0
 10
179.7123
 20
-96.7079
 30
0.0
 10
179.7123
 20
-96.7079
 30
0.0
 10
177.6743
 20
-101.7898
 30
0.0
 10
176.843
 20
-106.7708
 30
0.0
 10
175.6097
 20
-111.7862
 30
0.0
 10
175.6097
 20
-111.7862
 30
0.0
 10
175.2261
 20
-113.1927
 30
0.0
 10
174.8414
 20
-114.5991
 30
0.0
 10
174.4613
 20
-116.0054
 30
0.0
 10
174.4613
 20
-116.0054
 30
0.0
 10
173.5547
 20
-118.3253
 30
0.0
 10
171.1662
 20
-117.8695
 30
0.0
 10
169.8269
 20
-118.4827
 30
0.0
 10
169.8269
 20
-118.4827
 30
0.0
 10
169.6554
 20
-118.5457
 30
0.0
 10
169.4828
 20
-118.6152
 30
0.0
 10
169.3121
 20
-118.6849
 30
0.0
 10
169.3121
 20
-118.6849
 30
0.0
 10
168.6494
 20
-119.2917
 30
0.0
 10
168.6463
 20
-121.9284
 30
0.0
 10
168.814
 20
-122.4446
 30
0.0
 10
168.814
 20
-122.4446
 30
0.0
 10
168.814
 20
-122.4446
 30
0.0
 10
169.3239
 20
-124.1267
 30
0.0
 10
169.3239
 20
-124.1267
 30
0.0
 10
169.3239
 20
-124.1267
 30
0.0
 10
169.3649
 20
-125.0897
 30
0.0
 10
169.0159
 20
-125.8049
 30
0.0
 10
168.5784
 20
-126.9172
 30
0.0
 10
168.5784
 20
-126.9172
 30
0.0
 10
168.5784
 20
-126.9172
 30
0.0
 10
168.1628
 20
-127.8375
 30
0.0
 10
168.1628
 20
-127.8375
 30
0.0
 10
168.1628
 20
-127.8375
 30
0.0
 10
167.3389
 20
-128.7567
 30
0.0
 10
166.2182
 20
-129.7983
 30
0.0
 10
165.3443
 20
-130.9117
 30
0.0
 10
165.3443
 20
-130.9117
 30
0.0
 10
165.3443
 20
-130.9117
 30
0.0
 10
163.699
 20
-133.4203
 30
0.0
 10
163.699
 20
-133.4203
 30
0.0
 10
163.699
 20
-133.4203
 30
0.0
 10
163.699
 20
-133.4203
 30
0.0
 10
168.1864
 20
-136.3635
 30
0.0
 10
168.1864
 20
-136.3635
 30
0.0
 10
168.1864
 20
-136.3635
 30
0.0
 10
168.1864
 20
-136.3635
 30
0.0
 10
169.8317
 20
-133.8549
 30
0.0
 10
169.8317
 20
-133.8549
 30
0.0
 10
169.8317
 20
-133.8549
 30
0.0
 10
171.5087
 20
-132.7189
 30
0.0
 10
173.1866
 20
-131.2042
 30
0.0
 10
174.6761
 20
-129.7202
 30
0.0
  0
SPLINE
  5
76
330
1F
100
AcDbEntity
  8
Layer 1
 62
   250
370
    20
100
AcDbSpline
210
0.0
220
0.0
230
1.0
 70
    11
 71
     3
 72
    20
 73
    16
 74
     0
 42
0.000000001
 43
0.0000000001
 40
0.0
 40
0.0
 40
0.0
 40
0.0
 40
0.2
 40
0.2
 40
0.2
 40
0.2
 40
0.4
 40
0.4
 40
0.4
 40
0.4
 40
0.6
 40
0.6
 40
0.6
 40
0.6
 40
1.0
 40
1.0
 40
1.0
 40
1.0
 10
-65.5511
 20
-47.8184
 30
0.0
 10
-40.8852
 20
-47.8184
 30
0.0
 10
-20.8895
 20
-60.5171
 30
0.0
 10
-20.8895
 20
-76.1817
 30
0.0
 10
-20.8895
 20
-76.1817
 30
0.0
 10
-20.8895
 20
-91.8463
 30
0.0
 10
-40.8852
 20
-104.545
 30
0.0
 10
-65.5511
 20
-104.545
 30
0.0
 10
-65.5511
 20
-104.545
 30
0.0
 10
-90.217
 20
-104.545
 30
0.0
 10
-110.2127
 20
-91.8463
 30
0.0
 10
-110.2127
 20
-76.1817
 30
0.0
 10
-110.2127
 20
-76.1817
 30
0.0
 10
-110.2127
 20
-60.5171
 30
0.0
 10
-90.217
 20
-47.8184
 30
0.0
 10
-65.5511
 20
-47.8184
 30
0.0
  0
SPLINE
  5
77
330
1F
100
AcDbEntity
  8
Layer 1
 62
   250
370
    20
100
AcDbSpline
210
0.0
220
0.0
230
1.0
 70
    11
 71
     3
 72
    20
 73
    16
 74
     0
 42
0.000000001
 43
0.0000000001
 40
0.0
 40
0.0
 40
0.0
 40
0.0
 40
0.2
 40
0.2
 40
0.2
 40
0.2
 40
0.4
 40
0.4
 40
0.4
 40
0.4
 40
0.6
 40
0.6
 40
0.6
 40
0.6
 40
1.0
 40
1.0
 40
1.0
 40
1.0
 10
-68.2343
 20
-74.6817
 30
0.0
 10
-68.2343
 20
-74.6817
 30
0.0
 10
-62.8678
 20
-74.6817
 30
0.0
 10
-62.8678
 20
-74.6817
 30
0.0
 10
-62.8678
 20
-74.6817
 30
0.0
 10
-62.8678
 20
-74.6817
 30
0.0
 10
-62.8678
 20
-77.6817
 30
0.0
 10
-62.8678
 20
-77.6817
 30
0.0
 10
-62.8678
 20
-77.6817
 30
0.0
 10
-62.8678
 20
-77.6817
 30
0.0
 10
-68.2343
 20
-77.6817
 30
0.0
 10
-68.2343
 20
-77.6817
 30
0.0
 10
-68.2343
 20
-77.6817
 30
0.0
 10
-68.2343
 20
-77.6817
 30
0.0
 10
-68.2343
 20
-74.6817
 30
0.0
 10
-68.2343
 20
-74.6817
 30
0.0
  0
SPLINE
  5
78
330
1F
100
AcDbEntity
  8
Layer 1
 62
   250
370
    20
100
AcDbSpline
210
0.0
220
0.0
230
1.0
 70
    11
 71
     3
 72
    20
 73
    16
 74
     0
 42
0.000000001
 43
0.0000000001
 40
0.0
 40
0.0
 40
0.0
 40
0.0
 40
0.2
 40
0.2
 40
0.2
 40
0.2
 40
0.4
 40
0.4
 40
0.4
 40
0.4
 40
0.6
 40
0.6
 40
0.6
 40
0.6
 40
1.0
 40
1.0
 40
1.0
 40
1.0
 10
-116.5011
 20
-140.0
 30
0.0
 10
-116.5011
 20
-140.0
 30
0.0
 10
-116.5011
 20
26.0
 30
0.0
 10
-116.5011
 20
26.0
 30
0.0
 10
-116.5011
 20
26.0
 30
0.0
 10
-116.5011
 20
26.0
 30
0.0
 10
4.4989
 20
26.0
 30
0.0
 10
4.4989
 20
26.0
 30
0.0
 10
4.4989
 20
26.0
 30
0.0
 10
4.4989
 20
26.0
 30
0.0
 10
4.4989
 20
-140.0
 30
0.0
 10
4.4989
 20
-140.0
 30
0.0
 10
4.4989
 20
-140.0
 30
0.0
 10
4.4989
 20
-140.0
 30
0.0
 10
-116.5011
 20
-140.0
 30
0.0
 10
-116.5011
 20
-140.0
 30
0.0
  0
SPLINE
  5
79
330
1F
100
AcDbEntity
  8
Layer 1
 62
   250
370
    20
100
AcDbSpline
210
0.0
220
0.0
230
1.0
 70
    11
 71
     3
 72
    20
 73
    16
 74
     0
 42
0.000000001
 43
0.0000000001
 40
0.0
 40
0.0
 40
0.0
 40
0.0
 40
0.2
 40
0.2
 40
0.2
 40
0.2
 40
0.4
 40
0.4
 40
0.4
 40
0.4
 40
0.6
 40
0.6
 40
0.6
 40
0.6
 40
1.0
 40
1.0
 40
1.0
 40
1.0
 10
14.4989
 20
36.0
 30
0.0
 10
14.4989
 20
36.0
 30
0.0
 10
-126.5011
 20
36.0
 30
0.0
 10
-126.5011
 20
36.0
 30
0.0
 10
-126.5011
 20
36.0
 30
0.0
 10
-126.5011
 20
36.0
 30
0.0
 10
-126.5011
 20
-150.0
 30
0.0
 10
-126.5011
 20
-150.0
 30
0.0
 10
-126.5011
 20
-150.0
 30
0.0
 10
-126.5011
 20
-150.0
 30
0.0
 10
14.4989
 20
-150.0
 30
0.0
 10
14.4989
 20
-150.0
 30
0.0
 10
14.4989
 20
-150.0
 30
0.0
 10
14.4989
 20
-150.0
 30
0.0
 10
14.4989
 20
36.0
 30
0.0
 10
14.4989
 20
36.0
 30
0.0
  0
SPLINE
  5
7A
330
1F
100
AcDbEntity
  8
Layer 1
 62
   250
370
    20
100
AcDbSpline
210
0.0
220
0.0
230
1.0
 70
    11
 71
     3
 72
    68
 73
    64
 74
     0
 42
0.000000001
 43
0.0000000001
 40
0.0
 40
0.0
 40
0.0
 40
0.0
 40
0.0588235294117647
 40
0.0588235294117647
 40
0.0588235294117647
 40
0.0588235294117647
 40
0.1176470588235294
 40
0.1176470588235294
 40
0.1176470588235294
 40
0.1176470588235294
 40
0.1764705882352941
 40
0.1764705882352941
 40
0.1764705882352941
 40
0.1764705882352941
 40
0.2352941176470588
 40
0.2352941176470588
 40
0.2352941176470588
 40
0.2352941176470588
 40
0.2941176470588235
 40
0.2941176470588235
 40
0.2941176470588235
 40
0.2941176470588235
 40
0.3529411764705883
 40
0.3529411764705883
 40
0.3529411764705883
 40
0.3529411764705883
 40
0.4117647058823529
 40
0.4117647058823529
 40
0.4117647058823529
 40
0.4117647058823529
 40
0.4705882352941176
 40
0.4705882352941176
 40
0.4705882352941176
 40
0.4705882352941176
 40
0.5294117647058824
 40
0.5294117647058824
 40
0.5294117647058824
 40
0.5294117647058824
 40
0.5882352941176471
 40
0.5882352941176471
 40
0.5882352941176471
 40
0.5882352941176471
 40
0.6470588235294118
 40
0.6470588235294118
 40
0.6470588235294118
 40
0.6470588235294118
 40
0.7058823529411765
 40
0.7058823529411765
 40
0.7058823529411765
 40
0.7058823529411765
 40
0.7647058823529411
 40
0.7647058823529411
 40
0.7647058823529411
 40
0.7647058823529411
 40
0.8235294117647058
 40
0.8235294117647058
 40
0.8235294117647058
 40
0.8235294117647058
 40
0.8823529411764706
 40
0.8823529411764706
 40
0.8823529411764706
 40
0.8823529411764706
 40
1.0
 40
1.0
 40
1.0
 40
1.0
 10
53.4989
 20
117.0
 30
0.0
 10
53.4989
 20
117.0
 30
0.0
 10
53.4989
 20
39.0
 30
0.0
 10
53.4989
 20
39.0
 30
0.0
 10
53.4989
 20
39.0
 30
0.0
 10
53.4989
 20
39.0
 30
0.0
 10
33.4989
 20
39.0
 30
0.0
 10
33.4989
 20
39.0
 30
0.0
 10
33.4989
 20
39.0
 30
0.0
 10
33.4989
 20
39.0
 30
0.0
 10
33.4989
 20
42.0
 30
0.0
 10
33.4989
 20
42.0
 30
0.0
 10
33.4989
 20
42.0
 30
0.0
 10
33.4989
 20
42.0
 30
0.0
 10
0.1656
 20
42.0
 30
0.0
 10
0.1656
 20
42.0
 30
0.0
 10
0.1656
 20
42.0
 30
0.0
 10
0.1656
 20
42.0
 30
0.0
 10
0.1656
 20
39.0
 30
0.0
 10
0.1656
 20
39.0
 30
0.0
 10
0.1656
 20
39.0
 30
0.0
 10
0.1656
 20
39.0
 30
0.0
 10
-19.8344
 20
39.0
 30
0.0
 10
-19.8344
 20
39.0
 30
0.0
 10
-19.8344
 20
39.0
 30
0.0
 10
-19.8344
 20
39.0
 30
0.0
 10
-19.8344
 20
42.0
 30
0.0
 10
-19.8344
 20
42.0
 30
0.0
 10
-19.8344
 20
42.0
 30
0.0
 10
-19.8344
 20
42.0
 30
0.0
 10
-53.1678
 20
42.0
 30
0.0
 10
-53.1678
 20
42.0
 30
0.0
 10
-53.1678
 20
42.0
 30
0.0
 10
-53.1678
 20
42.0
 30
0.0
 10
-53.1678
 20
39.0
 30
0.0
 10
-53.1678
 20
39.0
 30
0.0
 10
-53.1678
 20
39.0
 30
0.0
 10
-53.1678
 20
39.0
 30
0.0
 10
-73.1678
 20
39.0
 30
0.0
 10
-73.1678
 20
39.0
 30
0.0
 10
-73.1678
 20
39.0
 30
0.0
 10
-73.1678
 20
39.0
 30
0.0
 10
-73.1678
 20
42.0
 30
0.0
 10
-73.1678
 20
42.0
 30
0.0
 10
-73.1678
 20
42.0
 30
0.0
 10
-73.1678
 20
42.0
 30
0.0
 10
-106.5011
 20
42.0
 30
0.0
 10
-106.5011
 20
42.0
 30
0.0
 10
-106.5011
 20
42.0
 30
0.0
 10
-106.5011
 20
42.0
 30
0.0
 10
-106.5011
 20
39.0
 30
0.0
 10
-106.5011
 20
39.0
 30
0.0
 10
-106.5011
 20
39.0
 30
0.0
 10
-106.5011
 20
39.0
 30
0.0
 10
-126.5011
 20
39.0
 30
0.0
 10
-126.5011
 20
39.0
 30
0.0
 10
-126.5011
 20
39.0
 30
0.0
 10
-126.5011
 20
39.0
 30
0.0
 10
-126.5011
 20
117.0
 30
0.0
 10
-126.5011
 20
117.0
 30
0.0
 10
-126.5011
 20
117.0
 30
0.0
 10
-71.1307
 20
150.3333
 30
0.0
 10
-1.8715
 20
150.3333
 30
0.0
 10
53.4989
 20
117.0
 30
0.0
  0
SPLINE
  5
7B
330
1F
100
AcDbEntity
  8
Layer 1
 62
   250
370
    20
100
AcDbSpline
210
0.0
220
0.0
230
1.0
 70
    11
 71
     3
 72
    20
 73
    16
 74
     0
 42
0.000000001
 43
0.0000000001
 40
0.0
 40
0.0
 40
0.0
 40
0.0
 40
0.2
 40
0.2
 40
0.2
 40
0.2
 40
0.4
 40
0.4
 40
0.4
 40
0.4
 40
0.6
 40
0.6
 40
0.6
 40
0.6
 40
1.0
 40
1.0
 40
1.0
 40
1.0
 10
27.2873
 20
125.8526
 30
0.0
 10
27.2873
 20
125.8526
 30
0.0
 10
26.0452
 20
123.1218
 30
0.0
 10
26.0452
 20
123.1218
 30
0.0
 10
26.0452
 20
123.1218
 30
0.0
 10
26.0452
 20
123.1218
 30
0.0
 10
39.6991
 20
116.9112
 30
0.0
 10
39.6991
 20
116.9112
 30
0.0
 10
39.6991
 20
116.9112
 30
0.0
 10
39.6991
 20
116.9112
 30
0.0
 10
40.9412
 20
119.642
 30
0.0
 10
40.9412
 20
119.642
 30
0.0
 10
40.9412
 20
119.642
 30
0.0
 10
40.9412
 20
119.642
 30
0.0
 10
27.2873
 20
125.8526
 30
0.0
 10
27.2873
 20
125.8526
 30
0.0
  0
SPLINE
  5
7C
330
1F
100
AcDbEntity
  8
Layer 1
 62
   250
370
    20
100
AcDbSpline
210
0.0
220
0.0
230
1.0
 70
    11
 71
     3
 72
    20
 73
    16
 74
     0
 42
0.000000001
 43
0.0000000001
 40
0.0
 40
0.0
 40
0.0
 40
0.0
 40
0.2
 40
0.2
 40
0.2
 40
0.2
 40
0.4
 40
0.4
 40
0.4
 40
0.4
 40
0.6
 40
0.6
 40
0.6
 40
0.6
 40
1.0
 40
1.0
 40
1.0
 40
1.0
 10
-8.3389
 20
132.8393
 30
0.0
 10
-8.3389
 20
132.8393
 30
0.0
 10
6.3207
 20
129.6619
 30
0.0
 10
6.3207
 20
129.6619
 30
0.0
 10
6.3207
 20
129.6619
 30
0.0
 10
6.3207
 20
129.6619
 30
0.0
 10
6.9562
 20
132.5938
 30
0.0
 10
6.9562
 20
132.5938
 30
0.0
 10
6.9562
 20
132.5938
 30
0.0
 10
6.9562
 20
132.5938
 30
0.0
 10
-7.7034
 20
135.7712
 30
0.0
 10
-7.7034
 20
135.7712
 30
0.0
 10
-7.7034
 20
135.7712
 30
0.0
 10
-7.7034
 20
135.7712
 30
0.0
 10
-8.3389
 20
132.8393
 30
0.0
 10
-8.3389
 20
132.8393
 30
0.0
  0
SPLINE
  5
7D
330
1F
100
AcDbEntity
  8
Layer 1
 62
   250
370
    20
100
AcDbSpline
210
0.0
220
0.0
230
1.0
 70
    11
 71
     3
 72
    20
 73
    16
 74
     0
 42
0.000000001
 43
0.0000000001
 40
0.0
 40
0.0
 40
0.0
 40
0.0
 40
0.2
 40
0.2
 40
0.2
 40
0.2
 40
0.4
 40
0.4
 40
0.4
 40
0.4
 40
0.6
 40
0.6
 40
0.6
 40
0.6
 40
1.0
 40
1.0
 40
1.0
 40
1.0
 10
-44.0011
 20
135.0528
 30
0.0
 10
-44.0011
 20
135.0528
 30
0.0
 10
-29.0011
 20
135.0528
 30
0.0
 10
-29.0011
 20
135.0528
 30
0.0
 10
-29.0011
 20
135.0528
 30
0.0
 10
-29.0011
 20
135.0528
 30
0.0
 10
-29.0011
 20
138.0528
 30
0.0
 10
-29.0011
 20
138.0528
 30
0.0
 10
-29.0011
 20
138.0528
 30
0.0
 10
-29.0011
 20
138.0528
 30
0.0
 10
-44.0011
 20
138.0528
 30
0.0
 10
-44.0011
 20
138.0528
 30
0.0
 10
-44.0011
 20
138.0528
 30
0.0
 10
-44.0011
 20
138.0528
 30
0.0
 10
-44.0011
 20
135.0528
 30
0.0
 10
-44.0011
 20
135.0528
 30
0.0
  0
SPLINE
  5
7E
330
1F
100
AcDbEntity
  8
Layer 1
 62
   250
370
    20
100
AcDbSpline
210
0.0
220
0.0
230
1.0
 70
    11
 71
     3
 72
    20
 73
    16
 74
     0
 42
0.000000001
 43
0.0000000001
 40
0.0
 40
0.0
 40
0.0
 40
0.0
 40
0.2
 40
0.2
 40
0.2
 40
0.2
 40
0.4
 40
0.4
 40
0.4
 40
0.4
 40
0.6
 40
0.6
 40
0.6
 40
0.6
 40
1.0
 40
1.0
 40
1.0
 40
1.0
 10
-79.3229
 20
129.6619
 30
0.0
 10
-79.3229
 20
129.6619
 30
0.0
 10
-64.6633
 20
132.8393
 30
0.0
 10
-64.6633
 20
132.8393
 30
0.0
 10
-64.6633
 20
132.8393
 30
0.0
 10
-64.6633
 20
132.8393
 30
0.0
 10
-65.2988
 20
135.7712
 30
0.0
 10
-65.2988
 20
135.7712
 30
0.0
 10
-65.2988
 20
135.7712
 30
0.0
 10
-65.2988
 20
135.7712
 30
0.0
 10
-79.9584
 20
132.5938
 30
0.0
 10
-79.9584
 20
132.5938
 30
0.0
 10
-79.9584
 20
132.5938
 30
0.0
 10
-79.9584
 20
132.5938
 30
0.0
 10
-79.3229
 20
129.6619
 30
0.0
 10
-79.3229
 20
129.6619
 30
0.0
  0
SPLINE
  5
7F
330
1F
100
AcDbEntity
  8
Layer 1
 62
   250
370
    20
100
AcDbSpline
210
0.0
220
0.0
230
1.0
 70
    11
 71
     3
 72
    20
 73
    16
 74
     0
 42
0.000000001
 43
0.0000000001
 40
0.0
 40
0.0
 40
0.0
 40
0.0
 40
0.2
 40
0.2
 40
0.2
 40
0.2
 40
0.4
 40
0.4
 40
0.4
 40
0.4
 40
0.6
 40
0.6
 40
0.6
 40
0.6
 40
1.0
 40
1.0
 40
1.0
 40
1.0
 10
-112.7013
 20
116.9112
 30
0.0
 10
-112.7013
 20
116.9112
 30
0.0
 10
-99.0474
 20
123.1218
 30
0.0
 10
-99.0474
 20
123.1218
 30
0.0
 10
-99.0474
 20
123.1218
 30
0.0
 10
-99.0474
 20
123.1218
 30
0.0
 10
-100.2895
 20
125.8526
 30
0.0
 10
-100.2895
 20
125.8526
 30
0.0
 10
-100.2895
 20
125.8526
 30
0.0
 10
-100.2895
 20
125.8526
 30
0.0
 10
-113.9434
 20
119.642
 30
0.0
 10
-113.9434
 20
119.642
 30
0.0
 10
-113.9434
 20
119.642
 30
0.0
 10
-113.9434
 20
119.642
 30
0.0
 10
-112.7013
 20
116.9112
 30
0.0
 10
-112.7013
 20
116.9112
 30
0.0
  0
SPLINE
  5
80
330
1F
100
AcDbEntity
  8
Layer 1
 62
   250
370
    20
100
AcDbSpline
210
0.0
220
0.0
230
1.0
 70
    11
 71
     3
 72
    20
 73
    16
 74
     0
 42
0.000000001
 43
0.0000000001
 40
0.0
 40
0.0
 40
0.0
 40
0.0
 40
0.2
 40
0.2
 40
0.2
 40
0.2
 40
0.4
 40
0.4
 40
0.4
 40
0.4
 40
0.6
 40
0.6
 40
0.6
 40
0.6
 40
1.0
 40
1.0
 40
1.0
 40
1.0
 10
-120.5011
 20
65.6441
 30
0.0
 10
-120.5011
 20
65.6441
 30
0.0
 10
-120.5011
 20
85.6441
 30
0.0
 10
-120.5011
 20
85.6441
 30
0.0
 10
-120.5011
 20
85.6441
 30
0.0
 10
-120.5011
 20
85.6441
 30
0.0
 10
-123.5011
 20
85.6441
 30
0.0
 10
-123.5011
 20
85.6441
 30
0.0
 10
-123.5011
 20
85.6441
 30
0.0
 10
-123.5011
 20
85.6441
 30
0.0
 10
-123.5011
 20
65.6441
 30
0.0
 10
-123.5011
 20
65.6441
 30
0.0
 10
-123.5011
 20
65.6441
 30
0.0
 10
-123.5011
 20
65.6441
 30
0.0
 10
-120.5011
 20
65.6441
 30
0.0
 10
-120.5011
 20
65.6441
 30
0.0
  0
SPLINE
  5
81
330
1F
100
AcDbEntity
  8
Layer 1
 62
   250
370
    20
100
AcDbSpline
210
0.0
220
0.0
230
1.0
 70
    11
 71
     3
 72
    20
 73
    16
 74
     0
 42
0.000000001
 43
0.0000000001
 40
0.0
 40
0.0
 40
0.0
 40
0.0
 40
0.2
 40
0.2
 40
0.2
 40
0.2
 40
0.4
 40
0.4
 40
0.4
 40
0.4
 40
0.6
 40
0.6
 40
0.6
 40
0.6
 40
1.0
 40
1.0
 40
1.0
 40
1.0
 10
50.4989
 20
85.6441
 30
0.0
 10
50.4989
 20
85.6441
 30
0.0
 10
47.4989
 20
85.6441
 30
0.0
 10
47.4989
 20
85.6441
 30
0.0
 10
47.4989
 20
85.6441
 30
0.0
 10
47.4989
 20
85.6441
 30
0.0
 10
47.4989
 20
65.6441
 30
0.0
 10
47.4989
 20
65.6441
 30
0.0
 10
47.4989
 20
65.6441
 30
0.0
 10
47.4989
 20
65.6441
 30
0.0
 10
50.4989
 20
65.6441
 30
0.0
 10
50.4989
 20
65.6441
 30
0.0
 10
50.4989
 20
65.6441
 30
0.0
 10
50.4989
 20
65.6441
 30
0.0
 10
50.4989
 20
85.6441
 30
0.0
 10
50.4989
 20
85.6441
 30
0.0
  0
SPLINE
  5
82
330
1F
100
AcDbEntity
  8
Layer 1
 62
   250
370
    20
100
AcDbSpline
210
0.0
220
0.0
230
1.0
 70
    11
 71
     3
 72
    52
 73
    48
 74
     0
 42
0.000000001
 43
0.0000000001
 40
0.0
 40
0.0
 40
0.0
 40
0.0
 40
0.0769230769230769
 40
0.0769230769230769
 40
0.0769230769230769
 40
0.0769230769230769
 40
0.1538461538461539
 40
0.1538461538461539
 40
0.1538461538461539
 40
0.1538461538461539
 40
0.2307692307692308
 40
0.2307692307692308
 40
0.2307692307692308
 40
0.2307692307692308
 40
0.3076923076923077
 40
0.3076923076923077
 40
0.3076923076923077
 40
0.3076923076923077
 40
0.3846153846153846
 40
0.3846153846153846
 40
0.3846153846153846
 40
0.3846153846153846
 40
0.4615384615384616
 40
0.4615384615384616
 40
0.4615384615384616
 40
0.4615384615384616
 40
0.5384615384615384
 40
0.5384615384615384
 40
0.5384615384615384
 40
0.5384615384615384
 40
0.6153846153846154
 40
0.6153846153846154
 40
0.6153846153846154
 40
0.6153846153846154
 40
0.6923076923076923
 40
0.6923076923076923
 40
0.6923076923076923
 40
0.6923076923076923
 40
0.7692307692307693
 40
0.7692307692307693
 40
0.7692307692307693
 40
0.7692307692307693
 40
0.8461538461538461
 40
0.8461538461538461
 40
0.8461538461538461
 40
0.8461538461538461
 40
1.0
 40
1.0
 40
1.0
 40
1.0
 10
-212.0011
 20
6.4362
 30
0.0
 10
-212.0011
 20
6.4362
 30
0.0
 10
-212.0011
 20
33.356
 30
0.0
 10
-212.0011
 20
33.356
 30
0.0
 10
-212.0011
 20
33.356
 30
0.0
 10
-212.0011
 20
33.356
 30
0.0
 10
-209.0011
 20
33.356
 30
0.0
 10
-209.0011
 20
33.356
 30
0.0
 10
-209.0011
 20
33.356
 30
0.0
 10
-209.0011
 20
33.356
 30
0.0
 10
-209.0011
 20
53.356
 30
0.0
 10
-209.0011
 20
53.356
 30
0.0
 10
-209.0011
 20
53.356
 30
0.0
 10
-209.0011
 20
53.356
 30
0.0
 10
-212.0011
 20
53.356
 30
0.0
 10
-212.0011
 20
53.356
 30
0.0
 10
-212.0011
 20
53.356
 30
0.0
 10
-212.0011
 20
53.356
 30
0.0
 10
-212.0011
 20
77.0
 30
0.0
 10
-212.0011
 20
77.0
 30
0.0
 10
-212.0011
 20
77.0
 30
0.0
 10
-212.0011
 20
77.0
 30
0.0
 10
-271.0011
 20
77.0
 30
0.0
 10
-271.0011
 20
77.0
 30
0.0
 10
-271.0011
 20
77.0
 30
0.0
 10
-271.0011
 20
77.0
 30
0.0
 10
-271.0011
 20
53.356
 30
0.0
 10
-271.0011
 20
53.356
 30
0.0
 10
-271.0011
 20
53.356
 30
0.0
 10
-271.0011
 20
53.356
 30
0.0
 10
-274.0011
 20
53.356
 30
0.0
 10
-274.0011
 20
53.356
 30
0.0
 10
-274.0011
 20
53.356
 30
0.0
 10
-274.0011
 20
53.356
 30
0.0
 10
-274.0011
 20
33.356
 30
0.0
 10
-274.0011
 20
33.356
 30
0.0
 10
-274.0011
 20
33.356
 30
0.0
 10
-274.0011
 20
33.356
 30
0.0
 10
-271.0011
 20
33.356
 30
0.0
 10
-271.0011
 20
33.356
 30
0.0
 10
-271.0011
 20
33.356
 30
0.0
 10
-271.0011
 20
33.356
 30
0.0
 10
-271.0011
 20
6.4362
 30
0.0
 10
-271.0011
 20
6.4362
 30
0.0
 10
-271.0011
 20
6.4362
 30
0.0
 10
-271.0011
 20
6.4362
 30
0.0
 10
-212.0011
 20
6.4362
 30
0.0
 10
-212.0011
 20
6.4362
 30
0.0
  0
SPLINE
  5
83
330
1F
100
AcDbEntity
  8
Layer 1
 62
   250
370
    20
100
AcDbSpline
210
0.0
220
0.0
230
1.0
 70
    11
 71
     3
 72
    52
 73
    48
 74
     0
 42
0.000000001
 43
0.0000000001
 40
0.0
 40
0.0
 40
0.0
 40
0.0
 40
0.0769230769230769
 40
0.0769230769230769
 40
0.0769230769230769
 40
0.0769230769230769
 40
0.1538461538461539
 40
0.1538461538461539
 40
0.1538461538461539
 40
0.1538461538461539
 40
0.2307692307692308
 40
0.2307692307692308
 40
0.2307692307692308
 40
0.2307692307692308
 40
0.3076923076923077
 40
0.3076923076923077
 40
0.3076923076923077
 40
0.3076923076923077
 40
0.3846153846153846
 40
0.3846153846153846
 40
0.3846153846153846
 40
0.3846153846153846
 40
0.4615384615384616
 40
0.4615384615384616
 40
0.4615384615384616
 40
0.4615384615384616
 40
0.5384615384615384
 40
0.5384615384615384
 40
0.5384615384615384
 40
0.5384615384615384
 40
0.6153846153846154
 40
0.6153846153846154
 40
0.6153846153846154
 40
0.6153846153846154
 40
0.6923076923076923
 40
0.6923076923076923
 40
0.6923076923076923
 40
0.6923076923076923
 40
0.7692307692307693
 40
0.7692307692307693
 40
0.7692307692307693
 40
0.7692307692307693
 40
0.8461538461538461
 40
0.8461538461538461
 40
0.8461538461538461
 40
0.8461538461538461
 40
1.0
 40
1.0
 40
1.0
 40
1.0
 10
-88.0011
 20
23.0001
 30
0.0
 10
-88.0011
 20
23.0001
 30
0.0
 10
-103.0011
 20
23.0
 30
0.0
 10
-103.0011
 20
23.0
 30
0.0
 10
-103.0011
 20
23.0
 30
0.0
 10
-103.0011
 20
23.0
 30
0.0
 10
-103.0011
 20
20.0
 30
0.0
 10
-103.0011
 20
20.0
 30
0.0
 10
-103.0011
 20
20.0
 30
0.0
 10
-103.0011
 20
20.0
 30
0.0
 10
-113.5011
 20
20.0
 30
0.0
 10
-113.5011
 20
20.0
 30
0.0
 10
-113.5011
 20
20.0
 30
0.0
 10
-113.5011
 20
20.0
 30
0.0
 10
-113.5011
 20
-39.0
 30
0.0
 10
-113.5011
 20
-39.0
 30
0.0
 10
-113.5011
 20
-39.0
 30
0.0
 10
-113.5011
 20
-39.0
 30
0.0
 10
-103.0011
 20
-39.0
 30
0.0
 10
-103.0011
 20
-39.0
 30
0.0
 10
-103.0011
 20
-39.0
 30
0.0
 10
-103.0011
 20
-39.0
 30
0.0
 10
-103.0011
 20
-42.0
 30
0.0
 10
-103.0011
 20
-42.0
 30
0.0
 10
-103.0011
 20
-42.0
 30
0.0
 10
-103.0011
 20
-42.0
 30
0.0
 10
-88.0011
 20
-41.9999
 30
0.0
 10
-88.0011
 20
-41.9999
 30
0.0
 10
-88.0011
 20
-41.9999
 30
0.0
 10
-88.0011
 20
-41.9999
 30
0.0
 10
-88.0011
 20
-38.9999
 30
0.0
 10
-88.0011
 20
-38.9999
 30
0.0
 10
-88.0011
 20
-38.9999
 30
0.0
 10
-88.0011
 20
-38.9999
 30
0.0
 10
-77.501
 20
-38.9999
 30
0.0
 10
-77.501
 20
-38.9999
 30
0.0
 10
-77.501
 20
-38.9999
 30
0.0
 10
-77.501
 20
-38.9999
 30
0.0
 10
-77.5011
 20
20.0001
 30
0.0
 10
-77.5011
 20
20.0001
 30
0.0
 10
-77.5011
 20
20.0001
 30
0.0
 10
-77.5011
 20
20.0001
 30
0.0
 10
-88.0011
 20
20.0001
 30
0.0
 10
-88.0011
 20
20.0001
 30
0.0
 10
-88.0011
 20
20.0001
 30
0.0
 10
-88.0011
 20
20.0001
 30
0.0
 10
-88.0011
 20
23.0001
 30
0.0
 10
-88.0011
 20
23.0001
 30
0.0
  0
SPLINE
  5
84
330
1F
100
AcDbEntity
  8
Layer 1
 62
   250
370
    20
100
AcDbSpline
210
0.0
220
0.0
230
1.0
 70
    11
 71
     3
 72
   116
 73
   112
 74
     0
 42
0.000000001
 43
0.0000000001
 40
0.0
 40
0.0
 40
0.0
 40
0.0
 40
0.0344827586206897
 40
0.0344827586206897
 40
0.0344827586206897
 40
0.0344827586206897
 40
0.0689655172413793
 40
0.0689655172413793
 40
0.0689655172413793
 40
0.0689655172413793
 40
0.103448275862069
 40
0.103448275862069
 40
0.103448275862069
 40
0.103448275862069
 40
0.1379310344827586
 40
0.1379310344827586
 40
0.1379310344827586
 40
0.1379310344827586
 40
0.1724137931034483
 40
0.1724137931034483
 40
0.1724137931034483
 40
0.1724137931034483
 40
0.2068965517241379
 40
0.2068965517241379
 40
0.2068965517241379
 40
0.2068965517241379
 40
0.2413793103448276
 40
0.2413793103448276
 40
0.2413793103448276
 40
0.2413793103448276
 40
0.2758620689655172
 40
0.2758620689655172
 40
0.2758620689655172
 40
0.2758620689655172
 40
0.3103448275862069
 40
0.3103448275862069
 40
0.3103448275862069
 40
0.3103448275862069
 40
0.3448275862068966
 40
0.3448275862068966
 40
0.3448275862068966
 40
0.3448275862068966
 40
0.3793103448275862
 40
0.3793103448275862
 40
0.3793103448275862
 40
0.3793103448275862
 40
0.4137931034482759
 40
0.4137931034482759
 40
0.4137931034482759
 40
0.4137931034482759
 40
0.4482758620689655
 40
0.4482758620689655
 40
0.4482758620689655
 40
0.4482758620689655
 40
0.4827586206896552
 40
0.4827586206896552
 40
0.4827586206896552
 40
0.4827586206896552
 40
0.5172413793103449
 40
0.5172413793103449
 40
0.5172413793103449
 40
0.5172413793103449
 40
0.5517241379310345
 40
0.5517241379310345
 40
0.5517241379310345
 40
0.5517241379310345
 40
0.5862068965517241
 40
0.5862068965517241
 40
0.5862068965517241
 40
0.5862068965517241
 40
0.6206896551724138
 40
0.6206896551724138
 40
0.6206896551724138
 40
0.6206896551724138
 40
0.6551724137931034
 40
0.6551724137931034
 40
0.6551724137931034
 40
0.6551724137931034
 40
0.6896551724137931
 40
0.6896551724137931
 40
0.6896551724137931
 40
0.6896551724137931
 40
0.7241379310344828
 40
0.7241379310344828
 40
0.7241379310344828
 40
0.7241379310344828
 40
0.7586206896551724
 40
0.7586206896551724
 40
0.7586206896551724
 40
0.7586206896551724
 40
0.7931034482758621
 40
0.7931034482758621
 40
0.7931034482758621
 40
0.7931034482758621
 40
0.8275862068965517
 40
0.8275862068965517
 40
0.8275862068965517
 40
0.8275862068965517
 40
0.8620689655172413
 40
0.8620689655172413
 40
0.8620689655172413
 40
0.8620689655172413
 40
0.896551724137931
 40
0.896551724137931
 40
0.896551724137931
 40
0.896551724137931
 40
0.9310344827586207
 40
0.9310344827586207
 40
0.9310344827586207
 40
0.9310344827586207
 40
1.0
 40
1.0
 40
1.0
 40
1.0
 10
-129.5011
 20
-147.0
 30
0.0
 10
-129.5011
 20
-147.0
 30
0.0
 10
-129.5011
 20
-88.0
 30
0.0
 10
-129.5011
 20
-88.0
 30
0.0
 10
-129.5011
 20
-88.0
 30
0.0
 10
-129.5011
 20
-88.0
 30
0.0
 10
-149.5011
 20
-88.0
 30
0.0
 10
-149.5011
 20
-88.0
 30
0.0
 10
-149.5011
 20
-88.0
 30
0.0
 10
-149.5011
 20
-88.0
 30
0.0
 10
-149.5011
 20
-85.0
 30
0.0
 10
-149.5011
 20
-85.0
 30
0.0
 10
-149.5011
 20
-85.0
 30
0.0
 10
-149.5011
 20
-85.0
 30
0.0
 10
-129.5011
 20
-85.0
 30
0.0
 10
-129.5011
 20
-85.0
 30
0.0
 10
-129.5011
 20
-85.0
 30
0.0
 10
-129.5011
 20
-85.0
 30
0.0
 10
-129.5011
 20
109.9851
 30
0.0
 10
-129.5011
 20
109.9851
 30
0.0
 10
-129.5011
 20
109.9851
 30
0.0
 10
-129.5011
 20
117.0475
 30
0.0
 10
-134.4276
 20
123.1533
 30
0.0
 10
-141.3304
 20
124.6461
 30
0.0
 10
-141.3304
 20
124.6461
 30
0.0
 10
-150.3062
 20
126.5873
 30
0.0
 10
-158.8808
 20
130.0594
 30
0.0
 10
-166.6783
 20
134.9103
 30
0.0
 10
-166.6783
 20
134.9103
 30
0.0
 10
-199.0197
 20
155.0299
 30
0.0
 10
-239.9825
 20
155.0299
 30
0.0
 10
-272.3239
 20
134.9103
 30
0.0
 10
-272.3239
 20
134.9103
 30
0.0
 10
-280.1214
 20
130.0594
 30
0.0
 10
-288.696
 20
126.5873
 30
0.0
 10
-297.6718
 20
124.6461
 30
0.0
 10
-297.6718
 20
124.6461
 30
0.0
 10
-304.5746
 20
123.1533
 30
0.0
 10
-309.5011
 20
117.0475
 30
0.0
 10
-309.5011
 20
109.9851
 30
0.0
 10
-309.5011
 20
109.9851
 30
0.0
 10
-309.5011
 20
109.9851
 30
0.0
 10
-309.5011
 20
-85.0
 30
0.0
 10
-309.5011
 20
-85.0
 30
0.0
 10
-309.5011
 20
-85.0
 30
0.0
 10
-309.5011
 20
-85.0
 30
0.0
 10
-289.5011
 20
-85.0
 30
0.0
 10
-289.5011
 20
-85.0
 30
0.0
 10
-289.5011
 20
-85.0
 30
0.0
 10
-289.5011
 20
-85.0
 30
0.0
 10
-289.5011
 20
-88.0
 30
0.0
 10
-289.5011
 20
-88.0
 30
0.0
 10
-289.5011
 20
-88.0
 30
0.0
 10
-289.5011
 20
-88.0
 30
0.0
 10
-309.5011
 20
-88.0
 30
0.0
 10
-309.5011
 20
-88.0
 30
0.0
 10
-309.5011
 20
-88.0
 30
0.0
 10
-309.5011
 20
-88.0
 30
0.0
 10
-309.5011
 20
-147.0
 30
0.0
 10
-309.5011
 20
-147.0
 30
0.0
 10
-309.5011
 20
-147.0
 30
0.0
 10
-309.5011
 20
-147.0
 30
0.0
 10
-289.5011
 20
-147.0
 30
0.0
 10
-289.5011
 20
-147.0
 30
0.0
 10
-289.5011
 20
-147.0
 30
0.0
 10
-289.5011
 20
-147.0
 30
0.0
 10
-289.5011
 20
-150.0
 30
0.0
 10
-289.5011
 20
-150.0
 30
0.0
 10
-289.5011
 20
-150.0
 30
0.0
 10
-289.5011
 20
-150.0
 30
0.0
 10
-256.1678
 20
-150.0
 30
0.0
 10
-256.1678
 20
-150.0
 30
0.0
 10
-256.1678
 20
-150.0
 30
0.0
 10
-256.1678
 20
-150.0
 30
0.0
 10
-256.1678
 20
-147.0
 30
0.0
 10
-256.1678
 20
-147.0
 30
0.0
 10
-256.1678
 20
-147.0
 30
0.0
 10
-256.1678
 20
-147.0
 30
0.0
 10
-236.1678
 20
-147.0
 30
0.0
 10
-236.1678
 20
-147.0
 30
0.0
 10
-236.1678
 20
-147.0
 30
0.0
 10
-236.1678
 20
-147.0
 30
0.0
 10
-236.1678
 20
-150.0
 30
0.0
 10
-236.1678
 20
-150.0
 30
0.0
 10
-236.1678
 20
-150.0
 30
0.0
 10
-236.1678
 20
-150.0
 30
0.0
 10
-202.8344
 20
-150.0
 30
0.0
 10
-202.8344
 20
-150.0
 30
0.0
 10
-202.8344
 20
-150.0
 30
0.0
 10
-202.8344
 20
-150.0
 30
0.0
 10
-202.8344
 20
-147.0
 30
0.0
 10
-202.8344
 20
-147.0
 30
0.0
 10
-202.8344
 20
-147.0
 30
0.0
 10
-202.8344
 20
-147.0
 30
0.0
 10
-182.8344
 20
-147.0
 30
0.0
 10
-182.8344
 20
-147.0
 30
0.0
 10
-182.8344
 20
-147.0
 30
0.0
 10
-182.8344
 20
-147.0
 30
0.0
 10
-182.8344
 20
-150.0
 30
0.0
 10
-182.8344
 20
-150.0
 30
0.0
 10
-182.8344
 20
-150.0
 30
0.0
 10
-182.8344
 20
-150.0
 30
0.0
 10
-149.5011
 20
-150.0
 30
0.0
 10
-149.5011
 20
-150.0
 30
0.0
 10
-149.5011
 20
-150.0
 30
0.0
 10
-149.5011
 20
-150.0
 30
0.0
 10
-149.5011
 20
-147.0
 30
0.0
 10
-149.5011
 20
-147.0
 30
0.0
 10
-149.5011
 20
-147.0
 30
0.0
 10
-149.5011
 20
-147.0
 30
0.0
 10
-129.5011
 20
-147.0
 30
0.0
 10
-129.5011
 20
-147.0
 30
0.0
  0
SPLINE
  5
85
330
1F
100
AcDbEntity
  8
Layer 1
 62
   250
370
    20
100
AcDbSpline
210
0.0
220
0.0
230
1.0
 70
    11
 71
     3
 72
    20
 73
    16
 74
     0
 42
0.000000001
 43
0.0000000001
 40
0.0
 40
0.0
 40
0.0
 40
0.0
 40
0.2
 40
0.2
 40
0.2
 40
0.2
 40
0.4
 40
0.4
 40
0.4
 40
0.4
 40
0.6
 40
0.6
 40
0.6
 40
0.6
 40
1.0
 40
1.0
 40
1.0
 40
1.0
 10
-202.8344
 20
-88.0
 30
0.0
 10
-202.8344
 20
-88.0
 30
0.0
 10
-202.8344
 20
-85.0
 30
0.0
 10
-202.8344
 20
-85.0
 30
0.0
 10
-202.8344
 20
-85.0
 30
0.0
 10
-202.8344
 20
-85.0
 30
0.0
 10
-182.8344
 20
-85.0
 30
0.0
 10
-182.8344
 20
-85.0
 30
0.0
 10
-182.8344
 20
-85.0
 30
0.0
 10
-182.8344
 20
-85.0
 30
0.0
 10
-182.8344
 20
-88.0
 30
0.0
 10
-182.8344
 20
-88.0
 30
0.0
 10
-182.8344
 20
-88.0
 30
0.0
 10
-182.8344
 20
-88.0
 30
0.0
 10
-202.8344
 20
-88.0
 30
0.0
 10
-202.8344
 20
-88.0
 30
0.0
  0
SPLINE
  5
86
330
1F
100
AcDbEntity
  8
Layer 1
 62
   250
370
    20
100
AcDbSpline
210
0.0
220
0.0
230
1.0
 70
    11
 71
     3
 72
    20
 73
    16
 74
     0
 42
0.000000001
 43
0.0000000001
 40
0.0
 40
0.0
 40
0.0
 40
0.0
 40
0.2
 40
0.2
 40
0.2
 40
0.2
 40
0.4
 40
0.4
 40
0.4
 40
0.4
 40
0.6
 40
0.6
 40
0.6
 40
0.6
 40
1.0
 40
1.0
 40
1.0
 40
1.0
 10
-162.0011
 20
-80.0
 30
0.0
 10
-162.0011
 20
-80.0
 30
0.0
 10
-277.0011
 20
-80.0
 30
0.0
 10
-277.0011
 20
-80.0
 30
0.0
 10
-277.0011
 20
-80.0
 30
0.0
 10
-277.0011
 20
-80.0
 30
0.0
 10
-277.0011
 20
80.0
 30
0.0
 10
-277.0011
 20
80.0
 30
0.0
 10
-277.0011
 20
80.0
 30
0.0
 10
-277.0011
 20
80.0
 30
0.0
 10
-162.0011
 20
80.0
 30
0.0
 10
-162.0011
 20
80.0
 30
0.0
 10
-162.0011
 20
80.0
 30
0.0
 10
-162.0011
 20
80.0
 30
0.0
 10
-162.0011
 20
-80.0
 30
0.0
 10
-162.0011
 20
-80.0
 30
0.0
  0
SPLINE
  5
87
330
1F
100
AcDbEntity
  8
Layer 1
 62
   250
370
    20
100
AcDbSpline
210
0.0
220
0.0
230
1.0
 70
    11
 71
     3
 72
    20
 73
    16
 74
     0
 42
0.000000001
 43
0.0000000001
 40
0.0
 40
0.0
 40
0.0
 40
0.0
 40
0.2
 40
0.2
 40
0.2
 40
0.2
 40
0.4
 40
0.4
 40
0.4
 40
0.4
 40
0.6
 40
0.6
 40
0.6
 40
0.6
 40
1.0
 40
1.0
 40
1.0
 40
1.0
 10
-236.1678
 20
-88.0
 30
0.0
 10
-236.1678
 20
-88.0
 30
0.0
 10
-256.1678
 20
-88.0
 30
0.0
 10
-256.1678
 20
-88.0
 30
0.0
 10
-256.1678
 20
-88.0
 30
0.0
 10
-256.1678
 20
-88.0
 30
0.0
 10
-256.1678
 20
-85.0
 30
0.0
 10
-256.1678
 20
-85.0
 30
0.0
 10
-256.1678
 20
-85.0
 30
0.0
 10
-256.1678
 20
-85.0
 30
0.0
 10
-236.1678
 20
-85.0
 30
0.0
 10
-236.1678
 20
-85.0
 30
0.0
 10
-236.1678
 20
-85.0
 30
0.0
 10
-236.1678
 20
-85.0
 30
0.0
 10
-236.1678
 20
-88.0
 30
0.0
 10
-236.1678
 20
-88.0
 30
0.0
  0
SPLINE
  5
88
330
1F
100
AcDbEntity
  8
Layer 1
 62
   250
370
    20
100
AcDbSpline
210
0.0
220
0.0
230
1.0
 70
    11
 71
     3
 72
    20
 73
    16
 74
     0
 42
0.000000001
 43
0.0000000001
 40
0.0
 40
0.0
 40
0.0
 40
0.0
 40
0.2
 40
0.2
 40
0.2
 40
0.2
 40
0.4
 40
0.4
 40
0.4
 40
0.4
 40
0.6
 40
0.6
 40
0.6
 40
0.6
 40
1.0
 40
1.0
 40
1.0
 40
1.0
 10
158.4989
 20
36.0
 30
0.0
 10
158.4989
 20
36.0
 30
0.0
 10
17.4989
 20
36.0
 30
0.0
 10
17.4989
 20
36.0
 30
0.0
 10
17.4989
 20
36.0
 30
0.0
 10
17.4989
 20
36.0
 30
0.0
 10
17.4989
 20
-150.0
 30
0.0
 10
17.4989
 20
-150.0
 30
0.0
 10
17.4989
 20
-150.0
 30
0.0
 10
17.4989
 20
-150.0
 30
0.0
 10
158.4989
 20
-150.0
 30
0.0
 10
158.4989
 20
-150.0
 30
0.0
 10
158.4989
 20
-150.0
 30
0.0
 10
158.4989
 20
-150.0
 30
0.0
 10
158.4989
 20
36.0
 30
0.0
 10
158.4989
 20
36.0
 30
0.0
  0
SPLINE
  5
89
330
1F
100
AcDbEntity
  8
Layer 1
 62
   250
370
    20
100
AcDbSpline
210
0.0
220
0.0
230
1.0
 70
    11
 71
     3
 72
    52
 73
    48
 74
     0
 42
0.000000001
 43
0.0000000001
 40
0.0
 40
0.0
 40
0.0
 40
0.0
 40
0.0769230769230769
 40
0.0769230769230769
 40
0.0769230769230769
 40
0.0769230769230769
 40
0.1538461538461539
 40
0.1538461538461539
 40
0.1538461538461539
 40
0.1538461538461539
 40
0.2307692307692308
 40
0.2307692307692308
 40
0.2307692307692308
 40
0.2307692307692308
 40
0.3076923076923077
 40
0.3076923076923077
 40
0.3076923076923077
 40
0.3076923076923077
 40
0.3846153846153846
 40
0.3846153846153846
 40
0.3846153846153846
 40
0.3846153846153846
 40
0.4615384615384616
 40
0.4615384615384616
 40
0.4615384615384616
 40
0.4615384615384616
 40
0.5384615384615384
 40
0.5384615384615384
 40
0.5384615384615384
 40
0.5384615384615384
 40
0.6153846153846154
 40
0.6153846153846154
 40
0.6153846153846154
 40
0.6153846153846154
 40
0.6923076923076923
 40
0.6923076923076923
 40
0.6923076923076923
 40
0.6923076923076923
 40
0.7692307692307693
 40
0.7692307692307693
 40
0.7692307692307693
 40
0.7692307692307693
 40
0.8461538461538461
 40
0.8461538461538461
 40
0.8461538461538461
 40
0.8461538461538461
 40
1.0
 40
1.0
 40
1.0
 40
1.0
 10
-49.001
 20
23.0001
 30
0.0
 10
-49.001
 20
23.0001
 30
0.0
 10
-64.001
 20
23.0
 30
0.0
 10
-64.001
 20
23.0
 30
0.0
 10
-64.001
 20
23.0
 30
0.0
 10
-64.001
 20
23.0
 30
0.0
 10
-64.001
 20
20.0
 30
0.0
 10
-64.001
 20
20.0
 30
0.0
 10
-64.001
 20
20.0
 30
0.0
 10
-64.001
 20
20.0
 30
0.0
 10
-74.501
 20
20.0
 30
0.0
 10
-74.501
 20
20.0
 30
0.0
 10
-74.501
 20
20.0
 30
0.0
 10
-74.501
 20
20.0
 30
0.0
 10
-74.501
 20
-39.0
 30
0.0
 10
-74.501
 20
-39.0
 30
0.0
 10
-74.501
 20
-39.0
 30
0.0
 10
-74.501
 20
-39.0
 30
0.0
 10
-64.001
 20
-39.0
 30
0.0
 10
-64.001
 20
-39.0
 30
0.0
 10
-64.001
 20
-39.0
 30
0.0
 10
-64.001
 20
-39.0
 30
0.0
 10
-64.001
 20
-42.0
 30
0.0
 10
-64.001
 20
-42.0
 30
0.0
 10
-64.001
 20
-42.0
 30
0.0
 10
-64.001
 20
-42.0
 30
0.0
 10
-49.001
 20
-41.9999
 30
0.0
 10
-49.001
 20
-41.9999
 30
0.0
 10
-49.001
 20
-41.9999
 30
0.0
 10
-49.001
 20
-41.9999
 30
0.0
 10
-49.001
 20
-38.9999
 30
0.0
 10
-49.001
 20
-38.9999
 30
0.0
 10
-49.001
 20
-38.9999
 30
0.0
 10
-49.001
 20
-38.9999
 30
0.0
 10
-38.5009
 20
-38.9999
 30
0.0
 10
-38.5009
 20
-38.9999
 30
0.0
 10
-38.5009
 20
-38.9999
 30
0.0
 10
-38.5009
 20
-38.9999
 30
0.0
 10
-38.501
 20
20.0001
 30
0.0
 10
-38.501
 20
20.0001
 30
0.0
 10
-38.501
 20
20.0001
 30
0.0
 10
-38.501
 20
20.0001
 30
0.0
 10
-49.001
 20
20.0001
 30
0.0
 10
-49.001
 20
20.0001
 30
0.0
 10
-49.001
 20
20.0001
 30
0.0
 10
-49.001
 20
20.0001
 30
0.0
 10
-49.001
 20
23.0001
 30
0.0
 10
-49.001
 20
23.0001
 30
0.0
  0
SPLINE
  5
8A
330
1F
100
AcDbEntity
  8
Layer 1
 62
   250
370
    20
100
AcDbSpline
210
0.0
220
0.0
230
1.0
 70
    11
 71
     3
 72
    52
 73
    48
 74
     0
 42
0.000000001
 43
0.0000000001
 40
0.0
 40
0.0
 40
0.0
 40
0.0
 40
0.0769230769230769
 40
0.0769230769230769
 40
0.0769230769230769
 40
0.0769230769230769
 40
0.1538461538461539
 40
0.1538461538461539
 40
0.1538461538461539
 40
0.1538461538461539
 40
0.2307692307692308
 40
0.2307692307692308
 40
0.2307692307692308
 40
0.2307692307692308
 40
0.3076923076923077
 40
0.3076923076923077
 40
0.3076923076923077
 40
0.3076923076923077
 40
0.3846153846153846
 40
0.3846153846153846
 40
0.3846153846153846
 40
0.3846153846153846
 40
0.4615384615384616
 40
0.4615384615384616
 40
0.4615384615384616
 40
0.4615384615384616
 40
0.5384615384615384
 40
0.5384615384615384
 40
0.5384615384615384
 40
0.5384615384615384
 40
0.6153846153846154
 40
0.6153846153846154
 40
0.6153846153846154
 40
0.6153846153846154
 40
0.6923076923076923
 40
0.6923076923076923
 40
0.6923076923076923
 40
0.6923076923076923
 40
0.7692307692307693
 40
0.7692307692307693
 40
0.7692307692307693
 40
0.7692307692307693
 40
0.8461538461538461
 40
0.8461538461538461
 40
0.8461538461538461
 40
0.8461538461538461
 40
1.0
 40
1.0
 40
1.0
 40
1.0
 10
-10.0009
 20
23.0001
 30
0.0
 10
-10.0009
 20
23.0001
 30
0.0
 10
-25.0009
 20
23.0
 30
0.0
 10
-25.0009
 20
23.0
 30
0.0
 10
-25.0009
 20
23.0
 30
0.0
 10
-25.0009
 20
23.0
 30
0.0
 10
-25.0009
 20
20.0
 30
0.0
 10
-25.0009
 20
20.0
 30
0.0
 10
-25.0009
 20
20.0
 30
0.0
 10
-25.0009
 20
20.0
 30
0.0
 10
-35.5009
 20
20.0
 30
0.0
 10
-35.5009
 20
20.0
 30
0.0
 10
-35.5009
 20
20.0
 30
0.0
 10
-35.5009
 20
20.0
 30
0.0
 10
-35.5009
 20
-39.0
 30
0.0
 10
-35.5009
 20
-39.0
 30
0.0
 10
-35.5009
 20
-39.0
 30
0.0
 10
-35.5009
 20
-39.0
 30
0.0
 10
-25.0009
 20
-39.0
 30
0.0
 10
-25.0009
 20
-39.0
 30
0.0
 10
-25.0009
 20
-39.0
 30
0.0
 10
-25.0009
 20
-39.0
 30
0.0
 10
-25.0009
 20
-42.0
 30
0.0
 10
-25.0009
 20
-42.0
 30
0.0
 10
-25.0009
 20
-42.0
 30
0.0
 10
-25.0009
 20
-42.0
 30
0.0
 10
-10.0009
 20
-41.9999
 30
0.0
 10
-10.0009
 20
-41.9999
 30
0.0
 10
-10.0009
 20
-41.9999
 30
0.0
 10
-10.0009
 20
-41.9999
 30
0.0
 10
-10.0009
 20
-38.9999
 30
0.0
 10
-10.0009
 20
-38.9999
 30
0.0
 10
-10.0009
 20
-38.9999
 30
0.0
 10
-10.0009
 20
-38.9999
 30
0.0
 10
0.4992
 20
-38.9999
 30
0.0
 10
0.4992
 20
-38.9999
 30
0.0
 10
0.4992
 20
-38.9999
 30
0.0
 10
0.4992
 20
-38.9999
 30
0.0
 10
0.4991
 20
20.0001
 30
0.0
 10
0.4991
 20
20.0001
 30
0.0
 10
0.4991
 20
20.0001
 30
0.0
 10
0.4991
 20
20.0001
 30
0.0
 10
-10.0009
 20
20.0001
 30
0.0
 10
-10.0009
 20
20.0001
 30
0.0
 10
-10.0009
 20
20.0001
 30
0.0
 10
-10.0009
 20
20.0001
 30
0.0
 10
-10.0009
 20
23.0001
 30
0.0
 10
-10.0009
 20
23.0001
 30
0.0
  0
SPLINE
  5
8B
330
1F
100
AcDbEntity
  8
Layer 1
 62
   250
370
    20
100
AcDbSpline
210
0.0
220
0.0
230
1.0
 70
    11
 71
     3
 72
    52
 73
    48
 74
     0
 42
0.000000001
 43
0.0000000001
 40
0.0
 40
0.0
 40
0.0
 40
0.0
 40
0.0769230769230769
 40
0.0769230769230769
 40
0.0769230769230769
 40
0.0769230769230769
 40
0.1538461538461539
 40
0.1538461538461539
 40
0.1538461538461539
 40
0.1538461538461539
 40
0.2307692307692308
 40
0.2307692307692308
 40
0.2307692307692308
 40
0.2307692307692308
 40
0.3076923076923077
 40
0.3076923076923077
 40
0.3076923076923077
 40
0.3076923076923077
 40
0.3846153846153846
 40
0.3846153846153846
 40
0.3846153846153846
 40
0.3846153846153846
 40
0.4615384615384616
 40
0.4615384615384616
 40
0.4615384615384616
 40
0.4615384615384616
 40
0.5384615384615384
 40
0.5384615384615384
 40
0.5384615384615384
 40
0.5384615384615384
 40
0.6153846153846154
 40
0.6153846153846154
 40
0.6153846153846154
 40
0.6153846153846154
 40
0.6923076923076923
 40
0.6923076923076923
 40
0.6923076923076923
 40
0.6923076923076923
 40
0.7692307692307693
 40
0.7692307692307693
 40
0.7692307692307693
 40
0.7692307692307693
 40
0.8461538461538461
 40
0.8461538461538461
 40
0.8461538461538461
 40
0.8461538461538461
 40
1.0
 40
1.0
 40
1.0
 40
1.0
 10
-178.5944
 20
-61.3168
 30
0.0
 10
-178.5944
 20
-61.3168
 30
0.0
 10
-193.5944
 20
-61.3167
 30
0.0
 10
-193.5944
 20
-61.3167
 30
0.0
 10
-193.5944
 20
-61.3167
 30
0.0
 10
-193.5944
 20
-61.3167
 30
0.0
 10
-193.5944
 20
-58.3167
 30
0.0
 10
-193.5944
 20
-58.3167
 30
0.0
 10
-193.5944
 20
-58.3167
 30
0.0
 10
-193.5944
 20
-58.3167
 30
0.0
 10
-204.0944
 20
-58.3167
 30
0.0
 10
-204.0944
 20
-58.3167
 30
0.0
 10
-204.0944
 20
-58.3167
 30
0.0
 10
-204.0944
 20
-58.3167
 30
0.0
 10
-204.0944
 20
0.6833
 30
0.0
 10
-204.0944
 20
0.6833
 30
0.0
 10
-204.0944
 20
0.6833
 30
0.0
 10
-204.0944
 20
0.6833
 30
0.0
 10
-193.5944
 20
0.6833
 30
0.0
 10
-193.5944
 20
0.6833
 30
0.0
 10
-193.5944
 20
0.6833
 30
0.0
 10
-193.5944
 20
0.6833
 30
0.0
 10
-193.5944
 20
3.6833
 30
0.0
 10
-193.5944
 20
3.6833
 30
0.0
 10
-193.5944
 20
3.6833
 30
0.0
 10
-193.5944
 20
3.6833
 30
0.0
 10
-178.5944
 20
3.6832
 30
0.0
 10
-178.5944
 20
3.6832
 30
0.0
 10
-178.5944
 20
3.6832
 30
0.0
 10
-178.5944
 20
3.6832
 30
0.0
 10
-178.5944
 20
0.6832
 30
0.0
 10
-178.5944
 20
0.6832
 30
0.0
 10
-178.5944
 20
0.6832
 30
0.0
 10
-178.5944
 20
0.6832
 30
0.0
 10
-168.0943
 20
0.6832
 30
0.0
 10
-168.0943
 20
0.6832
 30
0.0
 10
-168.0943
 20
0.6832
 30
0.0
 10
-168.0943
 20
0.6832
 30
0.0
 10
-168.0944
 20
-58.3168
 30
0.0
 10
-168.0944
 20
-58.3168
 30
0.0
 10
-168.0944
 20
-58.3168
 30
0.0
 10
-168.0944
 20
-58.3168
 30
0.0
 10
-178.5944
 20
-58.3168
 30
0.0
 10
-178.5944
 20
-58.3168
 30
0.0
 10
-178.5944
 20
-58.3168
 30
0.0
 10
-178.5944
 20
-58.3168
 30
0.0
 10
-178.5944
 20
-61.3168
 30
0.0
 10
-178.5944
 20
-61.3168
 30
0.0
  0
SPLINE
  5
8C
330
1F
100
AcDbEntity
  8
Layer 1
 62
   250
370
    20
100
AcDbSpline
210
0.0
220
0.0
230
1.0
 70
    11
 71
     3
 72
    52
 73
    48
 74
     0
 42
0.000000001
 43
0.0000000001
 40
0.0
 40
0.0
 40
0.0
 40
0.0
 40
0.0769230769230769
 40
0.0769230769230769
 40
0.0769230769230769
 40
0.0769230769230769
 40
0.1538461538461539
 40
0.1538461538461539
 40
0.1538461538461539
 40
0.1538461538461539
 40
0.2307692307692308
 40
0.2307692307692308
 40
0.2307692307692308
 40
0.2307692307692308
 40
0.3076923076923077
 40
0.3076923076923077
 40
0.3076923076923077
 40
0.3076923076923077
 40
0.3846153846153846
 40
0.3846153846153846
 40
0.3846153846153846
 40
0.3846153846153846
 40
0.4615384615384616
 40
0.4615384615384616
 40
0.4615384615384616
 40
0.4615384615384616
 40
0.5384615384615384
 40
0.5384615384615384
 40
0.5384615384615384
 40
0.5384615384615384
 40
0.6153846153846154
 40
0.6153846153846154
 40
0.6153846153846154
 40
0.6153846153846154
 40
0.6923076923076923
 40
0.6923076923076923
 40
0.6923076923076923
 40
0.6923076923076923
 40
0.7692307692307693
 40
0.7692307692307693
 40
0.7692307692307693
 40
0.7692307692307693
 40
0.8461538461538461
 40
0.8461538461538461
 40
0.8461538461538461
 40
0.8461538461538461
 40
1.0
 40
1.0
 40
1.0
 40
1.0
 10
-178.5411
 20
10.6499
 30
0.0
 10
-178.5411
 20
10.6499
 30
0.0
 10
-193.5411
 20
10.65
 30
0.0
 10
-193.5411
 20
10.65
 30
0.0
 10
-193.5411
 20
10.65
 30
0.0
 10
-193.5411
 20
10.65
 30
0.0
 10
-193.5411
 20
13.65
 30
0.0
 10
-193.5411
 20
13.65
 30
0.0
 10
-193.5411
 20
13.65
 30
0.0
 10
-193.5411
 20
13.65
 30
0.0
 10
-204.0411
 20
13.65
 30
0.0
 10
-204.0411
 20
13.65
 30
0.0
 10
-204.0411
 20
13.65
 30
0.0
 10
-204.0411
 20
13.65
 30
0.0
 10
-204.0411
 20
72.65
 30
0.0
 10
-204.0411
 20
72.65
 30
0.0
 10
-204.0411
 20
72.65
 30
0.0
 10
-204.0411
 20
72.65
 30
0.0
 10
-193.5411
 20
72.65
 30
0.0
 10
-193.5411
 20
72.65
 30
0.0
 10
-193.5411
 20
72.65
 30
0.0
 10
-193.5411
 20
72.65
 30
0.0
 10
-193.5411
 20
75.65
 30
0.0
 10
-193.5411
 20
75.65
 30
0.0
 10
-193.5411
 20
75.65
 30
0.0
 10
-193.5411
 20
75.65
 30
0.0
 10
-178.5411
 20
75.6499
 30
0.0
 10
-178.5411
 20
75.6499
 30
0.0
 10
-178.5411
 20
75.6499
 30
0.0
 10
-178.5411
 20
75.6499
 30
0.0
 10
-178.5411
 20
72.6499
 30
0.0
 10
-178.5411
 20
72.6499
 30
0.0
 10
-178.5411
 20
72.6499
 30
0.0
 10
-178.5411
 20
72.6499
 30
0.0
 10
-168.041
 20
72.6499
 30
0.0
 10
-168.041
 20
72.6499
 30
0.0
 10
-168.041
 20
72.6499
 30
0.0
 10
-168.041
 20
72.6499
 30
0.0
 10
-168.0411
 20
13.6499
 30
0.0
 10
-168.0411
 20
13.6499
 30
0.0
 10
-168.0411
 20
13.6499
 30
0.0
 10
-168.0411
 20
13.6499
 30
0.0
 10
-178.5411
 20
13.6499
 30
0.0
 10
-178.5411
 20
13.6499
 30
0.0
 10
-178.5411
 20
13.6499
 30
0.0
 10
-178.5411
 20
13.6499
 30
0.0
 10
-178.5411
 20
10.6499
 30
0.0
 10
-178.5411
 20
10.6499
 30
0.0
  0
SPLINE
  5
8D
330
1F
100
AcDbEntity
  8
Layer 1
 62
   250
370
    20
100
AcDbSpline
210
0.0
220
0.0
230
1.0
 70
    11
 71
     3
 72
    52
 73
    48
 74
     0
 42
0.000000001
 43
0.0000000001
 40
0.0
 40
0.0
 40
0.0
 40
0.0
 40
0.0769230769230769
 40
0.0769230769230769
 40
0.0769230769230769
 40
0.0769230769230769
 40
0.1538461538461539
 40
0.1538461538461539
 40
0.1538461538461539
 40
0.1538461538461539
 40
0.2307692307692308
 40
0.2307692307692308
 40
0.2307692307692308
 40
0.2307692307692308
 40
0.3076923076923077
 40
0.3076923076923077
 40
0.3076923076923077
 40
0.3076923076923077
 40
0.3846153846153846
 40
0.3846153846153846
 40
0.3846153846153846
 40
0.3846153846153846
 40
0.4615384615384616
 40
0.4615384615384616
 40
0.4615384615384616
 40
0.4615384615384616
 40
0.5384615384615384
 40
0.5384615384615384
 40
0.5384615384615384
 40
0.5384615384615384
 40
0.6153846153846154
 40
0.6153846153846154
 40
0.6153846153846154
 40
0.6153846153846154
 40
0.6923076923076923
 40
0.6923076923076923
 40
0.6923076923076923
 40
0.6923076923076923
 40
0.7692307692307693
 40
0.7692307692307693
 40
0.7692307692307693
 40
0.7692307692307693
 40
0.8461538461538461
 40
0.8461538461538461
 40
0.8461538461538461
 40
0.8461538461538461
 40
1.0
 40
1.0
 40
1.0
 40
1.0
 10
-212.0011
 20
3.4362
 30
0.0
 10
-212.0011
 20
3.4362
 30
0.0
 10
-212.0011
 20
-23.4836
 30
0.0
 10
-212.0011
 20
-23.4836
 30
0.0
 10
-212.0011
 20
-23.4836
 30
0.0
 10
-212.0011
 20
-23.4836
 30
0.0
 10
-209.0011
 20
-23.4836
 30
0.0
 10
-209.0011
 20
-23.4836
 30
0.0
 10
-209.0011
 20
-23.4836
 30
0.0
 10
-209.0011
 20
-23.4836
 30
0.0
 10
-209.0011
 20
-43.4836
 30
0.0
 10
-209.0011
 20
-43.4836
 30
0.0
 10
-209.0011
 20
-43.4836
 30
0.0
 10
-209.0011
 20
-43.4836
 30
0.0
 10
-212.0011
 20
-43.4836
 30
0.0
 10
-212.0011
 20
-43.4836
 30
0.0
 10
-212.0011
 20
-43.4836
 30
0.0
 10
-212.0011
 20
-43.4836
 30
0.0
 10
-212.0011
 20
-67.1276
 30
0.0
 10
-212.0011
 20
-67.1276
 30
0.0
 10
-212.0011
 20
-67.1276
 30
0.0
 10
-212.0011
 20
-67.1276
 30
0.0
 10
-271.0011
 20
-67.1276
 30
0.0
 10
-271.0011
 20
-67.1276
 30
0.0
 10
-271.0011
 20
-67.1276
 30
0.0
 10
-271.0011
 20
-67.1276
 30
0.0
 10
-271.0011
 20
-43.4836
 30
0.0
 10
-271.0011
 20
-43.4836
 30
0.0
 10
-271.0011
 20
-43.4836
 30
0.0
 10
-271.0011
 20
-43.4836
 30
0.0
 10
-274.0011
 20
-43.4836
 30
0.0
 10
-274.0011
 20
-43.4836
 30
0.0
 10
-274.0011
 20
-43.4836
 30
0.0
 10
-274.0011
 20
-43.4836
 30
0.0
 10
-274.0011
 20
-23.4836
 30
0.0
 10
-274.0011
 20
-23.4836
 30
0.0
 10
-274.0011
 20
-23.4836
 30
0.0
 10
-274.0011
 20
-23.4836
 30
0.0
 10
-271.0011
 20
-23.4836
 30
0.0
 10
-271.0011
 20
-23.4836
 30
0.0
 10
-271.0011
 20
-23.4836
 30
0.0
 10
-271.0011
 20
-23.4836
 30
0.0
 10
-271.0011
 20
3.4362
 30
0.0
 10
-271.0011
 20
3.4362
 30
0.0
 10
-271.0011
 20
3.4362
 30
0.0
 10
-271.0011
 20
3.4362
 30
0.0
 10
-212.0011
 20
3.4362
 30
0.0
 10
-212.0011
 20
3.4362
 30
0.0
  0
SPLINE
  5
8E
330
1F
100
AcDbEntity
  8
Layer 1
 62
   250
370
    20
100
AcDbSpline
210
0.0
220
0.0
230
1.0
 70
    11
 71
     3
 72
    68
 73
    64
 74
     0
 42
0.000000001
 43
0.0000000001
 40
0.0
 40
0.0
 40
0.0
 40
0.0
 40
0.0588235294117647
 40
0.0588235294117647
 40
0.0588235294117647
 40
0.0588235294117647
 40
0.1176470588235294
 40
0.1176470588235294
 40
0.1176470588235294
 40
0.1176470588235294
 40
0.1764705882352941
 40
0.1764705882352941
 40
0.1764705882352941
 40
0.1764705882352941
 40
0.2352941176470588
 40
0.2352941176470588
 40
0.2352941176470588
 40
0.2352941176470588
 40
0.2941176470588235
 40
0.2941176470588235
 40
0.2941176470588235
 40
0.2941176470588235
 40
0.3529411764705883
 40
0.3529411764705883
 40
0.3529411764705883
 40
0.3529411764705883
 40
0.4117647058823529
 40
0.4117647058823529
 40
0.4117647058823529
 40
0.4117647058823529
 40
0.4705882352941176
 40
0.4705882352941176
 40
0.4705882352941176
 40
0.4705882352941176
 40
0.5294117647058824
 40
0.5294117647058824
 40
0.5294117647058824
 40
0.5294117647058824
 40
0.5882352941176471
 40
0.5882352941176471
 40
0.5882352941176471
 40
0.5882352941176471
 40
0.6470588235294118
 40
0.6470588235294118
 40
0.6470588235294118
 40
0.6470588235294118
 40
0.7058823529411765
 40
0.7058823529411765
 40
0.7058823529411765
 40
0.7058823529411765
 40
0.7647058823529411
 40
0.7647058823529411
 40
0.7647058823529411
 40
0.7647058823529411
 40
0.8235294117647058
 40
0.8235294117647058
 40
0.8235294117647058
 40
0.8235294117647058
 40
0.8823529411764706
 40
0.8823529411764706
 40
0.8823529411764706
 40
0.8823529411764706
 40
1.0
 40
1.0
 40
1.0
 40
1.0
 10
56.4989
 20
117.0
 30
0.0
 10
56.4989
 20
117.0
 30
0.0
 10
56.4989
 20
39.0
 30
0.0
 10
56.4989
 20
39.0
 30
0.0
 10
56.4989
 20
39.0
 30
0.0
 10
56.4989
 20
39.0
 30
0.0
 10
76.4989
 20
39.0
 30
0.0
 10
76.4989
 20
39.0
 30
0.0
 10
76.4989
 20
39.0
 30
0.0
 10
76.4989
 20
39.0
 30
0.0
 10
76.4989
 20
42.0
 30
0.0
 10
76.4989
 20
42.0
 30
0.0
 10
76.4989
 20
42.0
 30
0.0
 10
76.4989
 20
42.0
 30
0.0
 10
109.8322
 20
42.0
 30
0.0
 10
109.8322
 20
42.0
 30
0.0
 10
109.8322
 20
42.0
 30
0.0
 10
109.8322
 20
42.0
 30
0.0
 10
109.8322
 20
39.0
 30
0.0
 10
109.8322
 20
39.0
 30
0.0
 10
109.8322
 20
39.0
 30
0.0
 10
109.8322
 20
39.0
 30
0.0
 10
129.8322
 20
39.0
 30
0.0
 10
129.8322
 20
39.0
 30
0.0
 10
129.8322
 20
39.0
 30
0.0
 10
129.8322
 20
39.0
 30
0.0
 10
129.8322
 20
42.0
 30
0.0
 10
129.8322
 20
42.0
 30
0.0
 10
129.8322
 20
42.0
 30
0.0
 10
129.8322
 20
42.0
 30
0.0
 10
163.1656
 20
42.0
 30
0.0
 10
163.1656
 20
42.0
 30
0.0
 10
163.1656
 20
42.0
 30
0.0
 10
163.1656
 20
42.0
 30
0.0
 10
163.1656
 20
39.0
 30
0.0
 10
163.1656
 20
39.0
 30
0.0
 10
163.1656
 20
39.0
 30
0.0
 10
163.1656
 20
39.0
 30
0.0
 10
183.1656
 20
39.0
 30
0.0
 10
183.1656
 20
39.0
 30
0.0
 10
183.1656
 20
39.0
 30
0.0
 10
183.1656
 20
39.0
 30
0.0
 10
183.1656
 20
42.0
 30
0.0
 10
183.1656
 20
42.0
 30
0.0
 10
183.1656
 20
42.0
 30
0.0
 10
183.1656
 20
42.0
 30
0.0
 10
216.4989
 20
42.0
 30
0.0
 10
216.4989
 20
42.0
 30
0.0
 10
216.4989
 20
42.0
 30
0.0
 10
216.4989
 20
42.0
 30
0.0
 10
216.4989
 20
39.0
 30
0.0
 10
216.4989
 20
39.0
 30
0.0
 10
216.4989
 20
39.0
 30
0.0
 10
216.4989
 20
39.0
 30
0.0
 10
236.4989
 20
39.0
 30
0.0
 10
236.4989
 20
39.0
 30
0.0
 10
236.4989
 20
39.0
 30
0.0
 10
236.4989
 20
39.0
 30
0.0
 10
236.4989
 20
117.0
 30
0.0
 10
236.4989
 20
117.0
 30
0.0
 10
236.4989
 20
117.0
 30
0.0
 10
181.1285
 20
150.3333
 30
0.0
 10
111.8693
 20
150.3333
 30
0.0
 10
56.4989
 20
117.0
 30
0.0
  0
SPLINE
  5
8F
330
1F
100
AcDbEntity
  8
Layer 1
 62
   250
370
    20
100
AcDbSpline
210
0.0
220
0.0
230
1.0
 70
    11
 71
     3
 72
    20
 73
    16
 74
     0
 42
0.000000001
 43
0.0000000001
 40
0.0
 40
0.0
 40
0.0
 40
0.0
 40
0.2
 40
0.2
 40
0.2
 40
0.2
 40
0.4
 40
0.4
 40
0.4
 40
0.4
 40
0.6
 40
0.6
 40
0.6
 40
0.6
 40
1.0
 40
1.0
 40
1.0
 40
1.0
 10
82.7105
 20
125.8526
 30
0.0
 10
82.7105
 20
125.8526
 30
0.0
 10
83.9526
 20
123.1218
 30
0.0
 10
83.9526
 20
123.1218
 30
0.0
 10
83.9526
 20
123.1218
 30
0.0
 10
83.9526
 20
123.1218
 30
0.0
 10
70.2987
 20
116.9112
 30
0.0
 10
70.2987
 20
116.9112
 30
0.0
 10
70.2987
 20
116.9112
 30
0.0
 10
70.2987
 20
116.9112
 30
0.0
 10
69.0566
 20
119.642
 30
0.0
 10
69.0566
 20
119.642
 30
0.0
 10
69.0566
 20
119.642
 30
0.0
 10
69.0566
 20
119.642
 30
0.0
 10
82.7105
 20
125.8526
 30
0.0
 10
82.7105
 20
125.8526
 30
0.0
  0
SPLINE
  5
90
330
1F
100
AcDbEntity
  8
Layer 1
 62
   250
370
    20
100
AcDbSpline
210
0.0
220
0.0
230
1.0
 70
    11
 71
     3
 72
    20
 73
    16
 74
     0
 42
0.000000001
 43
0.0000000001
 40
0.0
 40
0.0
 40
0.0
 40
0.0
 40
0.2
 40
0.2
 40
0.2
 40
0.2
 40
0.4
 40
0.4
 40
0.4
 40
0.4
 40
0.6
 40
0.6
 40
0.6
 40
0.6
 40
1.0
 40
1.0
 40
1.0
 40
1.0
 10
118.3367
 20
132.8393
 30
0.0
 10
118.3367
 20
132.8393
 30
0.0
 10
103.6771
 20
129.6619
 30
0.0
 10
103.6771
 20
129.6619
 30
0.0
 10
103.6771
 20
129.6619
 30
0.0
 10
103.6771
 20
129.6619
 30
0.0
 10
103.0416
 20
132.5938
 30
0.0
 10
103.0416
 20
132.5938
 30
0.0
 10
103.0416
 20
132.5938
 30
0.0
 10
103.0416
 20
132.5938
 30
0.0
 10
117.7012
 20
135.7712
 30
0.0
 10
117.7012
 20
135.7712
 30
0.0
 10
117.7012
 20
135.7712
 30
0.0
 10
117.7012
 20
135.7712
 30
0.0
 10
118.3367
 20
132.8393
 30
0.0
 10
118.3367
 20
132.8393
 30
0.0
  0
SPLINE
  5
91
330
1F
100
AcDbEntity
  8
Layer 1
 62
   250
370
    20
100
AcDbSpline
210
0.0
220
0.0
230
1.0
 70
    11
 71
     3
 72
    20
 73
    16
 74
     0
 42
0.000000001
 43
0.0000000001
 40
0.0
 40
0.0
 40
0.0
 40
0.0
 40
0.2
 40
0.2
 40
0.2
 40
0.2
 40
0.4
 40
0.4
 40
0.4
 40
0.4
 40
0.6
 40
0.6
 40
0.6
 40
0.6
 40
1.0
 40
1.0
 40
1.0
 40
1.0
 10
153.9989
 20
135.0528
 30
0.0
 10
153.9989
 20
135.0528
 30
0.0
 10
138.9989
 20
135.0528
 30
0.0
 10
138.9989
 20
135.0528
 30
0.0
 10
138.9989
 20
135.0528
 30
0.0
 10
138.9989
 20
135.0528
 30
0.0
 10
138.9989
 20
138.0528
 30
0.0
 10
138.9989
 20
138.0528
 30
0.0
 10
138.9989
 20
138.0528
 30
0.0
 10
138.9989
 20
138.0528
 30
0.0
 10
153.9989
 20
138.0528
 30
0.0
 10
153.9989
 20
138.0528
 30
0.0
 10
153.9989
 20
138.0528
 30
0.0
 10
153.9989
 20
138.0528
 30
0.0
 10
153.9989
 20
135.0528
 30
0.0
 10
153.9989
 20
135.0528
 30
0.0
  0
SPLINE
  5
92
330
1F
100
AcDbEntity
  8
Layer 1
 62
   250
370
    20
100
AcDbSpline
210
0.0
220
0.0
230
1.0
 70
    11
 71
     3
 72
    20
 73
    16
 74
     0
 42
0.000000001
 43
0.0000000001
 40
0.0
 40
0.0
 40
0.0
 40
0.0
 40
0.2
 40
0.2
 40
0.2
 40
0.2
 40
0.4
 40
0.4
 40
0.4
 40
0.4
 40
0.6
 40
0.6
 40
0.6
 40
0.6
 40
1.0
 40
1.0
 40
1.0
 40
1.0
 10
189.3207
 20
129.6619
 30
0.0
 10
189.3207
 20
129.6619
 30
0.0
 10
174.6611
 20
132.8393
 30
0.0
 10
174.6611
 20
132.8393
 30
0.0
 10
174.6611
 20
132.8393
 30
0.0
 10
174.6611
 20
132.8393
 30
0.0
 10
175.2966
 20
135.7712
 30
0.0
 10
175.2966
 20
135.7712
 30
0.0
 10
175.2966
 20
135.7712
 30
0.0
 10
175.2966
 20
135.7712
 30
0.0
 10
189.9562
 20
132.5938
 30
0.0
 10
189.9562
 20
132.5938
 30
0.0
 10
189.9562
 20
132.5938
 30
0.0
 10
189.9562
 20
132.5938
 30
0.0
 10
189.3207
 20
129.6619
 30
0.0
 10
189.3207
 20
129.6619
 30
0.0
  0
SPLINE
  5
93
330
1F
100
AcDbEntity
  8
Layer 1
 62
   250
370
    20
100
AcDbSpline
210
0.0
220
0.0
230
1.0
 70
    11
 71
     3
 72
    20
 73
    16
 74
     0
 42
0.000000001
 43
0.0000000001
 40
0.0
 40
0.0
 40
0.0
 40
0.0
 40
0.2
 40
0.2
 40
0.2
 40
0.2
 40
0.4
 40
0.4
 40
0.4
 40
0.4
 40
0.6
 40
0.6
 40
0.6
 40
0.6
 40
1.0
 40
1.0
 40
1.0
 40
1.0
 10
222.6991
 20
116.9112
 30
0.0
 10
222.6991
 20
116.9112
 30
0.0
 10
209.0452
 20
123.1218
 30
0.0
 10
209.0452
 20
123.1218
 30
0.0
 10
209.0452
 20
123.1218
 30
0.0
 10
209.0452
 20
123.1218
 30
0.0
 10
210.2873
 20
125.8526
 30
0.0
 10
210.2873
 20
125.8526
 30
0.0
 10
210.2873
 20
125.8526
 30
0.0
 10
210.2873
 20
125.8526
 30
0.0
 10
223.9412
 20
119.642
 30
0.0
 10
223.9412
 20
119.642
 30
0.0
 10
223.9412
 20
119.642
 30
0.0
 10
223.9412
 20
119.642
 30
0.0
 10
222.6991
 20
116.9112
 30
0.0
 10
222.6991
 20
116.9112
 30
0.0
  0
SPLINE
  5
94
330
1F
100
AcDbEntity
  8
Layer 1
 62
   250
370
    20
100
AcDbSpline
210
0.0
220
0.0
230
1.0
 70
    11
 71
     3
 72
    20
 73
    16
 74
     0
 42
0.000000001
 43
0.0000000001
 40
0.0
 40
0.0
 40
0.0
 40
0.0
 40
0.2
 40
0.2
 40
0.2
 40
0.2
 40
0.4
 40
0.4
 40
0.4
 40
0.4
 40
0.6
 40
0.6
 40
0.6
 40
0.6
 40
1.0
 40
1.0
 40
1.0
 40
1.0
 10
230.4989
 20
65.6441
 30
0.0
 10
230.4989
 20
65.6441
 30
0.0
 10
230.4989
 20
85.6441
 30
0.0
 10
230.4989
 20
85.6441
 30
0.0
 10
230.4989
 20
85.6441
 30
0.0
 10
230.4989
 20
85.6441
 30
0.0
 10
233.4989
 20
85.6441
 30
0.0
 10
233.4989
 20
85.6441
 30
0.0
 10
233.4989
 20
85.6441
 30
0.0
 10
233.4989
 20
85.6441
 30
0.0
 10
233.4989
 20
65.6441
 30
0.0
 10
233.4989
 20
65.6441
 30
0.0
 10
233.4989
 20
65.6441
 30
0.0
 10
233.4989
 20
65.6441
 30
0.0
 10
230.4989
 20
65.6441
 30
0.0
 10
230.4989
 20
65.6441
 30
0.0
  0
SPLINE
  5
95
330
1F
100
AcDbEntity
  8
Layer 1
 62
   250
370
    20
100
AcDbSpline
210
0.0
220
0.0
230
1.0
 70
    11
 71
     3
 72
    20
 73
    16
 74
     0
 42
0.000000001
 43
0.0000000001
 40
0.0
 40
0.0
 40
0.0
 40
0.0
 40
0.2
 40
0.2
 40
0.2
 40
0.2
 40
0.4
 40
0.4
 40
0.4
 40
0.4
 40
0.6
 40
0.6
 40
0.6
 40
0.6
 40
1.0
 40
1.0
 40
1.0
 40
1.0
 10
59.4989
 20
85.6441
 30
0.0
 10
59.4989
 20
85.6441
 30
0.0
 10
62.4989
 20
85.6441
 30
0.0
 10
62.4989
 20
85.6441
 30
0.0
 10
62.4989
 20
85.6441
 30
0.0
 10
62.4989
 20
85.6441
 30
0.0
 10
62.4989
 20
65.6441
 30
0.0
 10
62.4989
 20
65.6441
 30
0.0
 10
62.4989
 20
65.6441
 30
0.0
 10
62.4989
 20
65.6441
 30
0.0
 10
59.4989
 20
65.6441
 30
0.0
 10
59.4989
 20
65.6441
 30
0.0
 10
59.4989
 20
65.6441
 30
0.0
 10
59.4989
 20
65.6441
 30
0.0
 10
59.4989
 20
85.6441
 30
0.0
 10
59.4989
 20
85.6441
 30
0.0
  0
ENDSEC
  0
SECTION
  2
OBJECTS
  0
DICTIONARY
  5
C
330
0
100
AcDbDictionary
281
     1
  3
ACAD_DETAILVIEWSTYLE
350
D1
  3
ACAD_GROUP
350
D
  3
ACAD_IMAGE_DICT
350
70
  3
ACAD_LAYOUT
350
1A
  3
ACAD_MATERIAL
350
43
  3
ACAD_MLEADERSTYLE
350
6B
  3
ACAD_MLINESTYLE
350
17
  3
ACAD_PLOTSETTINGS
350
19
  3
ACAD_PLOTSTYLENAME
350
E
  3
ACAD_SCALELIST
350
47
  3
ACAD_SECTIONVIEWSTYLE
350
D2
  3
ACAD_TABLESTYLE
350
69
  3
ACAD_VISUALSTYLE
350
2A
  3
ACDB_RECOMPOSE_DATA
350
CE
  3
AcDbVariableDictionary
350
96
  0
SUN
  5
6D
330
29
100
AcDbSun
 90
        1
290
     0
 63
     7
421
 16777215
 40
1.0
291
     1
 91
  2455826
 92
 54000000
292
     0
 70
     2
 71
   256
280
     1
  0
IMAGEDEF_REACTOR
  5
73
330
72
100
AcDbRasterImageDefReactor
 90
        2
330
72
  0
DICTIONARY
  5
D1
102
{ACAD_REACTORS
330
C
102
}
330
C
100
AcDbDictionary
281
     1
  0
DICTIONARY
  5
D
102
{ACAD_REACTORS
330
C
102
}
330
C
100
AcDbDictionary
281
     1
  0
DICTIONARY
  5
70
102
{ACAD_REACTORS
330
C
102
}
330
C
100
AcDbDictionary
281
     1
  3
Image #1
350
71
  0
DICTIONARY
  5
1A
102
{ACAD_REACTORS
330
C
102
}
330
C
100
AcDbDictionary
281
     1
  3
Layout1
350
1E
  3
Layout2
350
26
  3
Model
350
22
  0
DICTIONARY
  5
43
102
{ACAD_REACTORS
330
C
102
}
330
C
100
AcDbDictionary
281
     1
  3
ByBlock
350
45
  3
ByLayer
350
44
  3
Global
350
46
  0
DICTIONARY
  5
6B
102
{ACAD_REACTORS
330
C
102
}
330
C
100
AcDbDictionary
281
     1
  3
Standard
350
6C
  0
DICTIONARY
  5
17
102
{ACAD_REACTORS
330
C
102
}
330
C
100
AcDbDictionary
281
     1
  3
Standard
350
18
  0
DICTIONARY
  5
19
102
{ACAD_REACTORS
330
C
102
}
330
C
100
AcDbDictionary
281
     1
  0
ACDBDICTIONARYWDFLT
  5
E
102
{ACAD_REACTORS
330
C
102
}
330
C
100
AcDbDictionary
281
     1
  3
Normal
350
F
100
AcDbDictionaryWithDefault
340
F
  0
DICTIONARY
  5
47
102
{ACAD_REACTORS
330
C
102
}
330
C
100
AcDbDictionary
281
     1
  3
A0
350
48
  3
A1
350
49
  3
A2
350
4A
  3
A3
350
4B
  3
A4
350
4C
  3
A5
350
4D
  3
A6
350
4E
  3
A7
350
4F
  3
A8
350
50
  3
A9
350
51
  3
B0
350
52
  3
B1
350
53
  3
B2
350
54
  3
B3
350
55
  3
B4
350
56
  3
B5
350
57
  3
B6
350
58
  3
B7
350
59
  3
B8
350
5A
  3
B9
350
5B
  3
C0
350
5C
  3
C1
350
5D
  3
C2
350
5E
  3
C3
350
5F
  3
C4
350
60
  3
C5
350
61
  3
C6
350
62
  3
C7
350
63
  3
C8
350
64
  3
C9
350
65
  3
D0
350
66
  3
D1
350
67
  3
D2
350
68
  0
DICTIONARY
  5
D2
102
{ACAD_REACTORS
330
C
102
}
330
C
100
AcDbDictionary
281
     1
  0
DICTIONARY
  5
69
102
{ACAD_REACTORS
330
C
102
}
330
C
100
AcDbDictionary
281
     1
  3
Standard
350
6A
  0
DICTIONARY
  5
2A
102
{ACAD_REACTORS
330
C
102
}
330
C
100
AcDbDictionary
281
     1
  3
2dWireframe
350
2F
  3
Basic
350
32
  3
Brighten
350
36
  3
ColorChange
350
3A
  3
Conceptual
350
34
  3
Dim
350
35
  3
EdgeColorOff
350
3D
  3
Facepattern
350
39
  3
Flat
350
2B
  3
FlatWithEdges
350
2C
  3
Gouraud
350
2D
  3
GouraudWithEdges
350
2E
  3
Hidden
350
31
  3
JitterOff
350
3B
  3
Linepattern
350
38
  3
OverhangOff
350
3C
  3
Realistic
350
33
  3
Shaded
350
42
  3
Shaded with edges
350
41
  3
Shades of Gray
350
3E
  3
Sketchy
350
3F
  3
Thicken
350
37
  3
Wireframe
350
30
  3
X-Ray
350
40
  0
XRECORD
  5
CE
102
{ACAD_REACTORS
330
C
102
}
330
C
100
AcDbXrecord
280
     1
 90
        1
330
6A
  0
DICTIONARY
  5
96
102
{ACAD_REACTORS
330
C
102
}
330
C
100
AcDbDictionary
281
     1
  3
CANNOSCALE
350
97
  3
CMLEADERSTYLE
350
D0
  3
CTABLESTYLE
350
CF
  3
XCLIPFRAME
350
98
  0
IMAGEDEF
  5
71
102
{ACAD_REACTORS
330
70
330
73
102
}
330
70
100
AcDbRasterImageDef
 90
        0
  1
C:\Users\Acer\Desktop\Arquivos VK\Palco Bailarina_ACD_0.jpg
 10
32512.0
 20
26009.0
 11
3.075787401574803E-5
 21
3.075787401574803E-5
280
     1
281
     5
  0
LAYOUT
  5
1E
102
{ACAD_REACTORS
330
1A
102
}
330
1A
100
AcDbPlotSettings
  1

  2
none_device
  4

  6

 40
0.0
 41
0.0
 42
0.0
 43
0.0
 44
0.0
 45
0.0
 46
0.0
 47
0.0
 48
0.0
 49
0.0
140
0.0
141
0.0
142
1.0
143
1.0
 70
   688
 72
     0
 73
     0
 74
     5
  7

 75
    16
 76
     0
 77
     2
 78
   300
147
1.0
148
0.0
149
0.0
100
AcDbLayout
  1
Layout1
 70
     1
 71
     1
 10
0.0
 20
0.0
 11
12.0
 21
9.0
 12
0.0
 22
0.0
 32
0.0
 14
1.000000000000000E+20
 24
1.000000000000000E+20
 34
1.000000000000000E+20
 15
-1.000000000000000E+20
 25
-1.000000000000000E+20
 35
-1.000000000000000E+20
146
0.0
 13
0.0
 23
0.0
 33
0.0
 16
1.0
 26
0.0
 36
0.0
 17
0.0
 27
1.0
 37
0.0
 76
     0
330
1B
  0
LAYOUT
  5
26
102
{ACAD_REACTORS
330
1A
102
}
330
1A
100
AcDbPlotSettings
  1

  2
none_device
  4

  6

 40
0.0
 41
0.0
 42
0.0
 43
0.0
 44
0.0
 45
0.0
 46
0.0
 47
0.0
 48
0.0
 49
0.0
140
0.0
141
0.0
142
1.0
143
1.0
 70
   688
 72
     0
 73
     0
 74
     5
  7

 75
    16
 76
     0
 77
     2
 78
   300
147
1.0
148
0.0
149
0.0
100
AcDbLayout
  1
Layout2
 70
     1
 71
     2
 10
0.0
 20
0.0
 11
0.0
 21
0.0
 12
0.0
 22
0.0
 32
0.0
 14
0.0
 24
0.0
 34
0.0
 15
0.0
 25
0.0
 35
0.0
146
0.0
 13
0.0
 23
0.0
 33
0.0
 16
1.0
 26
0.0
 36
0.0
 17
0.0
 27
1.0
 37
0.0
 76
     0
330
23
  0
LAYOUT
  5
22
102
{ACAD_REACTORS
330
1A
102
}
330
1A
100
AcDbPlotSettings
  1

  2
none_device
  4
Letter_(8.50_x_11.00_Inches)
  6

 40
6.35
 41
6.35
 42
6.35000508
 43
6.35000508
 44
215.9
 45
279.4
 46
0.0
 47
0.0
 48
0.0
 49
0.0
140
0.0
141
0.0
142
1.0
143
1.0
 70
  1712
 72
     0
 73
     0
 74
     0
  7

 75
     0
 76
     0
 77
     2
 78
   300
147
1.0
148
0.0
149
0.0
100
AcDbLayout
  1
Model
 70
     1
 71
     0
 10
0.0
 20
0.0
 11
12.0
 21
9.0
 12
0.0
 22
0.0
 32
0.0
 14
-652.341
 24
-150.1
 34
0.0
 15
309.5806
 25
150.1
 35
0.0
146
0.0
 13
0.0
 23
0.0
 33
0.0
 16
1.0
 26
0.0
 36
0.0
 17
0.0
 27
1.0
 37
0.0
 76
     0
330
1F
331
29
  0
MATERIAL
  5
45
102
{ACAD_REACTORS
330
43
102
}
330
43
100
AcDbMaterial
  1
ByBlock
 72
     1
 94
      127
  0
MATERIAL
  5
44
102
{ACAD_REACTORS
330
43
102
}
330
43
100
AcDbMaterial
  1
ByLayer
 72
     1
 94
      127
  0
MATERIAL
  5
46
102
{ACAD_REACTORS
330
43
102
}
330
43
100
AcDbMaterial
  1
Global
 72
     1
 94
      127
  0
MLEADERSTYLE
  5
6C
102
{ACAD_REACTORS
330
6B
102
}
102
{ACAD_XDICTIONARY
360
CC
102
}
330
6B
100
AcDbMLeaderStyle
170
     2
171
     1
172
     0
 90
        2
 40
0.0
 41
0.0
173
     1
 91
-1056964608
340
14
 92
       -2
290
     1
 42
0.09
291
     1
 43
0.36
  3
Standard
341
0
 44
0.18
300

342
11
174
     1
178
     6
175
     1
176
     0
 93
-1056964608
 45
0.18
292
     0
297
     0
 46
0.18
343
0
 94
-1056964608
 47
1.0
 49
1.0
140
1.0
293
     1
141
0.0
294
     1
177
     0
142
1.0
295
     0
296
     0
143
0.125
1001
ACAD_MLEADERVER
1070
     2
  0
MLINESTYLE
  5
18
102
{ACAD_REACTORS
330
17
102
}
330
17
100
AcDbMlineStyle
  2
Standard
 70
     0
  3

 62
   256
 51
90.0
 52
90.0
 71
     2
 49
0.5
 62
   256
  6
BYLAYER
 49
-0.5
 62
   256
  6
BYLAYER
  0
ACDBPLACEHOLDER
  5
F
102
{ACAD_REACTORS
330
E
102
}
330
E
  0
SCALE
  5
48
102
{ACAD_REACTORS
330
47
102
}
330
47
100
AcDbScale
 70
     0
300
1:1
140
1.0
141
1.0
290
     1
  0
SCALE
  5
49
102
{ACAD_REACTORS
330
47
102
}
330
47
100
AcDbScale
 70
     0
300
1:2
140
1.0
141
2.0
290
     0
  0
SCALE
  5
4A
102
{ACAD_REACTORS
330
47
102
}
330
47
100
AcDbScale
 70
     0
300
1:4
140
1.0
141
4.0
290
     0
  0
SCALE
  5
4B
102
{ACAD_REACTORS
330
47
102
}
330
47
100
AcDbScale
 70
     0
300
1:5
140
1.0
141
5.0
290
     0
  0
SCALE
  5
4C
102
{ACAD_REACTORS
330
47
102
}
330
47
100
AcDbScale
 70
     0
300
1:8
140
1.0
141
8.0
290
     0
  0
SCALE
  5
4D
102
{ACAD_REACTORS
330
47
102
}
330
47
100
AcDbScale
 70
     0
300
1:10
140
1.0
141
10.0
290
     0
  0
SCALE
  5
4E
102
{ACAD_REACTORS
330
47
102
}
330
47
100
AcDbScale
 70
     0
300
1:16
140
1.0
141
16.0
290
     0
  0
SCALE
  5
4F
102
{ACAD_REACTORS
330
47
102
}
330
47
100
AcDbScale
 70
     0
300
1:20
140
1.0
141
20.0
290
     0
  0
SCALE
  5
50
102
{ACAD_REACTORS
330
47
102
}
330
47
100
AcDbScale
 70
     0
300
1:30
140
1.0
141
30.0
290
     0
  0
SCALE
  5
51
102
{ACAD_REACTORS
330
47
102
}
330
47
100
AcDbScale
 70
     0
300
1:40
140
1.0
141
40.0
290
     0
  0
SCALE
  5
52
102
{ACAD_REACTORS
330
47
102
}
330
47
100
AcDbScale
 70
     0
300
1:50
140
1.0
141
50.0
290
     0
  0
SCALE
  5
53
102
{ACAD_REACTORS
330
47
102
}
330
47
100
AcDbScale
 70
     0
300
1:100
140
1.0
141
100.0
290
     0
  0
SCALE
  5
54
102
{ACAD_REACTORS
330
47
102
}
330
47
100
AcDbScale
 70
     0
300
2:1
140
2.0
141
1.0
290
     0
  0
SCALE
  5
55
102
{ACAD_REACTORS
330
47
102
}
330
47
100
AcDbScale
 70
     0
300
4:1
140
4.0
141
1.0
290
     0
  0
SCALE
  5
56
102
{ACAD_REACTORS
330
47
102
}
330
47
100
AcDbScale
 70
     0
300
8:1
140
8.0
141
1.0
290
     0
  0
SCALE
  5
57
102
{ACAD_REACTORS
330
47
102
}
330
47
100
AcDbScale
 70
     0
300
10:1
140
10.0
141
1.0
290
     0
  0
SCALE
  5
58
102
{ACAD_REACTORS
330
47
102
}
330
47
100
AcDbScale
 70
     0
300
100:1
140
100.0
141
1.0
290
     0
  0
SCALE
  5
59
102
{ACAD_REACTORS
330
47
102
}
330
47
100
AcDbScale
 70
     0
300
1/128" = 1'-0"
140
0.0078125
141
12.0
290
     0
  0
SCALE
  5
5A
102
{ACAD_REACTORS
330
47
102
}
330
47
100
AcDbScale
 70
     0
300
1/64" = 1'-0"
140
0.015625
141
12.0
290
     0
  0
SCALE
  5
5B
102
{ACAD_REACTORS
330
47
102
}
330
47
100
AcDbScale
 70
     0
300
1/32" = 1'-0"
140
0.03125
141
12.0
290
     0
  0
SCALE
  5
5C
102
{ACAD_REACTORS
330
47
102
}
330
47
100
AcDbScale
 70
     0
300
1/16" = 1'-0"
140
0.0625
141
12.0
290
     0
  0
SCALE
  5
5D
102
{ACAD_REACTORS
330
47
102
}
330
47
100
AcDbScale
 70
     0
300
3/32" = 1'-0"
140
0.09375
141
12.0
290
     0
  0
SCALE
  5
5E
102
{ACAD_REACTORS
330
47
102
}
330
47
100
AcDbScale
 70
     0
300
1/8" = 1'-0"
140
0.125
141
12.0
290
     0
  0
SCALE
  5
5F
102
{ACAD_REACTORS
330
47
102
}
330
47
100
AcDbScale
 70
     0
300
3/16" = 1'-0"
140
0.1875
141
12.0
290
     0
  0
SCALE
  5
60
102
{ACAD_REACTORS
330
47
102
}
330
47
100
AcDbScale
 70
     0
300
1/4" = 1'-0"
140
0.25
141
12.0
290
     0
  0
SCALE
  5
61
102
{ACAD_REACTORS
330
47
102
}
330
47
100
AcDbScale
 70
     0
300
3/8" = 1'-0"
140
0.375
141
12.0
290
     0
  0
SCALE
  5
62
102
{ACAD_REACTORS
330
47
102
}
330
47
100
AcDbScale
 70
     0
300
1/2" = 1'-0"
140
0.5
141
12.0
290
     0
  0
SCALE
  5
63
102
{ACAD_REACTORS
330
47
102
}
330
47
100
AcDbScale
 70
     0
300
3/4" = 1'-0"
140
0.75
141
12.0
290
     0
  0
SCALE
  5
64
102
{ACAD_REACTORS
330
47
102
}
330
47
100
AcDbScale
 70
     0
300
1" = 1'-0"
140
1.0
141
12.0
290
     0
  0
SCALE
  5
65
102
{ACAD_REACTORS
330
47
102
}
330
47
100
AcDbScale
 70
     0
300
1-1/2" = 1'-0"
140
1.5
141
12.0
290
     0
  0
SCALE
  5
66
102
{ACAD_REACTORS
330
47
102
}
330
47
100
AcDbScale
 70
     0
300
3" = 1'-0"
140
3.0
141
12.0
290
     0
  0
SCALE
  5
67
102
{ACAD_REACTORS
330
47
102
}
330
47
100
AcDbScale
 70
     0
300
6" = 1'-0"
140
6.0
141
12.0
290
     0
  0
SCALE
  5
68
102
{ACAD_REACTORS
330
47
102
}
330
47
100
AcDbScale
 70
     0
300
1'-0" = 1'-0"
140
12.0
141
12.0
290
     0
  0
TABLESTYLE
  5
6A
102
{ACAD_REACTORS
330
69
102
}
102
{ACAD_XDICTIONARY
360
C9
102
}
330
69
100
AcDbTableStyle
  3
Standard
 70
     0
 71
     0
 40
0.06
 41
0.06
280
     0
281
     0
  7
Standard
140
0.18
170
     2
 62
     0
 63
   257
283
     0
 90
        4
 91
        0
  1

274
    -2
284
     1
 64
     0
275
    -2
285
     1
 65
     0
276
    -2
286
     1
 66
     0
277
    -2
287
     1
 67
     0
278
    -2
288
     1
 68
     0
279
    -2
289
     1
 69
     0
  7
Standard
140
0.25
170
     5
 62
     0
 63
   257
283
     0
 90
        4
 91
        0
  1

274
    -2
284
     1
 64
     0
275
    -2
285
     1
 65
     0
276
    -2
286
     1
 66
     0
277
    -2
287
     1
 67
     0
278
    -2
288
     1
 68
     0
279
    -2
289
     1
 69
     0
  7
Standard
140
0.18
170
     5
 62
     0
 63
   257
283
     0
 90
        4
 91
        0
  1

274
    -2
284
     1
 64
     0
275
    -2
285
     1
 65
     0
276
    -2
286
     1
 66
     0
277
    -2
287
     1
 67
     0
278
    -2
288
     1
 68
     0
279
    -2
289
     1
 69
     0
  0
VISUALSTYLE
  5
2F
102
{ACAD_REACTORS
330
2A
102
}
102
{ACAD_XDICTIONARY
360
A1
102
}
330
2A
100
AcDbVisualStyle
  2
2dWireframe
 70
     4
 71
     0
 72
     2
 73
     0
 90
        0
 40
0.6
 41
30.0
 62
     5
 63
     7
421
 16777215
 74
     1
 91
        4
 64
     7
 65
   257
 75
     1
175
     1
 42
1.0
 92
        0
 66
   257
 43
1.0
 76
     1
 77
     6
 78
     2
 67
     7
 79
     5
170
     0
171
     0
290
     0
174
     0
 93
        1
 44
0.0
173
     0
291
     0
 45
0.0
  0
VISUALSTYLE
  5
32
102
{ACAD_REACTORS
330
2A
102
}
102
{ACAD_XDICTIONARY
360
A7
102
}
330
2A
100
AcDbVisualStyle
  2
Basic
 70
     7
 71
     1
 72
     0
 73
     1
 90
        0
 40
0.6
 41
30.0
 62
     5
 63
     7
421
 16777215
 74
     0
 91
        4
 64
     7
 65
   257
 75
     1
175
     1
 42
1.0
 92
        8
 66
     7
 43
1.0
 76
     1
 77
     6
 78
     2
 67
     7
 79
     5
170
     0
171
     0
290
     0
174
     0
 93
        1
 44
0.0
173
     0
291
     1
 45
0.0
  0
VISUALSTYLE
  5
36
102
{ACAD_REACTORS
330
2A
102
}
102
{ACAD_XDICTIONARY
360
AF
102
}
330
2A
100
AcDbVisualStyle
  2
Brighten
 70
    12
 71
     2
 72
     2
 73
     0
 90
        0
 40
0.6
 41
30.0
 62
     5
 63
     7
421
 16777215
 74
     1
 91
        4
 64
     7
 65
   257
 75
     1
175
     1
 42
1.0
 92
        8
 66
     7
 43
1.0
 76
     1
 77
     6
 78
     2
 67
     7
 79
     5
170
     0
171
     0
290
     0
174
     0
 93
        1
 44
50.0
173
     0
291
     1
 45
0.0
  0
VISUALSTYLE
  5
3A
102
{ACAD_REACTORS
330
2A
102
}
102
{ACAD_XDICTIONARY
360
B7
102
}
330
2A
100
AcDbVisualStyle
  2
ColorChange
 70
    16
 71
     2
 72
     2
 73
     3
 90
        0
 40
0.6
 41
30.0
 62
     5
 63
     8
421
  8421504
 74
     1
 91
        4
 64
     7
 65
   257
 75
     1
175
     1
 42
1.0
 92
        8
 66
     8
424
  8421504
 43
1.0
 76
     1
 77
     6
 78
     2
 67
     7
 79
     5
170
     0
171
     0
290
     0
174
     0
 93
        1
 44
0.0
173
     0
291
     1
 45
0.0
  0
VISUALSTYLE
  5
34
102
{ACAD_REACTORS
330
2A
102
}
102
{ACAD_XDICTIONARY
360
AB
102
}
330
2A
100
AcDbVisualStyle
  2
Conceptual
 70
     9
 71
     3
 72
     2
 73
     0
 90
        0
 40
0.6
 41
30.0
 62
     5
 63
     7
421
 16777215
 74
     2
 91
        2
 64
     7
 65
   257
 75
     1
175
     1
 42
179.0
 92
        8
 66
     7
 43
1.0
 76
     1
 77
     6
 78
     2
 67
     7
 79
     3
170
     0
171
     0
290
     0
174
     0
 93
        1
 44
0.0
173
     0
291
     0
 45
0.0
  0
VISUALSTYLE
  5
35
102
{ACAD_REACTORS
330
2A
102
}
102
{ACAD_XDICTIONARY
360
AD
102
}
330
2A
100
AcDbVisualStyle
  2
Dim
 70
    11
 71
     2
 72
     2
 73
     0
 90
        0
 40
0.6
 41
30.0
 62
     5
 63
     7
421
 16777215
 74
     1
 91
        4
 64
     7
 65
   257
 75
     1
175
     1
 42
1.0
 92
        8
 66
     7
 43
1.0
 76
     1
 77
     6
 78
     2
 67
     7
 79
     5
170
     0
171
     0
290
     0
174
     0
 93
        1
 44
-50.0
173
     0
291
     1
 45
0.0
  0
VISUALSTYLE
  5
3D
102
{ACAD_REACTORS
330
2A
102
}
102
{ACAD_XDICTIONARY
360
BD
102
}
330
2A
100
AcDbVisualStyle
  2
EdgeColorOff
 70
    22
 71
     2
 72
     2
 73
     0
 90
        0
 40
0.6
 41
30.0
 62
     5
 63
     7
421
 16777215
 74
     1
 91
        4
 64
     7
 65
   257
 75
     1
175
     1
 42
1.0
 92
        8
 66
     7
 43
1.0
 76
     1
 77
     6
 78
     2
 67
     7
 79
     5
170
     0
171
     0
290
     0
174
     0
 93
        1
 44
0.0
173
     0
291
     1
 45
0.0
  0
VISUALSTYLE
  5
39
102
{ACAD_REACTORS
330
2A
102
}
102
{ACAD_XDICTIONARY
360
B5
102
}
330
2A
100
AcDbVisualStyle
  2
Facepattern
 70
    15
 71
     2
 72
     2
 73
     0
 90
        0
 40
0.6
 41
30.0
 62
     5
 63
     7
421
 16777215
 74
     1
 91
        4
 64
     7
 65
   257
 75
     1
175
     1
 42
1.0
 92
        8
 66
     7
 43
1.0
 76
     1
 77
     6
 78
     2
 67
     7
 79
     5
170
     0
171
     0
290
     0
174
     0
 93
        1
 44
0.0
173
     0
291
     1
 45
0.0
  0
VISUALSTYLE
  5
2B
102
{ACAD_REACTORS
330
2A
102
}
102
{ACAD_XDICTIONARY
360
99
102
}
330
2A
100
AcDbVisualStyle
  2
Flat
 70
     0
 71
     2
 72
     1
 73
     1
 90
        2
 40
0.6
 41
30.0
 62
     5
 63
     7
421
 16777215
 74
     0
 91
        0
 64
     7
 65
   257
 75
     1
175
     1
 42
1.0
 92
        8
 66
     7
 43
1.0
 76
     1
 77
     6
 78
     2
 67
     7
 79
     5
170
     0
171
     0
290
     0
174
     0
 93
       13
 44
0.0
173
     0
291
     1
 45
0.0
  0
VISUALSTYLE
  5
2C
102
{ACAD_REACTORS
330
2A
102
}
102
{ACAD_XDICTIONARY
360
9B
102
}
330
2A
100
AcDbVisualStyle
  2
FlatWithEdges
 70
     1
 71
     2
 72
     1
 73
     1
 90
        2
 40
0.6
 41
30.0
 62
     5
 63
     7
421
 16777215
 74
     1
 91
        0
 64
     7
 65
   257
 75
     1
175
     1
 42
1.0
 92
        0
 66
   257
 43
1.0
 76
     1
 77
     6
 78
     2
 67
     7
 79
     5
170
     0
171
     0
290
     0
174
     0
 93
       13
 44
0.0
173
     0
291
     1
 45
0.0
  0
VISUALSTYLE
  5
2D
102
{ACAD_REACTORS
330
2A
102
}
102
{ACAD_XDICTIONARY
360
9D
102
}
330
2A
100
AcDbVisualStyle
  2
Gouraud
 70
     2
 71
     2
 72
     2
 73
     1
 90
        2
 40
0.6
 41
30.0
 62
     5
 63
     7
421
 16777215
 74
     0
 91
        0
 64
     7
 65
   257
 75
     1
175
     1
 42
1.0
 92
        0
 66
     7
 43
1.0
 76
     1
 77
     6
 78
     2
 67
     7
 79
     5
170
     0
171
     0
290
     0
174
     0
 93
       13
 44
0.0
173
     0
291
     1
 45
0.0
  0
VISUALSTYLE
  5
2E
102
{ACAD_REACTORS
330
2A
102
}
102
{ACAD_XDICTIONARY
360
9F
102
}
330
2A
100
AcDbVisualStyle
  2
GouraudWithEdges
 70
     3
 71
     2
 72
     2
 73
     1
 90
        2
 40
0.6
 41
30.0
 62
     5
 63
     7
421
 16777215
 74
     1
 91
        0
 64
     7
 65
   257
 75
     1
175
     1
 42
1.0
 92
        0
 66
   257
 43
1.0
 76
     1
 77
     6
 78
     2
 67
     7
 79
     5
170
     0
171
     0
290
     0
174
     0
 93
       13
 44
0.0
173
     0
291
     1
 45
0.0
  0
VISUALSTYLE
  5
31
102
{ACAD_REACTORS
330
2A
102
}
102
{ACAD_XDICTIONARY
360
A5
102
}
330
2A
100
AcDbVisualStyle
  2
Hidden
 70
     6
 71
     1
 72
     2
 73
     2
 90
        0
 40
0.6
 41
30.0
 62
     5
 63
     7
421
 16777215
 74
     2
 91
        2
 64
     7
 65
   257
 75
     2
175
     1
 42
40.0
 92
        0
 66
   257
 43
1.0
 76
     1
 77
     6
 78
     2
 67
     7
 79
     3
170
     0
171
     0
290
     0
174
     0
 93
        1
 44
0.0
173
     0
291
     0
 45
0.0
  0
VISUALSTYLE
  5
3B
102
{ACAD_REACTORS
330
2A
102
}
102
{ACAD_XDICTIONARY
360
B9
102
}
330
2A
100
AcDbVisualStyle
  2
JitterOff
 70
    20
 71
     2
 72
     2
 73
     0
 90
        0
 40
0.6
 41
30.0
 62
     5
 63
     7
421
 16777215
 74
     1
 91
        4
 64
     7
 65
   257
 75
     1
175
     1
 42
1.0
 92
       10
 66
     7
 43
1.0
 76
     1
 77
     6
 78
     2
 67
     7
 79
     5
170
     0
171
     0
290
     0
174
     0
 93
        1
 44
0.0
173
     0
291
     1
 45
0.0
  0
VISUALSTYLE
  5
38
102
{ACAD_REACTORS
330
2A
102
}
102
{ACAD_XDICTIONARY
360
B3
102
}
330
2A
100
AcDbVisualStyle
  2
Linepattern
 70
    14
 71
     2
 72
     2
 73
     0
 90
        0
 40
0.6
 41
30.0
 62
     5
 63
     7
421
 16777215
 74
     1
 91
        4
 64
     7
 65
   257
 75
     7
175
     7
 42
1.0
 92
        8
 66
     7
 43
1.0
 76
     1
 77
     6
 78
     2
 67
     7
 79
     5
170
     0
171
     0
290
     0
174
     0
 93
        1
 44
0.0
173
     0
291
     1
 45
0.0
  0
VISUALSTYLE
  5
3C
102
{ACAD_REACTORS
330
2A
102
}
102
{ACAD_XDICTIONARY
360
BB
102
}
330
2A
100
AcDbVisualStyle
  2
OverhangOff
 70
    21
 71
     2
 72
     2
 73
     0
 90
        0
 40
0.6
 41
30.0
 62
     5
 63
     7
421
 16777215
 74
     1
 91
        4
 64
     7
 65
   257
 75
     1
175
     1
 42
1.0
 92
        9
 66
     7
 43
1.0
 76
     1
 77
     6
 78
     2
 67
     7
 79
     5
170
     0
171
     0
290
     0
174
     0
 93
        1
 44
0.0
173
     0
291
     1
 45
0.0
  0
VISUALSTYLE
  5
33
102
{ACAD_REACTORS
330
2A
102
}
102
{ACAD_XDICTIONARY
360
A9
102
}
330
2A
100
AcDbVisualStyle
  2
Realistic
 70
     8
 71
     2
 72
     3
 73
     0
 90
        2
 40
0.6
 41
30.0
 62
     5
 63
     7
421
 16777215
 74
     0
 91
        0
 64
     7
 65
   257
 75
     1
175
     1
 42
1.0
 92
        8
 66
   257
 43
1.0
 76
     1
 77
     6
 78
     2
 67
     7
 79
     3
170
     0
171
     0
290
     0
174
     0
 93
       13
 44
0.0
173
     0
291
     0
 45
0.0
  0
VISUALSTYLE
  5
42
102
{ACAD_REACTORS
330
2A
102
}
102
{ACAD_XDICTIONARY
360
C7
102
}
330
2A
100
AcDbVisualStyle
  2
Shaded
 70
    27
 71
     2
 72
     2
 73
     1
 90
        2
 40
0.6
 41
30.0
 62
     5
 63
     7
421
 16777215
 74
     0
 91
        4
 64
     7
 65
   257
 75
     1
175
     1
 42
1.0
 92
        8
 66
   257
 43
1.0
 76
     1
 77
     6
 78
     2
 67
     8
425
  7895160
 79
     3
170
     0
171
     0
290
     0
174
     0
 93
        5
 44
0.0
173
     0
291
     0
 45
0.0
  0
VISUALSTYLE
  5
41
102
{ACAD_REACTORS
330
2A
102
}
102
{ACAD_XDICTIONARY
360
C5
102
}
330
2A
100
AcDbVisualStyle
  2
Shaded with edges
 70
    26
 71
     2
 72
     2
 73
     1
 90
        2
 40
0.6
 41
30.0
 62
     5
 63
     7
421
 16777215
 74
     1
 91
       10
 64
     7
 65
   257
 75
     2
175
     1
 42
1.0
 92
        8
 66
   257
 43
1.0
 76
     1
 77
     6
 78
     2
 67
     7
 79
     3
170
     0
171
     0
290
     0
174
     0
 93
        5
 44
0.0
173
     0
291
     0
 45
0.0
  0
VISUALSTYLE
  5
3E
102
{ACAD_REACTORS
330
2A
102
}
102
{ACAD_XDICTIONARY
360
BF
102
}
330
2A
100
AcDbVisualStyle
  2
Shades of Gray
 70
    23
 71
     2
 72
     2
 73
     3
 90
        0
 40
0.6
 41
30.0
 62
     5
 63
     7
421
 16777215
 74
     2
 91
        2
 64
     7
 65
     7
 75
     1
175
     1
 42
40.0
 92
        8
 66
     7
 43
1.0
 76
     1
 77
     6
 78
     2
 67
     7
 79
     3
170
     0
171
     0
290
     0
174
     0
 93
        1
 44
0.0
173
     0
291
     0
 45
0.0
  0
VISUALSTYLE
  5
3F
102
{ACAD_REACTORS
330
2A
102
}
102
{ACAD_XDICTIONARY
360
C1
102
}
330
2A
100
AcDbVisualStyle
  2
Sketchy
 70
    24
 71
     1
 72
     2
 73
     2
 90
        0
 40
0.6
 41
30.0
 62
     5
 63
     7
421
 16777215
 74
     2
 91
        2
 64
     7
 65
     7
 75
     1
175
     1
 42
40.0
 92
       11
 66
     7
 43
1.0
 76
     1
 77
     6
 78
     2
 67
     7
 79
     6
170
     0
171
     0
290
     0
174
     0
 93
        1
 44
0.0
173
     0
291
     0
 45
0.0
  0
VISUALSTYLE
  5
37
102
{ACAD_REACTORS
330
2A
102
}
102
{ACAD_XDICTIONARY
360
B1
102
}
330
2A
100
AcDbVisualStyle
  2
Thicken
 70
    13
 71
     2
 72
     2
 73
     0
 90
        0
 40
0.6
 41
30.0
 62
     5
 63
     7
421
 16777215
 74
     1
 91
        4
 64
     7
 65
   257
 75
     1
175
     1
 42
1.0
 92
       12
 66
     7
 43
1.0
 76
     1
 77
     6
 78
     2
 67
     7
 79
     5
170
     0
171
     0
290
     0
174
     0
 93
        1
 44
0.0
173
     0
291
     1
 45
0.0
  0
VISUALSTYLE
  5
30
102
{ACAD_REACTORS
330
2A
102
}
102
{ACAD_XDICTIONARY
360
A3
102
}
330
2A
100
AcDbVisualStyle
  2
Wireframe
 70
     5
 71
     0
 72
     2
 73
     0
 90
        0
 40
0.6
 41
30.0
 62
     5
 63
     7
421
 16777215
 74
     1
 91
        4
 64
     7
 65
   257
 75
     1
175
     1
 42
1.0
 92
        0
 66
   257
 43
1.0
 76
     1
 77
     6
 78
     2
 67
     7
 79
     3
170
     0
171
     0
290
     0
174
     0
 93
        1
 44
0.0
173
     0
291
     0
 45
0.0
  0
VISUALSTYLE
  5
40
102
{ACAD_REACTORS
330
2A
102
}
102
{ACAD_XDICTIONARY
360
C3
102
}
330
2A
100
AcDbVisualStyle
  2
X-Ray
 70
    25
 71
     2
 72
     2
 73
     1
 90
        1
 40
0.5
 41
30.0
 62
     5
 63
     7
421
 16777215
 74
     1
 91
        0
 64
     7
 65
   257
 75
     1
175
     1
 42
1.0
 92
        8
 66
     7
 43
1.0
 76
     1
 77
     6
 78
     2
 67
     7
 79
     3
170
     0
171
     0
290
     0
174
     0
 93
       13
 44
0.0
173
     0
291
     0
 45
0.0
  0
DICTIONARYVAR
  5
97
102
{ACAD_REACTORS
330
96
102
}
330
96
100
DictionaryVariables
280
     0
  1
1:1
  0
DICTIONARYVAR
  5
D0
102
{ACAD_REACTORS
330
96
102
}
330
96
100
DictionaryVariables
280
     0
  1
Standard
  0
DICTIONARYVAR
  5
CF
102
{ACAD_REACTORS
330
96
102
}
330
96
100
DictionaryVariables
280
     0
  1
Standard
  0
DICTIONARYVAR
  5
98
102
{ACAD_REACTORS
330
96
102
}
330
96
100
DictionaryVariables
280
     0
  1
2
  0
DICTIONARY
  5
CC
330
6C
100
AcDbDictionary
280
     1
281
     1
  3
ACAD_XREC_ROUNDTRIP
360
CD
  0
DICTIONARY
  5
C9
330
6A
100
AcDbDictionary
280
     1
281
     1
  3
ACAD_ROUNDTRIP_2008_TABLESTYLE_CELLSTYLEMAP
360
CA
  0
DICTIONARY
  5
A1
330
2F
100
AcDbDictionary
280
     1
281
     1
  3
ACAD_XREC_ROUNDTRIP
360
A2
  0
DICTIONARY
  5
A7
330
32
100
AcDbDictionary
280
     1
281
     1
  3
ACAD_XREC_ROUNDTRIP
360
A8
  0
DICTIONARY
  5
AF
330
36
100
AcDbDictionary
280
     1
281
     1
  3
ACAD_XREC_ROUNDTRIP
360
B0
  0
DICTIONARY
  5
B7
330
3A
100
AcDbDictionary
280
     1
281
     1
  3
ACAD_XREC_ROUNDTRIP
360
B8
  0
DICTIONARY
  5
AB
330
34
100
AcDbDictionary
280
     1
281
     1
  3
ACAD_XREC_ROUNDTRIP
360
AC
  0
DICTIONARY
  5
AD
330
35
100
AcDbDictionary
280
     1
281
     1
  3
ACAD_XREC_ROUNDTRIP
360
AE
  0
DICTIONARY
  5
BD
330
3D
100
AcDbDictionary
280
     1
281
     1
  3
ACAD_XREC_ROUNDTRIP
360
BE
  0
DICTIONARY
  5
B5
330
39
100
AcDbDictionary
280
     1
281
     1
  3
ACAD_XREC_ROUNDTRIP
360
B6
  0
DICTIONARY
  5
99
330
2B
100
AcDbDictionary
280
     1
281
     1
  3
ACAD_XREC_ROUNDTRIP
360
9A
  0
DICTIONARY
  5
9B
330
2C
100
AcDbDictionary
280
     1
281
     1
  3
ACAD_XREC_ROUNDTRIP
360
9C
  0
DICTIONARY
  5
9D
330
2D
100
AcDbDictionary
280
     1
281
     1
  3
ACAD_XREC_ROUNDTRIP
360
9E
  0
DICTIONARY
  5
9F
330
2E
100
AcDbDictionary
280
     1
281
     1
  3
ACAD_XREC_ROUNDTRIP
360
A0
  0
DICTIONARY
  5
A5
330
31
100
AcDbDictionary
280
     1
281
     1
  3
ACAD_XREC_ROUNDTRIP
360
A6
  0
DICTIONARY
  5
B9
330
3B
100
AcDbDictionary
280
     1
281
     1
  3
ACAD_XREC_ROUNDTRIP
360
BA
  0
DICTIONARY
  5
B3
330
38
100
AcDbDictionary
280
     1
281
     1
  3
ACAD_XREC_ROUNDTRIP
360
B4
  0
DICTIONARY
  5
BB
330
3C
100
AcDbDictionary
280
     1
281
     1
  3
ACAD_XREC_ROUNDTRIP
360
BC
  0
DICTIONARY
  5
A9
330
33
100
AcDbDictionary
280
     1
281
     1
  3
ACAD_XREC_ROUNDTRIP
360
AA
  0
DICTIONARY
  5
C7
330
42
100
AcDbDictionary
280
     1
281
     1
  3
ACAD_XREC_ROUNDTRIP
360
C8
  0
DICTIONARY
  5
C5
330
41
100
AcDbDictionary
280
     1
281
     1
  3
ACAD_XREC_ROUNDTRIP
360
C6
  0
DICTIONARY
  5
BF
330
3E
100
AcDbDictionary
280
     1
281
     1
  3
ACAD_XREC_ROUNDTRIP
360
C0
  0
DICTIONARY
  5
C1
330
3F
100
AcDbDictionary
280
     1
281
     1
  3
ACAD_XREC_ROUNDTRIP
360
C2
  0
DICTIONARY
  5
B1
330
37
100
AcDbDictionary
280
     1
281
     1
  3
ACAD_XREC_ROUNDTRIP
360
B2
  0
DICTIONARY
  5
A3
330
30
100
AcDbDictionary
280
     1
281
     1
  3
ACAD_XREC_ROUNDTRIP
360
A4
  0
DICTIONARY
  5
C3
330
40
100
AcDbDictionary
280
     1
281
     1
  3
ACAD_XREC_ROUNDTRIP
360
C4
  0
XRECORD
  5
CD
102
{ACAD_REACTORS
330
CC
102
}
330
CC
100
AcDbXrecord
280
     1
102
ACAD_ROUNDTRIP_2010_MLEADER_STYLE
  0
CELLSTYLEMAP
  5
CA
102
{ACAD_REACTORS
330
C9
102
}
330
C9
100
AcDbCellStyleMap
 90
        3
300
CELLSTYLE
  1
TABLEFORMAT_BEGIN
 90
        5
170
     1
 91
        0
 92
    32768
 62
   257
 93
        1
300
CONTENTFORMAT
  1
CONTENTFORMAT_BEGIN
 90
        0
 91
        0
 92
        4
 93
        0
300

 40
0.0
140
1.0
 94
        5
 62
     0
340
11
144
0.25
309
CONTENTFORMAT_END
171
     1
301
MARGIN
  1
CELLMARGIN_BEGIN
 40
0.06
 40
0.06
 40
0.06
 40
0.06
 40
0.06
 40
0.06
309
CELLMARGIN_END
 94
        6
 95
        1
302
GRIDFORMAT
  1
GRIDFORMAT_BEGIN
 90
        0
 91
        1
 62
     0
 92
       -2
340
14
 93
        0
 40
0.045
309
GRIDFORMAT_END
 95
        2
302
GRIDFORMAT
  1
GRIDFORMAT_BEGIN
 90
        0
 91
        1
 62
     0
 92
       -2
340
14
 93
        0
 40
0.045
309
GRIDFORMAT_END
 95
        4
302
GRIDFORMAT
  1
GRIDFORMAT_BEGIN
 90
        0
 91
        1
 62
     0
 92
       -2
340
14
 93
        0
 40
0.045
309
GRIDFORMAT_END
 95
        8
302
GRIDFORMAT
  1
GRIDFORMAT_BEGIN
 90
        0
 91
        1
 62
     0
 92
       -2
340
14
 93
        0
 40
0.045
309
GRIDFORMAT_END
 95
       16
302
GRIDFORMAT
  1
GRIDFORMAT_BEGIN
 90
        0
 91
        1
 62
     0
 92
       -2
340
14
 93
        0
 40
0.045
309
GRIDFORMAT_END
 95
       32
302
GRIDFORMAT
  1
GRIDFORMAT_BEGIN
 90
        0
 91
        1
 62
     0
 92
       -2
340
14
 93
        0
 40
0.045
309
GRIDFORMAT_END
309
TABLEFORMAT_END
  1
CELLSTYLE_BEGIN
 90
        1
 91
        1
300
_TITLE
309
CELLSTYLE_END
300
CELLSTYLE
  1
TABLEFORMAT_BEGIN
 90
        5
170
     1
 91
        0
 92
        0
 62
   257
 93
        1
300
CONTENTFORMAT
  1
CONTENTFORMAT_BEGIN
 90
        0
 91
        0
 92
        4
 93
        0
300

 40
0.0
140
1.0
 94
        5
 62
     0
340
11
144
0.18
309
CONTENTFORMAT_END
171
     1
301
MARGIN
  1
CELLMARGIN_BEGIN
 40
0.06
 40
0.06
 40
0.06
 40
0.06
 40
0.06
 40
0.06
309
CELLMARGIN_END
 94
        6
 95
        1
302
GRIDFORMAT
  1
GRIDFORMAT_BEGIN
 90
        0
 91
        1
 62
     0
 92
       -2
340
14
 93
        0
 40
0.045
309
GRIDFORMAT_END
 95
        2
302
GRIDFORMAT
  1
GRIDFORMAT_BEGIN
 90
        0
 91
        1
 62
     0
 92
       -2
340
14
 93
        0
 40
0.045
309
GRIDFORMAT_END
 95
        4
302
GRIDFORMAT
  1
GRIDFORMAT_BEGIN
 90
        0
 91
        1
 62
     0
 92
       -2
340
14
 93
        0
 40
0.045
309
GRIDFORMAT_END
 95
        8
302
GRIDFORMAT
  1
GRIDFORMAT_BEGIN
 90
        0
 91
        1
 62
     0
 92
       -2
340
14
 93
        0
 40
0.045
309
GRIDFORMAT_END
 95
       16
302
GRIDFORMAT
  1
GRIDFORMAT_BEGIN
 90
        0
 91
        1
 62
     0
 92
       -2
340
14
 93
        0
 40
0.045
309
GRIDFORMAT_END
 95
       32
302
GRIDFORMAT
  1
GRIDFORMAT_BEGIN
 90
        0
 91
        1
 62
     0
 92
       -2
340
14
 93
        0
 40
0.045
309
GRIDFORMAT_END
309
TABLEFORMAT_END
  1
CELLSTYLE_BEGIN
 90
        2
 91
        1
300
_HEADER
309
CELLSTYLE_END
300
CELLSTYLE
  1
TABLEFORMAT_BEGIN
 90
        5
170
     1
 91
        0
 92
        0
 62
   257
 93
        1
300
CONTENTFORMAT
  1
CONTENTFORMAT_BEGIN
 90
        0
 91
        0
 92
        4
 93
        0
300

 40
0.0
140
1.0
 94
        2
 62
     0
340
11
144
0.18
309
CONTENTFORMAT_END
171
     1
301
MARGIN
  1
CELLMARGIN_BEGIN
 40
0.06
 40
0.06
 40
0.06
 40
0.06
 40
0.06
 40
0.06
309
CELLMARGIN_END
 94
        6
 95
        1
302
GRIDFORMAT
  1
GRIDFORMAT_BEGIN
 90
        0
 91
        1
 62
     0
 92
       -2
340
14
 93
        0
 40
0.045
309
GRIDFORMAT_END
 95
        2
302
GRIDFORMAT
  1
GRIDFORMAT_BEGIN
 90
        0
 91
        1
 62
     0
 92
       -2
340
14
 93
        0
 40
0.045
309
GRIDFORMAT_END
 95
        4
302
GRIDFORMAT
  1
GRIDFORMAT_BEGIN
 90
        0
 91
        1
 62
     0
 92
       -2
340
14
 93
        0
 40
0.045
309
GRIDFORMAT_END
 95
        8
302
GRIDFORMAT
  1
GRIDFORMAT_BEGIN
 90
        0
 91
        1
 62
     0
 92
       -2
340
14
 93
        0
 40
0.045
309
GRIDFORMAT_END
 95
       16
302
GRIDFORMAT
  1
GRIDFORMAT_BEGIN
 90
        0
 91
        1
 62
     0
 92
       -2
340
14
 93
        0
 40
0.045
309
GRIDFORMAT_END
 95
       32
302
GRIDFORMAT
  1
GRIDFORMAT_BEGIN
 90
        0
 91
        1
 62
     0
 92
       -2
340
14
 93
        0
 40
0.045
309
GRIDFORMAT_END
309
TABLEFORMAT_END
  1
CELLSTYLE_BEGIN
 90
        3
 91
        2
300
_DATA
309
CELLSTYLE_END
  0
XRECORD
  5
A2
102
{ACAD_REACTORS
330
A1
102
}
330
A1
100
AcDbXrecord
280
     1
102
RTVSPropertyOp0
 70
     1
102
RTVSPropertyOp1
 70
     1
102
RTVSPropertyOp2
 70
     1
102
RTVSPropertyOp3
 70
     1
102
RTVSPropertyOp4
 70
     1
102
RTVSPropertyOp5
 70
     1
102
RTVSPropertyOp6
 70
     1
102
RTVSPropertyOp7
 70
     1
102
RTVSPropertyOp8
 70
     1
102
RTVSPropertyOp9
 70
     1
102
RTVSPropertyOp10
 70
     1
102
RTVSPropertyOp11
 70
     1
102
RTVSPropertyOp12
 70
     1
102
RTVSPropertyOp13
 70
     1
102
RTVSPropertyOp14
 70
     1
102
RTVSPropertyOp15
 70
     1
102
RTVSPropertyOp16
 70
     1
102
RTVSPropertyOp17
 70
     1
102
RTVSPropertyOp18
 70
     1
102
RTVSPropertyOp19
 70
     1
102
RTVSPropertyOp20
 70
     1
102
RTVSPropertyOp21
 70
     1
102
RTVSPropertyOp22
 70
     1
102
RTVSPropertyOp23
 70
     1
102
RTVSPropertyOp24
 70
     1
102
RTVSPropertyOp25
 70
     1
102
RTVSPropertyOp26
 70
     1
102
RTVSPropertyOp27
 70
     1
102
RTVSPropertyOp28
 70
     1
102
RTVSPropertyOp29
 70
     1
102
RTVSPropertyOp30
 70
     1
102
RTVSPropertyOp31
 70
     1
102
RTVSPropertyOp32
 70
     1
102
RTVSPropertyOp33
 70
     1
102
RTVSPropertyOp34
 70
     1
102
RTVSPropertyOp35
 70
     1
102
RTVSPropertyOp36
 70
     1
102
RTVSPropertyOp37
 70
     1
102
RTVSPropertyOp38
 70
     1
102
RTVSPropertyOp39
 70
     1
102
RTVSPropertyOp40
 70
     1
102
RTVSPropertyOp41
 70
     1
102
RTVSPropertyOp42
 70
     1
102
RTVSPropertyOp43
 70
     1
102
RTVSPropertyOp44
 70
     1
102
RTVSPropertyOp45
 70
     1
102
RTVSPropertyOp46
 70
     1
102
RTVSPropertyOp47
 70
     1
102
RTVSPropertyOp48
 70
     1
102
RTVSPropertyOp49
 70
     1
102
RTVSPropertyOp50
 70
     1
102
RTVSPropertyOp51
 70
     0
102
RTVSPropertyOp52
 70
     0
102
RTVSPropertyOp53
 70
     1
102
RTVSPropertyOp54
 70
     1
102
RTVSPropertyOp55
 70
     1
102
RTVSPropertyOp56
 70
     1
102
RTVSPropertyOp57
 70
     1
102
RTVSPost2010Prop28
280
     1
102
RTVSPost2010PropOp28
 70
     1
102
RTVSPost2010Prop29
280
     1
102
RTVSPost2010PropOp29
 70
     1
102
RTVSPost2010Prop30
280
     0
102
RTVSPost2010PropOp30
 70
     1
102
RTVSPost2010Prop31
280
     0
102
RTVSPost2010PropOp31
 70
     1
102
RTVSPost2010Prop32
280
     0
102
RTVSPost2010PropOp32
 70
     1
102
RTVSPost2010Prop33
280
     0
102
RTVSPost2010PropOp33
 70
     1
102
RTVSPost2010Prop34
280
     0
102
RTVSPost2010PropOp34
 70
     1
102
RTVSPost2010Prop35
280
     0
102
RTVSPost2010PropOp35
 70
     1
102
RTVSPost2010Prop36
280
     0
102
RTVSPost2010PropOp36
 70
     1
102
RTVSPost2010Prop37
 90
       50
102
RTVSPost2010PropOp37
 70
     1
102
RTVSPost2010Prop38
140
0.0
102
RTVSPost2010PropOp38
 70
     1
102
RTVSPost2010Prop39
140
1.0
102
RTVSPost2010PropOp39
 70
     1
102
RTVSPost2010Prop40
 90
        0
102
RTVSPost2010PropOp40
 70
     1
102
RTVSPost2010Prop41ColorIndex
 90
       18
102
RTVSPost2010Prop41ColorRGB
 90
        0
102
RTVSPost2010PropOp41
 70
     1
102
RTVSPost2010Prop42
 90
       50
102
RTVSPost2010PropOp42
 70
     1
102
RTVSPost2010Prop43
 90
        3
102
RTVSPost2010PropOp43
 70
     1
102
RTVSPost2010Prop44ColorIndex
 90
        5
102
RTVSPost2010Prop44ColorRGB
 90
      255
102
RTVSPost2010PropOp44
 70
     1
102
RTVSPost2010Prop45
280
     0
102
RTVSPost2010PropOp45
 70
     1
102
RTVSPost2010Prop46
 90
       50
102
RTVSPost2010PropOp46
 70
     1
102
RTVSPost2010Prop47
 90
       50
102
RTVSPost2010PropOp47
 70
     1
102
RTVSPost2010Prop48
 90
       50
102
RTVSPost2010PropOp48
 70
     1
102
RTVSPost2010Prop49
280
     0
102
RTVSPost2010PropOp49
 70
     1
102
RTVSPost2010Prop50
 90
       50
102
RTVSPost2010PropOp50
 70
     1
102
RTVSPost2010Prop51ColorIndex
 90
      256
102
RTVSPost2010Prop51ColorRGB
 90
-16777216
102
RTVSPost2010PropOp51
 70
     0
102
RTVSPost2010Prop52
140
1.0
102
RTVSPost2010PropOp52
 70
     0
102
RTVSPost2010Prop53
 90
        2
102
RTVSPost2010PropOp53
 70
     1
102
RTVSPost2010Prop54
  1
strokes_ogs.tif
102
RTVSPost2010PropOp54
 70
     1
102
RTVSPost2010Prop55
280
     0
102
RTVSPost2010PropOp55
 70
     1
102
RTVSPost2010Prop56
140
1.0
102
RTVSPost2010PropOp56
 70
     1
102
RTVSPost2010Prop57
140
1.0
102
RTVSPost2010PropOp57
 70
     1
  0
XRECORD
  5
A8
102
{ACAD_REACTORS
330
A7
102
}
330
A7
100
AcDbXrecord
280
     1
102
RTVSPropertyOp0
 70
     1
102
RTVSPropertyOp1
 70
     1
102
RTVSPropertyOp2
 70
     1
102
RTVSPropertyOp3
 70
     1
102
RTVSPropertyOp4
 70
     1
102
RTVSPropertyOp5
 70
     1
102
RTVSPropertyOp6
 70
     1
102
RTVSPropertyOp7
 70
     1
102
RTVSPropertyOp8
 70
     1
102
RTVSPropertyOp9
 70
     1
102
RTVSPropertyOp10
 70
     1
102
RTVSPropertyOp11
 70
     1
102
RTVSPropertyOp12
 70
     1
102
RTVSPropertyOp13
 70
     1
102
RTVSPropertyOp14
 70
     1
102
RTVSPropertyOp15
 70
     1
102
RTVSPropertyOp16
 70
     1
102
RTVSPropertyOp17
 70
     1
102
RTVSPropertyOp18
 70
     1
102
RTVSPropertyOp19
 70
     1
102
RTVSPropertyOp20
 70
     1
102
RTVSPropertyOp21
 70
     1
102
RTVSPropertyOp22
 70
     1
102
RTVSPropertyOp23
 70
     1
102
RTVSPropertyOp24
 70
     1
102
RTVSPropertyOp25
 70
     1
102
RTVSPropertyOp26
 70
     1
102
RTVSPropertyOp27
 70
     1
102
RTVSPropertyOp28
 70
     1
102
RTVSPropertyOp29
 70
     1
102
RTVSPropertyOp30
 70
     1
102
RTVSPropertyOp31
 70
     1
102
RTVSPropertyOp32
 70
     1
102
RTVSPropertyOp33
 70
     1
102
RTVSPropertyOp34
 70
     1
102
RTVSPropertyOp35
 70
     1
102
RTVSPropertyOp36
 70
     1
102
RTVSPropertyOp37
 70
     1
102
RTVSPropertyOp38
 70
     1
102
RTVSPropertyOp39
 70
     1
102
RTVSPropertyOp40
 70
     1
102
RTVSPropertyOp41
 70
     1
102
RTVSPropertyOp42
 70
     1
102
RTVSPropertyOp43
 70
     1
102
RTVSPropertyOp44
 70
     1
102
RTVSPropertyOp45
 70
     1
102
RTVSPropertyOp46
 70
     1
102
RTVSPropertyOp47
 70
     1
102
RTVSPropertyOp48
 70
     1
102
RTVSPropertyOp49
 70
     1
102
RTVSPropertyOp50
 70
     1
102
RTVSPropertyOp51
 70
     0
102
RTVSPropertyOp52
 70
     0
102
RTVSPropertyOp53
 70
     1
102
RTVSPropertyOp54
 70
     1
102
RTVSPropertyOp55
 70
     1
102
RTVSPropertyOp56
 70
     1
102
RTVSPropertyOp57
 70
     1
102
RTVSPost2010Prop28
280
     0
102
RTVSPost2010PropOp28
 70
     1
102
RTVSPost2010Prop29
280
     1
102
RTVSPost2010PropOp29
 70
     1
102
RTVSPost2010Prop30
280
     1
102
RTVSPost2010PropOp30
 70
     1
102
RTVSPost2010Prop31
280
     0
102
RTVSPost2010PropOp31
 70
     1
102
RTVSPost2010Prop32
280
     0
102
RTVSPost2010PropOp32
 70
     1
102
RTVSPost2010Prop33
280
     0
102
RTVSPost2010PropOp33
 70
     1
102
RTVSPost2010Prop34
280
     0
102
RTVSPost2010PropOp34
 70
     1
102
RTVSPost2010Prop35
280
     0
102
RTVSPost2010PropOp35
 70
     1
102
RTVSPost2010Prop36
280
     0
102
RTVSPost2010PropOp36
 70
     1
102
RTVSPost2010Prop37
 90
       50
102
RTVSPost2010PropOp37
 70
     1
102
RTVSPost2010Prop38
140
0.0
102
RTVSPost2010PropOp38
 70
     1
102
RTVSPost2010Prop39
140
1.0
102
RTVSPost2010PropOp39
 70
     1
102
RTVSPost2010Prop40
 90
        0
102
RTVSPost2010PropOp40
 70
     1
102
RTVSPost2010Prop41ColorIndex
 90
       18
102
RTVSPost2010Prop41ColorRGB
 90
        0
102
RTVSPost2010PropOp41
 70
     1
102
RTVSPost2010Prop42
 90
       50
102
RTVSPost2010PropOp42
 70
     1
102
RTVSPost2010Prop43
 90
        3
102
RTVSPost2010PropOp43
 70
     1
102
RTVSPost2010Prop44ColorIndex
 90
        5
102
RTVSPost2010Prop44ColorRGB
 90
      255
102
RTVSPost2010PropOp44
 70
     1
102
RTVSPost2010Prop45
280
     0
102
RTVSPost2010PropOp45
 70
     1
102
RTVSPost2010Prop46
 90
       50
102
RTVSPost2010PropOp46
 70
     1
102
RTVSPost2010Prop47
 90
       50
102
RTVSPost2010PropOp47
 70
     1
102
RTVSPost2010Prop48
 90
       50
102
RTVSPost2010PropOp48
 70
     1
102
RTVSPost2010Prop49
280
     0
102
RTVSPost2010PropOp49
 70
     1
102
RTVSPost2010Prop50
 90
       50
102
RTVSPost2010PropOp50
 70
     1
102
RTVSPost2010Prop51ColorIndex
 90
      256
102
RTVSPost2010Prop51ColorRGB
 90
-16777216
102
RTVSPost2010PropOp51
 70
     0
102
RTVSPost2010Prop52
140
1.0
102
RTVSPost2010PropOp52
 70
     0
102
RTVSPost2010Prop53
 90
        2
102
RTVSPost2010PropOp53
 70
     1
102
RTVSPost2010Prop54
  1
strokes_ogs.tif
102
RTVSPost2010PropOp54
 70
     1
102
RTVSPost2010Prop55
280
     0
102
RTVSPost2010PropOp55
 70
     1
102
RTVSPost2010Prop56
140
1.0
102
RTVSPost2010PropOp56
 70
     1
102
RTVSPost2010Prop57
140
1.0
102
RTVSPost2010PropOp57
 70
     1
  0
XRECORD
  5
B0
102
{ACAD_REACTORS
330
AF
102
}
330
AF
100
AcDbXrecord
280
     1
102
RTVSPropertyOp0
 70
     1
102
RTVSPropertyOp1
 70
     1
102
RTVSPropertyOp2
 70
     1
102
RTVSPropertyOp3
 70
     1
102
RTVSPropertyOp4
 70
     1
102
RTVSPropertyOp5
 70
     1
102
RTVSPropertyOp6
 70
     1
102
RTVSPropertyOp7
 70
     1
102
RTVSPropertyOp8
 70
     1
102
RTVSPropertyOp9
 70
     1
102
RTVSPropertyOp10
 70
     1
102
RTVSPropertyOp11
 70
     1
102
RTVSPropertyOp12
 70
     1
102
RTVSPropertyOp13
 70
     1
102
RTVSPropertyOp14
 70
     1
102
RTVSPropertyOp15
 70
     1
102
RTVSPropertyOp16
 70
     1
102
RTVSPropertyOp17
 70
     1
102
RTVSPropertyOp18
 70
     1
102
RTVSPropertyOp19
 70
     1
102
RTVSPropertyOp20
 70
     1
102
RTVSPropertyOp21
 70
     1
102
RTVSPropertyOp22
 70
     1
102
RTVSPropertyOp23
 70
     1
102
RTVSPropertyOp24
 70
     1
102
RTVSPropertyOp25
 70
     1
102
RTVSPropertyOp26
 70
     1
102
RTVSPropertyOp27
 70
     1
102
RTVSPropertyOp28
 70
     1
102
RTVSPropertyOp29
 70
     1
102
RTVSPropertyOp30
 70
     1
102
RTVSPropertyOp31
 70
     1
102
RTVSPropertyOp32
 70
     1
102
RTVSPropertyOp33
 70
     1
102
RTVSPropertyOp34
 70
     1
102
RTVSPropertyOp35
 70
     1
102
RTVSPropertyOp36
 70
     1
102
RTVSPropertyOp37
 70
     1
102
RTVSPropertyOp38
 70
     1
102
RTVSPropertyOp39
 70
     1
102
RTVSPropertyOp40
 70
     1
102
RTVSPropertyOp41
 70
     1
102
RTVSPropertyOp42
 70
     1
102
RTVSPropertyOp43
 70
     1
102
RTVSPropertyOp44
 70
     1
102
RTVSPropertyOp45
 70
     1
102
RTVSPropertyOp46
 70
     1
102
RTVSPropertyOp47
 70
     1
102
RTVSPropertyOp48
 70
     1
102
RTVSPropertyOp49
 70
     1
102
RTVSPropertyOp50
 70
     1
102
RTVSPropertyOp51
 70
     0
102
RTVSPropertyOp52
 70
     0
102
RTVSPropertyOp53
 70
     1
102
RTVSPropertyOp54
 70
     1
102
RTVSPropertyOp55
 70
     1
102
RTVSPropertyOp56
 70
     1
102
RTVSPropertyOp57
 70
     1
102
RTVSPost2010Prop28
280
     0
102
RTVSPost2010PropOp28
 70
     1
102
RTVSPost2010Prop29
280
     1
102
RTVSPost2010PropOp29
 70
     1
102
RTVSPost2010Prop30
280
     1
102
RTVSPost2010PropOp30
 70
     1
102
RTVSPost2010Prop31
280
     0
102
RTVSPost2010PropOp31
 70
     1
102
RTVSPost2010Prop32
280
     0
102
RTVSPost2010PropOp32
 70
     1
102
RTVSPost2010Prop33
280
     0
102
RTVSPost2010PropOp33
 70
     1
102
RTVSPost2010Prop34
280
     0
102
RTVSPost2010PropOp34
 70
     1
102
RTVSPost2010Prop35
280
     0
102
RTVSPost2010PropOp35
 70
     1
102
RTVSPost2010Prop36
280
     0
102
RTVSPost2010PropOp36
 70
     1
102
RTVSPost2010Prop37
 90
       50
102
RTVSPost2010PropOp37
 70
     1
102
RTVSPost2010Prop38
140
0.0
102
RTVSPost2010PropOp38
 70
     1
102
RTVSPost2010Prop39
140
1.0
102
RTVSPost2010PropOp39
 70
     1
102
RTVSPost2010Prop40
 90
        0
102
RTVSPost2010PropOp40
 70
     1
102
RTVSPost2010Prop41ColorIndex
 90
       18
102
RTVSPost2010Prop41ColorRGB
 90
        0
102
RTVSPost2010PropOp41
 70
     1
102
RTVSPost2010Prop42
 90
       50
102
RTVSPost2010PropOp42
 70
     1
102
RTVSPost2010Prop43
 90
        3
102
RTVSPost2010PropOp43
 70
     1
102
RTVSPost2010Prop44ColorIndex
 90
        5
102
RTVSPost2010Prop44ColorRGB
 90
      255
102
RTVSPost2010PropOp44
 70
     1
102
RTVSPost2010Prop45
280
     0
102
RTVSPost2010PropOp45
 70
     1
102
RTVSPost2010Prop46
 90
       50
102
RTVSPost2010PropOp46
 70
     1
102
RTVSPost2010Prop47
 90
       50
102
RTVSPost2010PropOp47
 70
     1
102
RTVSPost2010Prop48
 90
       50
102
RTVSPost2010PropOp48
 70
     1
102
RTVSPost2010Prop49
280
     0
102
RTVSPost2010PropOp49
 70
     1
102
RTVSPost2010Prop50
 90
       50
102
RTVSPost2010PropOp50
 70
     1
102
RTVSPost2010Prop51ColorIndex
 90
      256
102
RTVSPost2010Prop51ColorRGB
 90
-16777216
102
RTVSPost2010PropOp51
 70
     0
102
RTVSPost2010Prop52
140
1.0
102
RTVSPost2010PropOp52
 70
     0
102
RTVSPost2010Prop53
 90
        2
102
RTVSPost2010PropOp53
 70
     1
102
RTVSPost2010Prop54
  1
strokes_ogs.tif
102
RTVSPost2010PropOp54
 70
     1
102
RTVSPost2010Prop55
280
     0
102
RTVSPost2010PropOp55
 70
     1
102
RTVSPost2010Prop56
140
1.0
102
RTVSPost2010PropOp56
 70
     1
102
RTVSPost2010Prop57
140
1.0
102
RTVSPost2010PropOp57
 70
     1
  0
XRECORD
  5
B8
102
{ACAD_REACTORS
330
B7
102
}
330
B7
100
AcDbXrecord
280
     1
102
RTVSPropertyOp0
 70
     1
102
RTVSPropertyOp1
 70
     1
102
RTVSPropertyOp2
 70
     1
102
RTVSPropertyOp3
 70
     1
102
RTVSPropertyOp4
 70
     1
102
RTVSPropertyOp5
 70
     1
102
RTVSPropertyOp6
 70
     1
102
RTVSPropertyOp7
 70
     1
102
RTVSPropertyOp8
 70
     1
102
RTVSPropertyOp9
 70
     1
102
RTVSPropertyOp10
 70
     1
102
RTVSPropertyOp11
 70
     1
102
RTVSPropertyOp12
 70
     1
102
RTVSPropertyOp13
 70
     1
102
RTVSPropertyOp14
 70
     1
102
RTVSPropertyOp15
 70
     1
102
RTVSPropertyOp16
 70
     1
102
RTVSPropertyOp17
 70
     1
102
RTVSPropertyOp18
 70
     1
102
RTVSPropertyOp19
 70
     1
102
RTVSPropertyOp20
 70
     1
102
RTVSPropertyOp21
 70
     1
102
RTVSPropertyOp22
 70
     1
102
RTVSPropertyOp23
 70
     1
102
RTVSPropertyOp24
 70
     1
102
RTVSPropertyOp25
 70
     1
102
RTVSPropertyOp26
 70
     1
102
RTVSPropertyOp27
 70
     1
102
RTVSPropertyOp28
 70
     1
102
RTVSPropertyOp29
 70
     1
102
RTVSPropertyOp30
 70
     1
102
RTVSPropertyOp31
 70
     1
102
RTVSPropertyOp32
 70
     1
102
RTVSPropertyOp33
 70
     1
102
RTVSPropertyOp34
 70
     1
102
RTVSPropertyOp35
 70
     1
102
RTVSPropertyOp36
 70
     1
102
RTVSPropertyOp37
 70
     1
102
RTVSPropertyOp38
 70
     1
102
RTVSPropertyOp39
 70
     1
102
RTVSPropertyOp40
 70
     1
102
RTVSPropertyOp41
 70
     1
102
RTVSPropertyOp42
 70
     1
102
RTVSPropertyOp43
 70
     1
102
RTVSPropertyOp44
 70
     1
102
RTVSPropertyOp45
 70
     1
102
RTVSPropertyOp46
 70
     1
102
RTVSPropertyOp47
 70
     1
102
RTVSPropertyOp48
 70
     1
102
RTVSPropertyOp49
 70
     1
102
RTVSPropertyOp50
 70
     1
102
RTVSPropertyOp51
 70
     0
102
RTVSPropertyOp52
 70
     0
102
RTVSPropertyOp53
 70
     1
102
RTVSPropertyOp54
 70
     1
102
RTVSPropertyOp55
 70
     1
102
RTVSPropertyOp56
 70
     1
102
RTVSPropertyOp57
 70
     1
102
RTVSPost2010Prop28
280
     0
102
RTVSPost2010PropOp28
 70
     1
102
RTVSPost2010Prop29
280
     1
102
RTVSPost2010PropOp29
 70
     1
102
RTVSPost2010Prop30
280
     1
102
RTVSPost2010PropOp30
 70
     1
102
RTVSPost2010Prop31
280
     0
102
RTVSPost2010PropOp31
 70
     1
102
RTVSPost2010Prop32
280
     0
102
RTVSPost2010PropOp32
 70
     1
102
RTVSPost2010Prop33
280
     0
102
RTVSPost2010PropOp33
 70
     1
102
RTVSPost2010Prop34
280
     0
102
RTVSPost2010PropOp34
 70
     1
102
RTVSPost2010Prop35
280
     0
102
RTVSPost2010PropOp35
 70
     1
102
RTVSPost2010Prop36
280
     0
102
RTVSPost2010PropOp36
 70
     1
102
RTVSPost2010Prop37
 90
       50
102
RTVSPost2010PropOp37
 70
     1
102
RTVSPost2010Prop38
140
0.0
102
RTVSPost2010PropOp38
 70
     1
102
RTVSPost2010Prop39
140
1.0
102
RTVSPost2010PropOp39
 70
     1
102
RTVSPost2010Prop40
 90
        0
102
RTVSPost2010PropOp40
 70
     1
102
RTVSPost2010Prop41ColorIndex
 90
       18
102
RTVSPost2010Prop41ColorRGB
 90
        0
102
RTVSPost2010PropOp41
 70
     1
102
RTVSPost2010Prop42
 90
       50
102
RTVSPost2010PropOp42
 70
     1
102
RTVSPost2010Prop43
 90
        3
102
RTVSPost2010PropOp43
 70
     1
102
RTVSPost2010Prop44ColorIndex
 90
        5
102
RTVSPost2010Prop44ColorRGB
 90
      255
102
RTVSPost2010PropOp44
 70
     1
102
RTVSPost2010Prop45
280
     0
102
RTVSPost2010PropOp45
 70
     1
102
RTVSPost2010Prop46
 90
       50
102
RTVSPost2010PropOp46
 70
     1
102
RTVSPost2010Prop47
 90
       50
102
RTVSPost2010PropOp47
 70
     1
102
RTVSPost2010Prop48
 90
       50
102
RTVSPost2010PropOp48
 70
     1
102
RTVSPost2010Prop49
280
     0
102
RTVSPost2010PropOp49
 70
     1
102
RTVSPost2010Prop50
 90
       50
102
RTVSPost2010PropOp50
 70
     1
102
RTVSPost2010Prop51ColorIndex
 90
      256
102
RTVSPost2010Prop51ColorRGB
 90
-16777216
102
RTVSPost2010PropOp51
 70
     0
102
RTVSPost2010Prop52
140
1.0
102
RTVSPost2010PropOp52
 70
     0
102
RTVSPost2010Prop53
 90
        2
102
RTVSPost2010PropOp53
 70
     1
102
RTVSPost2010Prop54
  1
strokes_ogs.tif
102
RTVSPost2010PropOp54
 70
     1
102
RTVSPost2010Prop55
280
     0
102
RTVSPost2010PropOp55
 70
     1
102
RTVSPost2010Prop56
140
1.0
102
RTVSPost2010PropOp56
 70
     1
102
RTVSPost2010Prop57
140
1.0
102
RTVSPost2010PropOp57
 70
     1
  0
XRECORD
  5
AC
102
{ACAD_REACTORS
330
AB
102
}
330
AB
100
AcDbXrecord
280
     1
102
RTVSPropertyOp0
 70
     1
102
RTVSPropertyOp1
 70
     1
102
RTVSPropertyOp2
 70
     1
102
RTVSPropertyOp3
 70
     1
102
RTVSPropertyOp4
 70
     1
102
RTVSPropertyOp5
 70
     1
102
RTVSPropertyOp6
 70
     1
102
RTVSPropertyOp7
 70
     1
102
RTVSPropertyOp8
 70
     1
102
RTVSPropertyOp9
 70
     1
102
RTVSPropertyOp10
 70
     1
102
RTVSPropertyOp11
 70
     1
102
RTVSPropertyOp12
 70
     1
102
RTVSPropertyOp13
 70
     1
102
RTVSPropertyOp14
 70
     1
102
RTVSPropertyOp15
 70
     1
102
RTVSPropertyOp16
 70
     1
102
RTVSPropertyOp17
 70
     1
102
RTVSPropertyOp18
 70
     1
102
RTVSPropertyOp19
 70
     1
102
RTVSPropertyOp20
 70
     1
102
RTVSPropertyOp21
 70
     1
102
RTVSPropertyOp22
 70
     1
102
RTVSPropertyOp23
 70
     1
102
RTVSPropertyOp24
 70
     1
102
RTVSPropertyOp25
 70
     1
102
RTVSPropertyOp26
 70
     1
102
RTVSPropertyOp27
 70
     1
102
RTVSPropertyOp28
 70
     1
102
RTVSPropertyOp29
 70
     1
102
RTVSPropertyOp30
 70
     1
102
RTVSPropertyOp31
 70
     1
102
RTVSPropertyOp32
 70
     1
102
RTVSPropertyOp33
 70
     1
102
RTVSPropertyOp34
 70
     1
102
RTVSPropertyOp35
 70
     1
102
RTVSPropertyOp36
 70
     1
102
RTVSPropertyOp37
 70
     1
102
RTVSPropertyOp38
 70
     1
102
RTVSPropertyOp39
 70
     1
102
RTVSPropertyOp40
 70
     1
102
RTVSPropertyOp41
 70
     1
102
RTVSPropertyOp42
 70
     1
102
RTVSPropertyOp43
 70
     1
102
RTVSPropertyOp44
 70
     1
102
RTVSPropertyOp45
 70
     1
102
RTVSPropertyOp46
 70
     1
102
RTVSPropertyOp47
 70
     1
102
RTVSPropertyOp48
 70
     1
102
RTVSPropertyOp49
 70
     1
102
RTVSPropertyOp50
 70
     1
102
RTVSPropertyOp51
 70
     0
102
RTVSPropertyOp52
 70
     0
102
RTVSPropertyOp53
 70
     1
102
RTVSPropertyOp54
 70
     1
102
RTVSPropertyOp55
 70
     1
102
RTVSPropertyOp56
 70
     1
102
RTVSPropertyOp57
 70
     1
102
RTVSPost2010Prop28
280
     0
102
RTVSPost2010PropOp28
 70
     1
102
RTVSPost2010Prop29
280
     1
102
RTVSPost2010PropOp29
 70
     1
102
RTVSPost2010Prop30
280
     1
102
RTVSPost2010PropOp30
 70
     1
102
RTVSPost2010Prop31
280
     0
102
RTVSPost2010PropOp31
 70
     1
102
RTVSPost2010Prop32
280
     0
102
RTVSPost2010PropOp32
 70
     1
102
RTVSPost2010Prop33
280
     0
102
RTVSPost2010PropOp33
 70
     1
102
RTVSPost2010Prop34
280
     0
102
RTVSPost2010PropOp34
 70
     1
102
RTVSPost2010Prop35
280
     0
102
RTVSPost2010PropOp35
 70
     1
102
RTVSPost2010Prop36
280
     0
102
RTVSPost2010PropOp36
 70
     1
102
RTVSPost2010Prop37
 90
       50
102
RTVSPost2010PropOp37
 70
     1
102
RTVSPost2010Prop38
140
0.0
102
RTVSPost2010PropOp38
 70
     1
102
RTVSPost2010Prop39
140
1.0
102
RTVSPost2010PropOp39
 70
     1
102
RTVSPost2010Prop40
 90
        0
102
RTVSPost2010PropOp40
 70
     1
102
RTVSPost2010Prop41ColorIndex
 90
       18
102
RTVSPost2010Prop41ColorRGB
 90
        0
102
RTVSPost2010PropOp41
 70
     1
102
RTVSPost2010Prop42
 90
       50
102
RTVSPost2010PropOp42
 70
     1
102
RTVSPost2010Prop43
 90
        3
102
RTVSPost2010PropOp43
 70
     1
102
RTVSPost2010Prop44ColorIndex
 90
        5
102
RTVSPost2010Prop44ColorRGB
 90
      255
102
RTVSPost2010PropOp44
 70
     1
102
RTVSPost2010Prop45
280
     0
102
RTVSPost2010PropOp45
 70
     1
102
RTVSPost2010Prop46
 90
       50
102
RTVSPost2010PropOp46
 70
     1
102
RTVSPost2010Prop47
 90
       50
102
RTVSPost2010PropOp47
 70
     1
102
RTVSPost2010Prop48
 90
       50
102
RTVSPost2010PropOp48
 70
     1
102
RTVSPost2010Prop49
280
     0
102
RTVSPost2010PropOp49
 70
     1
102
RTVSPost2010Prop50
 90
       50
102
RTVSPost2010PropOp50
 70
     1
102
RTVSPost2010Prop51ColorIndex
 90
      256
102
RTVSPost2010Prop51ColorRGB
 90
-16777216
102
RTVSPost2010PropOp51
 70
     0
102
RTVSPost2010Prop52
140
1.0
102
RTVSPost2010PropOp52
 70
     0
102
RTVSPost2010Prop53
 90
        2
102
RTVSPost2010PropOp53
 70
     1
102
RTVSPost2010Prop54
  1
strokes_ogs.tif
102
RTVSPost2010PropOp54
 70
     1
102
RTVSPost2010Prop55
280
     0
102
RTVSPost2010PropOp55
 70
     1
102
RTVSPost2010Prop56
140
1.0
102
RTVSPost2010PropOp56
 70
     1
102
RTVSPost2010Prop57
140
1.0
102
RTVSPost2010PropOp57
 70
     1
  0
XRECORD
  5
AE
102
{ACAD_REACTORS
330
AD
102
}
330
AD
100
AcDbXrecord
280
     1
102
RTVSPropertyOp0
 70
     1
102
RTVSPropertyOp1
 70
     1
102
RTVSPropertyOp2
 70
     1
102
RTVSPropertyOp3
 70
     1
102
RTVSPropertyOp4
 70
     1
102
RTVSPropertyOp5
 70
     1
102
RTVSPropertyOp6
 70
     1
102
RTVSPropertyOp7
 70
     1
102
RTVSPropertyOp8
 70
     1
102
RTVSPropertyOp9
 70
     1
102
RTVSPropertyOp10
 70
     1
102
RTVSPropertyOp11
 70
     1
102
RTVSPropertyOp12
 70
     1
102
RTVSPropertyOp13
 70
     1
102
RTVSPropertyOp14
 70
     1
102
RTVSPropertyOp15
 70
     1
102
RTVSPropertyOp16
 70
     1
102
RTVSPropertyOp17
 70
     1
102
RTVSPropertyOp18
 70
     1
102
RTVSPropertyOp19
 70
     1
102
RTVSPropertyOp20
 70
     1
102
RTVSPropertyOp21
 70
     1
102
RTVSPropertyOp22
 70
     1
102
RTVSPropertyOp23
 70
     1
102
RTVSPropertyOp24
 70
     1
102
RTVSPropertyOp25
 70
     1
102
RTVSPropertyOp26
 70
     1
102
RTVSPropertyOp27
 70
     1
102
RTVSPropertyOp28
 70
     1
102
RTVSPropertyOp29
 70
     1
102
RTVSPropertyOp30
 70
     1
102
RTVSPropertyOp31
 70
     1
102
RTVSPropertyOp32
 70
     1
102
RTVSPropertyOp33
 70
     1
102
RTVSPropertyOp34
 70
     1
102
RTVSPropertyOp35
 70
     1
102
RTVSPropertyOp36
 70
     1
102
RTVSPropertyOp37
 70
     1
102
RTVSPropertyOp38
 70
     1
102
RTVSPropertyOp39
 70
     1
102
RTVSPropertyOp40
 70
     1
102
RTVSPropertyOp41
 70
     1
102
RTVSPropertyOp42
 70
     1
102
RTVSPropertyOp43
 70
     1
102
RTVSPropertyOp44
 70
     1
102
RTVSPropertyOp45
 70
     1
102
RTVSPropertyOp46
 70
     1
102
RTVSPropertyOp47
 70
     1
102
RTVSPropertyOp48
 70
     1
102
RTVSPropertyOp49
 70
     1
102
RTVSPropertyOp50
 70
     1
102
RTVSPropertyOp51
 70
     0
102
RTVSPropertyOp52
 70
     0
102
RTVSPropertyOp53
 70
     1
102
RTVSPropertyOp54
 70
     1
102
RTVSPropertyOp55
 70
     1
102
RTVSPropertyOp56
 70
     1
102
RTVSPropertyOp57
 70
     1
102
RTVSPost2010Prop28
280
     0
102
RTVSPost2010PropOp28
 70
     1
102
RTVSPost2010Prop29
280
     1
102
RTVSPost2010PropOp29
 70
     1
102
RTVSPost2010Prop30
280
     1
102
RTVSPost2010PropOp30
 70
     1
102
RTVSPost2010Prop31
280
     0
102
RTVSPost2010PropOp31
 70
     1
102
RTVSPost2010Prop32
280
     0
102
RTVSPost2010PropOp32
 70
     1
102
RTVSPost2010Prop33
280
     0
102
RTVSPost2010PropOp33
 70
     1
102
RTVSPost2010Prop34
280
     0
102
RTVSPost2010PropOp34
 70
     1
102
RTVSPost2010Prop35
280
     0
102
RTVSPost2010PropOp35
 70
     1
102
RTVSPost2010Prop36
280
     0
102
RTVSPost2010PropOp36
 70
     1
102
RTVSPost2010Prop37
 90
       50
102
RTVSPost2010PropOp37
 70
     1
102
RTVSPost2010Prop38
140
0.0
102
RTVSPost2010PropOp38
 70
     1
102
RTVSPost2010Prop39
140
1.0
102
RTVSPost2010PropOp39
 70
     1
102
RTVSPost2010Prop40
 90
        0
102
RTVSPost2010PropOp40
 70
     1
102
RTVSPost2010Prop41ColorIndex
 90
       18
102
RTVSPost2010Prop41ColorRGB
 90
        0
102
RTVSPost2010PropOp41
 70
     1
102
RTVSPost2010Prop42
 90
       50
102
RTVSPost2010PropOp42
 70
     1
102
RTVSPost2010Prop43
 90
        3
102
RTVSPost2010PropOp43
 70
     1
102
RTVSPost2010Prop44ColorIndex
 90
        5
102
RTVSPost2010Prop44ColorRGB
 90
      255
102
RTVSPost2010PropOp44
 70
     1
102
RTVSPost2010Prop45
280
     0
102
RTVSPost2010PropOp45
 70
     1
102
RTVSPost2010Prop46
 90
       50
102
RTVSPost2010PropOp46
 70
     1
102
RTVSPost2010Prop47
 90
       50
102
RTVSPost2010PropOp47
 70
     1
102
RTVSPost2010Prop48
 90
       50
102
RTVSPost2010PropOp48
 70
     1
102
RTVSPost2010Prop49
280
     0
102
RTVSPost2010PropOp49
 70
     1
102
RTVSPost2010Prop50
 90
       50
102
RTVSPost2010PropOp50
 70
     1
102
RTVSPost2010Prop51ColorIndex
 90
      256
102
RTVSPost2010Prop51ColorRGB
 90
-16777216
102
RTVSPost2010PropOp51
 70
     0
102
RTVSPost2010Prop52
140
1.0
102
RTVSPost2010PropOp52
 70
     0
102
RTVSPost2010Prop53
 90
        2
102
RTVSPost2010PropOp53
 70
     1
102
RTVSPost2010Prop54
  1
strokes_ogs.tif
102
RTVSPost2010PropOp54
 70
     1
102
RTVSPost2010Prop55
280
     0
102
RTVSPost2010PropOp55
 70
     1
102
RTVSPost2010Prop56
140
1.0
102
RTVSPost2010PropOp56
 70
     1
102
RTVSPost2010Prop57
140
1.0
102
RTVSPost2010PropOp57
 70
     1
  0
XRECORD
  5
BE
102
{ACAD_REACTORS
330
BD
102
}
330
BD
100
AcDbXrecord
280
     1
102
RTVSPropertyOp0
 70
     0
102
RTVSPropertyOp1
 70
     0
102
RTVSPropertyOp2
 70
     0
102
RTVSPropertyOp3
 70
     0
102
RTVSPropertyOp4
 70
     0
102
RTVSPropertyOp5
 70
     0
102
RTVSPropertyOp6
 70
     0
102
RTVSPropertyOp7
 70
     0
102
RTVSPropertyOp8
 70
     0
102
RTVSPropertyOp9
 70
     0
102
RTVSPropertyOp10
 70
     0
102
RTVSPropertyOp11
 70
     0
102
RTVSPropertyOp12
 70
     0
102
RTVSPropertyOp13
 70
     0
102
RTVSPropertyOp14
 70
     2
102
RTVSPropertyOp15
 70
     0
102
RTVSPropertyOp16
 70
     0
102
RTVSPropertyOp17
 70
     0
102
RTVSPropertyOp18
 70
     0
102
RTVSPropertyOp19
 70
     0
102
RTVSPropertyOp20
 70
     0
102
RTVSPropertyOp21
 70
     0
102
RTVSPropertyOp22
 70
     0
102
RTVSPropertyOp23
 70
     0
102
RTVSPropertyOp24
 70
     0
102
RTVSPropertyOp25
 70
     0
102
RTVSPropertyOp26
 70
     0
102
RTVSPropertyOp27
 70
     0
102
RTVSPropertyOp28
 70
     0
102
RTVSPropertyOp29
 70
     0
102
RTVSPropertyOp30
 70
     0
102
RTVSPropertyOp31
 70
     0
102
RTVSPropertyOp32
 70
     0
102
RTVSPropertyOp33
 70
     0
102
RTVSPropertyOp34
 70
     0
102
RTVSPropertyOp35
 70
     0
102
RTVSPropertyOp36
 70
     0
102
RTVSPropertyOp37
 70
     0
102
RTVSPropertyOp38
 70
     0
102
RTVSPropertyOp39
 70
     0
102
RTVSPropertyOp40
 70
     0
102
RTVSPropertyOp41
 70
     0
102
RTVSPropertyOp42
 70
     0
102
RTVSPropertyOp43
 70
     0
102
RTVSPropertyOp44
 70
     0
102
RTVSPropertyOp45
 70
     0
102
RTVSPropertyOp46
 70
     0
102
RTVSPropertyOp47
 70
     0
102
RTVSPropertyOp48
 70
     0
102
RTVSPropertyOp49
 70
     0
102
RTVSPropertyOp50
 70
     0
102
RTVSPropertyOp51
 70
     0
102
RTVSPropertyOp52
 70
     0
102
RTVSPropertyOp53
 70
     0
102
RTVSPropertyOp54
 70
     0
102
RTVSPropertyOp55
 70
     0
102
RTVSPropertyOp56
 70
     0
102
RTVSPropertyOp57
 70
     0
102
RTVSPost2010Prop28
280
     0
102
RTVSPost2010PropOp28
 70
     0
102
RTVSPost2010Prop29
280
     1
102
RTVSPost2010PropOp29
 70
     0
102
RTVSPost2010Prop30
280
     1
102
RTVSPost2010PropOp30
 70
     0
102
RTVSPost2010Prop31
280
     0
102
RTVSPost2010PropOp31
 70
     0
102
RTVSPost2010Prop32
280
     0
102
RTVSPost2010PropOp32
 70
     0
102
RTVSPost2010Prop33
280
     0
102
RTVSPost2010PropOp33
 70
     0
102
RTVSPost2010Prop34
280
     0
102
RTVSPost2010PropOp34
 70
     0
102
RTVSPost2010Prop35
280
     0
102
RTVSPost2010PropOp35
 70
     0
102
RTVSPost2010Prop36
280
     0
102
RTVSPost2010PropOp36
 70
     0
102
RTVSPost2010Prop37
 90
       50
102
RTVSPost2010PropOp37
 70
     0
102
RTVSPost2010Prop38
140
0.0
102
RTVSPost2010PropOp38
 70
     0
102
RTVSPost2010Prop39
140
1.0
102
RTVSPost2010PropOp39
 70
     0
102
RTVSPost2010Prop40
 90
        0
102
RTVSPost2010PropOp40
 70
     0
102
RTVSPost2010Prop41ColorIndex
 90
       18
102
RTVSPost2010Prop41ColorRGB
 90
        0
102
RTVSPost2010PropOp41
 70
     0
102
RTVSPost2010Prop42
 90
       50
102
RTVSPost2010PropOp42
 70
     0
102
RTVSPost2010Prop43
 90
        3
102
RTVSPost2010PropOp43
 70
     0
102
RTVSPost2010Prop44ColorIndex
 90
        5
102
RTVSPost2010Prop44ColorRGB
 90
      255
102
RTVSPost2010PropOp44
 70
     0
102
RTVSPost2010Prop45
280
     0
102
RTVSPost2010PropOp45
 70
     0
102
RTVSPost2010Prop46
 90
       50
102
RTVSPost2010PropOp46
 70
     0
102
RTVSPost2010Prop47
 90
       50
102
RTVSPost2010PropOp47
 70
     0
102
RTVSPost2010Prop48
 90
       50
102
RTVSPost2010PropOp48
 70
     0
102
RTVSPost2010Prop49
280
     0
102
RTVSPost2010PropOp49
 70
     0
102
RTVSPost2010Prop50
 90
       50
102
RTVSPost2010PropOp50
 70
     0
102
RTVSPost2010Prop51ColorIndex
 90
      256
102
RTVSPost2010Prop51ColorRGB
 90
-16777216
102
RTVSPost2010PropOp51
 70
     0
102
RTVSPost2010Prop52
140
1.0
102
RTVSPost2010PropOp52
 70
     0
102
RTVSPost2010Prop53
 90
        2
102
RTVSPost2010PropOp53
 70
     0
102
RTVSPost2010Prop54
  1
strokes_ogs.tif
102
RTVSPost2010PropOp54
 70
     0
102
RTVSPost2010Prop55
280
     0
102
RTVSPost2010PropOp55
 70
     0
102
RTVSPost2010Prop56
140
1.0
102
RTVSPost2010PropOp56
 70
     0
102
RTVSPost2010Prop57
140
1.0
102
RTVSPost2010PropOp57
 70
     0
  0
XRECORD
  5
B6
102
{ACAD_REACTORS
330
B5
102
}
330
B5
100
AcDbXrecord
280
     1
102
RTVSPropertyOp0
 70
     1
102
RTVSPropertyOp1
 70
     1
102
RTVSPropertyOp2
 70
     1
102
RTVSPropertyOp3
 70
     1
102
RTVSPropertyOp4
 70
     1
102
RTVSPropertyOp5
 70
     1
102
RTVSPropertyOp6
 70
     1
102
RTVSPropertyOp7
 70
     1
102
RTVSPropertyOp8
 70
     1
102
RTVSPropertyOp9
 70
     1
102
RTVSPropertyOp10
 70
     1
102
RTVSPropertyOp11
 70
     1
102
RTVSPropertyOp12
 70
     1
102
RTVSPropertyOp13
 70
     1
102
RTVSPropertyOp14
 70
     1
102
RTVSPropertyOp15
 70
     1
102
RTVSPropertyOp16
 70
     1
102
RTVSPropertyOp17
 70
     1
102
RTVSPropertyOp18
 70
     1
102
RTVSPropertyOp19
 70
     1
102
RTVSPropertyOp20
 70
     1
102
RTVSPropertyOp21
 70
     1
102
RTVSPropertyOp22
 70
     1
102
RTVSPropertyOp23
 70
     1
102
RTVSPropertyOp24
 70
     1
102
RTVSPropertyOp25
 70
     1
102
RTVSPropertyOp26
 70
     1
102
RTVSPropertyOp27
 70
     1
102
RTVSPropertyOp28
 70
     1
102
RTVSPropertyOp29
 70
     1
102
RTVSPropertyOp30
 70
     1
102
RTVSPropertyOp31
 70
     1
102
RTVSPropertyOp32
 70
     1
102
RTVSPropertyOp33
 70
     1
102
RTVSPropertyOp34
 70
     1
102
RTVSPropertyOp35
 70
     1
102
RTVSPropertyOp36
 70
     1
102
RTVSPropertyOp37
 70
     1
102
RTVSPropertyOp38
 70
     1
102
RTVSPropertyOp39
 70
     1
102
RTVSPropertyOp40
 70
     1
102
RTVSPropertyOp41
 70
     1
102
RTVSPropertyOp42
 70
     1
102
RTVSPropertyOp43
 70
     1
102
RTVSPropertyOp44
 70
     1
102
RTVSPropertyOp45
 70
     1
102
RTVSPropertyOp46
 70
     1
102
RTVSPropertyOp47
 70
     1
102
RTVSPropertyOp48
 70
     1
102
RTVSPropertyOp49
 70
     1
102
RTVSPropertyOp50
 70
     1
102
RTVSPropertyOp51
 70
     0
102
RTVSPropertyOp52
 70
     0
102
RTVSPropertyOp53
 70
     1
102
RTVSPropertyOp54
 70
     1
102
RTVSPropertyOp55
 70
     1
102
RTVSPropertyOp56
 70
     1
102
RTVSPropertyOp57
 70
     1
102
RTVSPost2010Prop28
280
     0
102
RTVSPost2010PropOp28
 70
     1
102
RTVSPost2010Prop29
280
     1
102
RTVSPost2010PropOp29
 70
     1
102
RTVSPost2010Prop30
280
     1
102
RTVSPost2010PropOp30
 70
     1
102
RTVSPost2010Prop31
280
     0
102
RTVSPost2010PropOp31
 70
     1
102
RTVSPost2010Prop32
280
     0
102
RTVSPost2010PropOp32
 70
     1
102
RTVSPost2010Prop33
280
     0
102
RTVSPost2010PropOp33
 70
     1
102
RTVSPost2010Prop34
280
     0
102
RTVSPost2010PropOp34
 70
     1
102
RTVSPost2010Prop35
280
     0
102
RTVSPost2010PropOp35
 70
     1
102
RTVSPost2010Prop36
280
     0
102
RTVSPost2010PropOp36
 70
     1
102
RTVSPost2010Prop37
 90
       50
102
RTVSPost2010PropOp37
 70
     1
102
RTVSPost2010Prop38
140
0.0
102
RTVSPost2010PropOp38
 70
     1
102
RTVSPost2010Prop39
140
1.0
102
RTVSPost2010PropOp39
 70
     1
102
RTVSPost2010Prop40
 90
        0
102
RTVSPost2010PropOp40
 70
     1
102
RTVSPost2010Prop41ColorIndex
 90
       18
102
RTVSPost2010Prop41ColorRGB
 90
        0
102
RTVSPost2010PropOp41
 70
     1
102
RTVSPost2010Prop42
 90
       50
102
RTVSPost2010PropOp42
 70
     1
102
RTVSPost2010Prop43
 90
        3
102
RTVSPost2010PropOp43
 70
     1
102
RTVSPost2010Prop44ColorIndex
 90
        5
102
RTVSPost2010Prop44ColorRGB
 90
      255
102
RTVSPost2010PropOp44
 70
     1
102
RTVSPost2010Prop45
280
     0
102
RTVSPost2010PropOp45
 70
     1
102
RTVSPost2010Prop46
 90
       50
102
RTVSPost2010PropOp46
 70
     1
102
RTVSPost2010Prop47
 90
       50
102
RTVSPost2010PropOp47
 70
     1
102
RTVSPost2010Prop48
 90
       50
102
RTVSPost2010PropOp48
 70
     1
102
RTVSPost2010Prop49
280
     0
102
RTVSPost2010PropOp49
 70
     1
102
RTVSPost2010Prop50
 90
       50
102
RTVSPost2010PropOp50
 70
     1
102
RTVSPost2010Prop51ColorIndex
 90
      256
102
RTVSPost2010Prop51ColorRGB
 90
-16777216
102
RTVSPost2010PropOp51
 70
     0
102
RTVSPost2010Prop52
140
1.0
102
RTVSPost2010PropOp52
 70
     0
102
RTVSPost2010Prop53
 90
        2
102
RTVSPost2010PropOp53
 70
     1
102
RTVSPost2010Prop54
  1
strokes_ogs.tif
102
RTVSPost2010PropOp54
 70
     1
102
RTVSPost2010Prop55
280
     0
102
RTVSPost2010PropOp55
 70
     1
102
RTVSPost2010Prop56
140
1.0
102
RTVSPost2010PropOp56
 70
     1
102
RTVSPost2010Prop57
140
1.0
102
RTVSPost2010PropOp57
 70
     1
  0
XRECORD
  5
9A
102
{ACAD_REACTORS
330
99
102
}
330
99
100
AcDbXrecord
280
     1
102
RTVSPropertyOp0
 70
     1
102
RTVSPropertyOp1
 70
     1
102
RTVSPropertyOp2
 70
     1
102
RTVSPropertyOp3
 70
     1
102
RTVSPropertyOp4
 70
     1
102
RTVSPropertyOp5
 70
     1
102
RTVSPropertyOp6
 70
     1
102
RTVSPropertyOp7
 70
     1
102
RTVSPropertyOp8
 70
     1
102
RTVSPropertyOp9
 70
     1
102
RTVSPropertyOp10
 70
     1
102
RTVSPropertyOp11
 70
     1
102
RTVSPropertyOp12
 70
     1
102
RTVSPropertyOp13
 70
     1
102
RTVSPropertyOp14
 70
     1
102
RTVSPropertyOp15
 70
     1
102
RTVSPropertyOp16
 70
     1
102
RTVSPropertyOp17
 70
     1
102
RTVSPropertyOp18
 70
     1
102
RTVSPropertyOp19
 70
     1
102
RTVSPropertyOp20
 70
     1
102
RTVSPropertyOp21
 70
     1
102
RTVSPropertyOp22
 70
     1
102
RTVSPropertyOp23
 70
     1
102
RTVSPropertyOp24
 70
     1
102
RTVSPropertyOp25
 70
     1
102
RTVSPropertyOp26
 70
     1
102
RTVSPropertyOp27
 70
     1
102
RTVSPropertyOp28
 70
     1
102
RTVSPropertyOp29
 70
     1
102
RTVSPropertyOp30
 70
     1
102
RTVSPropertyOp31
 70
     1
102
RTVSPropertyOp32
 70
     1
102
RTVSPropertyOp33
 70
     1
102
RTVSPropertyOp34
 70
     1
102
RTVSPropertyOp35
 70
     1
102
RTVSPropertyOp36
 70
     1
102
RTVSPropertyOp37
 70
     1
102
RTVSPropertyOp38
 70
     1
102
RTVSPropertyOp39
 70
     1
102
RTVSPropertyOp40
 70
     1
102
RTVSPropertyOp41
 70
     1
102
RTVSPropertyOp42
 70
     1
102
RTVSPropertyOp43
 70
     1
102
RTVSPropertyOp44
 70
     1
102
RTVSPropertyOp45
 70
     1
102
RTVSPropertyOp46
 70
     1
102
RTVSPropertyOp47
 70
     1
102
RTVSPropertyOp48
 70
     1
102
RTVSPropertyOp49
 70
     1
102
RTVSPropertyOp50
 70
     1
102
RTVSPropertyOp51
 70
     0
102
RTVSPropertyOp52
 70
     0
102
RTVSPropertyOp53
 70
     1
102
RTVSPropertyOp54
 70
     1
102
RTVSPropertyOp55
 70
     1
102
RTVSPropertyOp56
 70
     1
102
RTVSPropertyOp57
 70
     1
102
RTVSPost2010Prop28
280
     0
102
RTVSPost2010PropOp28
 70
     1
102
RTVSPost2010Prop29
280
     1
102
RTVSPost2010PropOp29
 70
     1
102
RTVSPost2010Prop30
280
     1
102
RTVSPost2010PropOp30
 70
     1
102
RTVSPost2010Prop31
280
     0
102
RTVSPost2010PropOp31
 70
     1
102
RTVSPost2010Prop32
280
     0
102
RTVSPost2010PropOp32
 70
     1
102
RTVSPost2010Prop33
280
     0
102
RTVSPost2010PropOp33
 70
     1
102
RTVSPost2010Prop34
280
     0
102
RTVSPost2010PropOp34
 70
     1
102
RTVSPost2010Prop35
280
     0
102
RTVSPost2010PropOp35
 70
     1
102
RTVSPost2010Prop36
280
     0
102
RTVSPost2010PropOp36
 70
     1
102
RTVSPost2010Prop37
 90
       50
102
RTVSPost2010PropOp37
 70
     1
102
RTVSPost2010Prop38
140
0.0
102
RTVSPost2010PropOp38
 70
     1
102
RTVSPost2010Prop39
140
1.0
102
RTVSPost2010PropOp39
 70
     1
102
RTVSPost2010Prop40
 90
        0
102
RTVSPost2010PropOp40
 70
     1
102
RTVSPost2010Prop41ColorIndex
 90
       18
102
RTVSPost2010Prop41ColorRGB
 90
        0
102
RTVSPost2010PropOp41
 70
     1
102
RTVSPost2010Prop42
 90
       50
102
RTVSPost2010PropOp42
 70
     1
102
RTVSPost2010Prop43
 90
        3
102
RTVSPost2010PropOp43
 70
     1
102
RTVSPost2010Prop44ColorIndex
 90
        5
102
RTVSPost2010Prop44ColorRGB
 90
      255
102
RTVSPost2010PropOp44
 70
     1
102
RTVSPost2010Prop45
280
     0
102
RTVSPost2010PropOp45
 70
     1
102
RTVSPost2010Prop46
 90
       50
102
RTVSPost2010PropOp46
 70
     1
102
RTVSPost2010Prop47
 90
       50
102
RTVSPost2010PropOp47
 70
     1
102
RTVSPost2010Prop48
 90
       50
102
RTVSPost2010PropOp48
 70
     1
102
RTVSPost2010Prop49
280
     0
102
RTVSPost2010PropOp49
 70
     1
102
RTVSPost2010Prop50
 90
       50
102
RTVSPost2010PropOp50
 70
     1
102
RTVSPost2010Prop51ColorIndex
 90
      256
102
RTVSPost2010Prop51ColorRGB
 90
-16777216
102
RTVSPost2010PropOp51
 70
     0
102
RTVSPost2010Prop52
140
1.0
102
RTVSPost2010PropOp52
 70
     0
102
RTVSPost2010Prop53
 90
        2
102
RTVSPost2010PropOp53
 70
     1
102
RTVSPost2010Prop54
  1
strokes_ogs.tif
102
RTVSPost2010PropOp54
 70
     1
102
RTVSPost2010Prop55
280
     0
102
RTVSPost2010PropOp55
 70
     1
102
RTVSPost2010Prop56
140
1.0
102
RTVSPost2010PropOp56
 70
     1
102
RTVSPost2010Prop57
140
1.0
102
RTVSPost2010PropOp57
 70
     1
  0
XRECORD
  5
9C
102
{ACAD_REACTORS
330
9B
102
}
330
9B
100
AcDbXrecord
280
     1
102
RTVSPropertyOp0
 70
     1
102
RTVSPropertyOp1
 70
     1
102
RTVSPropertyOp2
 70
     1
102
RTVSPropertyOp3
 70
     1
102
RTVSPropertyOp4
 70
     1
102
RTVSPropertyOp5
 70
     1
102
RTVSPropertyOp6
 70
     1
102
RTVSPropertyOp7
 70
     1
102
RTVSPropertyOp8
 70
     1
102
RTVSPropertyOp9
 70
     1
102
RTVSPropertyOp10
 70
     1
102
RTVSPropertyOp11
 70
     1
102
RTVSPropertyOp12
 70
     1
102
RTVSPropertyOp13
 70
     1
102
RTVSPropertyOp14
 70
     1
102
RTVSPropertyOp15
 70
     1
102
RTVSPropertyOp16
 70
     1
102
RTVSPropertyOp17
 70
     1
102
RTVSPropertyOp18
 70
     1
102
RTVSPropertyOp19
 70
     1
102
RTVSPropertyOp20
 70
     1
102
RTVSPropertyOp21
 70
     1
102
RTVSPropertyOp22
 70
     1
102
RTVSPropertyOp23
 70
     1
102
RTVSPropertyOp24
 70
     1
102
RTVSPropertyOp25
 70
     1
102
RTVSPropertyOp26
 70
     1
102
RTVSPropertyOp27
 70
     1
102
RTVSPropertyOp28
 70
     1
102
RTVSPropertyOp29
 70
     1
102
RTVSPropertyOp30
 70
     1
102
RTVSPropertyOp31
 70
     1
102
RTVSPropertyOp32
 70
     1
102
RTVSPropertyOp33
 70
     1
102
RTVSPropertyOp34
 70
     1
102
RTVSPropertyOp35
 70
     1
102
RTVSPropertyOp36
 70
     1
102
RTVSPropertyOp37
 70
     1
102
RTVSPropertyOp38
 70
     1
102
RTVSPropertyOp39
 70
     1
102
RTVSPropertyOp40
 70
     1
102
RTVSPropertyOp41
 70
     1
102
RTVSPropertyOp42
 70
     1
102
RTVSPropertyOp43
 70
     1
102
RTVSPropertyOp44
 70
     1
102
RTVSPropertyOp45
 70
     1
102
RTVSPropertyOp46
 70
     1
102
RTVSPropertyOp47
 70
     1
102
RTVSPropertyOp48
 70
     1
102
RTVSPropertyOp49
 70
     1
102
RTVSPropertyOp50
 70
     1
102
RTVSPropertyOp51
 70
     0
102
RTVSPropertyOp52
 70
     0
102
RTVSPropertyOp53
 70
     1
102
RTVSPropertyOp54
 70
     1
102
RTVSPropertyOp55
 70
     1
102
RTVSPropertyOp56
 70
     1
102
RTVSPropertyOp57
 70
     1
102
RTVSPost2010Prop28
280
     0
102
RTVSPost2010PropOp28
 70
     1
102
RTVSPost2010Prop29
280
     1
102
RTVSPost2010PropOp29
 70
     1
102
RTVSPost2010Prop30
280
     1
102
RTVSPost2010PropOp30
 70
     1
102
RTVSPost2010Prop31
280
     0
102
RTVSPost2010PropOp31
 70
     1
102
RTVSPost2010Prop32
280
     0
102
RTVSPost2010PropOp32
 70
     1
102
RTVSPost2010Prop33
280
     0
102
RTVSPost2010PropOp33
 70
     1
102
RTVSPost2010Prop34
280
     0
102
RTVSPost2010PropOp34
 70
     1
102
RTVSPost2010Prop35
280
     0
102
RTVSPost2010PropOp35
 70
     1
102
RTVSPost2010Prop36
280
     0
102
RTVSPost2010PropOp36
 70
     1
102
RTVSPost2010Prop37
 90
       50
102
RTVSPost2010PropOp37
 70
     1
102
RTVSPost2010Prop38
140
0.0
102
RTVSPost2010PropOp38
 70
     1
102
RTVSPost2010Prop39
140
1.0
102
RTVSPost2010PropOp39
 70
     1
102
RTVSPost2010Prop40
 90
        0
102
RTVSPost2010PropOp40
 70
     1
102
RTVSPost2010Prop41ColorIndex
 90
       18
102
RTVSPost2010Prop41ColorRGB
 90
        0
102
RTVSPost2010PropOp41
 70
     1
102
RTVSPost2010Prop42
 90
       50
102
RTVSPost2010PropOp42
 70
     1
102
RTVSPost2010Prop43
 90
        3
102
RTVSPost2010PropOp43
 70
     1
102
RTVSPost2010Prop44ColorIndex
 90
        5
102
RTVSPost2010Prop44ColorRGB
 90
      255
102
RTVSPost2010PropOp44
 70
     1
102
RTVSPost2010Prop45
280
     0
102
RTVSPost2010PropOp45
 70
     1
102
RTVSPost2010Prop46
 90
       50
102
RTVSPost2010PropOp46
 70
     1
102
RTVSPost2010Prop47
 90
       50
102
RTVSPost2010PropOp47
 70
     1
102
RTVSPost2010Prop48
 90
       50
102
RTVSPost2010PropOp48
 70
     1
102
RTVSPost2010Prop49
280
     0
102
RTVSPost2010PropOp49
 70
     1
102
RTVSPost2010Prop50
 90
       50
102
RTVSPost2010PropOp50
 70
     1
102
RTVSPost2010Prop51ColorIndex
 90
      256
102
RTVSPost2010Prop51ColorRGB
 90
-16777216
102
RTVSPost2010PropOp51
 70
     0
102
RTVSPost2010Prop52
140
1.0
102
RTVSPost2010PropOp52
 70
     0
102
RTVSPost2010Prop53
 90
        2
102
RTVSPost2010PropOp53
 70
     1
102
RTVSPost2010Prop54
  1
strokes_ogs.tif
102
RTVSPost2010PropOp54
 70
     1
102
RTVSPost2010Prop55
280
     0
102
RTVSPost2010PropOp55
 70
     1
102
RTVSPost2010Prop56
140
1.0
102
RTVSPost2010PropOp56
 70
     1
102
RTVSPost2010Prop57
140
1.0
102
RTVSPost2010PropOp57
 70
     1
  0
XRECORD
  5
9E
102
{ACAD_REACTORS
330
9D
102
}
330
9D
100
AcDbXrecord
280
     1
102
RTVSPropertyOp0
 70
     1
102
RTVSPropertyOp1
 70
     1
102
RTVSPropertyOp2
 70
     1
102
RTVSPropertyOp3
 70
     1
102
RTVSPropertyOp4
 70
     1
102
RTVSPropertyOp5
 70
     1
102
RTVSPropertyOp6
 70
     1
102
RTVSPropertyOp7
 70
     1
102
RTVSPropertyOp8
 70
     1
102
RTVSPropertyOp9
 70
     1
102
RTVSPropertyOp10
 70
     1
102
RTVSPropertyOp11
 70
     1
102
RTVSPropertyOp12
 70
     1
102
RTVSPropertyOp13
 70
     1
102
RTVSPropertyOp14
 70
     1
102
RTVSPropertyOp15
 70
     1
102
RTVSPropertyOp16
 70
     1
102
RTVSPropertyOp17
 70
     1
102
RTVSPropertyOp18
 70
     1
102
RTVSPropertyOp19
 70
     1
102
RTVSPropertyOp20
 70
     1
102
RTVSPropertyOp21
 70
     1
102
RTVSPropertyOp22
 70
     1
102
RTVSPropertyOp23
 70
     1
102
RTVSPropertyOp24
 70
     1
102
RTVSPropertyOp25
 70
     1
102
RTVSPropertyOp26
 70
     1
102
RTVSPropertyOp27
 70
     1
102
RTVSPropertyOp28
 70
     1
102
RTVSPropertyOp29
 70
     1
102
RTVSPropertyOp30
 70
     1
102
RTVSPropertyOp31
 70
     1
102
RTVSPropertyOp32
 70
     1
102
RTVSPropertyOp33
 70
     1
102
RTVSPropertyOp34
 70
     1
102
RTVSPropertyOp35
 70
     1
102
RTVSPropertyOp36
 70
     1
102
RTVSPropertyOp37
 70
     1
102
RTVSPropertyOp38
 70
     1
102
RTVSPropertyOp39
 70
     1
102
RTVSPropertyOp40
 70
     1
102
RTVSPropertyOp41
 70
     1
102
RTVSPropertyOp42
 70
     1
102
RTVSPropertyOp43
 70
     1
102
RTVSPropertyOp44
 70
     1
102
RTVSPropertyOp45
 70
     1
102
RTVSPropertyOp46
 70
     1
102
RTVSPropertyOp47
 70
     1
102
RTVSPropertyOp48
 70
     1
102
RTVSPropertyOp49
 70
     1
102
RTVSPropertyOp50
 70
     1
102
RTVSPropertyOp51
 70
     0
102
RTVSPropertyOp52
 70
     0
102
RTVSPropertyOp53
 70
     1
102
RTVSPropertyOp54
 70
     1
102
RTVSPropertyOp55
 70
     1
102
RTVSPropertyOp56
 70
     1
102
RTVSPropertyOp57
 70
     1
102
RTVSPost2010Prop28
280
     0
102
RTVSPost2010PropOp28
 70
     1
102
RTVSPost2010Prop29
280
     1
102
RTVSPost2010PropOp29
 70
     1
102
RTVSPost2010Prop30
280
     1
102
RTVSPost2010PropOp30
 70
     1
102
RTVSPost2010Prop31
280
     0
102
RTVSPost2010PropOp31
 70
     1
102
RTVSPost2010Prop32
280
     0
102
RTVSPost2010PropOp32
 70
     1
102
RTVSPost2010Prop33
280
     0
102
RTVSPost2010PropOp33
 70
     1
102
RTVSPost2010Prop34
280
     0
102
RTVSPost2010PropOp34
 70
     1
102
RTVSPost2010Prop35
280
     0
102
RTVSPost2010PropOp35
 70
     1
102
RTVSPost2010Prop36
280
     0
102
RTVSPost2010PropOp36
 70
     1
102
RTVSPost2010Prop37
 90
       50
102
RTVSPost2010PropOp37
 70
     1
102
RTVSPost2010Prop38
140
0.0
102
RTVSPost2010PropOp38
 70
     1
102
RTVSPost2010Prop39
140
1.0
102
RTVSPost2010PropOp39
 70
     1
102
RTVSPost2010Prop40
 90
        0
102
RTVSPost2010PropOp40
 70
     1
102
RTVSPost2010Prop41ColorIndex
 90
       18
102
RTVSPost2010Prop41ColorRGB
 90
        0
102
RTVSPost2010PropOp41
 70
     1
102
RTVSPost2010Prop42
 90
       50
102
RTVSPost2010PropOp42
 70
     1
102
RTVSPost2010Prop43
 90
        3
102
RTVSPost2010PropOp43
 70
     1
102
RTVSPost2010Prop44ColorIndex
 90
        5
102
RTVSPost2010Prop44ColorRGB
 90
      255
102
RTVSPost2010PropOp44
 70
     1
102
RTVSPost2010Prop45
280
     0
102
RTVSPost2010PropOp45
 70
     1
102
RTVSPost2010Prop46
 90
       50
102
RTVSPost2010PropOp46
 70
     1
102
RTVSPost2010Prop47
 90
       50
102
RTVSPost2010PropOp47
 70
     1
102
RTVSPost2010Prop48
 90
       50
102
RTVSPost2010PropOp48
 70
     1
102
RTVSPost2010Prop49
280
     0
102
RTVSPost2010PropOp49
 70
     1
102
RTVSPost2010Prop50
 90
       50
102
RTVSPost2010PropOp50
 70
     1
102
RTVSPost2010Prop51ColorIndex
 90
      256
102
RTVSPost2010Prop51ColorRGB
 90
-16777216
102
RTVSPost2010PropOp51
 70
     0
102
RTVSPost2010Prop52
140
1.0
102
RTVSPost2010PropOp52
 70
     0
102
RTVSPost2010Prop53
 90
        2
102
RTVSPost2010PropOp53
 70
     1
102
RTVSPost2010Prop54
  1
strokes_ogs.tif
102
RTVSPost2010PropOp54
 70
     1
102
RTVSPost2010Prop55
280
     0
102
RTVSPost2010PropOp55
 70
     1
102
RTVSPost2010Prop56
140
1.0
102
RTVSPost2010PropOp56
 70
     1
102
RTVSPost2010Prop57
140
1.0
102
RTVSPost2010PropOp57
 70
     1
  0
XRECORD
  5
A0
102
{ACAD_REACTORS
330
9F
102
}
330
9F
100
AcDbXrecord
280
     1
102
RTVSPropertyOp0
 70
     1
102
RTVSPropertyOp1
 70
     1
102
RTVSPropertyOp2
 70
     1
102
RTVSPropertyOp3
 70
     1
102
RTVSPropertyOp4
 70
     1
102
RTVSPropertyOp5
 70
     1
102
RTVSPropertyOp6
 70
     1
102
RTVSPropertyOp7
 70
     1
102
RTVSPropertyOp8
 70
     1
102
RTVSPropertyOp9
 70
     1
102
RTVSPropertyOp10
 70
     1
102
RTVSPropertyOp11
 70
     1
102
RTVSPropertyOp12
 70
     1
102
RTVSPropertyOp13
 70
     1
102
RTVSPropertyOp14
 70
     1
102
RTVSPropertyOp15
 70
     1
102
RTVSPropertyOp16
 70
     1
102
RTVSPropertyOp17
 70
     1
102
RTVSPropertyOp18
 70
     1
102
RTVSPropertyOp19
 70
     1
102
RTVSPropertyOp20
 70
     1
102
RTVSPropertyOp21
 70
     1
102
RTVSPropertyOp22
 70
     1
102
RTVSPropertyOp23
 70
     1
102
RTVSPropertyOp24
 70
     1
102
RTVSPropertyOp25
 70
     1
102
RTVSPropertyOp26
 70
     1
102
RTVSPropertyOp27
 70
     1
102
RTVSPropertyOp28
 70
     1
102
RTVSPropertyOp29
 70
     1
102
RTVSPropertyOp30
 70
     1
102
RTVSPropertyOp31
 70
     1
102
RTVSPropertyOp32
 70
     1
102
RTVSPropertyOp33
 70
     1
102
RTVSPropertyOp34
 70
     1
102
RTVSPropertyOp35
 70
     1
102
RTVSPropertyOp36
 70
     1
102
RTVSPropertyOp37
 70
     1
102
RTVSPropertyOp38
 70
     1
102
RTVSPropertyOp39
 70
     1
102
RTVSPropertyOp40
 70
     1
102
RTVSPropertyOp41
 70
     1
102
RTVSPropertyOp42
 70
     1
102
RTVSPropertyOp43
 70
     1
102
RTVSPropertyOp44
 70
     1
102
RTVSPropertyOp45
 70
     1
102
RTVSPropertyOp46
 70
     1
102
RTVSPropertyOp47
 70
     1
102
RTVSPropertyOp48
 70
     1
102
RTVSPropertyOp49
 70
     1
102
RTVSPropertyOp50
 70
     1
102
RTVSPropertyOp51
 70
     0
102
RTVSPropertyOp52
 70
     0
102
RTVSPropertyOp53
 70
     1
102
RTVSPropertyOp54
 70
     1
102
RTVSPropertyOp55
 70
     1
102
RTVSPropertyOp56
 70
     1
102
RTVSPropertyOp57
 70
     1
102
RTVSPost2010Prop28
280
     0
102
RTVSPost2010PropOp28
 70
     1
102
RTVSPost2010Prop29
280
     1
102
RTVSPost2010PropOp29
 70
     1
102
RTVSPost2010Prop30
280
     1
102
RTVSPost2010PropOp30
 70
     1
102
RTVSPost2010Prop31
280
     0
102
RTVSPost2010PropOp31
 70
     1
102
RTVSPost2010Prop32
280
     0
102
RTVSPost2010PropOp32
 70
     1
102
RTVSPost2010Prop33
280
     0
102
RTVSPost2010PropOp33
 70
     1
102
RTVSPost2010Prop34
280
     0
102
RTVSPost2010PropOp34
 70
     1
102
RTVSPost2010Prop35
280
     0
102
RTVSPost2010PropOp35
 70
     1
102
RTVSPost2010Prop36
280
     0
102
RTVSPost2010PropOp36
 70
     1
102
RTVSPost2010Prop37
 90
       50
102
RTVSPost2010PropOp37
 70
     1
102
RTVSPost2010Prop38
140
0.0
102
RTVSPost2010PropOp38
 70
     1
102
RTVSPost2010Prop39
140
1.0
102
RTVSPost2010PropOp39
 70
     1
102
RTVSPost2010Prop40
 90
        0
102
RTVSPost2010PropOp40
 70
     1
102
RTVSPost2010Prop41ColorIndex
 90
       18
102
RTVSPost2010Prop41ColorRGB
 90
        0
102
RTVSPost2010PropOp41
 70
     1
102
RTVSPost2010Prop42
 90
       50
102
RTVSPost2010PropOp42
 70
     1
102
RTVSPost2010Prop43
 90
        3
102
RTVSPost2010PropOp43
 70
     1
102
RTVSPost2010Prop44ColorIndex
 90
        5
102
RTVSPost2010Prop44ColorRGB
 90
      255
102
RTVSPost2010PropOp44
 70
     1
102
RTVSPost2010Prop45
280
     0
102
RTVSPost2010PropOp45
 70
     1
102
RTVSPost2010Prop46
 90
       50
102
RTVSPost2010PropOp46
 70
     1
102
RTVSPost2010Prop47
 90
       50
102
RTVSPost2010PropOp47
 70
     1
102
RTVSPost2010Prop48
 90
       50
102
RTVSPost2010PropOp48
 70
     1
102
RTVSPost2010Prop49
280
     0
102
RTVSPost2010PropOp49
 70
     1
102
RTVSPost2010Prop50
 90
       50
102
RTVSPost2010PropOp50
 70
     1
102
RTVSPost2010Prop51ColorIndex
 90
      256
102
RTVSPost2010Prop51ColorRGB
 90
-16777216
102
RTVSPost2010PropOp51
 70
     0
102
RTVSPost2010Prop52
140
1.0
102
RTVSPost2010PropOp52
 70
     0
102
RTVSPost2010Prop53
 90
        2
102
RTVSPost2010PropOp53
 70
     1
102
RTVSPost2010Prop54
  1
strokes_ogs.tif
102
RTVSPost2010PropOp54
 70
     1
102
RTVSPost2010Prop55
280
     0
102
RTVSPost2010PropOp55
 70
     1
102
RTVSPost2010Prop56
140
1.0
102
RTVSPost2010PropOp56
 70
     1
102
RTVSPost2010Prop57
140
1.0
102
RTVSPost2010PropOp57
 70
     1
  0
XRECORD
  5
A6
102
{ACAD_REACTORS
330
A5
102
}
330
A5
100
AcDbXrecord
280
     1
102
RTVSPropertyOp0
 70
     1
102
RTVSPropertyOp1
 70
     1
102
RTVSPropertyOp2
 70
     1
102
RTVSPropertyOp3
 70
     1
102
RTVSPropertyOp4
 70
     1
102
RTVSPropertyOp5
 70
     1
102
RTVSPropertyOp6
 70
     1
102
RTVSPropertyOp7
 70
     1
102
RTVSPropertyOp8
 70
     1
102
RTVSPropertyOp9
 70
     1
102
RTVSPropertyOp10
 70
     1
102
RTVSPropertyOp11
 70
     1
102
RTVSPropertyOp12
 70
     1
102
RTVSPropertyOp13
 70
     1
102
RTVSPropertyOp14
 70
     1
102
RTVSPropertyOp15
 70
     1
102
RTVSPropertyOp16
 70
     1
102
RTVSPropertyOp17
 70
     1
102
RTVSPropertyOp18
 70
     1
102
RTVSPropertyOp19
 70
     1
102
RTVSPropertyOp20
 70
     1
102
RTVSPropertyOp21
 70
     1
102
RTVSPropertyOp22
 70
     1
102
RTVSPropertyOp23
 70
     1
102
RTVSPropertyOp24
 70
     1
102
RTVSPropertyOp25
 70
     1
102
RTVSPropertyOp26
 70
     1
102
RTVSPropertyOp27
 70
     1
102
RTVSPropertyOp28
 70
     1
102
RTVSPropertyOp29
 70
     1
102
RTVSPropertyOp30
 70
     1
102
RTVSPropertyOp31
 70
     1
102
RTVSPropertyOp32
 70
     1
102
RTVSPropertyOp33
 70
     1
102
RTVSPropertyOp34
 70
     1
102
RTVSPropertyOp35
 70
     1
102
RTVSPropertyOp36
 70
     1
102
RTVSPropertyOp37
 70
     1
102
RTVSPropertyOp38
 70
     1
102
RTVSPropertyOp39
 70
     1
102
RTVSPropertyOp40
 70
     1
102
RTVSPropertyOp41
 70
     1
102
RTVSPropertyOp42
 70
     1
102
RTVSPropertyOp43
 70
     1
102
RTVSPropertyOp44
 70
     1
102
RTVSPropertyOp45
 70
     1
102
RTVSPropertyOp46
 70
     1
102
RTVSPropertyOp47
 70
     1
102
RTVSPropertyOp48
 70
     1
102
RTVSPropertyOp49
 70
     1
102
RTVSPropertyOp50
 70
     1
102
RTVSPropertyOp51
 70
     0
102
RTVSPropertyOp52
 70
     0
102
RTVSPropertyOp53
 70
     1
102
RTVSPropertyOp54
 70
     1
102
RTVSPropertyOp55
 70
     1
102
RTVSPropertyOp56
 70
     1
102
RTVSPropertyOp57
 70
     1
102
RTVSPost2010Prop28
280
     0
102
RTVSPost2010PropOp28
 70
     1
102
RTVSPost2010Prop29
280
     1
102
RTVSPost2010PropOp29
 70
     1
102
RTVSPost2010Prop30
280
     1
102
RTVSPost2010PropOp30
 70
     1
102
RTVSPost2010Prop31
280
     0
102
RTVSPost2010PropOp31
 70
     1
102
RTVSPost2010Prop32
280
     0
102
RTVSPost2010PropOp32
 70
     1
102
RTVSPost2010Prop33
280
     0
102
RTVSPost2010PropOp33
 70
     1
102
RTVSPost2010Prop34
280
     0
102
RTVSPost2010PropOp34
 70
     1
102
RTVSPost2010Prop35
280
     0
102
RTVSPost2010PropOp35
 70
     1
102
RTVSPost2010Prop36
280
     0
102
RTVSPost2010PropOp36
 70
     1
102
RTVSPost2010Prop37
 90
       50
102
RTVSPost2010PropOp37
 70
     1
102
RTVSPost2010Prop38
140
0.0
102
RTVSPost2010PropOp38
 70
     1
102
RTVSPost2010Prop39
140
1.0
102
RTVSPost2010PropOp39
 70
     1
102
RTVSPost2010Prop40
 90
        0
102
RTVSPost2010PropOp40
 70
     1
102
RTVSPost2010Prop41ColorIndex
 90
       18
102
RTVSPost2010Prop41ColorRGB
 90
        0
102
RTVSPost2010PropOp41
 70
     1
102
RTVSPost2010Prop42
 90
       50
102
RTVSPost2010PropOp42
 70
     1
102
RTVSPost2010Prop43
 90
        3
102
RTVSPost2010PropOp43
 70
     1
102
RTVSPost2010Prop44ColorIndex
 90
        5
102
RTVSPost2010Prop44ColorRGB
 90
      255
102
RTVSPost2010PropOp44
 70
     1
102
RTVSPost2010Prop45
280
     0
102
RTVSPost2010PropOp45
 70
     1
102
RTVSPost2010Prop46
 90
       50
102
RTVSPost2010PropOp46
 70
     1
102
RTVSPost2010Prop47
 90
       50
102
RTVSPost2010PropOp47
 70
     1
102
RTVSPost2010Prop48
 90
       50
102
RTVSPost2010PropOp48
 70
     1
102
RTVSPost2010Prop49
280
     0
102
RTVSPost2010PropOp49
 70
     1
102
RTVSPost2010Prop50
 90
       50
102
RTVSPost2010PropOp50
 70
     1
102
RTVSPost2010Prop51ColorIndex
 90
      256
102
RTVSPost2010Prop51ColorRGB
 90
-16777216
102
RTVSPost2010PropOp51
 70
     0
102
RTVSPost2010Prop52
140
1.0
102
RTVSPost2010PropOp52
 70
     0
102
RTVSPost2010Prop53
 90
        2
102
RTVSPost2010PropOp53
 70
     1
102
RTVSPost2010Prop54
  1
strokes_ogs.tif
102
RTVSPost2010PropOp54
 70
     1
102
RTVSPost2010Prop55
280
     0
102
RTVSPost2010PropOp55
 70
     1
102
RTVSPost2010Prop56
140
1.0
102
RTVSPost2010PropOp56
 70
     1
102
RTVSPost2010Prop57
140
1.0
102
RTVSPost2010PropOp57
 70
     1
  0
XRECORD
  5
BA
102
{ACAD_REACTORS
330
B9
102
}
330
B9
100
AcDbXrecord
280
     1
102
RTVSPropertyOp0
 70
     0
102
RTVSPropertyOp1
 70
     0
102
RTVSPropertyOp2
 70
     0
102
RTVSPropertyOp3
 70
     0
102
RTVSPropertyOp4
 70
     0
102
RTVSPropertyOp5
 70
     0
102
RTVSPropertyOp6
 70
     0
102
RTVSPropertyOp7
 70
     0
102
RTVSPropertyOp8
 70
     0
102
RTVSPropertyOp9
 70
     0
102
RTVSPropertyOp10
 70
     0
102
RTVSPropertyOp11
 70
     0
102
RTVSPropertyOp12
 70
     0
102
RTVSPropertyOp13
 70
     0
102
RTVSPropertyOp14
 70
     2
102
RTVSPropertyOp15
 70
     0
102
RTVSPropertyOp16
 70
     0
102
RTVSPropertyOp17
 70
     0
102
RTVSPropertyOp18
 70
     0
102
RTVSPropertyOp19
 70
     0
102
RTVSPropertyOp20
 70
     0
102
RTVSPropertyOp21
 70
     0
102
RTVSPropertyOp22
 70
     0
102
RTVSPropertyOp23
 70
     0
102
RTVSPropertyOp24
 70
     0
102
RTVSPropertyOp25
 70
     0
102
RTVSPropertyOp26
 70
     0
102
RTVSPropertyOp27
 70
     0
102
RTVSPropertyOp28
 70
     0
102
RTVSPropertyOp29
 70
     0
102
RTVSPropertyOp30
 70
     0
102
RTVSPropertyOp31
 70
     0
102
RTVSPropertyOp32
 70
     0
102
RTVSPropertyOp33
 70
     0
102
RTVSPropertyOp34
 70
     0
102
RTVSPropertyOp35
 70
     0
102
RTVSPropertyOp36
 70
     0
102
RTVSPropertyOp37
 70
     0
102
RTVSPropertyOp38
 70
     0
102
RTVSPropertyOp39
 70
     0
102
RTVSPropertyOp40
 70
     0
102
RTVSPropertyOp41
 70
     0
102
RTVSPropertyOp42
 70
     0
102
RTVSPropertyOp43
 70
     0
102
RTVSPropertyOp44
 70
     0
102
RTVSPropertyOp45
 70
     0
102
RTVSPropertyOp46
 70
     0
102
RTVSPropertyOp47
 70
     0
102
RTVSPropertyOp48
 70
     0
102
RTVSPropertyOp49
 70
     0
102
RTVSPropertyOp50
 70
     0
102
RTVSPropertyOp51
 70
     0
102
RTVSPropertyOp52
 70
     0
102
RTVSPropertyOp53
 70
     0
102
RTVSPropertyOp54
 70
     0
102
RTVSPropertyOp55
 70
     0
102
RTVSPropertyOp56
 70
     0
102
RTVSPropertyOp57
 70
     0
102
RTVSPost2010Prop28
280
     0
102
RTVSPost2010PropOp28
 70
     0
102
RTVSPost2010Prop29
280
     1
102
RTVSPost2010PropOp29
 70
     0
102
RTVSPost2010Prop30
280
     1
102
RTVSPost2010PropOp30
 70
     0
102
RTVSPost2010Prop31
280
     0
102
RTVSPost2010PropOp31
 70
     0
102
RTVSPost2010Prop32
280
     0
102
RTVSPost2010PropOp32
 70
     0
102
RTVSPost2010Prop33
280
     0
102
RTVSPost2010PropOp33
 70
     0
102
RTVSPost2010Prop34
280
     0
102
RTVSPost2010PropOp34
 70
     0
102
RTVSPost2010Prop35
280
     0
102
RTVSPost2010PropOp35
 70
     0
102
RTVSPost2010Prop36
280
     0
102
RTVSPost2010PropOp36
 70
     0
102
RTVSPost2010Prop37
 90
       50
102
RTVSPost2010PropOp37
 70
     0
102
RTVSPost2010Prop38
140
0.0
102
RTVSPost2010PropOp38
 70
     0
102
RTVSPost2010Prop39
140
1.0
102
RTVSPost2010PropOp39
 70
     0
102
RTVSPost2010Prop40
 90
        0
102
RTVSPost2010PropOp40
 70
     0
102
RTVSPost2010Prop41ColorIndex
 90
       18
102
RTVSPost2010Prop41ColorRGB
 90
        0
102
RTVSPost2010PropOp41
 70
     0
102
RTVSPost2010Prop42
 90
       50
102
RTVSPost2010PropOp42
 70
     0
102
RTVSPost2010Prop43
 90
        3
102
RTVSPost2010PropOp43
 70
     0
102
RTVSPost2010Prop44ColorIndex
 90
        5
102
RTVSPost2010Prop44ColorRGB
 90
      255
102
RTVSPost2010PropOp44
 70
     0
102
RTVSPost2010Prop45
280
     0
102
RTVSPost2010PropOp45
 70
     0
102
RTVSPost2010Prop46
 90
       50
102
RTVSPost2010PropOp46
 70
     0
102
RTVSPost2010Prop47
 90
       50
102
RTVSPost2010PropOp47
 70
     0
102
RTVSPost2010Prop48
 90
       50
102
RTVSPost2010PropOp48
 70
     0
102
RTVSPost2010Prop49
280
     0
102
RTVSPost2010PropOp49
 70
     0
102
RTVSPost2010Prop50
 90
       50
102
RTVSPost2010PropOp50
 70
     0
102
RTVSPost2010Prop51ColorIndex
 90
      256
102
RTVSPost2010Prop51ColorRGB
 90
-16777216
102
RTVSPost2010PropOp51
 70
     0
102
RTVSPost2010Prop52
140
1.0
102
RTVSPost2010PropOp52
 70
     0
102
RTVSPost2010Prop53
 90
        2
102
RTVSPost2010PropOp53
 70
     0
102
RTVSPost2010Prop54
  1
strokes_ogs.tif
102
RTVSPost2010PropOp54
 70
     0
102
RTVSPost2010Prop55
280
     0
102
RTVSPost2010PropOp55
 70
     0
102
RTVSPost2010Prop56
140
1.0
102
RTVSPost2010PropOp56
 70
     0
102
RTVSPost2010Prop57
140
1.0
102
RTVSPost2010PropOp57
 70
     0
  0
XRECORD
  5
B4
102
{ACAD_REACTORS
330
B3
102
}
330
B3
100
AcDbXrecord
280
     1
102
RTVSPropertyOp0
 70
     1
102
RTVSPropertyOp1
 70
     1
102
RTVSPropertyOp2
 70
     1
102
RTVSPropertyOp3
 70
     1
102
RTVSPropertyOp4
 70
     1
102
RTVSPropertyOp5
 70
     1
102
RTVSPropertyOp6
 70
     1
102
RTVSPropertyOp7
 70
     1
102
RTVSPropertyOp8
 70
     1
102
RTVSPropertyOp9
 70
     1
102
RTVSPropertyOp10
 70
     1
102
RTVSPropertyOp11
 70
     1
102
RTVSPropertyOp12
 70
     1
102
RTVSPropertyOp13
 70
     1
102
RTVSPropertyOp14
 70
     1
102
RTVSPropertyOp15
 70
     1
102
RTVSPropertyOp16
 70
     1
102
RTVSPropertyOp17
 70
     1
102
RTVSPropertyOp18
 70
     1
102
RTVSPropertyOp19
 70
     1
102
RTVSPropertyOp20
 70
     1
102
RTVSPropertyOp21
 70
     1
102
RTVSPropertyOp22
 70
     1
102
RTVSPropertyOp23
 70
     1
102
RTVSPropertyOp24
 70
     1
102
RTVSPropertyOp25
 70
     1
102
RTVSPropertyOp26
 70
     1
102
RTVSPropertyOp27
 70
     1
102
RTVSPropertyOp28
 70
     1
102
RTVSPropertyOp29
 70
     1
102
RTVSPropertyOp30
 70
     1
102
RTVSPropertyOp31
 70
     1
102
RTVSPropertyOp32
 70
     1
102
RTVSPropertyOp33
 70
     1
102
RTVSPropertyOp34
 70
     1
102
RTVSPropertyOp35
 70
     1
102
RTVSPropertyOp36
 70
     1
102
RTVSPropertyOp37
 70
     1
102
RTVSPropertyOp38
 70
     1
102
RTVSPropertyOp39
 70
     1
102
RTVSPropertyOp40
 70
     1
102
RTVSPropertyOp41
 70
     1
102
RTVSPropertyOp42
 70
     1
102
RTVSPropertyOp43
 70
     1
102
RTVSPropertyOp44
 70
     1
102
RTVSPropertyOp45
 70
     1
102
RTVSPropertyOp46
 70
     1
102
RTVSPropertyOp47
 70
     1
102
RTVSPropertyOp48
 70
     1
102
RTVSPropertyOp49
 70
     1
102
RTVSPropertyOp50
 70
     1
102
RTVSPropertyOp51
 70
     0
102
RTVSPropertyOp52
 70
     0
102
RTVSPropertyOp53
 70
     1
102
RTVSPropertyOp54
 70
     1
102
RTVSPropertyOp55
 70
     1
102
RTVSPropertyOp56
 70
     1
102
RTVSPropertyOp57
 70
     1
102
RTVSPost2010Prop28
280
     0
102
RTVSPost2010PropOp28
 70
     1
102
RTVSPost2010Prop29
280
     1
102
RTVSPost2010PropOp29
 70
     1
102
RTVSPost2010Prop30
280
     1
102
RTVSPost2010PropOp30
 70
     1
102
RTVSPost2010Prop31
280
     0
102
RTVSPost2010PropOp31
 70
     1
102
RTVSPost2010Prop32
280
     0
102
RTVSPost2010PropOp32
 70
     1
102
RTVSPost2010Prop33
280
     0
102
RTVSPost2010PropOp33
 70
     1
102
RTVSPost2010Prop34
280
     0
102
RTVSPost2010PropOp34
 70
     1
102
RTVSPost2010Prop35
280
     0
102
RTVSPost2010PropOp35
 70
     1
102
RTVSPost2010Prop36
280
     0
102
RTVSPost2010PropOp36
 70
     1
102
RTVSPost2010Prop37
 90
       50
102
RTVSPost2010PropOp37
 70
     1
102
RTVSPost2010Prop38
140
0.0
102
RTVSPost2010PropOp38
 70
     1
102
RTVSPost2010Prop39
140
1.0
102
RTVSPost2010PropOp39
 70
     1
102
RTVSPost2010Prop40
 90
        0
102
RTVSPost2010PropOp40
 70
     1
102
RTVSPost2010Prop41ColorIndex
 90
       18
102
RTVSPost2010Prop41ColorRGB
 90
        0
102
RTVSPost2010PropOp41
 70
     1
102
RTVSPost2010Prop42
 90
       50
102
RTVSPost2010PropOp42
 70
     1
102
RTVSPost2010Prop43
 90
        3
102
RTVSPost2010PropOp43
 70
     1
102
RTVSPost2010Prop44ColorIndex
 90
        5
102
RTVSPost2010Prop44ColorRGB
 90
      255
102
RTVSPost2010PropOp44
 70
     1
102
RTVSPost2010Prop45
280
     0
102
RTVSPost2010PropOp45
 70
     1
102
RTVSPost2010Prop46
 90
       50
102
RTVSPost2010PropOp46
 70
     1
102
RTVSPost2010Prop47
 90
       50
102
RTVSPost2010PropOp47
 70
     1
102
RTVSPost2010Prop48
 90
       50
102
RTVSPost2010PropOp48
 70
     1
102
RTVSPost2010Prop49
280
     0
102
RTVSPost2010PropOp49
 70
     1
102
RTVSPost2010Prop50
 90
       50
102
RTVSPost2010PropOp50
 70
     1
102
RTVSPost2010Prop51ColorIndex
 90
      256
102
RTVSPost2010Prop51ColorRGB
 90
-16777216
102
RTVSPost2010PropOp51
 70
     0
102
RTVSPost2010Prop52
140
1.0
102
RTVSPost2010PropOp52
 70
     0
102
RTVSPost2010Prop53
 90
        2
102
RTVSPost2010PropOp53
 70
     1
102
RTVSPost2010Prop54
  1
strokes_ogs.tif
102
RTVSPost2010PropOp54
 70
     1
102
RTVSPost2010Prop55
280
     0
102
RTVSPost2010PropOp55
 70
     1
102
RTVSPost2010Prop56
140
1.0
102
RTVSPost2010PropOp56
 70
     1
102
RTVSPost2010Prop57
140
1.0
102
RTVSPost2010PropOp57
 70
     1
  0
XRECORD
  5
BC
102
{ACAD_REACTORS
330
BB
102
}
330
BB
100
AcDbXrecord
280
     1
102
RTVSPropertyOp0
 70
     0
102
RTVSPropertyOp1
 70
     0
102
RTVSPropertyOp2
 70
     0
102
RTVSPropertyOp3
 70
     0
102
RTVSPropertyOp4
 70
     0
102
RTVSPropertyOp5
 70
     0
102
RTVSPropertyOp6
 70
     0
102
RTVSPropertyOp7
 70
     0
102
RTVSPropertyOp8
 70
     0
102
RTVSPropertyOp9
 70
     0
102
RTVSPropertyOp10
 70
     0
102
RTVSPropertyOp11
 70
     0
102
RTVSPropertyOp12
 70
     0
102
RTVSPropertyOp13
 70
     0
102
RTVSPropertyOp14
 70
     2
102
RTVSPropertyOp15
 70
     0
102
RTVSPropertyOp16
 70
     0
102
RTVSPropertyOp17
 70
     0
102
RTVSPropertyOp18
 70
     0
102
RTVSPropertyOp19
 70
     0
102
RTVSPropertyOp20
 70
     0
102
RTVSPropertyOp21
 70
     0
102
RTVSPropertyOp22
 70
     0
102
RTVSPropertyOp23
 70
     0
102
RTVSPropertyOp24
 70
     0
102
RTVSPropertyOp25
 70
     0
102
RTVSPropertyOp26
 70
     0
102
RTVSPropertyOp27
 70
     0
102
RTVSPropertyOp28
 70
     0
102
RTVSPropertyOp29
 70
     0
102
RTVSPropertyOp30
 70
     0
102
RTVSPropertyOp31
 70
     0
102
RTVSPropertyOp32
 70
     0
102
RTVSPropertyOp33
 70
     0
102
RTVSPropertyOp34
 70
     0
102
RTVSPropertyOp35
 70
     0
102
RTVSPropertyOp36
 70
     0
102
RTVSPropertyOp37
 70
     0
102
RTVSPropertyOp38
 70
     0
102
RTVSPropertyOp39
 70
     0
102
RTVSPropertyOp40
 70
     0
102
RTVSPropertyOp41
 70
     0
102
RTVSPropertyOp42
 70
     0
102
RTVSPropertyOp43
 70
     0
102
RTVSPropertyOp44
 70
     0
102
RTVSPropertyOp45
 70
     0
102
RTVSPropertyOp46
 70
     0
102
RTVSPropertyOp47
 70
     0
102
RTVSPropertyOp48
 70
     0
102
RTVSPropertyOp49
 70
     0
102
RTVSPropertyOp50
 70
     0
102
RTVSPropertyOp51
 70
     0
102
RTVSPropertyOp52
 70
     0
102
RTVSPropertyOp53
 70
     0
102
RTVSPropertyOp54
 70
     0
102
RTVSPropertyOp55
 70
     0
102
RTVSPropertyOp56
 70
     0
102
RTVSPropertyOp57
 70
     0
102
RTVSPost2010Prop28
280
     0
102
RTVSPost2010PropOp28
 70
     0
102
RTVSPost2010Prop29
280
     1
102
RTVSPost2010PropOp29
 70
     0
102
RTVSPost2010Prop30
280
     1
102
RTVSPost2010PropOp30
 70
     0
102
RTVSPost2010Prop31
280
     0
102
RTVSPost2010PropOp31
 70
     0
102
RTVSPost2010Prop32
280
     0
102
RTVSPost2010PropOp32
 70
     0
102
RTVSPost2010Prop33
280
     0
102
RTVSPost2010PropOp33
 70
     0
102
RTVSPost2010Prop34
280
     0
102
RTVSPost2010PropOp34
 70
     0
102
RTVSPost2010Prop35
280
     0
102
RTVSPost2010PropOp35
 70
     0
102
RTVSPost2010Prop36
280
     0
102
RTVSPost2010PropOp36
 70
     0
102
RTVSPost2010Prop37
 90
       50
102
RTVSPost2010PropOp37
 70
     0
102
RTVSPost2010Prop38
140
0.0
102
RTVSPost2010PropOp38
 70
     0
102
RTVSPost2010Prop39
140
1.0
102
RTVSPost2010PropOp39
 70
     0
102
RTVSPost2010Prop40
 90
        0
102
RTVSPost2010PropOp40
 70
     0
102
RTVSPost2010Prop41ColorIndex
 90
       18
102
RTVSPost2010Prop41ColorRGB
 90
        0
102
RTVSPost2010PropOp41
 70
     0
102
RTVSPost2010Prop42
 90
       50
102
RTVSPost2010PropOp42
 70
     0
102
RTVSPost2010Prop43
 90
        3
102
RTVSPost2010PropOp43
 70
     0
102
RTVSPost2010Prop44ColorIndex
 90
        5
102
RTVSPost2010Prop44ColorRGB
 90
      255
102
RTVSPost2010PropOp44
 70
     0
102
RTVSPost2010Prop45
280
     0
102
RTVSPost2010PropOp45
 70
     0
102
RTVSPost2010Prop46
 90
       50
102
RTVSPost2010PropOp46
 70
     0
102
RTVSPost2010Prop47
 90
       50
102
RTVSPost2010PropOp47
 70
     0
102
RTVSPost2010Prop48
 90
       50
102
RTVSPost2010PropOp48
 70
     0
102
RTVSPost2010Prop49
280
     0
102
RTVSPost2010PropOp49
 70
     0
102
RTVSPost2010Prop50
 90
       50
102
RTVSPost2010PropOp50
 70
     0
102
RTVSPost2010Prop51ColorIndex
 90
      256
102
RTVSPost2010Prop51ColorRGB
 90
-16777216
102
RTVSPost2010PropOp51
 70
     0
102
RTVSPost2010Prop52
140
1.0
102
RTVSPost2010PropOp52
 70
     0
102
RTVSPost2010Prop53
 90
        2
102
RTVSPost2010PropOp53
 70
     0
102
RTVSPost2010Prop54
  1
strokes_ogs.tif
102
RTVSPost2010PropOp54
 70
     0
102
RTVSPost2010Prop55
280
     0
102
RTVSPost2010PropOp55
 70
     0
102
RTVSPost2010Prop56
140
1.0
102
RTVSPost2010PropOp56
 70
     0
102
RTVSPost2010Prop57
140
1.0
102
RTVSPost2010PropOp57
 70
     0
  0
XRECORD
  5
AA
102
{ACAD_REACTORS
330
A9
102
}
330
A9
100
AcDbXrecord
280
     1
102
RTVSPropertyOp0
 70
     1
102
RTVSPropertyOp1
 70
     1
102
RTVSPropertyOp2
 70
     1
102
RTVSPropertyOp3
 70
     1
102
RTVSPropertyOp4
 70
     1
102
RTVSPropertyOp5
 70
     1
102
RTVSPropertyOp6
 70
     1
102
RTVSPropertyOp7
 70
     1
102
RTVSPropertyOp8
 70
     1
102
RTVSPropertyOp9
 70
     1
102
RTVSPropertyOp10
 70
     1
102
RTVSPropertyOp11
 70
     1
102
RTVSPropertyOp12
 70
     1
102
RTVSPropertyOp13
 70
     1
102
RTVSPropertyOp14
 70
     1
102
RTVSPropertyOp15
 70
     1
102
RTVSPropertyOp16
 70
     1
102
RTVSPropertyOp17
 70
     1
102
RTVSPropertyOp18
 70
     1
102
RTVSPropertyOp19
 70
     1
102
RTVSPropertyOp20
 70
     1
102
RTVSPropertyOp21
 70
     1
102
RTVSPropertyOp22
 70
     1
102
RTVSPropertyOp23
 70
     1
102
RTVSPropertyOp24
 70
     1
102
RTVSPropertyOp25
 70
     1
102
RTVSPropertyOp26
 70
     1
102
RTVSPropertyOp27
 70
     1
102
RTVSPropertyOp28
 70
     1
102
RTVSPropertyOp29
 70
     1
102
RTVSPropertyOp30
 70
     1
102
RTVSPropertyOp31
 70
     1
102
RTVSPropertyOp32
 70
     1
102
RTVSPropertyOp33
 70
     1
102
RTVSPropertyOp34
 70
     1
102
RTVSPropertyOp35
 70
     1
102
RTVSPropertyOp36
 70
     1
102
RTVSPropertyOp37
 70
     1
102
RTVSPropertyOp38
 70
     1
102
RTVSPropertyOp39
 70
     1
102
RTVSPropertyOp40
 70
     1
102
RTVSPropertyOp41
 70
     1
102
RTVSPropertyOp42
 70
     1
102
RTVSPropertyOp43
 70
     1
102
RTVSPropertyOp44
 70
     1
102
RTVSPropertyOp45
 70
     1
102
RTVSPropertyOp46
 70
     1
102
RTVSPropertyOp47
 70
     1
102
RTVSPropertyOp48
 70
     1
102
RTVSPropertyOp49
 70
     1
102
RTVSPropertyOp50
 70
     1
102
RTVSPropertyOp51
 70
     0
102
RTVSPropertyOp52
 70
     0
102
RTVSPropertyOp53
 70
     1
102
RTVSPropertyOp54
 70
     1
102
RTVSPropertyOp55
 70
     1
102
RTVSPropertyOp56
 70
     1
102
RTVSPropertyOp57
 70
     1
102
RTVSPost2010Prop28
280
     0
102
RTVSPost2010PropOp28
 70
     1
102
RTVSPost2010Prop29
280
     1
102
RTVSPost2010PropOp29
 70
     1
102
RTVSPost2010Prop30
280
     1
102
RTVSPost2010PropOp30
 70
     1
102
RTVSPost2010Prop31
280
     0
102
RTVSPost2010PropOp31
 70
     1
102
RTVSPost2010Prop32
280
     0
102
RTVSPost2010PropOp32
 70
     1
102
RTVSPost2010Prop33
280
     0
102
RTVSPost2010PropOp33
 70
     1
102
RTVSPost2010Prop34
280
     0
102
RTVSPost2010PropOp34
 70
     1
102
RTVSPost2010Prop35
280
     0
102
RTVSPost2010PropOp35
 70
     1
102
RTVSPost2010Prop36
280
     0
102
RTVSPost2010PropOp36
 70
     1
102
RTVSPost2010Prop37
 90
       50
102
RTVSPost2010PropOp37
 70
     1
102
RTVSPost2010Prop38
140
0.0
102
RTVSPost2010PropOp38
 70
     1
102
RTVSPost2010Prop39
140
1.0
102
RTVSPost2010PropOp39
 70
     1
102
RTVSPost2010Prop40
 90
        0
102
RTVSPost2010PropOp40
 70
     1
102
RTVSPost2010Prop41ColorIndex
 90
       18
102
RTVSPost2010Prop41ColorRGB
 90
        0
102
RTVSPost2010PropOp41
 70
     1
102
RTVSPost2010Prop42
 90
       50
102
RTVSPost2010PropOp42
 70
     1
102
RTVSPost2010Prop43
 90
        3
102
RTVSPost2010PropOp43
 70
     1
102
RTVSPost2010Prop44ColorIndex
 90
        5
102
RTVSPost2010Prop44ColorRGB
 90
      255
102
RTVSPost2010PropOp44
 70
     1
102
RTVSPost2010Prop45
280
     0
102
RTVSPost2010PropOp45
 70
     1
102
RTVSPost2010Prop46
 90
       50
102
RTVSPost2010PropOp46
 70
     1
102
RTVSPost2010Prop47
 90
       50
102
RTVSPost2010PropOp47
 70
     1
102
RTVSPost2010Prop48
 90
       50
102
RTVSPost2010PropOp48
 70
     1
102
RTVSPost2010Prop49
280
     0
102
RTVSPost2010PropOp49
 70
     1
102
RTVSPost2010Prop50
 90
       50
102
RTVSPost2010PropOp50
 70
     1
102
RTVSPost2010Prop51ColorIndex
 90
      256
102
RTVSPost2010Prop51ColorRGB
 90
-16777216
102
RTVSPost2010PropOp51
 70
     0
102
RTVSPost2010Prop52
140
1.0
102
RTVSPost2010PropOp52
 70
     0
102
RTVSPost2010Prop53
 90
        2
102
RTVSPost2010PropOp53
 70
     1
102
RTVSPost2010Prop54
  1
strokes_ogs.tif
102
RTVSPost2010PropOp54
 70
     1
102
RTVSPost2010Prop55
280
     0
102
RTVSPost2010PropOp55
 70
     1
102
RTVSPost2010Prop56
140
1.0
102
RTVSPost2010PropOp56
 70
     1
102
RTVSPost2010Prop57
140
1.0
102
RTVSPost2010PropOp57
 70
     1
  0
XRECORD
  5
C8
102
{ACAD_REACTORS
330
C7
102
}
330
C7
100
AcDbXrecord
280
     1
102
RTVSPropertyOp0
 70
     1
102
RTVSPropertyOp1
 70
     1
102
RTVSPropertyOp2
 70
     1
102
RTVSPropertyOp3
 70
     1
102
RTVSPropertyOp4
 70
     1
102
RTVSPropertyOp5
 70
     1
102
RTVSPropertyOp6
 70
     1
102
RTVSPropertyOp7
 70
     1
102
RTVSPropertyOp8
 70
     1
102
RTVSPropertyOp9
 70
     1
102
RTVSPropertyOp10
 70
     1
102
RTVSPropertyOp11
 70
     1
102
RTVSPropertyOp12
 70
     1
102
RTVSPropertyOp13
 70
     1
102
RTVSPropertyOp14
 70
     1
102
RTVSPropertyOp15
 70
     1
102
RTVSPropertyOp16
 70
     1
102
RTVSPropertyOp17
 70
     1
102
RTVSPropertyOp18
 70
     1
102
RTVSPropertyOp19
 70
     1
102
RTVSPropertyOp20
 70
     1
102
RTVSPropertyOp21
 70
     1
102
RTVSPropertyOp22
 70
     1
102
RTVSPropertyOp23
 70
     1
102
RTVSPropertyOp24
 70
     1
102
RTVSPropertyOp25
 70
     1
102
RTVSPropertyOp26
 70
     1
102
RTVSPropertyOp27
 70
     1
102
RTVSPropertyOp28
 70
     1
102
RTVSPropertyOp29
 70
     1
102
RTVSPropertyOp30
 70
     1
102
RTVSPropertyOp31
 70
     1
102
RTVSPropertyOp32
 70
     1
102
RTVSPropertyOp33
 70
     1
102
RTVSPropertyOp34
 70
     1
102
RTVSPropertyOp35
 70
     1
102
RTVSPropertyOp36
 70
     1
102
RTVSPropertyOp37
 70
     1
102
RTVSPropertyOp38
 70
     1
102
RTVSPropertyOp39
 70
     1
102
RTVSPropertyOp40
 70
     1
102
RTVSPropertyOp41
 70
     1
102
RTVSPropertyOp42
 70
     1
102
RTVSPropertyOp43
 70
     1
102
RTVSPropertyOp44
 70
     1
102
RTVSPropertyOp45
 70
     1
102
RTVSPropertyOp46
 70
     1
102
RTVSPropertyOp47
 70
     1
102
RTVSPropertyOp48
 70
     1
102
RTVSPropertyOp49
 70
     1
102
RTVSPropertyOp50
 70
     1
102
RTVSPropertyOp51
 70
     0
102
RTVSPropertyOp52
 70
     0
102
RTVSPropertyOp53
 70
     1
102
RTVSPropertyOp54
 70
     1
102
RTVSPropertyOp55
 70
     1
102
RTVSPropertyOp56
 70
     1
102
RTVSPropertyOp57
 70
     1
102
RTVSPost2010Prop28
280
     0
102
RTVSPost2010PropOp28
 70
     1
102
RTVSPost2010Prop29
280
     1
102
RTVSPost2010PropOp29
 70
     1
102
RTVSPost2010Prop30
280
     1
102
RTVSPost2010PropOp30
 70
     1
102
RTVSPost2010Prop31
280
     0
102
RTVSPost2010PropOp31
 70
     1
102
RTVSPost2010Prop32
280
     0
102
RTVSPost2010PropOp32
 70
     1
102
RTVSPost2010Prop33
280
     0
102
RTVSPost2010PropOp33
 70
     1
102
RTVSPost2010Prop34
280
     0
102
RTVSPost2010PropOp34
 70
     1
102
RTVSPost2010Prop35
280
     0
102
RTVSPost2010PropOp35
 70
     1
102
RTVSPost2010Prop36
280
     0
102
RTVSPost2010PropOp36
 70
     1
102
RTVSPost2010Prop37
 90
       50
102
RTVSPost2010PropOp37
 70
     1
102
RTVSPost2010Prop38
140
0.0
102
RTVSPost2010PropOp38
 70
     1
102
RTVSPost2010Prop39
140
1.0
102
RTVSPost2010PropOp39
 70
     1
102
RTVSPost2010Prop40
 90
        0
102
RTVSPost2010PropOp40
 70
     1
102
RTVSPost2010Prop41ColorIndex
 90
       18
102
RTVSPost2010Prop41ColorRGB
 90
        0
102
RTVSPost2010PropOp41
 70
     1
102
RTVSPost2010Prop42
 90
       50
102
RTVSPost2010PropOp42
 70
     1
102
RTVSPost2010Prop43
 90
        3
102
RTVSPost2010PropOp43
 70
     1
102
RTVSPost2010Prop44ColorIndex
 90
        5
102
RTVSPost2010Prop44ColorRGB
 90
      255
102
RTVSPost2010PropOp44
 70
     1
102
RTVSPost2010Prop45
280
     0
102
RTVSPost2010PropOp45
 70
     1
102
RTVSPost2010Prop46
 90
       50
102
RTVSPost2010PropOp46
 70
     1
102
RTVSPost2010Prop47
 90
       50
102
RTVSPost2010PropOp47
 70
     1
102
RTVSPost2010Prop48
 90
       50
102
RTVSPost2010PropOp48
 70
     1
102
RTVSPost2010Prop49
280
     0
102
RTVSPost2010PropOp49
 70
     1
102
RTVSPost2010Prop50
 90
       50
102
RTVSPost2010PropOp50
 70
     1
102
RTVSPost2010Prop51ColorIndex
 90
      256
102
RTVSPost2010Prop51ColorRGB
 90
-16777216
102
RTVSPost2010PropOp51
 70
     0
102
RTVSPost2010Prop52
140
1.0
102
RTVSPost2010PropOp52
 70
     0
102
RTVSPost2010Prop53
 90
        2
102
RTVSPost2010PropOp53
 70
     1
102
RTVSPost2010Prop54
  1
strokes_ogs.tif
102
RTVSPost2010PropOp54
 70
     1
102
RTVSPost2010Prop55
280
     0
102
RTVSPost2010PropOp55
 70
     1
102
RTVSPost2010Prop56
140
1.0
102
RTVSPost2010PropOp56
 70
     1
102
RTVSPost2010Prop57
140
1.0
102
RTVSPost2010PropOp57
 70
     1
  0
XRECORD
  5
C6
102
{ACAD_REACTORS
330
C5
102
}
330
C5
100
AcDbXrecord
280
     1
102
RTVSPropertyOp0
 70
     1
102
RTVSPropertyOp1
 70
     1
102
RTVSPropertyOp2
 70
     1
102
RTVSPropertyOp3
 70
     1
102
RTVSPropertyOp4
 70
     1
102
RTVSPropertyOp5
 70
     1
102
RTVSPropertyOp6
 70
     1
102
RTVSPropertyOp7
 70
     1
102
RTVSPropertyOp8
 70
     1
102
RTVSPropertyOp9
 70
     1
102
RTVSPropertyOp10
 70
     1
102
RTVSPropertyOp11
 70
     1
102
RTVSPropertyOp12
 70
     1
102
RTVSPropertyOp13
 70
     1
102
RTVSPropertyOp14
 70
     1
102
RTVSPropertyOp15
 70
     1
102
RTVSPropertyOp16
 70
     1
102
RTVSPropertyOp17
 70
     1
102
RTVSPropertyOp18
 70
     1
102
RTVSPropertyOp19
 70
     1
102
RTVSPropertyOp20
 70
     1
102
RTVSPropertyOp21
 70
     1
102
RTVSPropertyOp22
 70
     1
102
RTVSPropertyOp23
 70
     1
102
RTVSPropertyOp24
 70
     1
102
RTVSPropertyOp25
 70
     1
102
RTVSPropertyOp26
 70
     1
102
RTVSPropertyOp27
 70
     1
102
RTVSPropertyOp28
 70
     1
102
RTVSPropertyOp29
 70
     1
102
RTVSPropertyOp30
 70
     1
102
RTVSPropertyOp31
 70
     1
102
RTVSPropertyOp32
 70
     1
102
RTVSPropertyOp33
 70
     1
102
RTVSPropertyOp34
 70
     1
102
RTVSPropertyOp35
 70
     1
102
RTVSPropertyOp36
 70
     1
102
RTVSPropertyOp37
 70
     1
102
RTVSPropertyOp38
 70
     1
102
RTVSPropertyOp39
 70
     1
102
RTVSPropertyOp40
 70
     1
102
RTVSPropertyOp41
 70
     1
102
RTVSPropertyOp42
 70
     1
102
RTVSPropertyOp43
 70
     1
102
RTVSPropertyOp44
 70
     1
102
RTVSPropertyOp45
 70
     1
102
RTVSPropertyOp46
 70
     1
102
RTVSPropertyOp47
 70
     1
102
RTVSPropertyOp48
 70
     1
102
RTVSPropertyOp49
 70
     1
102
RTVSPropertyOp50
 70
     1
102
RTVSPropertyOp51
 70
     0
102
RTVSPropertyOp52
 70
     0
102
RTVSPropertyOp53
 70
     1
102
RTVSPropertyOp54
 70
     1
102
RTVSPropertyOp55
 70
     1
102
RTVSPropertyOp56
 70
     1
102
RTVSPropertyOp57
 70
     1
102
RTVSPost2010Prop28
280
     0
102
RTVSPost2010PropOp28
 70
     1
102
RTVSPost2010Prop29
280
     1
102
RTVSPost2010PropOp29
 70
     1
102
RTVSPost2010Prop30
280
     1
102
RTVSPost2010PropOp30
 70
     1
102
RTVSPost2010Prop31
280
     0
102
RTVSPost2010PropOp31
 70
     1
102
RTVSPost2010Prop32
280
     0
102
RTVSPost2010PropOp32
 70
     1
102
RTVSPost2010Prop33
280
     0
102
RTVSPost2010PropOp33
 70
     1
102
RTVSPost2010Prop34
280
     0
102
RTVSPost2010PropOp34
 70
     1
102
RTVSPost2010Prop35
280
     0
102
RTVSPost2010PropOp35
 70
     1
102
RTVSPost2010Prop36
280
     0
102
RTVSPost2010PropOp36
 70
     1
102
RTVSPost2010Prop37
 90
       50
102
RTVSPost2010PropOp37
 70
     1
102
RTVSPost2010Prop38
140
0.0
102
RTVSPost2010PropOp38
 70
     1
102
RTVSPost2010Prop39
140
1.0
102
RTVSPost2010PropOp39
 70
     1
102
RTVSPost2010Prop40
 90
        0
102
RTVSPost2010PropOp40
 70
     1
102
RTVSPost2010Prop41ColorIndex
 90
       18
102
RTVSPost2010Prop41ColorRGB
 90
        0
102
RTVSPost2010PropOp41
 70
     1
102
RTVSPost2010Prop42
 90
       50
102
RTVSPost2010PropOp42
 70
     1
102
RTVSPost2010Prop43
 90
        3
102
RTVSPost2010PropOp43
 70
     1
102
RTVSPost2010Prop44ColorIndex
 90
        5
102
RTVSPost2010Prop44ColorRGB
 90
      255
102
RTVSPost2010PropOp44
 70
     1
102
RTVSPost2010Prop45
280
     0
102
RTVSPost2010PropOp45
 70
     1
102
RTVSPost2010Prop46
 90
       50
102
RTVSPost2010PropOp46
 70
     1
102
RTVSPost2010Prop47
 90
       50
102
RTVSPost2010PropOp47
 70
     1
102
RTVSPost2010Prop48
 90
       50
102
RTVSPost2010PropOp48
 70
     1
102
RTVSPost2010Prop49
280
     0
102
RTVSPost2010PropOp49
 70
     1
102
RTVSPost2010Prop50
 90
       50
102
RTVSPost2010PropOp50
 70
     1
102
RTVSPost2010Prop51ColorIndex
 90
      256
102
RTVSPost2010Prop51ColorRGB
 90
-16777216
102
RTVSPost2010PropOp51
 70
     0
102
RTVSPost2010Prop52
140
1.0
102
RTVSPost2010PropOp52
 70
     0
102
RTVSPost2010Prop53
 90
        2
102
RTVSPost2010PropOp53
 70
     1
102
RTVSPost2010Prop54
  1
strokes_ogs.tif
102
RTVSPost2010PropOp54
 70
     1
102
RTVSPost2010Prop55
280
     0
102
RTVSPost2010PropOp55
 70
     1
102
RTVSPost2010Prop56
140
1.0
102
RTVSPost2010PropOp56
 70
     1
102
RTVSPost2010Prop57
140
1.0
102
RTVSPost2010PropOp57
 70
     1
  0
XRECORD
  5
C0
102
{ACAD_REACTORS
330
BF
102
}
330
BF
100
AcDbXrecord
280
     1
102
RTVSPropertyOp0
 70
     1
102
RTVSPropertyOp1
 70
     1
102
RTVSPropertyOp2
 70
     1
102
RTVSPropertyOp3
 70
     1
102
RTVSPropertyOp4
 70
     1
102
RTVSPropertyOp5
 70
     1
102
RTVSPropertyOp6
 70
     1
102
RTVSPropertyOp7
 70
     1
102
RTVSPropertyOp8
 70
     1
102
RTVSPropertyOp9
 70
     1
102
RTVSPropertyOp10
 70
     1
102
RTVSPropertyOp11
 70
     1
102
RTVSPropertyOp12
 70
     1
102
RTVSPropertyOp13
 70
     1
102
RTVSPropertyOp14
 70
     1
102
RTVSPropertyOp15
 70
     1
102
RTVSPropertyOp16
 70
     1
102
RTVSPropertyOp17
 70
     1
102
RTVSPropertyOp18
 70
     1
102
RTVSPropertyOp19
 70
     1
102
RTVSPropertyOp20
 70
     1
102
RTVSPropertyOp21
 70
     1
102
RTVSPropertyOp22
 70
     1
102
RTVSPropertyOp23
 70
     1
102
RTVSPropertyOp24
 70
     1
102
RTVSPropertyOp25
 70
     1
102
RTVSPropertyOp26
 70
     1
102
RTVSPropertyOp27
 70
     1
102
RTVSPropertyOp28
 70
     1
102
RTVSPropertyOp29
 70
     1
102
RTVSPropertyOp30
 70
     1
102
RTVSPropertyOp31
 70
     1
102
RTVSPropertyOp32
 70
     1
102
RTVSPropertyOp33
 70
     1
102
RTVSPropertyOp34
 70
     1
102
RTVSPropertyOp35
 70
     1
102
RTVSPropertyOp36
 70
     1
102
RTVSPropertyOp37
 70
     1
102
RTVSPropertyOp38
 70
     1
102
RTVSPropertyOp39
 70
     1
102
RTVSPropertyOp40
 70
     1
102
RTVSPropertyOp41
 70
     1
102
RTVSPropertyOp42
 70
     1
102
RTVSPropertyOp43
 70
     1
102
RTVSPropertyOp44
 70
     1
102
RTVSPropertyOp45
 70
     1
102
RTVSPropertyOp46
 70
     1
102
RTVSPropertyOp47
 70
     1
102
RTVSPropertyOp48
 70
     1
102
RTVSPropertyOp49
 70
     1
102
RTVSPropertyOp50
 70
     1
102
RTVSPropertyOp51
 70
     0
102
RTVSPropertyOp52
 70
     0
102
RTVSPropertyOp53
 70
     1
102
RTVSPropertyOp54
 70
     1
102
RTVSPropertyOp55
 70
     1
102
RTVSPropertyOp56
 70
     1
102
RTVSPropertyOp57
 70
     1
102
RTVSPost2010Prop28
280
     0
102
RTVSPost2010PropOp28
 70
     1
102
RTVSPost2010Prop29
280
     1
102
RTVSPost2010PropOp29
 70
     1
102
RTVSPost2010Prop30
280
     1
102
RTVSPost2010PropOp30
 70
     1
102
RTVSPost2010Prop31
280
     0
102
RTVSPost2010PropOp31
 70
     1
102
RTVSPost2010Prop32
280
     0
102
RTVSPost2010PropOp32
 70
     1
102
RTVSPost2010Prop33
280
     0
102
RTVSPost2010PropOp33
 70
     1
102
RTVSPost2010Prop34
280
     0
102
RTVSPost2010PropOp34
 70
     1
102
RTVSPost2010Prop35
280
     0
102
RTVSPost2010PropOp35
 70
     1
102
RTVSPost2010Prop36
280
     0
102
RTVSPost2010PropOp36
 70
     1
102
RTVSPost2010Prop37
 90
       50
102
RTVSPost2010PropOp37
 70
     1
102
RTVSPost2010Prop38
140
0.0
102
RTVSPost2010PropOp38
 70
     1
102
RTVSPost2010Prop39
140
1.0
102
RTVSPost2010PropOp39
 70
     1
102
RTVSPost2010Prop40
 90
        0
102
RTVSPost2010PropOp40
 70
     1
102
RTVSPost2010Prop41ColorIndex
 90
       18
102
RTVSPost2010Prop41ColorRGB
 90
        0
102
RTVSPost2010PropOp41
 70
     1
102
RTVSPost2010Prop42
 90
       50
102
RTVSPost2010PropOp42
 70
     1
102
RTVSPost2010Prop43
 90
        3
102
RTVSPost2010PropOp43
 70
     1
102
RTVSPost2010Prop44ColorIndex
 90
        5
102
RTVSPost2010Prop44ColorRGB
 90
      255
102
RTVSPost2010PropOp44
 70
     1
102
RTVSPost2010Prop45
280
     0
102
RTVSPost2010PropOp45
 70
     1
102
RTVSPost2010Prop46
 90
       50
102
RTVSPost2010PropOp46
 70
     1
102
RTVSPost2010Prop47
 90
       50
102
RTVSPost2010PropOp47
 70
     1
102
RTVSPost2010Prop48
 90
       50
102
RTVSPost2010PropOp48
 70
     1
102
RTVSPost2010Prop49
280
     0
102
RTVSPost2010PropOp49
 70
     1
102
RTVSPost2010Prop50
 90
       50
102
RTVSPost2010PropOp50
 70
     1
102
RTVSPost2010Prop51ColorIndex
 90
      256
102
RTVSPost2010Prop51ColorRGB
 90
-16777216
102
RTVSPost2010PropOp51
 70
     0
102
RTVSPost2010Prop52
140
1.0
102
RTVSPost2010PropOp52
 70
     0
102
RTVSPost2010Prop53
 90
        2
102
RTVSPost2010PropOp53
 70
     1
102
RTVSPost2010Prop54
  1
strokes_ogs.tif
102
RTVSPost2010PropOp54
 70
     1
102
RTVSPost2010Prop55
280
     0
102
RTVSPost2010PropOp55
 70
     1
102
RTVSPost2010Prop56
140
1.0
102
RTVSPost2010PropOp56
 70
     1
102
RTVSPost2010Prop57
140
1.0
102
RTVSPost2010PropOp57
 70
     1
  0
XRECORD
  5
C2
102
{ACAD_REACTORS
330
C1
102
}
330
C1
100
AcDbXrecord
280
     1
102
RTVSPropertyOp0
 70
     1
102
RTVSPropertyOp1
 70
     1
102
RTVSPropertyOp2
 70
     1
102
RTVSPropertyOp3
 70
     1
102
RTVSPropertyOp4
 70
     1
102
RTVSPropertyOp5
 70
     1
102
RTVSPropertyOp6
 70
     1
102
RTVSPropertyOp7
 70
     1
102
RTVSPropertyOp8
 70
     1
102
RTVSPropertyOp9
 70
     1
102
RTVSPropertyOp10
 70
     1
102
RTVSPropertyOp11
 70
     1
102
RTVSPropertyOp12
 70
     1
102
RTVSPropertyOp13
 70
     1
102
RTVSPropertyOp14
 70
     1
102
RTVSPropertyOp15
 70
     1
102
RTVSPropertyOp16
 70
     1
102
RTVSPropertyOp17
 70
     1
102
RTVSPropertyOp18
 70
     1
102
RTVSPropertyOp19
 70
     1
102
RTVSPropertyOp20
 70
     1
102
RTVSPropertyOp21
 70
     1
102
RTVSPropertyOp22
 70
     1
102
RTVSPropertyOp23
 70
     1
102
RTVSPropertyOp24
 70
     1
102
RTVSPropertyOp25
 70
     1
102
RTVSPropertyOp26
 70
     1
102
RTVSPropertyOp27
 70
     1
102
RTVSPropertyOp28
 70
     1
102
RTVSPropertyOp29
 70
     1
102
RTVSPropertyOp30
 70
     1
102
RTVSPropertyOp31
 70
     1
102
RTVSPropertyOp32
 70
     1
102
RTVSPropertyOp33
 70
     1
102
RTVSPropertyOp34
 70
     1
102
RTVSPropertyOp35
 70
     1
102
RTVSPropertyOp36
 70
     1
102
RTVSPropertyOp37
 70
     1
102
RTVSPropertyOp38
 70
     1
102
RTVSPropertyOp39
 70
     1
102
RTVSPropertyOp40
 70
     1
102
RTVSPropertyOp41
 70
     1
102
RTVSPropertyOp42
 70
     1
102
RTVSPropertyOp43
 70
     1
102
RTVSPropertyOp44
 70
     1
102
RTVSPropertyOp45
 70
     1
102
RTVSPropertyOp46
 70
     1
102
RTVSPropertyOp47
 70
     1
102
RTVSPropertyOp48
 70
     1
102
RTVSPropertyOp49
 70
     1
102
RTVSPropertyOp50
 70
     1
102
RTVSPropertyOp51
 70
     0
102
RTVSPropertyOp52
 70
     0
102
RTVSPropertyOp53
 70
     1
102
RTVSPropertyOp54
 70
     1
102
RTVSPropertyOp55
 70
     1
102
RTVSPropertyOp56
 70
     1
102
RTVSPropertyOp57
 70
     1
102
RTVSPost2010Prop28
280
     0
102
RTVSPost2010PropOp28
 70
     1
102
RTVSPost2010Prop29
280
     1
102
RTVSPost2010PropOp29
 70
     1
102
RTVSPost2010Prop30
280
     1
102
RTVSPost2010PropOp30
 70
     1
102
RTVSPost2010Prop31
280
     0
102
RTVSPost2010PropOp31
 70
     1
102
RTVSPost2010Prop32
280
     0
102
RTVSPost2010PropOp32
 70
     1
102
RTVSPost2010Prop33
280
     0
102
RTVSPost2010PropOp33
 70
     1
102
RTVSPost2010Prop34
280
     0
102
RTVSPost2010PropOp34
 70
     1
102
RTVSPost2010Prop35
280
     0
102
RTVSPost2010PropOp35
 70
     1
102
RTVSPost2010Prop36
280
     0
102
RTVSPost2010PropOp36
 70
     1
102
RTVSPost2010Prop37
 90
       50
102
RTVSPost2010PropOp37
 70
     1
102
RTVSPost2010Prop38
140
0.0
102
RTVSPost2010PropOp38
 70
     1
102
RTVSPost2010Prop39
140
1.0
102
RTVSPost2010PropOp39
 70
     1
102
RTVSPost2010Prop40
 90
        0
102
RTVSPost2010PropOp40
 70
     1
102
RTVSPost2010Prop41ColorIndex
 90
       18
102
RTVSPost2010Prop41ColorRGB
 90
        0
102
RTVSPost2010PropOp41
 70
     1
102
RTVSPost2010Prop42
 90
       50
102
RTVSPost2010PropOp42
 70
     1
102
RTVSPost2010Prop43
 90
        3
102
RTVSPost2010PropOp43
 70
     1
102
RTVSPost2010Prop44ColorIndex
 90
        5
102
RTVSPost2010Prop44ColorRGB
 90
      255
102
RTVSPost2010PropOp44
 70
     1
102
RTVSPost2010Prop45
280
     0
102
RTVSPost2010PropOp45
 70
     1
102
RTVSPost2010Prop46
 90
       50
102
RTVSPost2010PropOp46
 70
     1
102
RTVSPost2010Prop47
 90
       50
102
RTVSPost2010PropOp47
 70
     1
102
RTVSPost2010Prop48
 90
       50
102
RTVSPost2010PropOp48
 70
     1
102
RTVSPost2010Prop49
280
     0
102
RTVSPost2010PropOp49
 70
     1
102
RTVSPost2010Prop50
 90
       50
102
RTVSPost2010PropOp50
 70
     1
102
RTVSPost2010Prop51ColorIndex
 90
      256
102
RTVSPost2010Prop51ColorRGB
 90
-16777216
102
RTVSPost2010PropOp51
 70
     0
102
RTVSPost2010Prop52
140
1.0
102
RTVSPost2010PropOp52
 70
     0
102
RTVSPost2010Prop53
 90
        2
102
RTVSPost2010PropOp53
 70
     1
102
RTVSPost2010Prop54
  1
strokes_ogs.tif
102
RTVSPost2010PropOp54
 70
     1
102
RTVSPost2010Prop55
280
     0
102
RTVSPost2010PropOp55
 70
     1
102
RTVSPost2010Prop56
140
1.0
102
RTVSPost2010PropOp56
 70
     1
102
RTVSPost2010Prop57
140
1.0
102
RTVSPost2010PropOp57
 70
     1
  0
XRECORD
  5
B2
102
{ACAD_REACTORS
330
B1
102
}
330
B1
100
AcDbXrecord
280
     1
102
RTVSPropertyOp0
 70
     1
102
RTVSPropertyOp1
 70
     1
102
RTVSPropertyOp2
 70
     1
102
RTVSPropertyOp3
 70
     1
102
RTVSPropertyOp4
 70
     1
102
RTVSPropertyOp5
 70
     1
102
RTVSPropertyOp6
 70
     1
102
RTVSPropertyOp7
 70
     1
102
RTVSPropertyOp8
 70
     1
102
RTVSPropertyOp9
 70
     1
102
RTVSPropertyOp10
 70
     1
102
RTVSPropertyOp11
 70
     1
102
RTVSPropertyOp12
 70
     1
102
RTVSPropertyOp13
 70
     1
102
RTVSPropertyOp14
 70
     1
102
RTVSPropertyOp15
 70
     1
102
RTVSPropertyOp16
 70
     1
102
RTVSPropertyOp17
 70
     1
102
RTVSPropertyOp18
 70
     1
102
RTVSPropertyOp19
 70
     1
102
RTVSPropertyOp20
 70
     1
102
RTVSPropertyOp21
 70
     1
102
RTVSPropertyOp22
 70
     1
102
RTVSPropertyOp23
 70
     1
102
RTVSPropertyOp24
 70
     1
102
RTVSPropertyOp25
 70
     1
102
RTVSPropertyOp26
 70
     1
102
RTVSPropertyOp27
 70
     1
102
RTVSPropertyOp28
 70
     1
102
RTVSPropertyOp29
 70
     1
102
RTVSPropertyOp30
 70
     1
102
RTVSPropertyOp31
 70
     1
102
RTVSPropertyOp32
 70
     1
102
RTVSPropertyOp33
 70
     1
102
RTVSPropertyOp34
 70
     1
102
RTVSPropertyOp35
 70
     1
102
RTVSPropertyOp36
 70
     1
102
RTVSPropertyOp37
 70
     1
102
RTVSPropertyOp38
 70
     1
102
RTVSPropertyOp39
 70
     1
102
RTVSPropertyOp40
 70
     1
102
RTVSPropertyOp41
 70
     1
102
RTVSPropertyOp42
 70
     1
102
RTVSPropertyOp43
 70
     1
102
RTVSPropertyOp44
 70
     1
102
RTVSPropertyOp45
 70
     1
102
RTVSPropertyOp46
 70
     1
102
RTVSPropertyOp47
 70
     1
102
RTVSPropertyOp48
 70
     1
102
RTVSPropertyOp49
 70
     1
102
RTVSPropertyOp50
 70
     1
102
RTVSPropertyOp51
 70
     0
102
RTVSPropertyOp52
 70
     0
102
RTVSPropertyOp53
 70
     1
102
RTVSPropertyOp54
 70
     1
102
RTVSPropertyOp55
 70
     1
102
RTVSPropertyOp56
 70
     1
102
RTVSPropertyOp57
 70
     1
102
RTVSPost2010Prop28
280
     0
102
RTVSPost2010PropOp28
 70
     1
102
RTVSPost2010Prop29
280
     1
102
RTVSPost2010PropOp29
 70
     1
102
RTVSPost2010Prop30
280
     1
102
RTVSPost2010PropOp30
 70
     1
102
RTVSPost2010Prop31
280
     0
102
RTVSPost2010PropOp31
 70
     1
102
RTVSPost2010Prop32
280
     0
102
RTVSPost2010PropOp32
 70
     1
102
RTVSPost2010Prop33
280
     0
102
RTVSPost2010PropOp33
 70
     1
102
RTVSPost2010Prop34
280
     0
102
RTVSPost2010PropOp34
 70
     1
102
RTVSPost2010Prop35
280
     0
102
RTVSPost2010PropOp35
 70
     1
102
RTVSPost2010Prop36
280
     0
102
RTVSPost2010PropOp36
 70
     1
102
RTVSPost2010Prop37
 90
       50
102
RTVSPost2010PropOp37
 70
     1
102
RTVSPost2010Prop38
140
0.0
102
RTVSPost2010PropOp38
 70
     1
102
RTVSPost2010Prop39
140
1.0
102
RTVSPost2010PropOp39
 70
     1
102
RTVSPost2010Prop40
 90
        0
102
RTVSPost2010PropOp40
 70
     1
102
RTVSPost2010Prop41ColorIndex
 90
       18
102
RTVSPost2010Prop41ColorRGB
 90
        0
102
RTVSPost2010PropOp41
 70
     1
102
RTVSPost2010Prop42
 90
       50
102
RTVSPost2010PropOp42
 70
     1
102
RTVSPost2010Prop43
 90
        3
102
RTVSPost2010PropOp43
 70
     1
102
RTVSPost2010Prop44ColorIndex
 90
        5
102
RTVSPost2010Prop44ColorRGB
 90
      255
102
RTVSPost2010PropOp44
 70
     1
102
RTVSPost2010Prop45
280
     0
102
RTVSPost2010PropOp45
 70
     1
102
RTVSPost2010Prop46
 90
       50
102
RTVSPost2010PropOp46
 70
     1
102
RTVSPost2010Prop47
 90
       50
102
RTVSPost2010PropOp47
 70
     1
102
RTVSPost2010Prop48
 90
       50
102
RTVSPost2010PropOp48
 70
     1
102
RTVSPost2010Prop49
280
     0
102
RTVSPost2010PropOp49
 70
     1
102
RTVSPost2010Prop50
 90
       50
102
RTVSPost2010PropOp50
 70
     1
102
RTVSPost2010Prop51ColorIndex
 90
      256
102
RTVSPost2010Prop51ColorRGB
 90
-16777216
102
RTVSPost2010PropOp51
 70
     0
102
RTVSPost2010Prop52
140
1.0
102
RTVSPost2010PropOp52
 70
     0
102
RTVSPost2010Prop53
 90
        2
102
RTVSPost2010PropOp53
 70
     1
102
RTVSPost2010Prop54
  1
strokes_ogs.tif
102
RTVSPost2010PropOp54
 70
     1
102
RTVSPost2010Prop55
280
     0
102
RTVSPost2010PropOp55
 70
     1
102
RTVSPost2010Prop56
140
1.0
102
RTVSPost2010PropOp56
 70
     1
102
RTVSPost2010Prop57
140
1.0
102
RTVSPost2010PropOp57
 70
     1
  0
XRECORD
  5
A4
102
{ACAD_REACTORS
330
A3
102
}
330
A3
100
AcDbXrecord
280
     1
102
RTVSPropertyOp0
 70
     1
102
RTVSPropertyOp1
 70
     1
102
RTVSPropertyOp2
 70
     1
102
RTVSPropertyOp3
 70
     1
102
RTVSPropertyOp4
 70
     1
102
RTVSPropertyOp5
 70
     1
102
RTVSPropertyOp6
 70
     1
102
RTVSPropertyOp7
 70
     1
102
RTVSPropertyOp8
 70
     1
102
RTVSPropertyOp9
 70
     1
102
RTVSPropertyOp10
 70
     1
102
RTVSPropertyOp11
 70
     1
102
RTVSPropertyOp12
 70
     1
102
RTVSPropertyOp13
 70
     1
102
RTVSPropertyOp14
 70
     1
102
RTVSPropertyOp15
 70
     1
102
RTVSPropertyOp16
 70
     1
102
RTVSPropertyOp17
 70
     1
102
RTVSPropertyOp18
 70
     1
102
RTVSPropertyOp19
 70
     1
102
RTVSPropertyOp20
 70
     1
102
RTVSPropertyOp21
 70
     1
102
RTVSPropertyOp22
 70
     1
102
RTVSPropertyOp23
 70
     1
102
RTVSPropertyOp24
 70
     1
102
RTVSPropertyOp25
 70
     1
102
RTVSPropertyOp26
 70
     1
102
RTVSPropertyOp27
 70
     1
102
RTVSPropertyOp28
 70
     1
102
RTVSPropertyOp29
 70
     1
102
RTVSPropertyOp30
 70
     1
102
RTVSPropertyOp31
 70
     1
102
RTVSPropertyOp32
 70
     1
102
RTVSPropertyOp33
 70
     1
102
RTVSPropertyOp34
 70
     1
102
RTVSPropertyOp35
 70
     1
102
RTVSPropertyOp36
 70
     1
102
RTVSPropertyOp37
 70
     1
102
RTVSPropertyOp38
 70
     1
102
RTVSPropertyOp39
 70
     1
102
RTVSPropertyOp40
 70
     1
102
RTVSPropertyOp41
 70
     1
102
RTVSPropertyOp42
 70
     1
102
RTVSPropertyOp43
 70
     1
102
RTVSPropertyOp44
 70
     1
102
RTVSPropertyOp45
 70
     1
102
RTVSPropertyOp46
 70
     1
102
RTVSPropertyOp47
 70
     1
102
RTVSPropertyOp48
 70
     1
102
RTVSPropertyOp49
 70
     1
102
RTVSPropertyOp50
 70
     1
102
RTVSPropertyOp51
 70
     0
102
RTVSPropertyOp52
 70
     0
102
RTVSPropertyOp53
 70
     1
102
RTVSPropertyOp54
 70
     1
102
RTVSPropertyOp55
 70
     1
102
RTVSPropertyOp56
 70
     1
102
RTVSPropertyOp57
 70
     1
102
RTVSPost2010Prop28
280
     0
102
RTVSPost2010PropOp28
 70
     1
102
RTVSPost2010Prop29
280
     1
102
RTVSPost2010PropOp29
 70
     1
102
RTVSPost2010Prop30
280
     1
102
RTVSPost2010PropOp30
 70
     1
102
RTVSPost2010Prop31
280
     0
102
RTVSPost2010PropOp31
 70
     1
102
RTVSPost2010Prop32
280
     0
102
RTVSPost2010PropOp32
 70
     1
102
RTVSPost2010Prop33
280
     0
102
RTVSPost2010PropOp33
 70
     1
102
RTVSPost2010Prop34
280
     0
102
RTVSPost2010PropOp34
 70
     1
102
RTVSPost2010Prop35
280
     0
102
RTVSPost2010PropOp35
 70
     1
102
RTVSPost2010Prop36
280
     0
102
RTVSPost2010PropOp36
 70
     1
102
RTVSPost2010Prop37
 90
       50
102
RTVSPost2010PropOp37
 70
     1
102
RTVSPost2010Prop38
140
0.0
102
RTVSPost2010PropOp38
 70
     1
102
RTVSPost2010Prop39
140
1.0
102
RTVSPost2010PropOp39
 70
     1
102
RTVSPost2010Prop40
 90
        0
102
RTVSPost2010PropOp40
 70
     1
102
RTVSPost2010Prop41ColorIndex
 90
       18
102
RTVSPost2010Prop41ColorRGB
 90
        0
102
RTVSPost2010PropOp41
 70
     1
102
RTVSPost2010Prop42
 90
       50
102
RTVSPost2010PropOp42
 70
     1
102
RTVSPost2010Prop43
 90
        3
102
RTVSPost2010PropOp43
 70
     1
102
RTVSPost2010Prop44ColorIndex
 90
        5
102
RTVSPost2010Prop44ColorRGB
 90
      255
102
RTVSPost2010PropOp44
 70
     1
102
RTVSPost2010Prop45
280
     0
102
RTVSPost2010PropOp45
 70
     1
102
RTVSPost2010Prop46
 90
       50
102
RTVSPost2010PropOp46
 70
     1
102
RTVSPost2010Prop47
 90
       50
102
RTVSPost2010PropOp47
 70
     1
102
RTVSPost2010Prop48
 90
       50
102
RTVSPost2010PropOp48
 70
     1
102
RTVSPost2010Prop49
280
     0
102
RTVSPost2010PropOp49
 70
     1
102
RTVSPost2010Prop50
 90
       50
102
RTVSPost2010PropOp50
 70
     1
102
RTVSPost2010Prop51ColorIndex
 90
      256
102
RTVSPost2010Prop51ColorRGB
 90
-16777216
102
RTVSPost2010PropOp51
 70
     0
102
RTVSPost2010Prop52
140
1.0
102
RTVSPost2010PropOp52
 70
     0
102
RTVSPost2010Prop53
 90
        2
102
RTVSPost2010PropOp53
 70
     1
102
RTVSPost2010Prop54
  1
strokes_ogs.tif
102
RTVSPost2010PropOp54
 70
     1
102
RTVSPost2010Prop55
280
     0
102
RTVSPost2010PropOp55
 70
     1
102
RTVSPost2010Prop56
140
1.0
102
RTVSPost2010PropOp56
 70
     1
102
RTVSPost2010Prop57
140
1.0
102
RTVSPost2010PropOp57
 70
     1
  0
XRECORD
  5
C4
102
{ACAD_REACTORS
330
C3
102
}
330
C3
100
AcDbXrecord
280
     1
102
RTVSPropertyOp0
 70
     1
102
RTVSPropertyOp1
 70
     1
102
RTVSPropertyOp2
 70
     1
102
RTVSPropertyOp3
 70
     1
102
RTVSPropertyOp4
 70
     1
102
RTVSPropertyOp5
 70
     1
102
RTVSPropertyOp6
 70
     1
102
RTVSPropertyOp7
 70
     1
102
RTVSPropertyOp8
 70
     1
102
RTVSPropertyOp9
 70
     1
102
RTVSPropertyOp10
 70
     1
102
RTVSPropertyOp11
 70
     1
102
RTVSPropertyOp12
 70
     1
102
RTVSPropertyOp13
 70
     1
102
RTVSPropertyOp14
 70
     1
102
RTVSPropertyOp15
 70
     1
102
RTVSPropertyOp16
 70
     1
102
RTVSPropertyOp17
 70
     1
102
RTVSPropertyOp18
 70
     1
102
RTVSPropertyOp19
 70
     1
102
RTVSPropertyOp20
 70
     1
102
RTVSPropertyOp21
 70
     1
102
RTVSPropertyOp22
 70
     1
102
RTVSPropertyOp23
 70
     1
102
RTVSPropertyOp24
 70
     1
102
RTVSPropertyOp25
 70
     1
102
RTVSPropertyOp26
 70
     1
102
RTVSPropertyOp27
 70
     1
102
RTVSPropertyOp28
 70
     1
102
RTVSPropertyOp29
 70
     1
102
RTVSPropertyOp30
 70
     1
102
RTVSPropertyOp31
 70
     1
102
RTVSPropertyOp32
 70
     1
102
RTVSPropertyOp33
 70
     1
102
RTVSPropertyOp34
 70
     1
102
RTVSPropertyOp35
 70
     1
102
RTVSPropertyOp36
 70
     1
102
RTVSPropertyOp37
 70
     1
102
RTVSPropertyOp38
 70
     1
102
RTVSPropertyOp39
 70
     1
102
RTVSPropertyOp40
 70
     1
102
RTVSPropertyOp41
 70
     1
102
RTVSPropertyOp42
 70
     1
102
RTVSPropertyOp43
 70
     1
102
RTVSPropertyOp44
 70
     1
102
RTVSPropertyOp45
 70
     1
102
RTVSPropertyOp46
 70
     1
102
RTVSPropertyOp47
 70
     1
102
RTVSPropertyOp48
 70
     1
102
RTVSPropertyOp49
 70
     1
102
RTVSPropertyOp50
 70
     1
102
RTVSPropertyOp51
 70
     0
102
RTVSPropertyOp52
 70
     0
102
RTVSPropertyOp53
 70
     1
102
RTVSPropertyOp54
 70
     1
102
RTVSPropertyOp55
 70
     1
102
RTVSPropertyOp56
 70
     1
102
RTVSPropertyOp57
 70
     1
102
RTVSPost2010Prop28
280
     0
102
RTVSPost2010PropOp28
 70
     1
102
RTVSPost2010Prop29
280
     1
102
RTVSPost2010PropOp29
 70
     1
102
RTVSPost2010Prop30
280
     1
102
RTVSPost2010PropOp30
 70
     1
102
RTVSPost2010Prop31
280
     0
102
RTVSPost2010PropOp31
 70
     1
102
RTVSPost2010Prop32
280
     0
102
RTVSPost2010PropOp32
 70
     1
102
RTVSPost2010Prop33
280
     0
102
RTVSPost2010PropOp33
 70
     1
102
RTVSPost2010Prop34
280
     0
102
RTVSPost2010PropOp34
 70
     1
102
RTVSPost2010Prop35
280
     0
102
RTVSPost2010PropOp35
 70
     1
102
RTVSPost2010Prop36
280
     0
102
RTVSPost2010PropOp36
 70
     1
102
RTVSPost2010Prop37
 90
       50
102
RTVSPost2010PropOp37
 70
     1
102
RTVSPost2010Prop38
140
0.0
102
RTVSPost2010PropOp38
 70
     1
102
RTVSPost2010Prop39
140
1.0
102
RTVSPost2010PropOp39
 70
     1
102
RTVSPost2010Prop40
 90
        0
102
RTVSPost2010PropOp40
 70
     1
102
RTVSPost2010Prop41ColorIndex
 90
       18
102
RTVSPost2010Prop41ColorRGB
 90
        0
102
RTVSPost2010PropOp41
 70
     1
102
RTVSPost2010Prop42
 90
       50
102
RTVSPost2010PropOp42
 70
     1
102
RTVSPost2010Prop43
 90
        3
102
RTVSPost2010PropOp43
 70
     1
102
RTVSPost2010Prop44ColorIndex
 90
        5
102
RTVSPost2010Prop44ColorRGB
 90
      255
102
RTVSPost2010PropOp44
 70
     1
102
RTVSPost2010Prop45
280
     0
102
RTVSPost2010PropOp45
 70
     1
102
RTVSPost2010Prop46
 90
       50
102
RTVSPost2010PropOp46
 70
     1
102
RTVSPost2010Prop47
 90
       50
102
RTVSPost2010PropOp47
 70
     1
102
RTVSPost2010Prop48
 90
       50
102
RTVSPost2010PropOp48
 70
     1
102
RTVSPost2010Prop49
280
     0
102
RTVSPost2010PropOp49
 70
     1
102
RTVSPost2010Prop50
 90
       50
102
RTVSPost2010PropOp50
 70
     1
102
RTVSPost2010Prop51ColorIndex
 90
      256
102
RTVSPost2010Prop51ColorRGB
 90
-16777216
102
RTVSPost2010PropOp51
 70
     0
102
RTVSPost2010Prop52
140
1.0
102
RTVSPost2010PropOp52
 70
     0
102
RTVSPost2010Prop53
 90
        2
102
RTVSPost2010PropOp53
 70
     1
102
RTVSPost2010Prop54
  1
strokes_ogs.tif
102
RTVSPost2010PropOp54
 70
     1
102
RTVSPost2010Prop55
280
     0
102
RTVSPost2010PropOp55
 70
     1
102
RTVSPost2010Prop56
140
1.0
102
RTVSPost2010PropOp56
 70
     1
102
RTVSPost2010Prop57
140
1.0
102
RTVSPost2010PropOp57
 70
     1
  0
ENDSEC
  0
EOF
